  0
SECTION
  2
HEADER
  9
$EXTMAX
 10
1264
 20
302.5
  9
$EXTMIN
 10
-434
 20
-907.5
  0
ENDSEC
  0
SECTION
  2
TABLES
  0
TABLE
  2
LTYPE
 70
    22
  0
LTYPE
  2
CONTINUOUS
 70
    64
  3
Solid line
 72
    65
 73
     0
 40
0.000000
  0
LTYPE
  2
DASHED
 70
    64
  3
__ __ __ __ __ __ __ __ __ __ __ __ __ __ __
 72
    65
 73
     2
 40
3.500000
 49
2.000000
 49
-1.500000
  0
LTYPE
  2
CENTER
 70
    64
  3
____ _ ____ _ ____ _ ____ _ ____ _ ____ _ ____
 72
    65
 73
     4
 40
17.500000
 49
13.000000
 49
-1.500000
 49
1.500000
 49
-1.500000
  0
LTYPE
  2
PHANTOM
 70
    64
  3
_____ _ _ _____ _ _ _____ _ _ _____ _ _ ____  
 72
    65
 73
     6
 40
15.500000
 49
8.000000
 49
-1.500000
 49
1.500000
 49
-1.500000
 49
1.500000
 49
-1.500000
  0
LTYPE
  2
DOT
 70
    64
  3
. . . . . . . . . . . . . . . . . . . . . . . .
 72
    65
 73
     2
 40
0.25
 49
0.0
 49
-0.25
  0
ENDTAB
  0
TABLE
  2
LAYER
 70
     2
  0
LAYER
  2
0
 70
     0
 62
     7
  6
CONTINUOUS
  0
LAYER
  2
1
 70
     0
 62
     7
  6
CONTINUOUS
  0
ENDTAB
  0
TABLE
  2
STYLE
 70
     1
  0
STYLE
  2
STANDARD
 70
     0
 40
0.000000
 41
1.000000
 50
0.000000
 71
     0
 42
0.200000
  3
txt
  0
ENDTAB
  0
TABLE
  2
VIEW
 70
     0
  0
ENDTAB
  0
ENDSEC
  0
SECTION
  2
BLOCKS
  0
ENDSEC
  0
SECTION
  2
ENTITIES
  0
POINT
  8
0
  6
CONTINUOUS
 62
     7
 10
-83.903679
 20
81.026184
  0
POINT
  8
0
  6
CONTINUOUS
 62
     7
 10
62.483746
 20
81.026184
  0
POINT
  8
0
  6
CONTINUOUS
 62
     7
 10
56.478565
 20
-151.41063
  0
POINT
  8
0
  6
CONTINUOUS
 62
     7
 10
62.483746
 20
81.026184
  0
POINT
  8
0
  6
CONTINUOUS
 62
     7
 10
-89.908852
 20
-152.35341
  0
POINT
  8
0
  6
CONTINUOUS
 62
     7
 10
-89.908852
 20
-152.35341
  0
LINE
  8
0
  6
CENTER
 62
     7
 10
-114.30153
 20
81.026184
 11
-55.44994
 21
81.026184
  0
LINE
  8
0
  6
CONTINUOUS
 62
     7
 10
-59.903675
 20
106.02618
 11
-59.903675
 21
102.37618
  0
LINE
  8
0
  6
CONTINUOUS
 62
     7
 10
-107.90367
 20
106.02618
 11
-107.90367
 21
102.37618
  0
LINE
  8
0
  6
CONTINUOUS
 62
     7
 10
-61.903675
 20
132.02617
 11
-61.903675
 21
106.02618
  0
LINE
  8
0
  6
CONTINUOUS
 62
     7
 10
-105.90367
 20
132.02617
 11
-105.90367
 21
106.02618
  0
LINE
  8
0
  6
CONTINUOUS
 62
     7
 10
-105.90367
 20
132.02617
 11
-61.903675
 21
132.02617
  0
LINE
  8
0
  6
CENTER
 62
     7
 10
62.483746
 20
143.70091
 11
62.483746
 21
43.307026
  0
LINE
  8
0
  6
CONTINUOUS
 62
     7
 10
40.483746
 20
132.02617
 11
84.483749
 21
132.02617
  0
LINE
  8
0
  6
CONTINUOUS
 62
     7
 10
-107.90367
 20
106.02618
 11
-59.903675
 21
106.02618
  0
LINE
  8
0
  6
CONTINUOUS
 62
     7
 10
18.483746
 20
106.02618
 11
106.48375
 21
106.02618
  0
LINE
  8
0
  6
CONTINUOUS
 62
     7
 10
84.483749
 20
132.02617
 11
84.483749
 21
106.02618
  0
LINE
  8
0
  6
CONTINUOUS
 62
     7
 10
40.483746
 20
132.02617
 11
40.483746
 21
106.02618
  0
LINE
  8
0
  6
CONTINUOUS
 62
     7
 10
-101.40367
 20
89.526176
 11
-87.903679
 21
89.526176
  0
LINE
  8
0
  6
CONTINUOUS
 62
     7
 10
-95.403671
 20
94.376183
 11
-87.903679
 21
94.376183
  0
LINE
  8
0
  6
CONTINUOUS
 62
     7
 10
-79.403679
 20
106.02618
 11
-79.403679
 21
94.376183
  0
LINE
  8
0
  6
CONTINUOUS
 62
     7
 10
-88.403679
 20
106.02618
 11
-88.403679
 21
94.376183
  0
LINE
  8
0
  6
CONTINUOUS
 62
     7
 10
18.483746
 20
98.026176
 11
32.011879
 21
98.026176
  0
LINE
  8
0
  6
CONTINUOUS
 62
     7
 10
41.898754
 20
89.526176
 11
42.898754
 21
89.526176
  0
LINE
  8
0
  6
CONTINUOUS
 62
     7
 10
82.068771
 20
89.526176
 11
83.068771
 21
89.526176
  0
LINE
  8
0
  6
CONTINUOUS
 62
     7
 10
92.955612
 20
98.026176
 11
106.48375
 21
98.026176
  0
LINE
  8
0
  6
CONTINUOUS
 62
     7
 10
31.483744
 20
98.026176
 11
31.483744
 21
90.676186
  0
LINE
  8
0
  6
CONTINUOUS
 62
     7
 10
23.483744
 20
98.026176
 11
23.483744
 21
90.676186
  0
LINE
  8
0
  6
CONTINUOUS
 62
     7
 10
93.483749
 20
98.026176
 11
93.483749
 21
90.676186
  0
LINE
  8
0
  6
CONTINUOUS
 62
     7
 10
101.48375
 20
98.026176
 11
101.48375
 21
90.676186
  0
LINE
  8
0
  6
CONTINUOUS
 62
     7
 10
-79.903679
 20
106.02618
 11
-79.903679
 21
55.676197
  0
LINE
  8
0
  6
CONTINUOUS
 62
     7
 10
-87.903679
 20
106.02618
 11
-87.903679
 21
55.676197
  0
LINE
  8
0
  6
CENTER
 62
     7
 10
-83.903679
 20
142.31618
 11
-83.903679
 21
46.768879
  0
LINE
  8
0
  6
CENTER
 62
     7
 10
19.046946
 20
81.026184
 11
109.74767
 21
81.026184
  0
LINE
  8
0
  6
CONTINUOUS
 62
     7
 10
-79.903679
 20
89.526176
 11
-66.403671
 21
89.526176
  0
LINE
  8
0
  6
CONTINUOUS
 62
     7
 10
-79.903679
 20
94.376183
 11
-72.403671
 21
94.376183
  0
LINE
  8
0
  6
CENTER
 62
     7
 10
-119.89382
 20
-152.35341
 11
-57.428963
 21
-152.35341
  0
LINE
  8
0
  6
CONTINUOUS
 62
     7
 10
-113.90884
 20
-124.35341
 11
-113.90884
 21
-128.05339
  0
LINE
  8
0
  6
CONTINUOUS
 62
     7
 10
-65.908852
 20
-124.35341
 11
-65.908852
 21
-128.05339
  0
LINE
  8
0
  6
CONTINUOUS
 62
     7
 10
-67.908852
 20
-96.353409
 11
-67.908852
 21
-124.35341
  0
LINE
  8
0
  6
CONTINUOUS
 62
     7
 10
-111.90884
 20
-96.353409
 11
-111.90884
 21
-124.35341
  0
LINE
  8
0
  6
CONTINUOUS
 62
     7
 10
-111.90884
 20
-96.353409
 11
-67.908852
 21
-96.353409
  0
LINE
  8
0
  6
CONTINUOUS
 62
     7
 10
-113.90884
 20
-124.35341
 11
-93.908844
 21
-124.35341
  0
LINE
  8
0
  6
CONTINUOUS
 62
     7
 10
-100.90884
 20
-133.35341
 11
-93.908844
 21
-133.35341
  0
LINE
  8
0
  6
CONTINUOUS
 62
     7
 10
-94.908844
 20
-124.35341
 11
-94.908844
 21
-133.35341
  0
LINE
  8
0
  6
CONTINUOUS
 62
     7
 10
-84.908852
 20
-124.35341
 11
-84.908852
 21
-133.35341
  0
LINE
  8
0
  6
CONTINUOUS
 62
     7
 10
-106.90884
 20
-140.35341
 11
-93.908844
 21
-140.35341
  0
LINE
  8
0
  6
CONTINUOUS
 62
     7
 10
-105.90884
 20
-138.35341
 11
-105.90884
 21
-140.35341
  0
LINE
  8
0
  6
CONTINUOUS
 62
     7
 10
-73.908852
 20
-138.35341
 11
-73.908852
 21
-140.35341
  0
LINE
  8
0
  6
CONTINUOUS
 62
     7
 10
93.483749
 20
115.67619
 11
93.483749
 21
112.82618
  0
LINE
  8
0
  6
CONTINUOUS
 62
     7
 10
101.48375
 20
115.67619
 11
101.48375
 21
112.82618
  0
LINE
  8
0
  6
CONTINUOUS
 62
     7
 10
88.478569
 20
-110.71065
 11
94.478569
 21
-110.71065
  0
LINE
  8
0
  6
CONTINUOUS
 62
     7
 10
-85.908852
 20
-140.35341
 11
-72.908852
 21
-140.35341
  0
LINE
  8
0
  6
CONTINUOUS
 62
     7
 10
-85.908852
 20
-133.35341
 11
-78.908852
 21
-133.35341
  0
LINE
  8
0
  6
CONTINUOUS
 62
     7
 10
-85.908852
 20
-124.35341
 11
-65.908852
 21
-124.35341
  0
LINE
  8
0
  6
CENTER
 62
     7
 10
56.478565
 20
-86.470322
 11
56.478565
 21
-190.10521
  0
LINE
  8
0
  6
CONTINUOUS
 62
     7
 10
34.478565
 20
-95.410629
 11
78.478569
 21
-95.410629
  0
LINE
  8
0
  6
CONTINUOUS
 62
     7
 10
78.478569
 20
-95.410629
 11
78.478569
 21
-123.41063
  0
LINE
  8
0
  6
CONTINUOUS
 62
     7
 10
34.478565
 20
-95.410629
 11
34.478565
 21
-123.41063
  0
LINE
  8
0
  6
CONTINUOUS
 62
     7
 10
12.478565
 20
-123.41063
 11
100.47856
 21
-123.41063
  0
LINE
  8
0
  6
CONTINUOUS
 62
     7
 10
12.478565
 20
-132.41063
 11
26.411005
 21
-132.41063
  0
LINE
  8
0
  6
CONTINUOUS
 62
     7
 10
34.348255
 20
-139.41063
 11
35.348255
 21
-139.41063
  0
LINE
  8
0
  6
CONTINUOUS
 62
     7
 10
86.546135
 20
-132.41063
 11
100.47856
 21
-132.41063
  0
LINE
  8
0
  6
CONTINUOUS
 62
     7
 10
77.608879
 20
-139.41063
 11
78.608879
 21
-139.41063
  0
LINE
  8
0
  6
CONTINUOUS
 62
     7
 10
17.478571
 20
-111.71065
 11
17.478571
 21
-116.61063
  0
LINE
  8
0
  6
CONTINUOUS
 62
     7
 10
25.478571
 20
-111.71065
 11
25.478571
 21
-116.61063
  0
LINE
  8
0
  6
CONTINUOUS
 62
     7
 10
95.478569
 20
-111.71065
 11
95.478569
 21
-116.61063
  0
LINE
  8
0
  6
CONTINUOUS
 62
     7
 10
87.478569
 20
-111.71065
 11
87.478569
 21
-116.61063
  0
LINE
  8
0
  6
CENTER
 62
     7
 10
11.680811
 20
-151.41063
 11
104.66827
 21
-151.41063
  0
LINE
  8
0
  6
CENTER
 62
     7
 10
-89.908852
 20
-90.962204
 11
-89.908852
 21
-189.62831
  0
LINE
  8
0
  6
CONTINUOUS
 62
     7
 10
88.478569
 20
-110.71065
 11
88.478569
 21
-116.61063
  0
LINE
  8
0
  6
CONTINUOUS
 62
     7
 10
94.478569
 20
-110.71065
 11
94.478569
 21
-116.61063
  0
LINE
  8
0
  6
CONTINUOUS
 62
     7
 10
87.478569
 20
-111.71065
 11
95.478569
 21
-111.71065
  0
LINE
  8
0
  6
CONTINUOUS
 62
     7
 10
88.478577
 20
-110.71066
 11
87.478577
 21
-111.71066
  0
LINE
  8
0
  6
CONTINUOUS
 62
     7
 10
94.478577
 20
-110.71063
 11
95.478577
 21
-111.71063
  0
LINE
  8
0
  6
CONTINUOUS
 62
     7
 10
94.483749
 20
116.67619
 11
94.483749
 21
112.82618
  0
LINE
  8
0
  6
CONTINUOUS
 62
     7
 10
94.483749
 20
116.67619
 11
100.48376
 21
116.67619
  0
LINE
  8
0
  6
CONTINUOUS
 62
     7
 10
94.483742
 20
116.67619
 11
93.483742
 21
115.67619
  0
LINE
  8
0
  6
CONTINUOUS
 62
     7
 10
100.48373
 20
116.67621
 11
101.48373
 21
115.6762
  0
LINE
  8
0
  6
CONTINUOUS
 62
     7
 10
93.483749
 20
115.67619
 11
101.48375
 21
115.67619
  0
LINE
  8
0
  6
CONTINUOUS
 62
     7
 10
100.48376
 20
116.67619
 11
100.48376
 21
112.82618
  0
LINE
  8
0
  6
CONTINUOUS
 62
     7
 10
18.478571
 20
-110.71065
 11
18.478571
 21
-116.61063
  0
LINE
  8
0
  6
CONTINUOUS
 62
     7
 10
17.478571
 20
-111.71065
 11
25.478571
 21
-111.71065
  0
LINE
  8
0
  6
CONTINUOUS
 62
     7
 10
18.478571
 20
-110.71065
 11
24.478571
 21
-110.71065
  0
LINE
  8
0
  6
CONTINUOUS
 62
     7
 10
18.478569
 20
-110.71064
 11
17.478569
 21
-111.71064
  0
LINE
  8
0
  6
CONTINUOUS
 62
     7
 10
24.478563
 20
-110.71066
 11
25.478554
 21
-111.71065
  0
LINE
  8
0
  6
CONTINUOUS
 62
     7
 10
24.478571
 20
-110.71065
 11
24.478571
 21
-116.61063
  0
LINE
  8
0
  6
CONTINUOUS
 62
     7
 10
-96.135574
 20
-117.55341
 11
-83.682129
 21
-117.55341
  0
LINE
  8
0
  6
CONTINUOUS
 62
     7
 10
-97.098846
 20
-118.10956
 11
-97.098846
 21
-123.79726
  0
LINE
  8
0
  6
CONTINUOUS
 62
     7
 10
-93.503845
 20
-118.10956
 11
-93.503845
 21
-123.79726
  0
LINE
  8
0
  6
CONTINUOUS
 62
     7
 10
-86.31385
 20
-118.10956
 11
-86.31385
 21
-123.79726
  0
LINE
  8
0
  6
CONTINUOUS
 62
     7
 10
-82.718849
 20
-118.10956
 11
-82.718849
 21
-123.79726
  0
LINE
  8
0
  6
CONTINUOUS
 62
     7
 10
-97.098846
 20
-118.10956
 11
-96.135567
 21
-117.55341
  0
LINE
  8
0
  6
CONTINUOUS
 62
     7
 10
-83.682121
 20
-117.5534
 11
-82.718849
 21
-118.10955
  0
LINE
  8
0
  6
CONTINUOUS
 62
     7
 10
-96.135574
 20
-124.35341
 11
-83.682129
 21
-124.35341
  0
LINE
  8
0
  6
CONTINUOUS
 62
     7
 10
-97.098854
 20
-123.79726
 11
-96.135574
 21
-124.35341
  0
LINE
  8
0
  6
CONTINUOUS
 62
     7
 10
-83.682129
 20
-124.35341
 11
-82.718857
 21
-123.79726
  0
LINE
  8
0
  6
CONTINUOUS
 62
     7
 10
15.251848
 20
-116.61063
 11
27.705294
 21
-116.61063
  0
LINE
  8
0
  6
CONTINUOUS
 62
     7
 10
14.288568
 20
-117.16678
 11
14.288568
 21
-122.85448
  0
LINE
  8
0
  6
CONTINUOUS
 62
     7
 10
17.88357
 20
-117.16678
 11
17.88357
 21
-122.85448
  0
LINE
  8
0
  6
CONTINUOUS
 62
     7
 10
25.073568
 20
-117.16678
 11
25.073568
 21
-122.85448
  0
LINE
  8
0
  6
CONTINUOUS
 62
     7
 10
28.66857
 20
-117.16678
 11
28.66857
 21
-122.85448
  0
LINE
  8
0
  6
CONTINUOUS
 62
     7
 10
14.28857
 20
-117.16677
 11
15.251844
 21
-116.61063
  0
LINE
  8
0
  6
CONTINUOUS
 62
     7
 10
27.705294
 20
-116.61063
 11
28.668571
 21
-117.16679
  0
LINE
  8
0
  6
CONTINUOUS
 62
     7
 10
15.251848
 20
-123.41063
 11
27.705294
 21
-123.41063
  0
LINE
  8
0
  6
CONTINUOUS
 62
     7
 10
14.28857
 20
-122.85448
 11
15.251847
 21
-123.41063
  0
LINE
  8
0
  6
CONTINUOUS
 62
     7
 10
27.705294
 20
-123.41063
 11
28.668571
 21
-122.85448
  0
LINE
  8
0
  6
CONTINUOUS
 62
     7
 10
85.251846
 20
-116.61063
 11
97.705299
 21
-116.61063
  0
LINE
  8
0
  6
CONTINUOUS
 62
     7
 10
84.288574
 20
-117.16678
 11
84.288574
 21
-122.85448
  0
LINE
  8
0
  6
CONTINUOUS
 62
     7
 10
87.883568
 20
-117.16678
 11
87.883568
 21
-122.85448
  0
LINE
  8
0
  6
CONTINUOUS
 62
     7
 10
95.07357
 20
-117.16678
 11
95.07357
 21
-122.85448
  0
LINE
  8
0
  6
CONTINUOUS
 62
     7
 10
98.668571
 20
-117.16678
 11
98.668571
 21
-122.85448
  0
LINE
  8
0
  6
CONTINUOUS
 62
     7
 10
84.288567
 20
-117.16678
 11
85.251846
 21
-116.61063
  0
LINE
  8
0
  6
CONTINUOUS
 62
     7
 10
97.705292
 20
-116.61063
 11
98.668579
 21
-117.16678
  0
LINE
  8
0
  6
CONTINUOUS
 62
     7
 10
85.251846
 20
-123.41063
 11
97.705299
 21
-123.41063
  0
LINE
  8
0
  6
CONTINUOUS
 62
     7
 10
84.288567
 20
-122.85448
 11
85.251846
 21
-123.41063
  0
LINE
  8
0
  6
CONTINUOUS
 62
     7
 10
97.705292
 20
-123.41063
 11
98.668571
 21
-122.85448
  0
LINE
  8
0
  6
CONTINUOUS
 62
     7
 10
87.478569
 20
-132.41063
 11
87.478569
 21
-144.71065
  0
LINE
  8
0
  6
CONTINUOUS
 62
     7
 10
95.478569
 20
-132.41063
 11
95.478569
 21
-144.71065
  0
LINE
  8
0
  6
CONTINUOUS
 62
     7
 10
17.478571
 20
-132.41063
 11
17.478571
 21
-144.71065
  0
LINE
  8
0
  6
CONTINUOUS
 62
     7
 10
25.478571
 20
-132.41063
 11
25.478571
 21
-144.71065
  0
LINE
  8
0
  6
CONTINUOUS
 62
     7
 10
91.257027
 20
112.82618
 11
103.71046
 21
112.82618
  0
LINE
  8
0
  6
CONTINUOUS
 62
     7
 10
90.293747
 20
112.27003
 11
90.293747
 21
106.58233
  0
LINE
  8
0
  6
CONTINUOUS
 62
     7
 10
93.888748
 20
112.27003
 11
93.888748
 21
106.58233
  0
LINE
  8
0
  6
CONTINUOUS
 62
     7
 10
101.07874
 20
112.27003
 11
101.07874
 21
106.58233
  0
LINE
  8
0
  6
CONTINUOUS
 62
     7
 10
104.67374
 20
112.27003
 11
104.67374
 21
106.58233
  0
LINE
  8
0
  6
CONTINUOUS
 62
     7
 10
90.293732
 20
112.27003
 11
91.257011
 21
112.82619
  0
LINE
  8
0
  6
CONTINUOUS
 62
     7
 10
103.71047
 20
112.82619
 11
104.67375
 21
112.27004
  0
LINE
  8
0
  6
CONTINUOUS
 62
     7
 10
91.257027
 20
106.02618
 11
103.71046
 21
106.02618
  0
LINE
  8
0
  6
CONTINUOUS
 62
     7
 10
90.293747
 20
106.58234
 11
91.257027
 21
106.02619
  0
LINE
  8
0
  6
CONTINUOUS
 62
     7
 10
103.71046
 20
106.02618
 11
104.67374
 21
106.58233
  0
LINE
  8
0
  6
CONTINUOUS
 62
     7
 10
-93.908844
 20
-124.35341
 11
-93.908844
 21
-180.6534
  0
LINE
  8
0
  6
CONTINUOUS
 62
     7
 10
-85.908852
 20
-124.35341
 11
-85.908852
 21
-180.6534
  0
LINE
  8
0
  6
CONTINUOUS
 62
     7
 10
-90.130402
 20
112.82618
 11
-77.676949
 21
112.82618
  0
LINE
  8
0
  6
CONTINUOUS
 62
     7
 10
-91.093674
 20
112.27003
 11
-91.093674
 21
106.58233
  0
LINE
  8
0
  6
CONTINUOUS
 62
     7
 10
-87.49868
 20
112.27003
 11
-87.49868
 21
106.58233
  0
LINE
  8
0
  6
CONTINUOUS
 62
     7
 10
-80.308678
 20
112.27003
 11
-80.308678
 21
106.58233
  0
LINE
  8
0
  6
CONTINUOUS
 62
     7
 10
-76.713676
 20
112.27003
 11
-76.713676
 21
106.58233
  0
LINE
  8
0
  6
CONTINUOUS
 62
     7
 10
-91.093689
 20
112.27005
 11
-90.130409
 21
112.8262
  0
LINE
  8
0
  6
CONTINUOUS
 62
     7
 10
-77.676956
 20
112.82619
 11
-76.713676
 21
112.27004
  0
LINE
  8
0
  6
CONTINUOUS
 62
     7
 10
-90.130402
 20
106.02618
 11
-77.676949
 21
106.02618
  0
LINE
  8
0
  6
CONTINUOUS
 62
     7
 10
-91.093674
 20
106.58233
 11
-90.130402
 21
106.02618
  0
LINE
  8
0
  6
CONTINUOUS
 62
     7
 10
-77.676956
 20
106.02618
 11
-76.713684
 21
106.58234
  0
LINE
  8
0
  6
CONTINUOUS
 62
     7
 10
-92.908844
 20
-111.6534
 11
-86.908852
 21
-111.6534
  0
LINE
  8
0
  6
CONTINUOUS
 62
     7
 10
-92.908844
 20
-111.65339
 11
-93.908844
 21
-112.65339
  0
LINE
  8
0
  6
CONTINUOUS
 62
     7
 10
-86.908852
 20
-111.6534
 11
-86.908852
 21
-117.55341
  0
LINE
  8
0
  6
CONTINUOUS
 62
     7
 10
-86.908859
 20
-111.65339
 11
-85.908859
 21
-112.65339
  0
LINE
  8
0
  6
CONTINUOUS
 62
     7
 10
-85.908852
 20
-112.6534
 11
-85.908852
 21
-117.55341
  0
LINE
  8
0
  6
CONTINUOUS
 62
     7
 10
-93.908844
 20
-112.6534
 11
-85.908852
 21
-112.6534
  0
LINE
  8
0
  6
CONTINUOUS
 62
     7
 10
-92.908844
 20
-111.6534
 11
-92.908844
 21
-117.55341
  0
LINE
  8
0
  6
CONTINUOUS
 62
     7
 10
-93.908844
 20
-112.6534
 11
-93.908844
 21
-117.55341
  0
LINE
  8
0
  6
CONTINUOUS
 62
     7
 10
-86.903679
 20
116.67619
 11
-80.903679
 21
116.67619
  0
LINE
  8
0
  6
CONTINUOUS
 62
     7
 10
-86.903664
 20
116.67619
 11
-87.903664
 21
115.67619
  0
LINE
  8
0
  6
CONTINUOUS
 62
     7
 10
-80.903679
 20
116.67619
 11
-80.903679
 21
112.82618
  0
LINE
  8
0
  6
CONTINUOUS
 62
     7
 10
-80.903694
 20
116.6762
 11
-79.903694
 21
115.6762
  0
LINE
  8
0
  6
CONTINUOUS
 62
     7
 10
-79.903679
 20
115.67619
 11
-79.903679
 21
112.82618
  0
LINE
  8
0
  6
CONTINUOUS
 62
     7
 10
-87.903679
 20
115.67619
 11
-79.903679
 21
115.67619
  0
LINE
  8
0
  6
CONTINUOUS
 62
     7
 10
-86.903679
 20
116.67619
 11
-86.903679
 21
112.82618
  0
LINE
  8
0
  6
CONTINUOUS
 62
     7
 10
-87.903679
 20
115.67619
 11
-87.903679
 21
112.82618
  0
LINE
  8
0
  6
CONTINUOUS
 62
     7
 10
21.257021
 20
112.82618
 11
33.710464
 21
112.82618
  0
LINE
  8
0
  6
CONTINUOUS
 62
     7
 10
20.293745
 20
112.27003
 11
20.293745
 21
106.58233
  0
LINE
  8
0
  6
CONTINUOUS
 62
     7
 10
23.888742
 20
112.27003
 11
23.888742
 21
106.58233
  0
LINE
  8
0
  6
CONTINUOUS
 62
     7
 10
31.078745
 20
112.27003
 11
31.078745
 21
106.58233
  0
LINE
  8
0
  6
CONTINUOUS
 62
     7
 10
34.67374
 20
112.27003
 11
34.67374
 21
106.58233
  0
LINE
  8
0
  6
CONTINUOUS
 62
     7
 10
20.293737
 20
112.27004
 11
21.257015
 21
112.82619
  0
LINE
  8
0
  6
CONTINUOUS
 62
     7
 10
33.710468
 20
112.82619
 11
34.673744
 21
112.27003
  0
LINE
  8
0
  6
CONTINUOUS
 62
     7
 10
21.257021
 20
106.02618
 11
33.710464
 21
106.02618
  0
LINE
  8
0
  6
CONTINUOUS
 62
     7
 10
20.293743
 20
106.58233
 11
21.257021
 21
106.02618
  0
LINE
  8
0
  6
CONTINUOUS
 62
     7
 10
33.710464
 20
106.02619
 11
34.673744
 21
106.58234
  0
LINE
  8
0
  6
CONTINUOUS
 62
     7
 10
24.483744
 20
116.67619
 11
30.483744
 21
116.67619
  0
LINE
  8
0
  6
CONTINUOUS
 62
     7
 10
24.483751
 20
116.67619
 11
23.483749
 21
115.67619
  0
LINE
  8
0
  6
CONTINUOUS
 62
     7
 10
30.483744
 20
116.67619
 11
30.483744
 21
112.82618
  0
LINE
  8
0
  6
CONTINUOUS
 62
     7
 10
30.483732
 20
116.6762
 11
31.483732
 21
115.6762
  0
LINE
  8
0
  6
CONTINUOUS
 62
     7
 10
31.483744
 20
115.67619
 11
31.483744
 21
112.82618
  0
LINE
  8
0
  6
CONTINUOUS
 62
     7
 10
23.483744
 20
115.67619
 11
31.483744
 21
115.67619
  0
LINE
  8
0
  6
CONTINUOUS
 62
     7
 10
24.483744
 20
116.67619
 11
24.483744
 21
112.82618
  0
LINE
  8
0
  6
CONTINUOUS
 62
     7
 10
23.483744
 20
115.67619
 11
23.483744
 21
112.82618
  0
LINE
  8
0
  6
CONTINUOUS
 62
     7
 10
12.478565
 20
-123.41063
 11
12.478565
 21
-132.41063
  0
LINE
  8
0
  6
CONTINUOUS
 62
     7
 10
100.47856
 20
-123.41063
 11
100.47856
 21
-132.41063
  0
LINE
  8
0
  6
CONTINUOUS
 62
     7
 10
106.48375
 20
106.02618
 11
106.48375
 21
98.026176
  0
LINE
  8
0
  6
CONTINUOUS
 62
     7
 10
18.483746
 20
106.02618
 11
18.483746
 21
98.026176
  0
ARC
  8
0
  6
CONTINUOUS
 62
     7
 10
62.483746
 20
81.026184
 40
21.35
 50
23.461083
 51
156.53892
  0
ARC
  8
0
  6
CONTINUOUS
 62
     7
 10
-46.50362
 20
87.528992
 40
20
 50
132.06719
 51
174.2689
  0
ARC
  8
0
  6
CONTINUOUS
 62
     7
 10
-121.3037
 20
87.528992
 40
20
 50
5.7310926
 51
47.932816
  0
ARC
  8
0
  6
CONTINUOUS
 62
     7
 10
-95.403671
 20
89.376183
 40
5
 50
90.000003
 51
178.28087
  0
ARC
  8
0
  6
CONTINUOUS
 62
     7
 10
-72.403671
 20
89.376183
 40
5
 50
1.7191313
 51
90.000003
  0
ARC
  8
0
  6
CONTINUOUS
 62
     7
 10
32.011879
 20
88.026184
 40
10
 50
8.6269268
 51
90.000003
  0
ARC
  8
0
  6
CONTINUOUS
 62
     7
 10
92.955612
 20
88.026184
 40
10
 50
90.000003
 51
171.37308
  0
ARC
  8
0
  6
CONTINUOUS
 62
     7
 10
62.483746
 20
90.676186
 40
31
 50
179.99999
 51
1.0017913E-005
  0
ARC
  8
0
  6
CONTINUOUS
 62
     7
 10
62.483746
 20
90.676186
 40
39
 50
179.99999
 51
1.0017913E-005
  0
ARC
  8
0
  6
CONTINUOUS
 62
     7
 10
-83.903679
 20
55.676197
 40
4
 50
179.99999
 51
1.0017913E-005
  0
ARC
  8
0
  6
CONTINUOUS
 62
     7
 10
56.478565
 20
-144.71065
 40
39
 50
179.99999
 51
1.0017913E-005
  0
ARC
  8
0
  6
CONTINUOUS
 62
     7
 10
-100.90884
 20
-138.35341
 40
5
 50
90.000003
 51
180.00001
  0
ARC
  8
0
  6
CONTINUOUS
 62
     7
 10
-78.908852
 20
-138.35341
 40
5
 50
0
 51
90.000003
  0
ARC
  8
0
  6
CONTINUOUS
 62
     7
 10
-53.150948
 20
-143.45586
 40
20
 50
129.63504
 51
171.07606
  0
ARC
  8
0
  6
CONTINUOUS
 62
     7
 10
-126.66676
 20
-143.45586
 40
20
 50
8.9239444
 51
50.364958
  0
ARC
  8
0
  6
CONTINUOUS
 62
     7
 10
-89.908852
 20
-180.6534
 40
4
 50
179.99999
 51
1.0017913E-005
  0
ARC
  8
0
  6
CONTINUOUS
 62
     7
 10
56.478565
 20
-151.41063
 40
24.299999
 50
28.468442
 51
151.53156
  0
ARC
  8
0
  6
CONTINUOUS
 62
     7
 10
26.411005
 20
-140.41063
 40
8
 50
7.1807555
 51
90.000003
  0
ARC
  8
0
  6
CONTINUOUS
 62
     7
 10
86.546135
 20
-140.41063
 40
8
 50
90.000003
 51
172.81925
  0
ARC
  8
0
  6
CONTINUOUS
 62
     7
 10
56.478565
 20
-144.71065
 40
31
 50
179.99999
 51
1.0017913E-005
  0
ARC
  8
0
  6
CONTINUOUS
 62
     7
 10
56.478565
 20
-144.71065
 40
39
 50
179.99999
 51
1.0017913E-005
  0
POLYLINE
  8
0
  6
CONTINUOUS
 62
     7
 66
     1
 10
0
 20
0
  0
VERTEX
  8
0
  6
CONTINUOUS
 62
     7
 10
-93.503845
 20
-118.10956
 42
-0.0487432
  0
VERTEX
  8
0
  6
CONTINUOUS
 62
     7
 10
-91.123937
 20
-117.61785
 42
-0.053023473
  0
VERTEX
  8
0
  6
CONTINUOUS
 62
     7
 10
-88.69399
 20
-117.61782
 42
-0.048747901
  0
VERTEX
  8
0
  6
CONTINUOUS
 62
     7
 10
-86.31385
 20
-118.10956
 42
0
  0
SEQEND
  8
0
  0
POLYLINE
  8
0
  6
CONTINUOUS
 62
     7
 66
     1
 10
0
 20
0
  0
VERTEX
  8
0
  6
CONTINUOUS
 62
     7
 10
-86.31385
 20
-118.10956
 42
-0.083554177
  0
VERTEX
  8
0
  6
CONTINUOUS
 62
     7
 10
-85.146205
 20
-117.62458
 42
-0.11298238
  0
VERTEX
  8
0
  6
CONTINUOUS
 62
     7
 10
-83.886484
 20
-117.62458
 42
-0.083553416
  0
VERTEX
  8
0
  6
CONTINUOUS
 62
     7
 10
-82.718849
 20
-118.10956
 42
0
  0
SEQEND
  8
0
  0
POLYLINE
  8
0
  6
CONTINUOUS
 62
     7
 66
     1
 10
0
 20
0
  0
VERTEX
  8
0
  6
CONTINUOUS
 62
     7
 10
-97.098846
 20
-118.10956
 42
-0.083554177
  0
VERTEX
  8
0
  6
CONTINUOUS
 62
     7
 10
-95.931201
 20
-117.62458
 42
-0.11298238
  0
VERTEX
  8
0
  6
CONTINUOUS
 62
     7
 10
-94.67148
 20
-117.62458
 42
-0.083553416
  0
VERTEX
  8
0
  6
CONTINUOUS
 62
     7
 10
-93.503845
 20
-118.10956
 42
0
  0
SEQEND
  8
0
  0
POLYLINE
  8
0
  6
CONTINUOUS
 62
     7
 66
     1
 10
0
 20
0
  0
VERTEX
  8
0
  6
CONTINUOUS
 62
     7
 10
-97.098846
 20
-123.79726
 42
0.083554177
  0
VERTEX
  8
0
  6
CONTINUOUS
 62
     7
 10
-95.931201
 20
-124.28225
 42
0.11298238
  0
VERTEX
  8
0
  6
CONTINUOUS
 62
     7
 10
-94.67148
 20
-124.28224
 42
0.083553416
  0
VERTEX
  8
0
  6
CONTINUOUS
 62
     7
 10
-93.503845
 20
-123.79726
 42
0
  0
SEQEND
  8
0
  0
POLYLINE
  8
0
  6
CONTINUOUS
 62
     7
 66
     1
 10
0
 20
0
  0
VERTEX
  8
0
  6
CONTINUOUS
 62
     7
 10
-93.503845
 20
-123.79726
 42
0.0487432
  0
VERTEX
  8
0
  6
CONTINUOUS
 62
     7
 10
-91.123937
 20
-124.28897
 42
0.053023473
  0
VERTEX
  8
0
  6
CONTINUOUS
 62
     7
 10
-88.69399
 20
-124.289
 42
0.048747901
  0
VERTEX
  8
0
  6
CONTINUOUS
 62
     7
 10
-86.31385
 20
-123.79726
 42
0
  0
SEQEND
  8
0
  0
POLYLINE
  8
0
  6
CONTINUOUS
 62
     7
 66
     1
 10
0
 20
0
  0
VERTEX
  8
0
  6
CONTINUOUS
 62
     7
 10
-86.31385
 20
-123.79726
 42
0.083554177
  0
VERTEX
  8
0
  6
CONTINUOUS
 62
     7
 10
-85.146205
 20
-124.28225
 42
0.11298238
  0
VERTEX
  8
0
  6
CONTINUOUS
 62
     7
 10
-83.886484
 20
-124.28224
 42
0.083553416
  0
VERTEX
  8
0
  6
CONTINUOUS
 62
     7
 10
-82.718849
 20
-123.79726
 42
0
  0
SEQEND
  8
0
  0
POLYLINE
  8
0
  6
CONTINUOUS
 62
     7
 66
     1
 10
0
 20
0
  0
VERTEX
  8
0
  6
CONTINUOUS
 62
     7
 10
17.88357
 20
-117.16678
 42
-0.048743157
  0
VERTEX
  8
0
  6
CONTINUOUS
 62
     7
 10
20.26348
 20
-116.67507
 42
-0.05302356
  0
VERTEX
  8
0
  6
CONTINUOUS
 62
     7
 10
22.693433
 20
-116.67504
 42
-0.048747851
  0
VERTEX
  8
0
  6
CONTINUOUS
 62
     7
 10
25.073568
 20
-117.16678
 42
0
  0
SEQEND
  8
0
  0
POLYLINE
  8
0
  6
CONTINUOUS
 62
     7
 66
     1
 10
0
 20
0
  0
VERTEX
  8
0
  6
CONTINUOUS
 62
     7
 10
25.073568
 20
-117.16678
 42
-0.083554177
  0
VERTEX
  8
0
  6
CONTINUOUS
 62
     7
 10
26.241213
 20
-116.6818
 42
-0.11298238
  0
VERTEX
  8
0
  6
CONTINUOUS
 62
     7
 10
27.500934
 20
-116.6818
 42
-0.083553416
  0
VERTEX
  8
0
  6
CONTINUOUS
 62
     7
 10
28.66857
 20
-117.16678
 42
0
  0
SEQEND
  8
0
  0
POLYLINE
  8
0
  6
CONTINUOUS
 62
     7
 66
     1
 10
0
 20
0
  0
VERTEX
  8
0
  6
CONTINUOUS
 62
     7
 10
14.288568
 20
-117.16678
 42
-0.083554177
  0
VERTEX
  8
0
  6
CONTINUOUS
 62
     7
 10
15.456214
 20
-116.6818
 42
-0.11298238
  0
VERTEX
  8
0
  6
CONTINUOUS
 62
     7
 10
16.715934
 20
-116.6818
 42
-0.083553416
  0
VERTEX
  8
0
  6
CONTINUOUS
 62
     7
 10
17.88357
 20
-117.16678
 42
0
  0
SEQEND
  8
0
  0
POLYLINE
  8
0
  6
CONTINUOUS
 62
     7
 66
     1
 10
0
 20
0
  0
VERTEX
  8
0
  6
CONTINUOUS
 62
     7
 10
14.288568
 20
-122.85448
 42
0.083554177
  0
VERTEX
  8
0
  6
CONTINUOUS
 62
     7
 10
15.456214
 20
-123.33947
 42
0.11298238
  0
VERTEX
  8
0
  6
CONTINUOUS
 62
     7
 10
16.715934
 20
-123.33947
 42
0.083553416
  0
VERTEX
  8
0
  6
CONTINUOUS
 62
     7
 10
17.88357
 20
-122.85448
 42
0
  0
SEQEND
  8
0
  0
POLYLINE
  8
0
  6
CONTINUOUS
 62
     7
 66
     1
 10
0
 20
0
  0
VERTEX
  8
0
  6
CONTINUOUS
 62
     7
 10
17.88357
 20
-122.85448
 42
0.048743157
  0
VERTEX
  8
0
  6
CONTINUOUS
 62
     7
 10
20.26348
 20
-123.34619
 42
0.05302356
  0
VERTEX
  8
0
  6
CONTINUOUS
 62
     7
 10
22.693433
 20
-123.34622
 42
0.048747851
  0
VERTEX
  8
0
  6
CONTINUOUS
 62
     7
 10
25.073568
 20
-122.85448
 42
0
  0
SEQEND
  8
0
  0
POLYLINE
  8
0
  6
CONTINUOUS
 62
     7
 66
     1
 10
0
 20
0
  0
VERTEX
  8
0
  6
CONTINUOUS
 62
     7
 10
25.073568
 20
-122.85448
 42
0.083554177
  0
VERTEX
  8
0
  6
CONTINUOUS
 62
     7
 10
26.241213
 20
-123.33947
 42
0.11298238
  0
VERTEX
  8
0
  6
CONTINUOUS
 62
     7
 10
27.500934
 20
-123.33947
 42
0.083553416
  0
VERTEX
  8
0
  6
CONTINUOUS
 62
     7
 10
28.66857
 20
-122.85448
 42
0
  0
SEQEND
  8
0
  0
POLYLINE
  8
0
  6
CONTINUOUS
 62
     7
 66
     1
 10
0
 20
0
  0
VERTEX
  8
0
  6
CONTINUOUS
 62
     7
 10
87.883568
 20
-117.16678
 42
-0.048743183
  0
VERTEX
  8
0
  6
CONTINUOUS
 62
     7
 10
90.26348
 20
-116.67507
 42
-0.053023504
  0
VERTEX
  8
0
  6
CONTINUOUS
 62
     7
 10
92.693432
 20
-116.67504
 42
-0.048747874
  0
VERTEX
  8
0
  6
CONTINUOUS
 62
     7
 10
95.07357
 20
-117.16678
 42
0
  0
SEQEND
  8
0
  0
POLYLINE
  8
0
  6
CONTINUOUS
 62
     7
 66
     1
 10
0
 20
0
  0
VERTEX
  8
0
  6
CONTINUOUS
 62
     7
 10
95.07357
 20
-117.16678
 42
-0.083554177
  0
VERTEX
  8
0
  6
CONTINUOUS
 62
     7
 10
96.241215
 20
-116.6818
 42
-0.11298238
  0
VERTEX
  8
0
  6
CONTINUOUS
 62
     7
 10
97.500936
 20
-116.6818
 42
-0.083553416
  0
VERTEX
  8
0
  6
CONTINUOUS
 62
     7
 10
98.668571
 20
-117.16678
 42
0
  0
SEQEND
  8
0
  0
POLYLINE
  8
0
  6
CONTINUOUS
 62
     7
 66
     1
 10
0
 20
0
  0
VERTEX
  8
0
  6
CONTINUOUS
 62
     7
 10
84.288574
 20
-117.16678
 42
-0.083553993
  0
VERTEX
  8
0
  6
CONTINUOUS
 62
     7
 10
85.456217
 20
-116.6818
 42
-0.11298283
  0
VERTEX
  8
0
  6
CONTINUOUS
 62
     7
 10
86.715939
 20
-116.6818
 42
-0.083553178
  0
VERTEX
  8
0
  6
CONTINUOUS
 62
     7
 10
87.883568
 20
-117.16678
 42
0
  0
SEQEND
  8
0
  0
POLYLINE
  8
0
  6
CONTINUOUS
 62
     7
 66
     1
 10
0
 20
0
  0
VERTEX
  8
0
  6
CONTINUOUS
 62
     7
 10
84.288574
 20
-122.85448
 42
0.083553993
  0
VERTEX
  8
0
  6
CONTINUOUS
 62
     7
 10
85.456217
 20
-123.33947
 42
0.11298283
  0
VERTEX
  8
0
  6
CONTINUOUS
 62
     7
 10
86.715939
 20
-123.33946
 42
0.083553178
  0
VERTEX
  8
0
  6
CONTINUOUS
 62
     7
 10
87.883568
 20
-122.85448
 42
0
  0
SEQEND
  8
0
  0
POLYLINE
  8
0
  6
CONTINUOUS
 62
     7
 66
     1
 10
0
 20
0
  0
VERTEX
  8
0
  6
CONTINUOUS
 62
     7
 10
87.883568
 20
-122.85448
 42
0.048743183
  0
VERTEX
  8
0
  6
CONTINUOUS
 62
     7
 10
90.26348
 20
-123.3462
 42
0.053023504
  0
VERTEX
  8
0
  6
CONTINUOUS
 62
     7
 10
92.693432
 20
-123.34622
 42
0.048747874
  0
VERTEX
  8
0
  6
CONTINUOUS
 62
     7
 10
95.07357
 20
-122.85448
 42
0
  0
SEQEND
  8
0
  0
POLYLINE
  8
0
  6
CONTINUOUS
 62
     7
 66
     1
 10
0
 20
0
  0
VERTEX
  8
0
  6
CONTINUOUS
 62
     7
 10
95.07357
 20
-122.85448
 42
0.083554177
  0
VERTEX
  8
0
  6
CONTINUOUS
 62
     7
 10
96.241215
 20
-123.33947
 42
0.11298238
  0
VERTEX
  8
0
  6
CONTINUOUS
 62
     7
 10
97.500936
 20
-123.33947
 42
0.083553416
  0
VERTEX
  8
0
  6
CONTINUOUS
 62
     7
 10
98.668571
 20
-122.85448
 42
0
  0
SEQEND
  8
0
  0
POLYLINE
  8
0
  6
CONTINUOUS
 62
     7
 66
     1
 10
0
 20
0
  0
VERTEX
  8
0
  6
CONTINUOUS
 62
     7
 10
93.888748
 20
112.27003
 42
-0.048742375
  0
VERTEX
  8
0
  6
CONTINUOUS
 62
     7
 10
96.268655
 20
112.76174
 42
-0.05302536
  0
VERTEX
  8
0
  6
CONTINUOUS
 62
     7
 10
98.69861
 20
112.76177
 42
-0.048747074
  0
VERTEX
  8
0
  6
CONTINUOUS
 62
     7
 10
101.07874
 20
112.27003
 42
0
  0
SEQEND
  8
0
  0
POLYLINE
  8
0
  6
CONTINUOUS
 62
     7
 66
     1
 10
0
 20
0
  0
VERTEX
  8
0
  6
CONTINUOUS
 62
     7
 10
101.07874
 20
112.27003
 42
-0.083552774
  0
VERTEX
  8
0
  6
CONTINUOUS
 62
     7
 10
102.24638
 20
112.75502
 42
-0.11298561
  0
VERTEX
  8
0
  6
CONTINUOUS
 62
     7
 10
103.5061
 20
112.75501
 42
-0.083552013
  0
VERTEX
  8
0
  6
CONTINUOUS
 62
     7
 10
104.67374
 20
112.27003
 42
0
  0
SEQEND
  8
0
  0
POLYLINE
  8
0
  6
CONTINUOUS
 62
     7
 66
     1
 10
0
 20
0
  0
VERTEX
  8
0
  6
CONTINUOUS
 62
     7
 10
90.293747
 20
112.27003
 42
-0.083552774
  0
VERTEX
  8
0
  6
CONTINUOUS
 62
     7
 10
91.461392
 20
112.75502
 42
-0.11298561
  0
VERTEX
  8
0
  6
CONTINUOUS
 62
     7
 10
92.721113
 20
112.75501
 42
-0.083552013
  0
VERTEX
  8
0
  6
CONTINUOUS
 62
     7
 10
93.888748
 20
112.27003
 42
0
  0
SEQEND
  8
0
  0
POLYLINE
  8
0
  6
CONTINUOUS
 62
     7
 66
     1
 10
0
 20
0
  0
VERTEX
  8
0
  6
CONTINUOUS
 62
     7
 10
90.293747
 20
106.58233
 42
0.083552774
  0
VERTEX
  8
0
  6
CONTINUOUS
 62
     7
 10
91.461392
 20
106.09734
 42
0.11298561
  0
VERTEX
  8
0
  6
CONTINUOUS
 62
     7
 10
92.721113
 20
106.09734
 42
0.083552013
  0
VERTEX
  8
0
  6
CONTINUOUS
 62
     7
 10
93.888748
 20
106.58233
 42
0
  0
SEQEND
  8
0
  0
POLYLINE
  8
0
  6
CONTINUOUS
 62
     7
 66
     1
 10
0
 20
0
  0
VERTEX
  8
0
  6
CONTINUOUS
 62
     7
 10
93.888748
 20
106.58233
 42
0.048742375
  0
VERTEX
  8
0
  6
CONTINUOUS
 62
     7
 10
96.268655
 20
106.09061
 42
0.05302536
  0
VERTEX
  8
0
  6
CONTINUOUS
 62
     7
 10
98.69861
 20
106.09059
 42
0.048747074
  0
VERTEX
  8
0
  6
CONTINUOUS
 62
     7
 10
101.07874
 20
106.58233
 42
0
  0
SEQEND
  8
0
  0
POLYLINE
  8
0
  6
CONTINUOUS
 62
     7
 66
     1
 10
0
 20
0
  0
VERTEX
  8
0
  6
CONTINUOUS
 62
     7
 10
101.07874
 20
106.58233
 42
0.083552774
  0
VERTEX
  8
0
  6
CONTINUOUS
 62
     7
 10
102.24638
 20
106.09734
 42
0.11298561
  0
VERTEX
  8
0
  6
CONTINUOUS
 62
     7
 10
103.5061
 20
106.09734
 42
0.083552013
  0
VERTEX
  8
0
  6
CONTINUOUS
 62
     7
 10
104.67374
 20
106.58233
 42
0
  0
SEQEND
  8
0
  0
POLYLINE
  8
0
  6
CONTINUOUS
 62
     7
 66
     1
 10
0
 20
0
  0
VERTEX
  8
0
  6
CONTINUOUS
 62
     7
 10
-87.49868
 20
112.27003
 42
-0.048742479
  0
VERTEX
  8
0
  6
CONTINUOUS
 62
     7
 10
-85.118768
 20
112.76174
 42
-0.053025136
  0
VERTEX
  8
0
  6
CONTINUOUS
 62
     7
 10
-82.688815
 20
112.76177
 42
-0.048747166
  0
VERTEX
  8
0
  6
CONTINUOUS
 62
     7
 10
-80.308678
 20
112.27003
 42
0
  0
SEQEND
  8
0
  0
POLYLINE
  8
0
  6
CONTINUOUS
 62
     7
 66
     1
 10
0
 20
0
  0
VERTEX
  8
0
  6
CONTINUOUS
 62
     7
 10
-80.308678
 20
112.27003
 42
-0.083552774
  0
VERTEX
  8
0
  6
CONTINUOUS
 62
     7
 10
-79.141033
 20
112.75502
 42
-0.11298561
  0
VERTEX
  8
0
  6
CONTINUOUS
 62
     7
 10
-77.881311
 20
112.75501
 42
-0.083552013
  0
VERTEX
  8
0
  6
CONTINUOUS
 62
     7
 10
-76.713676
 20
112.27003
 42
0
  0
SEQEND
  8
0
  0
POLYLINE
  8
0
  6
CONTINUOUS
 62
     7
 66
     1
 10
0
 20
0
  0
VERTEX
  8
0
  6
CONTINUOUS
 62
     7
 10
-91.093674
 20
112.27003
 42
-0.08355259
  0
VERTEX
  8
0
  6
CONTINUOUS
 62
     7
 10
-89.926031
 20
112.75501
 42
-0.11298606
  0
VERTEX
  8
0
  6
CONTINUOUS
 62
     7
 10
-88.666309
 20
112.75501
 42
-0.083551775
  0
VERTEX
  8
0
  6
CONTINUOUS
 62
     7
 10
-87.49868
 20
112.27003
 42
0
  0
SEQEND
  8
0
  0
POLYLINE
  8
0
  6
CONTINUOUS
 62
     7
 66
     1
 10
0
 20
0
  0
VERTEX
  8
0
  6
CONTINUOUS
 62
     7
 10
-91.093674
 20
106.58233
 42
0.08355259
  0
VERTEX
  8
0
  6
CONTINUOUS
 62
     7
 10
-89.926031
 20
106.09734
 42
0.11298606
  0
VERTEX
  8
0
  6
CONTINUOUS
 62
     7
 10
-88.666309
 20
106.09734
 42
0.083551775
  0
VERTEX
  8
0
  6
CONTINUOUS
 62
     7
 10
-87.49868
 20
106.58233
 42
0
  0
SEQEND
  8
0
  0
POLYLINE
  8
0
  6
CONTINUOUS
 62
     7
 66
     1
 10
0
 20
0
  0
VERTEX
  8
0
  6
CONTINUOUS
 62
     7
 10
-87.49868
 20
106.58233
 42
0.048742479
  0
VERTEX
  8
0
  6
CONTINUOUS
 62
     7
 10
-85.118768
 20
106.09061
 42
0.053025136
  0
VERTEX
  8
0
  6
CONTINUOUS
 62
     7
 10
-82.688815
 20
106.09059
 42
0.048747166
  0
VERTEX
  8
0
  6
CONTINUOUS
 62
     7
 10
-80.308678
 20
106.58233
 42
0
  0
SEQEND
  8
0
  0
POLYLINE
  8
0
  6
CONTINUOUS
 62
     7
 66
     1
 10
0
 20
0
  0
VERTEX
  8
0
  6
CONTINUOUS
 62
     7
 10
-80.308678
 20
106.58233
 42
0.083552774
  0
VERTEX
  8
0
  6
CONTINUOUS
 62
     7
 10
-79.141033
 20
106.09734
 42
0.11298561
  0
VERTEX
  8
0
  6
CONTINUOUS
 62
     7
 10
-77.881311
 20
106.09734
 42
0.083552013
  0
VERTEX
  8
0
  6
CONTINUOUS
 62
     7
 10
-76.713676
 20
106.58233
 42
0
  0
SEQEND
  8
0
  0
POLYLINE
  8
0
  6
CONTINUOUS
 62
     7
 66
     1
 10
0
 20
0
  0
VERTEX
  8
0
  6
CONTINUOUS
 62
     7
 10
31.078745
 20
106.58233
 42
0.083552694
  0
VERTEX
  8
0
  6
CONTINUOUS
 62
     7
 10
32.246388
 20
106.09734
 42
0.1129858
  0
VERTEX
  8
0
  6
CONTINUOUS
 62
     7
 10
33.506108
 20
106.09734
 42
0.08355192
  0
VERTEX
  8
0
  6
CONTINUOUS
 62
     7
 10
34.67374
 20
106.58233
 42
0
  0
SEQEND
  8
0
  0
POLYLINE
  8
0
  6
CONTINUOUS
 62
     7
 66
     1
 10
0
 20
0
  0
VERTEX
  8
0
  6
CONTINUOUS
 62
     7
 10
23.888742
 20
112.27003
 42
-0.048742479
  0
VERTEX
  8
0
  6
CONTINUOUS
 62
     7
 10
26.268654
 20
112.76174
 42
-0.053025136
  0
VERTEX
  8
0
  6
CONTINUOUS
 62
     7
 10
28.698607
 20
112.76177
 42
-0.048747166
  0
VERTEX
  8
0
  6
CONTINUOUS
 62
     7
 10
31.078745
 20
112.27003
 42
0
  0
SEQEND
  8
0
  0
POLYLINE
  8
0
  6
CONTINUOUS
 62
     7
 66
     1
 10
0
 20
0
  0
VERTEX
  8
0
  6
CONTINUOUS
 62
     7
 10
31.078745
 20
112.27003
 42
-0.083552694
  0
VERTEX
  8
0
  6
CONTINUOUS
 62
     7
 10
32.246388
 20
112.75502
 42
-0.1129858
  0
VERTEX
  8
0
  6
CONTINUOUS
 62
     7
 10
33.506108
 20
112.75501
 42
-0.08355192
  0
VERTEX
  8
0
  6
CONTINUOUS
 62
     7
 10
34.67374
 20
112.27003
 42
0
  0
SEQEND
  8
0
  0
POLYLINE
  8
0
  6
CONTINUOUS
 62
     7
 66
     1
 10
0
 20
0
  0
VERTEX
  8
0
  6
CONTINUOUS
 62
     7
 10
20.293745
 20
112.27003
 42
-0.083552682
  0
VERTEX
  8
0
  6
CONTINUOUS
 62
     7
 10
21.461388
 20
112.75502
 42
-0.11298584
  0
VERTEX
  8
0
  6
CONTINUOUS
 62
     7
 10
22.721111
 20
112.75501
 42
-0.083551894
  0
VERTEX
  8
0
  6
CONTINUOUS
 62
     7
 10
23.888742
 20
112.27003
 42
0
  0
SEQEND
  8
0
  0
POLYLINE
  8
0
  6
CONTINUOUS
 62
     7
 66
     1
 10
0
 20
0
  0
VERTEX
  8
0
  6
CONTINUOUS
 62
     7
 10
20.293745
 20
106.58233
 42
0.083552682
  0
VERTEX
  8
0
  6
CONTINUOUS
 62
     7
 10
21.461388
 20
106.09734
 42
0.11298584
  0
VERTEX
  8
0
  6
CONTINUOUS
 62
     7
 10
22.721111
 20
106.09734
 42
0.083551894
  0
VERTEX
  8
0
  6
CONTINUOUS
 62
     7
 10
23.888742
 20
106.58233
 42
0
  0
SEQEND
  8
0
  0
POLYLINE
  8
0
  6
CONTINUOUS
 62
     7
 66
     1
 10
0
 20
0
  0
VERTEX
  8
0
  6
CONTINUOUS
 62
     7
 10
23.888742
 20
106.58233
 42
0.048742479
  0
VERTEX
  8
0
  6
CONTINUOUS
 62
     7
 10
26.268654
 20
106.09061
 42
0.053025136
  0
VERTEX
  8
0
  6
CONTINUOUS
 62
     7
 10
28.698607
 20
106.09059
 42
0.048747166
  0
VERTEX
  8
0
  6
CONTINUOUS
 62
     7
 10
31.078745
 20
106.58233
 42
0
  0
SEQEND
  8
0
  0
TEXT
  8
0
  6
CONTINUOUS
 62
     7
 10
-47.058508
 20
170.8474
 40
14
 41
1.0084034
  1
11/4x1
  0
TEXT
  8
0
  6
CONTINUOUS
 62
     7
 10
-47.058508
 20
-64.680237
 40
14
 41
1.0084034
  1
11/2x1
  0
TEXT
  8
0
  6
CONTINUOUS
 62
     7
 10
-345.4302
 20
225.6243
 40
15
 41
1.0032468
  1
TOP-J T-2 2ｻｲｽﾞ
  0
POINT
  8
1
  6
CONTINUOUS
 62
     7
 10
1264
 20
-907.5
  0
LINE
  8
1
  6
CONTINUOUS
 62
     7
 10
420
 20
-902.5
 11
1259
 21
-902.5
  0
LINE
  8
1
  6
CONTINUOUS
 62
     7
 10
420
 20
-307.5
 11
420
 21
-902.5
  0
LINE
  8
1
  6
CONTINUOUS
 62
     7
 10
1259
 20
-307.5
 11
1259
 21
-902.5
  0
LINE
  8
1
  6
CONTINUOUS
 62
     7
 10
420
 20
-307.5
 11
1259
 21
-307.5
  0
LINE
  8
1
  6
CONTINUOUS
 62
     7
 10
-429
 20
-307.5
 11
-429
 21
-902.5
  0
LINE
  8
1
  6
CONTINUOUS
 62
     7
 10
-429
 20
-307.5
 11
410
 21
-307.5
  0
LINE
  8
1
  6
CONTINUOUS
 62
     7
 10
-429
 20
-902.5
 11
410
 21
-902.5
  0
LINE
  8
1
  6
CONTINUOUS
 62
     7
 10
410
 20
-307.5
 11
410
 21
-902.5
  0
LINE
  8
1
  6
CONTINUOUS
 62
     7
 10
-429
 20
297.5
 11
-429
 21
-297.5
  0
LINE
  8
1
  6
CONTINUOUS
 62
     7
 10
-429
 20
-297.5
 11
410
 21
-297.5
  0
LINE
  8
1
  6
CONTINUOUS
 62
     7
 10
-429
 20
297.5
 11
410
 21
297.5
  0
LINE
  8
1
  6
CONTINUOUS
 62
     7
 10
420
 20
297.5
 11
420
 21
-297.5
  0
LINE
  8
1
  6
CONTINUOUS
 62
     7
 10
410
 20
297.5
 11
410
 21
-297.5
  0
LINE
  8
1
  6
CONTINUOUS
 62
     7
 10
420
 20
297.5
 11
1259
 21
297.5
  0
LINE
  8
1
  6
CONTINUOUS
 62
     7
 10
420
 20
-297.5
 11
1259
 21
-297.5
  0
LINE
  8
1
  6
CONTINUOUS
 62
     7
 10
1259
 20
297.5
 11
1259
 21
-297.5
  0
ENDSEC
  0
EOF
