  0
SECTION
  2
HEADER
  9
$EXTMAX
 10
208.5
 20
148.5
  9
$EXTMIN
 10
-208.5
 20
-148.5
  0
ENDSEC
  0
SECTION
  2
TABLES
  0
TABLE
  2
LTYPE
 70
    22
  0
LTYPE
  2
CONTINUOUS
 70
    64
  3
Solid line
 72
    65
 73
     0
 40
0.000000
  0
LTYPE
  2
DASHED
 70
    64
  3
__ __ __ __ __ __ __ __ __ __ __ __ __ __ __
 72
    65
 73
     2
 40
3.500000
 49
2.000000
 49
-1.500000
  0
LTYPE
  2
CENTER
 70
    64
  3
____ _ ____ _ ____ _ ____ _ ____ _ ____ _ ____
 72
    65
 73
     4
 40
17.500000
 49
13.000000
 49
-1.500000
 49
1.500000
 49
-1.500000
  0
LTYPE
  2
PHANTOM
 70
    64
  3
_____ _ _ _____ _ _ _____ _ _ _____ _ _ ____  
 72
    65
 73
     6
 40
15.500000
 49
8.000000
 49
-1.500000
 49
1.500000
 49
-1.500000
 49
1.500000
 49
-1.500000
  0
LTYPE
  2
DOT
 70
    64
  3
. . . . . . . . . . . . . . . . . . . . . . . .
 72
    65
 73
     2
 40
0.25
 49
0.0
 49
-0.25
  0
ENDTAB
  0
TABLE
  2
LAYER
 70
     2
  0
LAYER
  2
0
 70
     0
 62
     7
  6
CONTINUOUS
  0
LAYER
  2
1
 70
     0
 62
     7
  6
CONTINUOUS
  0
ENDTAB
  0
TABLE
  2
STYLE
 70
     1
  0
STYLE
  2
STANDARD
 70
     0
 40
0.000000
 41
1.000000
 50
0.000000
 71
     0
 42
0.200000
  3
txt
  4
BIGFONT
  0
ENDTAB
  0
TABLE
  2
VIEW
 70
     0
  0
ENDTAB
  0
ENDSEC
  0
SECTION
  2
BLOCKS
  0
ENDSEC
  0
SECTION
  2
ENTITIES
  0
POINT
  8
0
  6
CONTINUOUS
 62
     7
 10
215.0370330810547
 20
-20.35752677917481
  0
POINT
  8
0
  6
CONTINUOUS
 62
     7
 10
-36.08061218261719
 20
-20.35752677917481
  0
POINT
  8
0
  6
CONTINUOUS
 62
     7
 10
-210.1394348144531
 20
-20.35752677917481
  0
POINT
  8
0
  6
CONTINUOUS
 62
     7
 10
-210.0877838134766
 20
-245.8514709472656
  0
POINT
  8
0
  6
CONTINUOUS
 62
     7
 10
-32.08778381347656
 20
-245.8514709472656
  0
POINT
  8
0
  6
CONTINUOUS
 62
     7
 10
224.6181030273438
 20
-245.8514709472656
  0
POINT
  8
0
  6
CONTINUOUS
 62
     7
 10
-194.1064910888672
 20
-507.4672241210938
  0
POINT
  8
0
  6
CONTINUOUS
 62
     7
 10
-13.36138153076172
 20
-507.4672241210938
  0
POINT
  8
0
  6
CONTINUOUS
 62
     7
 10
240.5993957519531
 20
-507.4672241210938
  0
POINT
  8
0
  6
CONTINUOUS
 62
     7
 10
12.09276294708252
 20
-763.2940673828125
  0
POINT
  8
0
  6
CONTINUOUS
 62
     7
 10
-176.4482421875
 20
-763.2940673828125
  0
POINT
  8
0
  6
CONTINUOUS
 62
     7
 10
263.2576599121094
 20
-763.2940673828125
  0
POINT
  8
0
  6
CONTINUOUS
 62
     7
 10
-158.5049438476563
 20
-199.4226226806641
  0
POINT
  8
0
  6
CONTINUOUS
 62
     7
 10
-142.1733093261719
 20
-683.0392456054688
  0
POINT
  8
0
  6
CONTINUOUS
 62
     7
 10
-166.8374176025391
 20
21.22120666503906
  0
LINE
  8
0
  6
CENTER
 62
     7
 10
-210.1394348144531
 20
60.14921951293945
 11
-210.1394348144531
 21
-103.3428192138672
  0
LINE
  8
0
  6
CENTER
 62
     7
 10
-293.3600158691406
 20
-20.35752677917481
 11
-128.6982574462891
 21
-20.35752677917481
  0
LINE
  8
0
  6
CENTER
 62
     7
 10
215.0370330810547
 20
67.44358062744141
 11
215.0370330810547
 21
-108.7971801757813
  0
LINE
  8
0
  6
CENTER
 62
     7
 10
126.1347427368164
 20
-20.35752677917481
 11
302.3755187988281
 21
-20.35752677917481
  0
LINE
  8
0
  6
CENTER
 62
     7
 10
-41.37274169921875
 20
-20.35752677917481
 11
42.87358474731445
 21
-20.35752677917481
  0
LINE
  8
0
  6
CONTINUOUS
 62
     7
 10
20.91938972473145
 20
-97.85752868652344
 11
31.91938972473145
 21
-97.85752868652344
  0
LINE
  8
0
  6
CONTINUOUS
 62
     7
 10
32.41938781738281
 20
-68.35752868652344
 11
33.91938781738281
 21
-68.35752868652344
  0
LINE
  8
0
  6
CONTINUOUS
 62
     7
 10
31.91938972473145
 20
-20.35752677917481
 11
31.91938972473145
 21
-97.85752868652344
  0
LINE
  8
0
  6
CONTINUOUS
 62
     7
 10
17.91938972473145
 20
-20.35752677917481
 11
17.91938972473145
 21
-94.85752868652344
  0
LINE
  8
0
  6
CENTER
 62
     7
 10
11.30187129974365
 20
-80.35752868652344
 11
37.53703308105469
 21
-80.35752868652344
  0
LINE
  8
0
  6
CONTINUOUS
 62
     7
 10
-35.08061218261719
 20
-50.60752868652344
 11
-20.18061065673828
 21
-50.60752868652344
  0
LINE
  8
0
  6
CONTINUOUS
 62
     7
 10
-36.08061218261719
 20
-20.35752677917481
 11
-36.08061218261719
 21
-49.60752868652344
  0
LINE
  8
0
  6
CONTINUOUS
 62
     7
 10
-11.28061103820801
 20
-50.60752868652344
 11
-6.580611228942871
 21
-50.60752868652344
  0
LINE
  8
0
  6
CONTINUOUS
 62
     7
 10
-19.58061027526856
 20
-48.80752944946289
 11
-11.88061141967773
 21
-48.80752944946289
  0
LINE
  8
0
  6
CONTINUOUS
 62
     7
 10
-20.08061027526856
 20
-20.35752677917481
 11
-20.08061027526856
 21
-50.60752868652344
  0
LINE
  8
0
  6
CONTINUOUS
 62
     7
 10
-11.38061141967773
 20
-20.35752677917481
 11
-11.38061141967773
 21
-50.60752868652344
  0
LINE
  8
0
  6
CONTINUOUS
 62
     7
 10
-6.080611228942871
 20
-56.35752868652344
 11
-6.080611228942871
 21
-20.35752677917481
  0
LINE
  8
0
  6
CONTINUOUS
 62
     7
 10
33.91938781738281
 20
-20.35752677917481
 11
33.91938781738281
 21
-68.35752868652344
  0
LINE
  8
0
  6
CONTINUOUS
 62
     7
 10
-6.080611228942871
 20
-56.35752868652344
 11
12.91938877105713
 21
-56.35752868652344
  0
LINE
  8
0
  6
CONTINUOUS
 62
     7
 10
17.91938972473145
 20
-20.35752677917481
 11
17.91938972473145
 21
54.14247131347656
  0
LINE
  8
0
  6
CENTER
 62
     7
 10
11.30187129974365
 20
39.64247131347656
 11
37.53703308105469
 21
39.64247131347656
  0
LINE
  8
0
  6
CONTINUOUS
 62
     7
 10
31.91938972473145
 20
-20.35752677917481
 11
31.91938972473145
 21
57.14247131347656
  0
LINE
  8
0
  6
CONTINUOUS
 62
     7
 10
32.41938781738281
 20
27.6424732208252
 11
33.91938781738281
 21
27.6424732208252
  0
LINE
  8
0
  6
CONTINUOUS
 62
     7
 10
20.91938972473145
 20
57.14247131347656
 11
31.91938972473145
 21
57.14247131347656
  0
LINE
  8
0
  6
CONTINUOUS
 62
     7
 10
-6.080611228942871
 20
15.64247226715088
 11
12.91938877105713
 21
15.64247226715088
  0
LINE
  8
0
  6
CONTINUOUS
 62
     7
 10
-35.08061218261719
 20
9.892472267150879
 11
-20.18061065673828
 21
9.892472267150879
  0
LINE
  8
0
  6
CONTINUOUS
 62
     7
 10
-36.08061218261719
 20
-20.35752677917481
 11
-36.08061218261719
 21
8.892472267150879
  0
LINE
  8
0
  6
CONTINUOUS
 62
     7
 10
-11.28061103820801
 20
9.892472267150879
 11
-6.580611228942871
 21
9.892472267150879
  0
LINE
  8
0
  6
CONTINUOUS
 62
     7
 10
-19.58061027526856
 20
8.092472076416016
 11
-11.88061141967773
 21
8.092472076416016
  0
LINE
  8
0
  6
CONTINUOUS
 62
     7
 10
-20.08061027526856
 20
-20.35752677917481
 11
-20.08061027526856
 21
9.892472267150879
  0
LINE
  8
0
  6
CONTINUOUS
 62
     7
 10
-11.38061141967773
 20
-20.35752677917481
 11
-11.38061141967773
 21
9.892472267150879
  0
LINE
  8
0
  6
CONTINUOUS
 62
     7
 10
-6.080611228942871
 20
15.64247226715088
 11
-6.080611228942871
 21
-20.35752677917481
  0
LINE
  8
0
  6
CONTINUOUS
 62
     7
 10
33.91938781738281
 20
-20.35752677917481
 11
33.91938781738281
 21
27.6424732208252
  0
LINE
  8
0
  6
CENTER
 62
     7
 10
-312.7348327636719
 20
-245.8514709472656
 11
-112.9309234619141
 21
-245.8514709472656
  0
LINE
  8
0
  6
CENTER
 62
     7
 10
-210.0877838134766
 20
-147.0290832519531
 11
-210.0877838134766
 21
-352.2240295410156
  0
LINE
  8
0
  6
CENTER
 62
     7
 10
224.6181030273438
 20
-144.8793334960938
 11
224.6181030273438
 21
-344.687255859375
  0
LINE
  8
0
  6
CENTER
 62
     7
 10
124.2247161865234
 20
-245.8514709472656
 11
326.0104064941406
 21
-245.8514709472656
  0
LINE
  8
0
  6
CENTER
 62
     7
 10
-42.35304260253906
 20
-245.8514709472656
 11
60.83378219604492
 21
-245.8514709472656
  0
LINE
  8
0
  6
CONTINUOUS
 62
     7
 10
-7.387783527374268
 20
-207.8014831542969
 11
-7.387783527374268
 21
-245.8514709472656
  0
LINE
  8
0
  6
CONTINUOUS
 62
     7
 10
-16.08778381347656
 20
-207.8014831542969
 11
-16.08778381347656
 21
-245.8514709472656
  0
LINE
  8
0
  6
CONTINUOUS
 62
     7
 10
29.91221618652344
 20
-161.3518218994141
 11
29.91221618652344
 21
-245.8514709472656
  0
LINE
  8
0
  6
CONTINUOUS
 62
     7
 10
32.91221618652344
 20
-158.3518218994141
 11
45.91221618652344
 21
-158.3518218994141
  0
LINE
  8
0
  6
CONTINUOUS
 62
     7
 10
46.41221618652344
 20
-187.851806640625
 11
47.91221618652344
 21
-187.851806640625
  0
LINE
  8
0
  6
CONTINUOUS
 62
     7
 10
45.91221618652344
 20
-158.3518218994141
 11
45.91221618652344
 21
-245.8514709472656
  0
LINE
  8
0
  6
CENTER
 62
     7
 10
20.84670829772949
 20
-175.851806640625
 11
52.58824157714844
 21
-175.851806640625
  0
LINE
  8
0
  6
CONTINUOUS
 62
     7
 10
-7.287783145904541
 20
-207.7014770507813
 11
-2.587783336639404
 21
-207.7014770507813
  0
LINE
  8
0
  6
CONTINUOUS
 62
     7
 10
-31.08778381347656
 20
-207.7014770507813
 11
-16.18778419494629
 21
-207.7014770507813
  0
LINE
  8
0
  6
CONTINUOUS
 62
     7
 10
-15.58778285980225
 20
-209.7514801025391
 11
-7.887783527374268
 21
-209.7514801025391
  0
LINE
  8
0
  6
CONTINUOUS
 62
     7
 10
-32.08778381347656
 20
-208.7014770507813
 11
-32.08778381347656
 21
-245.8514709472656
  0
LINE
  8
0
  6
CONTINUOUS
 62
     7
 10
-2.087783336639404
 20
-200.3514709472656
 11
-2.087783336639404
 21
-245.8514709472656
  0
LINE
  8
0
  6
CONTINUOUS
 62
     7
 10
29.91221618652344
 20
-330.3511352539063
 11
29.91221618652344
 21
-245.8514709472656
  0
LINE
  8
0
  6
CONTINUOUS
 62
     7
 10
-7.387783527374268
 20
-283.9014892578125
 11
-7.387783527374268
 21
-245.8514709472656
  0
LINE
  8
0
  6
CONTINUOUS
 62
     7
 10
-16.08778381347656
 20
-283.9014892578125
 11
-16.08778381347656
 21
-245.8514709472656
  0
LINE
  8
0
  6
CONTINUOUS
 62
     7
 10
32.91221618652344
 20
-333.3511352539063
 11
45.91221618652344
 21
-333.3511352539063
  0
LINE
  8
0
  6
CONTINUOUS
 62
     7
 10
47.91221618652344
 20
-187.851806640625
 11
47.91221618652344
 21
-245.8514709472656
  0
LINE
  8
0
  6
CONTINUOUS
 62
     7
 10
-7.287783145904541
 20
-284.00146484375
 11
-2.587783336639404
 21
-284.00146484375
  0
LINE
  8
0
  6
CONTINUOUS
 62
     7
 10
45.91221618652344
 20
-333.3511352539063
 11
45.91221618652344
 21
-245.8514709472656
  0
LINE
  8
0
  6
CENTER
 62
     7
 10
20.84670829772949
 20
-315.8511352539063
 11
52.58824157714844
 21
-315.8511352539063
  0
LINE
  8
0
  6
CONTINUOUS
 62
     7
 10
46.41221618652344
 20
-303.8511352539063
 11
47.91221618652344
 21
-303.8511352539063
  0
LINE
  8
0
  6
CONTINUOUS
 62
     7
 10
-2.087783336639404
 20
-200.3514709472656
 11
24.91221618652344
 21
-200.3514709472656
  0
LINE
  8
0
  6
CONTINUOUS
 62
     7
 10
-2.087783336639404
 20
-291.3514709472656
 11
24.91221618652344
 21
-291.3514709472656
  0
LINE
  8
0
  6
CONTINUOUS
 62
     7
 10
47.91221618652344
 20
-303.8511352539063
 11
47.91221618652344
 21
-245.8514709472656
  0
LINE
  8
0
  6
CONTINUOUS
 62
     7
 10
-2.087783336639404
 20
-291.3514709472656
 11
-2.087783336639404
 21
-245.8514709472656
  0
LINE
  8
0
  6
CONTINUOUS
 62
     7
 10
-32.08778381347656
 20
-283.00146484375
 11
-32.08778381347656
 21
-245.8514709472656
  0
LINE
  8
0
  6
CONTINUOUS
 62
     7
 10
-15.58778285980225
 20
-281.9514770507813
 11
-7.887783527374268
 21
-281.9514770507813
  0
LINE
  8
0
  6
CONTINUOUS
 62
     7
 10
-31.08778381347656
 20
-284.00146484375
 11
-16.18778419494629
 21
-284.00146484375
  0
LINE
  8
0
  6
CENTER
 62
     7
 10
-302.2437438964844
 20
-507.4672241210938
 11
-96.94961547851563
 21
-507.4672241210938
  0
LINE
  8
0
  6
CENTER
 62
     7
 10
-194.1064910888672
 20
-400.173095703125
 11
-194.1064910888672
 21
-613.8397827148438
  0
LINE
  8
0
  6
CENTER
 62
     7
 10
240.5993957519531
 20
-394.6829223632813
 11
240.5993957519531
 21
-606.302978515625
  0
LINE
  8
0
  6
CENTER
 62
     7
 10
135.5097045898438
 20
-507.4672241210938
 11
351.77587890625
 21
-507.4672241210938
  0
LINE
  8
0
  6
CENTER
 62
     7
 10
-27.45058631896973
 20
-507.4672241210938
 11
74.81508636474609
 21
-507.4672241210938
  0
LINE
  8
0
  6
CONTINUOUS
 62
     7
 10
51.63861846923828
 20
-414.9672241210938
 11
64.63861846923828
 21
-414.9672241210938
  0
LINE
  8
0
  6
CONTINUOUS
 62
     7
 10
48.63861846923828
 20
-417.9672241210938
 11
48.63861846923828
 21
-507.4672241210938
  0
LINE
  8
0
  6
CONTINUOUS
 62
     7
 10
65.13861846923828
 20
-444.4672241210938
 11
66.63861846923828
 21
-444.4672241210938
  0
LINE
  8
0
  6
CONTINUOUS
 62
     7
 10
64.63861846923828
 20
-414.9672241210938
 11
64.63861846923828
 21
-507.4672241210938
  0
LINE
  8
0
  6
CONTINUOUS
 62
     7
 10
66.63861846923828
 20
-570.4672241210938
 11
66.63861846923828
 21
-507.4672241210938
  0
LINE
  8
0
  6
CENTER
 62
     7
 10
40.11901092529297
 20
-432.4672241210938
 11
71.72685241699219
 21
-432.4672241210938
  0
LINE
  8
0
  6
CONTINUOUS
 62
     7
 10
66.63861846923828
 20
-444.4672241210938
 11
66.63861846923828
 21
-507.4672241210938
  0
LINE
  8
0
  6
CONTINUOUS
 62
     7
 10
64.63861846923828
 20
-599.9672241210938
 11
64.63861846923828
 21
-507.4672241210938
  0
LINE
  8
0
  6
CENTER
 62
     7
 10
40.11901092529297
 20
-582.4672241210938
 11
71.72685241699219
 21
-582.4672241210938
  0
LINE
  8
0
  6
CONTINUOUS
 62
     7
 10
-13.36138153076172
 20
-464.0172424316406
 11
-13.36138153076172
 21
-507.4672241210938
  0
LINE
  8
0
  6
CONTINUOUS
 62
     7
 10
2.63861870765686
 20
-463.1172180175781
 11
2.63861870765686
 21
-507.4672241210938
  0
LINE
  8
0
  6
CONTINUOUS
 62
     7
 10
3.13861870765686
 20
-465.0172424316406
 11
10.83861827850342
 21
-465.0172424316406
  0
LINE
  8
0
  6
CONTINUOUS
 62
     7
 10
-12.36138153076172
 20
-463.0172424316406
 11
2.538618564605713
 21
-463.0172424316406
  0
LINE
  8
0
  6
CONTINUOUS
 62
     7
 10
11.43861865997315
 20
-463.0172424316406
 11
16.13861846923828
 21
-463.0172424316406
  0
LINE
  8
0
  6
CONTINUOUS
 62
     7
 10
16.63861846923828
 20
-455.4672241210938
 11
16.63861846923828
 21
-507.4672241210938
  0
LINE
  8
0
  6
CONTINUOUS
 62
     7
 10
11.33861827850342
 20
-463.1172180175781
 11
11.33861827850342
 21
-507.4672241210938
  0
LINE
  8
0
  6
CONTINUOUS
 62
     7
 10
16.63861846923828
 20
-559.4672241210938
 11
42.63861846923828
 21
-559.4672241210938
  0
LINE
  8
0
  6
CONTINUOUS
 62
     7
 10
16.63861846923828
 20
-455.4672241210938
 11
42.63861846923828
 21
-455.4672241210938
  0
LINE
  8
0
  6
CONTINUOUS
 62
     7
 10
65.13861846923828
 20
-570.4672241210938
 11
66.63861846923828
 21
-570.4672241210938
  0
LINE
  8
0
  6
CONTINUOUS
 62
     7
 10
11.33861827850342
 20
-551.8171997070313
 11
11.33861827850342
 21
-507.4672241210938
  0
LINE
  8
0
  6
CONTINUOUS
 62
     7
 10
16.63861846923828
 20
-559.4672241210938
 11
16.63861846923828
 21
-507.4672241210938
  0
LINE
  8
0
  6
CONTINUOUS
 62
     7
 10
11.43861865997315
 20
-551.917236328125
 11
16.13861846923828
 21
-551.917236328125
  0
LINE
  8
0
  6
CONTINUOUS
 62
     7
 10
-12.36138153076172
 20
-551.917236328125
 11
2.538618564605713
 21
-551.917236328125
  0
LINE
  8
0
  6
CONTINUOUS
 62
     7
 10
3.13861870765686
 20
-549.917236328125
 11
10.83861827850342
 21
-549.917236328125
  0
LINE
  8
0
  6
CONTINUOUS
 62
     7
 10
2.63861870765686
 20
-551.8171997070313
 11
2.63861870765686
 21
-507.4672241210938
  0
LINE
  8
0
  6
CONTINUOUS
 62
     7
 10
-13.36138153076172
 20
-550.917236328125
 11
-13.36138153076172
 21
-507.4672241210938
  0
LINE
  8
0
  6
CONTINUOUS
 62
     7
 10
51.63861846923828
 20
-599.9672241210938
 11
64.63861846923828
 21
-599.9672241210938
  0
LINE
  8
0
  6
CONTINUOUS
 62
     7
 10
48.63861846923828
 20
-596.9672241210938
 11
48.63861846923828
 21
-507.4672241210938
  0
LINE
  8
0
  6
CONTINUOUS
 62
     7
 10
42.0927619934082
 20
-698.2940673828125
 11
42.0927619934082
 21
-763.2940673828125
  0
LINE
  8
0
  6
CENTER
 62
     7
 10
65.77024078369141
 20
-850.7940673828125
 11
96.61058807373047
 21
-850.7940673828125
  0
LINE
  8
0
  6
CONTINUOUS
 62
     7
 10
12.59276294708252
 20
-706.1441040039063
 11
27.99276351928711
 21
-706.1441040039063
  0
LINE
  8
0
  6
CENTER
 62
     7
 10
-291.3501892089844
 20
-763.2940673828125
 11
-64.61668395996094
 21
-763.2940673828125
  0
LINE
  8
0
  6
CENTER
 62
     7
 10
-176.4482421875
 20
-647.313720703125
 11
-176.4482421875
 21
-869.6666259765625
  0
LINE
  8
0
  6
CENTER
 62
     7
 10
263.2576599121094
 20
-641.823486328125
 11
263.2576599121094
 21
-872.7245483398438
  0
LINE
  8
0
  6
CENTER
 62
     7
 10
154.6354370117188
 20
-763.2940673828125
 11
383.355712890625
 21
-763.2940673828125
  0
LINE
  8
0
  6
CENTER
 62
     7
 10
-0.2382708191871643
 20
-763.2940673828125
 11
99.62017059326172
 21
-763.2940673828125
  0
LINE
  8
0
  6
CONTINUOUS
 62
     7
 10
74.09276580810547
 20
-661.2940673828125
 11
74.09276580810547
 21
-763.2940673828125
  0
LINE
  8
0
  6
CONTINUOUS
 62
     7
 10
77.09276580810547
 20
-658.2940673828125
 11
90.09276580810547
 21
-658.2940673828125
  0
LINE
  8
0
  6
CONTINUOUS
 62
     7
 10
90.59276580810547
 20
-687.7940673828125
 11
92.09276580810547
 21
-687.7940673828125
  0
LINE
  8
0
  6
CONTINUOUS
 62
     7
 10
77.09276580810547
 20
-868.2940673828125
 11
90.09276580810547
 21
-868.2940673828125
  0
LINE
  8
0
  6
CONTINUOUS
 62
     7
 10
90.09276580810547
 20
-658.2940673828125
 11
90.09276580810547
 21
-763.2940673828125
  0
LINE
  8
0
  6
CONTINUOUS
 62
     7
 10
12.09276294708252
 20
-706.6441040039063
 11
12.09276294708252
 21
-763.2940673828125
  0
LINE
  8
0
  6
CENTER
 62
     7
 10
65.77024078369141
 20
-675.7940673828125
 11
96.61058807373047
 21
-675.7940673828125
  0
LINE
  8
0
  6
CONTINUOUS
 62
     7
 10
36.89276123046875
 20
-820.444091796875
 11
41.5927619934082
 21
-820.444091796875
  0
LINE
  8
0
  6
CONTINUOUS
 62
     7
 10
12.59276294708252
 20
-820.444091796875
 11
27.99276351928711
 21
-820.444091796875
  0
LINE
  8
0
  6
CONTINUOUS
 62
     7
 10
12.09276294708252
 20
-819.944091796875
 11
12.09276294708252
 21
-763.2940673828125
  0
LINE
  8
0
  6
CONTINUOUS
 62
     7
 10
90.59276580810547
 20
-838.7940673828125
 11
92.09276580810547
 21
-838.7940673828125
  0
LINE
  8
0
  6
CONTINUOUS
 62
     7
 10
42.0927619934082
 20
-828.2940673828125
 11
42.0927619934082
 21
-763.2940673828125
  0
LINE
  8
0
  6
CONTINUOUS
 62
     7
 10
90.09276580810547
 20
-868.2940673828125
 11
90.09276580810547
 21
-763.2940673828125
  0
LINE
  8
0
  6
CONTINUOUS
 62
     7
 10
36.89276123046875
 20
-706.1441040039063
 11
41.5927619934082
 21
-706.1441040039063
  0
LINE
  8
0
  6
CONTINUOUS
 62
     7
 10
36.79276275634766
 20
-706.2440795898438
 11
36.79276275634766
 21
-763.2940673828125
  0
LINE
  8
0
  6
CONTINUOUS
 62
     7
 10
28.09276390075684
 20
-706.2440795898438
 11
28.09276390075684
 21
-763.2940673828125
  0
LINE
  8
0
  6
CONTINUOUS
 62
     7
 10
28.59276390075684
 20
-708.2440795898438
 11
36.29276275634766
 21
-708.2440795898438
  0
LINE
  8
0
  6
CONTINUOUS
 62
     7
 10
92.09276580810547
 20
-687.7940673828125
 11
92.09276580810547
 21
-763.2940673828125
  0
LINE
  8
0
  6
CONTINUOUS
 62
     7
 10
28.59276390075684
 20
-818.3441162109375
 11
36.29276275634766
 21
-818.3441162109375
  0
LINE
  8
0
  6
CONTINUOUS
 62
     7
 10
42.0927619934082
 20
-828.2940673828125
 11
68.09276580810547
 21
-828.2940673828125
  0
LINE
  8
0
  6
CONTINUOUS
 62
     7
 10
92.09276580810547
 20
-838.7940673828125
 11
92.09276580810547
 21
-763.2940673828125
  0
LINE
  8
0
  6
CONTINUOUS
 62
     7
 10
74.09276580810547
 20
-865.2940673828125
 11
74.09276580810547
 21
-763.2940673828125
  0
LINE
  8
0
  6
CONTINUOUS
 62
     7
 10
42.0927619934082
 20
-698.2940673828125
 11
68.09276580810547
 21
-698.2940673828125
  0
LINE
  8
0
  6
CONTINUOUS
 62
     7
 10
36.79276275634766
 20
-820.3441162109375
 11
36.79276275634766
 21
-763.2940673828125
  0
LINE
  8
0
  6
CONTINUOUS
 62
     7
 10
28.09276390075684
 20
-820.3441162109375
 11
28.09276390075684
 21
-763.2940673828125
  0
LINE
  8
0
  6
CONTINUOUS
 62
     7
 10
-164.2636871337891
 20
-204.2275085449219
 11
-158.5049438476563
 21
-199.4226226806641
  0
LINE
  8
0
  6
CONTINUOUS
 62
     7
 10
-154.3010559082031
 20
-195.9150543212891
 11
-152.7462005615234
 21
-194.6177368164063
  0
LINE
  8
0
  6
CONTINUOUS
 62
     7
 10
-145.7875671386719
 20
-689.6109008789063
 11
-142.1733093261719
 21
-683.0392456054688
  0
LINE
  8
0
  6
CONTINUOUS
 62
     7
 10
-139.5348815917969
 20
-678.2418823242188
 11
-138.5590362548828
 21
-676.467529296875
  0
LINE
  8
0
  6
CONTINUOUS
 62
     7
 10
-172.5961608886719
 20
16.41632652282715
 11
-166.8374176025391
 21
21.22120666503906
  0
LINE
  8
0
  6
CONTINUOUS
 62
     7
 10
-162.6335296630859
 20
24.72876930236816
 11
-161.0786743164063
 21
26.02608680725098
  0
CIRCLE
  8
0
  6
CONTINUOUS
 62
     7
 10
-210.1394348144531
 20
-20.35752677917481
 40
77.5
  0
ARC
  8
0
  6
CONTINUOUS
 62
     7
 10
215.0370330810547
 20
-20.35752677917481
 40
77.5
 50
269.9999974955218
 51
90.00000250447815
  0
CIRCLE
  8
0
  6
CENTER
 62
     7
 10
-210.1394348144531
 20
-20.35752677917481
 40
60
  0
CIRCLE
  8
0
  6
CENTER
 62
     7
 10
215.0370330810547
 20
-20.35752677917481
 40
60
  0
ARC
  8
0
  6
CONTINUOUS
 62
     7
 10
215.0370330810547
 20
-20.35752677917481
 40
48.00000000000001
 50
269.9999974955218
 51
90.00000250447812
  0
CIRCLE
  8
0
  6
CONTINUOUS
 62
     7
 10
-210.1394348144531
 20
39.64247131347656
 40
9.5
  0
CIRCLE
  8
0
  6
CONTINUOUS
 62
     7
 10
-270.1394348144531
 20
-20.35752677917481
 40
9.5
  0
CIRCLE
  8
0
  6
CONTINUOUS
 62
     7
 10
-210.1394348144531
 20
-80.35752868652344
 40
9.5
  0
CIRCLE
  8
0
  6
CONTINUOUS
 62
     7
 10
-150.1394348144531
 20
-20.35752677917481
 40
9.5
  0
ARC
  8
0
  6
CONTINUOUS
 62
     7
 10
215.0370330810547
 20
39.64247131347656
 40
9.500000000000002
 50
269.9999974955219
 51
90.00000250447812
  0
CIRCLE
  8
0
  6
CONTINUOUS
 62
     7
 10
275.0370178222656
 20
-20.35752677917481
 40
9.5
  0
ARC
  8
0
  6
CONTINUOUS
 62
     7
 10
215.0370330810547
 20
-80.35752868652344
 40
9.499999999999995
 50
269.9999974955219
 51
90.00000250447812
  0
ARC
  8
0
  6
CONTINUOUS
 62
     7
 10
32.41938781738281
 20
-68.85752868652344
 40
0.5000000000000004
 50
90.00000250447846
 51
180.0000050089569
  0
CIRCLE
  8
0
  6
CONTINUOUS
 62
     7
 10
-210.1394348144531
 20
-20.35752677917481
 40
30.14999961853027
  0
ARC
  8
0
  6
CONTINUOUS
 62
     7
 10
-19.58061027526856
 20
-49.30752944946289
 40
0.5000000000000004
 50
90.00000250447806
 51
180.0000050089561
  0
ARC
  8
0
  6
CONTINUOUS
 62
     7
 10
-11.88061141967773
 20
-49.30752944946289
 40
0.5
 50
0
 51
90.00000250447806
  0
ARC
  8
0
  6
CONTINUOUS
 62
     7
 10
-6.580611228942871
 20
-51.10752868652344
 40
0.5
 50
0
 51
90.00000250447816
  0
CIRCLE
  8
0
  6
CONTINUOUS
 62
     7
 10
-210.1394348144531
 20
-20.35752677917481
 40
32.5
  0
CIRCLE
  8
0
  6
CONTINUOUS
 62
     7
 10
-210.1394348144531
 20
-20.35752677917481
 40
24.25
  0
CIRCLE
  8
0
  6
CONTINUOUS
 62
     7
 10
-210.1394348144531
 20
-20.35752677917481
 40
28.29999923706055
  0
ARC
  8
0
  6
CONTINUOUS
 62
     7
 10
215.0370330810547
 20
-20.35752677917481
 40
24.25
 50
269.9999974955218
 51
90.00000250447816
  0
ARC
  8
0
  6
CENTER
 62
     7
 10
215.0370330810547
 20
-20.35752677917481
 40
37.5
 50
269.9999974955218
 51
90.00000250447816
  0
ARC
  8
0
  6
CENTER
 62
     7
 10
215.0370330810547
 20
-20.35752677917481
 40
42.5
 50
269.9999974955218
 51
90.00000250447816
  0
ARC
  8
0
  6
CONTINUOUS
 62
     7
 10
215.0370330810547
 20
-20.35752677917481
 40
38
 50
269.9999974955218
 51
90.00000250447812
  0
ARC
  8
0
  6
CONTINUOUS
 62
     7
 10
215.0370330810547
 20
-20.35752677917481
 40
37
 50
269.9999974955218
 51
90.00000250447816
  0
ARC
  8
0
  6
CONTINUOUS
 62
     7
 10
215.0370330810547
 20
-20.35752677917481
 40
42
 50
269.9999974955218
 51
90.00000250447816
  0
ARC
  8
0
  6
CONTINUOUS
 62
     7
 10
215.0370330810547
 20
-20.35752677917481
 40
43
 50
269.9999974955218
 51
90.00000250447812
  0
ARC
  8
0
  6
CONTINUOUS
 62
     7
 10
20.91938972473145
 20
-94.85752868652344
 40
3.000000000000001
 50
180.0000050089564
 51
270.0000006832453
  0
ARC
  8
0
  6
CONTINUOUS
 62
     7
 10
-35.08061218261719
 20
-49.60752868652344
 40
0.9999999999999967
 50
180.0000050089561
 51
270.0000006832455
  0
ARC
  8
0
  6
CONTINUOUS
 62
     7
 10
-20.18061065673828
 20
-50.50752639770508
 40
0.1000000014901162
 50
269.9999974955224
 51
0
  0
ARC
  8
0
  6
CONTINUOUS
 62
     7
 10
-11.28061103820801
 20
-50.50752639770508
 40
0.1000000014901165
 50
180.0000050089552
 51
270.0000006832452
  0
ARC
  8
0
  6
CONTINUOUS
 62
     7
 10
12.91938877105713
 20
-61.35752868652344
 40
5
 50
0
 51
90.00000250447816
  0
ARC
  8
0
  6
CONTINUOUS
 62
     7
 10
32.41938781738281
 20
28.1424732208252
 40
0.4999999999999986
 50
179.9999913485778
 51
270.0000006832455
  0
ARC
  8
0
  6
CONTINUOUS
 62
     7
 10
-6.580611228942871
 20
10.39247226715088
 40
0.5000000000000004
 50
269.9999974955218
 51
0
  0
ARC
  8
0
  6
CONTINUOUS
 62
     7
 10
-11.88061141967773
 20
8.592472076416016
 40
0.5000000000000004
 50
269.9999974955217
 51
0
  0
ARC
  8
0
  6
CONTINUOUS
 62
     7
 10
-20.18061065673828
 20
9.792471885681152
 40
0.1000000014901161
 50
0
 51
90.00000250447762
  0
ARC
  8
0
  6
CONTINUOUS
 62
     7
 10
-19.58061027526856
 20
8.592472076416016
 40
0.4999999999999983
 50
180.0000050089563
 51
270.0000006832455
  0
ARC
  8
0
  6
CONTINUOUS
 62
     7
 10
-11.28061103820801
 20
9.792471885681152
 40
0.1000000014901162
 50
90.00000250447864
 51
180.0000050089562
  0
ARC
  8
0
  6
CONTINUOUS
 62
     7
 10
-35.08061218261719
 20
8.892472267150879
 40
0.9999999999999991
 50
90.00000250447806
 51
180.0000050089563
  0
ARC
  8
0
  6
CONTINUOUS
 62
     7
 10
12.91938877105713
 20
20.6424732208252
 40
5.000000000000001
 50
269.9999974955218
 51
0
  0
ARC
  8
0
  6
CONTINUOUS
 62
     7
 10
20.91938972473145
 20
54.14247131347656
 40
3.000000000000003
 50
90.00000250447812
 51
180.0000050089562
  0
ARC
  8
0
  6
CONTINUOUS
 62
     7
 10
215.0370330810547
 20
39.64247131347656
 40
9.499999999999998
 50
89.99999567428895
 51
270.0000006832454
  0
ARC
  8
0
  6
CONTINUOUS
 62
     7
 10
215.0370330810547
 20
-80.35752868652344
 40
9.499999999999998
 50
89.99999567428895
 51
270.0000006832454
  0
ARC
  8
0
  6
CONTINUOUS
 62
     7
 10
215.0370330810547
 20
-20.35752677917481
 40
77.5
 50
89.999995674289
 51
270.0000006832453
  0
ARC
  8
0
  6
CONTINUOUS
 62
     7
 10
215.0370330810547
 20
-20.35752677917481
 40
48.00000000000001
 50
89.999995674289
 51
270.0000006832453
  0
CIRCLE
  8
0
  6
CONTINUOUS
 62
     7
 10
155.0370330810547
 20
-20.35752677917481
 40
9.5
  0
ARC
  8
0
  6
CONTINUOUS
 62
     7
 10
215.0370330810547
 20
-20.35752677917481
 40
24.25
 50
90.00000250447816
 51
270.0000006832453
  0
ARC
  8
0
  6
CONTINUOUS
 62
     7
 10
215.0370330810547
 20
-20.35752677917481
 40
42
 50
90.00000250447816
 51
270.0000006832453
  0
ARC
  8
0
  6
CENTER
 62
     7
 10
215.0370330810547
 20
-20.35752677917481
 40
42.5
 50
90.00000250447816
 51
270.0000006832453
  0
ARC
  8
0
  6
CONTINUOUS
 62
     7
 10
215.0370330810547
 20
-20.35752677917481
 40
38
 50
90.00000250447816
 51
270.0000006832453
  0
ARC
  8
0
  6
CENTER
 62
     7
 10
215.0370330810547
 20
-20.35752677917481
 40
37.5
 50
90.00000250447816
 51
270.0000006832453
  0
ARC
  8
0
  6
CONTINUOUS
 62
     7
 10
215.0370330810547
 20
-20.35752677917481
 40
37
 50
90.00000250447816
 51
270.0000006832453
  0
ARC
  8
0
  6
CONTINUOUS
 62
     7
 10
215.0370330810547
 20
-20.35752677917481
 40
43
 50
90.00000250447816
 51
270.0000006832453
  0
ARC
  8
0
  6
CONTINUOUS
 62
     7
 10
-2.587783336639404
 20
-207.2014770507813
 40
0.5000000000000004
 50
269.9999974955218
 51
0
  0
ARC
  8
0
  6
CONTINUOUS
 62
     7
 10
-15.58778285980225
 20
-209.2514801025391
 40
0.4999999999999983
 50
180.0000050089569
 51
270.0000006832452
  0
ARC
  8
0
  6
CONTINUOUS
 62
     7
 10
-7.887783527374268
 20
-209.2514801025391
 40
0.5000000000000004
 50
269.9999974955218
 51
0
  0
CIRCLE
  8
0
  6
CONTINUOUS
 62
     7
 10
-210.0877838134766
 20
-245.8514709472656
 40
87.5
  0
ARC
  8
0
  6
CONTINUOUS
 62
     7
 10
224.6181030273438
 20
-245.8514709472656
 40
87.49999999999997
 50
269.9999974955218
 51
90.00000250447815
  0
CIRCLE
  8
0
  6
CENTER
 62
     7
 10
-210.0877838134766
 20
-245.8514709472656
 40
70
  0
CIRCLE
  8
0
  6
CENTER
 62
     7
 10
224.6181030273438
 20
-245.8514709472656
 40
70
  0
CIRCLE
  8
0
  6
CONTINUOUS
 62
     7
 10
-210.0877838134766
 20
-245.8514709472656
 40
33.95000076293945
  0
CIRCLE
  8
0
  6
CONTINUOUS
 62
     7
 10
-210.0877838134766
 20
-245.8514709472656
 40
38.15000152587891
  0
ARC
  8
0
  6
CONTINUOUS
 62
     7
 10
224.6181030273438
 20
-245.8514709472656
 40
58
 50
269.9999974955218
 51
90.00000250447816
  0
ARC
  8
0
  6
CONTINUOUS
 62
     7
 10
-16.18778419494629
 20
-207.8014831542969
 40
0.1000000014901161
 50
0
 51
90.00000250447762
  0
CIRCLE
  8
0
  6
CONTINUOUS
 62
     7
 10
-210.0877838134766
 20
-315.8514709472656
 40
9.5
  0
CIRCLE
  8
0
  6
CONTINUOUS
 62
     7
 10
-140.0877838134766
 20
-245.8514709472656
 40
9.5
  0
CIRCLE
  8
0
  6
CONTINUOUS
 62
     7
 10
-210.0877838134766
 20
-175.8514709472656
 40
9.5
  0
CIRCLE
  8
0
  6
CONTINUOUS
 62
     7
 10
-280.0877990722656
 20
-245.8514709472656
 40
9.5
  0
ARC
  8
0
  6
CONTINUOUS
 62
     7
 10
224.6181030273438
 20
-175.8514709472656
 40
9.500000000000009
 50
269.9999974955219
 51
90.00000250447812
  0
CIRCLE
  8
0
  6
CONTINUOUS
 62
     7
 10
294.6181030273438
 20
-245.8514709472656
 40
9.5
  0
ARC
  8
0
  6
CONTINUOUS
 62
     7
 10
224.6181030273438
 20
-315.8514709472656
 40
9.500000000000009
 50
269.9999974955219
 51
90.00000250447812
  0
ARC
  8
0
  6
CONTINUOUS
 62
     7
 10
46.41221618652344
 20
-187.351806640625
 40
0.4999999999999986
 50
180.0000086514214
 51
269.9999974955215
  0
ARC
  8
0
  6
CONTINUOUS
 62
     7
 10
-7.287783145904541
 20
-207.8014831542969
 40
0.1000000014901162
 50
90.00000250447812
 51
180.0000050089634
  0
ARC
  8
0
  6
CONTINUOUS
 62
     7
 10
32.91221618652344
 20
-161.3518218994141
 40
3.000000000000003
 50
90.0000025044782
 51
180.0000050089564
  0
ARC
  8
0
  6
CONTINUOUS
 62
     7
 10
24.91221618652344
 20
-195.3514709472656
 40
5.000000000000004
 50
269.9999974955218
 51
0
  0
CIRCLE
  8
0
  6
CONTINUOUS
 62
     7
 10
-210.0877838134766
 20
-245.8514709472656
 40
31
  0
ARC
  8
0
  6
CONTINUOUS
 62
     7
 10
224.6181030273438
 20
-245.8514709472656
 40
31.00000000000003
 50
269.9999974955218
 51
90.00000250447815
  0
ARC
  8
0
  6
CONTINUOUS
 62
     7
 10
224.6181030273438
 20
-245.8514709472656
 40
46.99999999999999
 50
90.00000250447815
 51
270.0000006832453
  0
ARC
  8
0
  6
CONTINUOUS
 62
     7
 10
224.6181030273438
 20
-245.8514709472656
 40
47.99999999999999
 50
90.00000250447816
 51
270.0000006832453
  0
ARC
  8
0
  6
CONTINUOUS
 62
     7
 10
224.6181030273438
 20
-245.8514709472656
 40
51.99999999999999
 50
90.00000250447815
 51
270.0000006832453
  0
ARC
  8
0
  6
CONTINUOUS
 62
     7
 10
-2.587783336639404
 20
-284.50146484375
 40
0.5
 50
0
 51
90.00000250447816
  0
ARC
  8
0
  6
CONTINUOUS
 62
     7
 10
-15.58778285980225
 20
-282.4514770507813
 40
0.5000000000000004
 50
90.00000250447806
 51
180.0000050089569
  0
ARC
  8
0
  6
CENTER
 62
     7
 10
224.6181030273438
 20
-245.8514709472656
 40
47.49999999999999
 50
90.00000250447816
 51
270.0000006832453
  0
ARC
  8
0
  6
CENTER
 62
     7
 10
224.6181030273438
 20
-245.8514709472656
 40
52.49999999999999
 50
90.00000250447816
 51
270.0000006832453
  0
ARC
  8
0
  6
CONTINUOUS
 62
     7
 10
224.6181030273438
 20
-245.8514709472656
 40
52.99999999999999
 50
90.00000250447816
 51
270.0000006832453
  0
CIRCLE
  8
0
  6
CONTINUOUS
 62
     7
 10
-210.0877838134766
 20
-245.8514709472656
 40
41
  0
ARC
  8
0
  6
CONTINUOUS
 62
     7
 10
224.6181030273438
 20
-245.8514709472656
 40
52.99999999999999
 50
269.9999974955218
 51
90.00000250447812
  0
ARC
  8
0
  6
CENTER
 62
     7
 10
224.6181030273438
 20
-245.8514709472656
 40
52.49999999999999
 50
269.9999974955218
 51
90.00000250447816
  0
ARC
  8
0
  6
CENTER
 62
     7
 10
224.6181030273438
 20
-245.8514709472656
 40
47.49999999999999
 50
269.9999974955218
 51
90.00000250447816
  0
ARC
  8
0
  6
CONTINUOUS
 62
     7
 10
224.6181030273438
 20
-245.8514709472656
 40
51.99999999999999
 50
269.9999974955218
 51
90.00000250447815
  0
ARC
  8
0
  6
CONTINUOUS
 62
     7
 10
224.6181030273438
 20
-245.8514709472656
 40
47.99999999999999
 50
269.9999974955218
 51
90.00000250447812
  0
ARC
  8
0
  6
CONTINUOUS
 62
     7
 10
224.6181030273438
 20
-245.8514709472656
 40
46.99999999999999
 50
269.9999974955218
 51
90.00000250447815
  0
ARC
  8
0
  6
CONTINUOUS
 62
     7
 10
224.6181030273438
 20
-245.8514709472656
 40
31
 50
90.00000250447815
 51
270.0000006832453
  0
ARC
  8
0
  6
CONTINUOUS
 62
     7
 10
-31.08778381347656
 20
-208.7014770507813
 40
1.000000000000001
 50
90.00000250447806
 51
180.0000050089569
  0
ARC
  8
0
  6
CONTINUOUS
 62
     7
 10
224.6181030273438
 20
-315.8514709472656
 40
9.500000000000027
 50
89.99999567428895
 51
270.0000006832454
  0
CIRCLE
  8
0
  6
CONTINUOUS
 62
     7
 10
154.6181030273438
 20
-245.8514709472656
 40
9.5
  0
ARC
  8
0
  6
CONTINUOUS
 62
     7
 10
224.6181030273438
 20
-175.8514709472656
 40
9.499999999999998
 50
89.99999567428895
 51
270.0000006832454
  0
ARC
  8
0
  6
CONTINUOUS
 62
     7
 10
224.6181030273438
 20
-245.8514709472656
 40
57.99999999999999
 50
89.999995674289
 51
270.0000006832453
  0
ARC
  8
0
  6
CONTINUOUS
 62
     7
 10
224.6181030273438
 20
-245.8514709472656
 40
87.5
 50
89.99999567428898
 51
270.0000006832453
  0
ARC
  8
0
  6
CONTINUOUS
 62
     7
 10
-31.08778381347656
 20
-283.00146484375
 40
0.9999999999999967
 50
180.0000050089569
 51
270.0000006832452
  0
ARC
  8
0
  6
CONTINUOUS
 62
     7
 10
24.91221618652344
 20
-296.3514709472656
 40
5
 50
0
 51
90.00000250447815
  0
ARC
  8
0
  6
CONTINUOUS
 62
     7
 10
32.91221618652344
 20
-330.3511352539063
 40
3.000000000000001
 50
180.0000050089558
 51
270.0000006832453
  0
ARC
  8
0
  6
CONTINUOUS
 62
     7
 10
-7.287783145904541
 20
-283.9014892578125
 40
0.1000000014901165
 50
180.0000050089634
 51
270.0000006832452
  0
ARC
  8
0
  6
CONTINUOUS
 62
     7
 10
46.41221618652344
 20
-304.3511352539063
 40
0.5000000000000004
 50
90.00000250447846
 51
179.9999913485786
  0
ARC
  8
0
  6
CONTINUOUS
 62
     7
 10
-16.18778419494629
 20
-283.9014892578125
 40
0.1000000014901162
 50
269.9999974955224
 51
0
  0
ARC
  8
0
  6
CONTINUOUS
 62
     7
 10
-7.887783527374268
 20
-282.4514770507813
 40
0.5
 50
0
 51
90.00000250447816
  0
ARC
  8
0
  6
CONTINUOUS
 62
     7
 10
51.63861846923828
 20
-417.9672241210938
 40
3.000000000000003
 50
90.0000025044782
 51
180.0000050089558
  0
ARC
  8
0
  6
CONTINUOUS
 62
     7
 10
240.5993957519531
 20
-507.4672241210938
 40
37.00000000000004
 50
269.9999974955218
 51
90.00000250447816
  0
ARC
  8
0
  6
CENTER
 62
     7
 10
240.5993957519531
 20
-507.4672241210938
 40
52.50000000000005
 50
269.9999974955218
 51
90.00000250447816
  0
ARC
  8
0
  6
CONTINUOUS
 62
     7
 10
65.13861846923828
 20
-570.9672241210938
 40
0.5000000000000004
 50
90.00000250447846
 51
179.9999913485721
  0
CIRCLE
  8
0
  6
CONTINUOUS
 62
     7
 10
-194.1064910888672
 20
-507.4672241210938
 40
92.5
  0
ARC
  8
0
  6
CONTINUOUS
 62
     7
 10
240.5993957519531
 20
-507.4672241210938
 40
92.49999999999997
 50
269.9999974955218
 51
89.99998884409982
  0
CIRCLE
  8
0
  6
CENTER
 62
     7
 10
-194.1064910888672
 20
-507.4672241210938
 40
75
  0
CIRCLE
  8
0
  6
CENTER
 62
     7
 10
240.5993957519531
 20
-507.4672241210938
 40
75
  0
ARC
  8
0
  6
CONTINUOUS
 62
     7
 10
240.5993957519531
 20
-507.4672241210938
 40
63.00000000000006
 50
269.9999974955218
 51
89.99998884409983
  0
ARC
  8
0
  6
CONTINUOUS
 62
     7
 10
65.13861846923828
 20
-443.9672241210938
 40
0.5000000000000057
 50
180.0000086514214
 51
269.9999974955215
  0
CIRCLE
  8
0
  6
CONTINUOUS
 62
     7
 10
-141.0734710693359
 20
-454.4342346191406
 40
9.5
  0
CIRCLE
  8
0
  6
CONTINUOUS
 62
     7
 10
-141.0734710693359
 20
-560.500244140625
 40
9.5
  0
CIRCLE
  8
0
  6
CONTINUOUS
 62
     7
 10
-247.1394958496094
 20
-560.500244140625
 40
9.5
  0
CIRCLE
  8
0
  6
CONTINUOUS
 62
     7
 10
-269.1064758300781
 20
-507.4672241210938
 40
9.5
  0
ARC
  8
0
  6
CONTINUOUS
 62
     7
 10
240.5993957519531
 20
-432.4672241210938
 40
9.500000000000009
 50
269.9999974955219
 51
90.00000250447812
  0
CIRCLE
  8
0
  6
CONTINUOUS
 62
     7
 10
293.6324157714844
 20
-454.4342346191406
 40
9.5
  0
CIRCLE
  8
0
  6
CONTINUOUS
 62
     7
 10
315.5993957519531
 20
-507.4672241210938
 40
9.5
  0
CIRCLE
  8
0
  6
CONTINUOUS
 62
     7
 10
293.6324157714844
 20
-560.500244140625
 40
9.5
  0
ARC
  8
0
  6
CONTINUOUS
 62
     7
 10
240.5993957519531
 20
-582.4672241210938
 40
9.500000000000009
 50
269.9999974955219
 51
90.00000250447812
  0
CIRCLE
  8
0
  6
CONTINUOUS
 62
     7
 10
-247.1394958496094
 20
-454.4342346191406
 40
9.5
  0
CIRCLE
  8
0
  6
CONTINUOUS
 62
     7
 10
-194.1064910888672
 20
-432.4672241210938
 40
9.5
  0
CIRCLE
  8
0
  6
CONTINUOUS
 62
     7
 10
-194.1064910888672
 20
-582.4672241210938
 40
9.5
  0
CIRCLE
  8
0
  6
CONTINUOUS
 62
     7
 10
-119.1064834594727
 20
-507.4672241210938
 40
9.5
  0
ARC
  8
0
  6
CONTINUOUS
 62
     7
 10
240.5993957519531
 20
-507.4672241210938
 40
58.00000000000006
 50
269.9999974955218
 51
90.00000250447816
  0
ARC
  8
0
  6
CONTINUOUS
 62
     7
 10
240.5993957519531
 20
-507.4672241210938
 40
57.00000000000006
 50
269.9999974955218
 51
90.00000250447815
  0
ARC
  8
0
  6
CONTINUOUS
 62
     7
 10
240.5993957519531
 20
-507.4672241210938
 40
53.00000000000005
 50
269.9999974955218
 51
90.00000250447812
  0
ARC
  8
0
  6
CONTINUOUS
 62
     7
 10
240.5993957519531
 20
-507.4672241210938
 40
52.00000000000005
 50
269.9999974955218
 51
90.00000250447815
  0
ARC
  8
0
  6
CENTER
 62
     7
 10
240.5993957519531
 20
-507.4672241210938
 40
57.50000000000006
 50
269.9999974955218
 51
90.00000250447816
  0
CIRCLE
  8
0
  6
CONTINUOUS
 62
     7
 10
-194.1064910888672
 20
-507.4672241210938
 40
40.25
  0
CIRCLE
  8
0
  6
CONTINUOUS
 62
     7
 10
-194.1064910888672
 20
-507.4672241210938
 40
44.45000076293945
  0
ARC
  8
0
  6
CONTINUOUS
 62
     7
 10
240.5993957519531
 20
-507.4672241210938
 40
62.99999999999999
 50
90.00000933466734
 51
270.0000006832453
  0
ARC
  8
0
  6
CONTINUOUS
 62
     7
 10
240.5993957519531
 20
-432.4672241210938
 40
9.500000000000027
 50
89.99999567428895
 51
270.0000006832454
  0
CIRCLE
  8
0
  6
CONTINUOUS
 62
     7
 10
187.5663909912109
 20
-454.4342346191406
 40
9.5
  0
ARC
  8
0
  6
CONTINUOUS
 62
     7
 10
240.5993957519531
 20
-507.4672241210938
 40
92.49999999999999
 50
90.00000933466733
 51
270.0000006832453
  0
ARC
  8
0
  6
CONTINUOUS
 62
     7
 10
240.5993957519531
 20
-582.4672241210938
 40
9.500000000000027
 50
89.99999567428895
 51
270.0000006832454
  0
ARC
  8
0
  6
CENTER
 62
     7
 10
240.5993957519531
 20
-507.4672241210938
 40
52.49999999999999
 50
90.00000250447816
 51
270.0000006832453
  0
CIRCLE
  8
0
  6
CONTINUOUS
 62
     7
 10
165.5993957519531
 20
-507.4672241210938
 40
9.5
  0
CIRCLE
  8
0
  6
CONTINUOUS
 62
     7
 10
187.5663909912109
 20
-560.500244140625
 40
9.5
  0
ARC
  8
0
  6
CONTINUOUS
 62
     7
 10
240.5993957519531
 20
-507.4672241210938
 40
36.99999999999998
 50
90.00000250447816
 51
270.0000006832453
  0
ARC
  8
0
  6
CONTINUOUS
 62
     7
 10
2.538618564605713
 20
-463.1172180175781
 40
0.1000000014901161
 50
0
 51
90.00000250447812
  0
ARC
  8
0
  6
CONTINUOUS
 62
     7
 10
11.43861865997315
 20
-463.1172180175781
 40
0.1000000014901162
 50
90.00000250447864
 51
180.0000050089634
  0
ARC
  8
0
  6
CONTINUOUS
 62
     7
 10
3.13861870765686
 20
-464.5172424316406
 40
0.5000000000000001
 50
180.0000050089569
 51
270.0000006832453
  0
ARC
  8
0
  6
CONTINUOUS
 62
     7
 10
10.83861827850342
 20
-464.5172424316406
 40
0.5000000000000004
 50
269.9999974955217
 51
0
  0
ARC
  8
0
  6
CONTINUOUS
 62
     7
 10
16.13861846923828
 20
-462.5172424316406
 40
0.5000000000000004
 50
269.9999974955219
 51
0
  0
CIRCLE
  8
0
  6
CONTINUOUS
 62
     7
 10
-194.1064910888672
 20
-507.4672241210938
 40
47
  0
CIRCLE
  8
0
  6
CONTINUOUS
 62
     7
 10
-194.1064910888672
 20
-507.4672241210938
 40
37
  0
ARC
  8
0
  6
CONTINUOUS
 62
     7
 10
240.5993957519531
 20
-507.4672241210938
 40
51.99999999999999
 50
90.00000250447815
 51
270.0000006832453
  0
ARC
  8
0
  6
CONTINUOUS
 62
     7
 10
-12.36138153076172
 20
-464.0172424316406
 40
1.000000000000001
 50
90.00000250447816
 51
180.0000050089569
  0
ARC
  8
0
  6
CONTINUOUS
 62
     7
 10
42.63861846923828
 20
-449.4672241210938
 40
6.000000000000006
 50
269.9999974955218
 51
0
  0
ARC
  8
0
  6
CONTINUOUS
 62
     7
 10
42.63861846923828
 20
-565.4672241210938
 40
6
 50
0
 51
90.00000250447812
  0
ARC
  8
0
  6
CONTINUOUS
 62
     7
 10
-12.36138153076172
 20
-550.917236328125
 40
1
 50
180.0000050089569
 51
270.0000006832453
  0
ARC
  8
0
  6
CONTINUOUS
 62
     7
 10
240.5993957519531
 20
-507.4672241210938
 40
52.99999999999999
 50
90.00000250447816
 51
270.0000006832453
  0
ARC
  8
0
  6
CONTINUOUS
 62
     7
 10
240.5993957519531
 20
-507.4672241210938
 40
58
 50
90.00000250447816
 51
270.0000006832453
  0
ARC
  8
0
  6
CONTINUOUS
 62
     7
 10
240.5993957519531
 20
-507.4672241210938
 40
57
 50
90.00000250447815
 51
270.0000006832453
  0
ARC
  8
0
  6
CONTINUOUS
 62
     7
 10
16.13861846923828
 20
-552.417236328125
 40
0.5
 50
0
 51
90.00000250447806
  0
ARC
  8
0
  6
CONTINUOUS
 62
     7
 10
10.83861827850342
 20
-550.417236328125
 40
0.5
 50
0
 51
90.00000250447806
  0
ARC
  8
0
  6
CONTINUOUS
 62
     7
 10
3.13861870765686
 20
-550.417236328125
 40
0.5000000000000004
 50
90.00000250447816
 51
180.0000050089504
  0
ARC
  8
0
  6
CONTINUOUS
 62
     7
 10
51.63861846923828
 20
-596.9672241210938
 40
2.999999999999997
 50
180.0000050089569
 51
270.0000006832453
  0
ARC
  8
0
  6
CENTER
 62
     7
 10
240.5993957519531
 20
-507.4672241210938
 40
57.5
 50
90.00000250447816
 51
270.0000006832453
  0
ARC
  8
0
  6
CONTINUOUS
 62
     7
 10
11.43861865997315
 20
-551.8171997070313
 40
0.1000000014901165
 50
180.0000050089634
 51
270.0000006832452
  0
ARC
  8
0
  6
CONTINUOUS
 62
     7
 10
2.538618564605713
 20
-551.8171997070313
 40
0.1000000014901162
 50
269.9999974955219
 51
0
  0
CIRCLE
  8
0
  6
CONTINUOUS
 62
     7
 10
-176.4482421875
 20
-763.2940673828125
 40
60
  0
ARC
  8
0
  6
CONTINUOUS
 62
     7
 10
263.2576599121094
 20
-763.2940673828125
 40
62.00000000000006
 50
269.9999974955218
 51
90.00000250447815
  0
ARC
  8
0
  6
CONTINUOUS
 62
     7
 10
263.2576599121094
 20
-763.2940673828125
 40
66.99999999999994
 50
269.9999974955218
 51
90.00000250447812
  0
ARC
  8
0
  6
CONTINUOUS
 62
     7
 10
263.2576599121094
 20
-763.2940673828125
 40
67.99999999999996
 50
269.9999974955218
 51
90.00000250447815
  0
CIRCLE
  8
0
  6
CONTINUOUS
 62
     7
 10
-176.4482421875
 20
-763.2940673828125
 40
105
  0
ARC
  8
0
  6
CONTINUOUS
 62
     7
 10
263.2576599121094
 20
-763.2940673828125
 40
105
 50
269.9999974955218
 51
90.00000250447816
  0
CIRCLE
  8
0
  6
CENTER
 62
     7
 10
-176.4482421875
 20
-763.2940673828125
 40
87.5
  0
CIRCLE
  8
0
  6
CENTER
 62
     7
 10
263.2576599121094
 20
-763.2940673828125
 40
87.5
  0
ARC
  8
0
  6
CONTINUOUS
 62
     7
 10
263.2576599121094
 20
-763.2940673828125
 40
75.49999999999996
 50
269.9999974955218
 51
90.00000250447815
  0
CIRCLE
  8
0
  6
CONTINUOUS
 62
     7
 10
-176.4482421875
 20
-763.2940673828125
 40
57.15000152587891
  0
CIRCLE
  8
0
  6
CONTINUOUS
 62
     7
 10
-176.4482421875
 20
-763.2940673828125
 40
49
  0
CIRCLE
  8
0
  6
CONTINUOUS
 62
     7
 10
-176.4482421875
 20
-675.7940673828125
 40
9.5
  0
CIRCLE
  8
0
  6
CONTINUOUS
 62
     7
 10
-114.5764007568359
 20
-701.4222412109375
 40
9.5
  0
CIRCLE
  8
0
  6
CONTINUOUS
 62
     7
 10
-88.9482421875
 20
-763.2940673828125
 40
9.5
  0
CIRCLE
  8
0
  6
CONTINUOUS
 62
     7
 10
-114.5764007568359
 20
-825.1659545898438
 40
9.5
  0
CIRCLE
  8
0
  6
CONTINUOUS
 62
     7
 10
-176.4482421875
 20
-850.7940673828125
 40
9.5
  0
CIRCLE
  8
0
  6
CONTINUOUS
 62
     7
 10
-238.3200836181641
 20
-825.1659545898438
 40
9.5
  0
CIRCLE
  8
0
  6
CONTINUOUS
 62
     7
 10
-263.9482421875
 20
-763.2940673828125
 40
9.5
  0
CIRCLE
  8
0
  6
CONTINUOUS
 62
     7
 10
-238.3200836181641
 20
-701.4222412109375
 40
9.5
  0
ARC
  8
0
  6
CONTINUOUS
 62
     7
 10
263.2576599121094
 20
-675.7940673828125
 40
9.500000000000009
 50
269.9999974955217
 51
90.0000025044783
  0
CIRCLE
  8
0
  6
CONTINUOUS
 62
     7
 10
325.1294860839844
 20
-701.4222412109375
 40
9.5
  0
CIRCLE
  8
0
  6
CONTINUOUS
 62
     7
 10
350.7576599121094
 20
-763.2940673828125
 40
9.5
  0
CIRCLE
  8
0
  6
CONTINUOUS
 62
     7
 10
325.1294860839844
 20
-825.1659545898438
 40
9.5
  0
ARC
  8
0
  6
CONTINUOUS
 62
     7
 10
263.2576599121094
 20
-850.7940673828125
 40
9.500000000000009
 50
269.9999974955217
 51
90.0000025044783
  0
ARC
  8
0
  6
CONTINUOUS
 62
     7
 10
90.59276580810547
 20
-687.2940673828125
 40
0.5000000000000057
 50
179.9999913485721
 51
270.0000006832446
  0
ARC
  8
0
  6
CENTER
 62
     7
 10
263.2576599121094
 20
-763.2940673828125
 40
62.50000000000006
 50
269.9999974955218
 51
90.00000250447812
  0
ARC
  8
0
  6
CONTINUOUS
 62
     7
 10
90.59276580810547
 20
-839.2940673828125
 40
0.5000000000000004
 50
90.00000250447846
 51
180.0000050089504
  0
ARC
  8
0
  6
CONTINUOUS
 62
     7
 10
263.2576599121094
 20
-763.2940673828125
 40
63.00000000000006
 50
269.9999974955218
 51
90.00000250447816
  0
ARC
  8
0
  6
CENTER
 62
     7
 10
263.2576599121094
 20
-763.2940673828125
 40
67.49999999999996
 50
269.9999974955218
 51
90.00000250447815
  0
ARC
  8
0
  6
CONTINUOUS
 62
     7
 10
263.2576599121094
 20
-763.2940673828125
 40
49.00000000000005
 50
90.00000250447815
 51
270.0000006832453
  0
ARC
  8
0
  6
CONTINUOUS
 62
     7
 10
41.5927619934082
 20
-705.6441040039063
 40
0.5000000000000004
 50
269.9999974955215
 51
0
  0
ARC
  8
0
  6
CONTINUOUS
 62
     7
 10
28.59276390075684
 20
-707.7440795898438
 40
0.4999999999999983
 50
180.0000050089504
 51
270.0000006832455
  0
ARC
  8
0
  6
CENTER
 62
     7
 10
263.2576599121094
 20
-763.2940673828125
 40
67.49999999999996
 50
90.00000250447815
 51
270.0000006832453
  0
ARC
  8
0
  6
CONTINUOUS
 62
     7
 10
36.29276275634766
 20
-707.7440795898438
 40
0.5000000000000004
 50
269.9999974955215
 51
0
  0
ARC
  8
0
  6
CONTINUOUS
 62
     7
 10
12.59276294708252
 20
-706.6441040039063
 40
0.5000000000000004
 50
90.00000250447806
 51
180.0000050089504
  0
ARC
  8
0
  6
CONTINUOUS
 62
     7
 10
263.2576599121094
 20
-763.2940673828125
 40
63.00000000000006
 50
90.00000250447816
 51
270.0000006832453
  0
ARC
  8
0
  6
CENTER
 62
     7
 10
263.2576599121094
 20
-763.2940673828125
 40
62.50000000000006
 50
90.00000250447819
 51
270.0000006832453
  0
ARC
  8
0
  6
CONTINUOUS
 62
     7
 10
27.99276351928711
 20
-706.2440795898438
 40
0.1000000014901161
 50
0
 51
90.00000250447762
  0
ARC
  8
0
  6
CONTINUOUS
 62
     7
 10
77.09276580810547
 20
-661.2940673828125
 40
3.000000000000003
 50
90.0000025044782
 51
180.0000050089569
  0
ARC
  8
0
  6
CONTINUOUS
 62
     7
 10
36.89276123046875
 20
-706.2440795898438
 40
0.1000000014901162
 50
90.00000250447762
 51
180.0000050089634
  0
CIRCLE
  8
0
  6
CONTINUOUS
 62
     7
 10
-176.4482421875
 20
-763.2940673828125
 40
52.65000152587891
  0
ARC
  8
0
  6
CONTINUOUS
 62
     7
 10
263.2576599121094
 20
-763.2940673828125
 40
49.00000000000005
 50
269.9999974955218
 51
90.00000250447815
  0
ARC
  8
0
  6
CONTINUOUS
 62
     7
 10
263.2576599121094
 20
-850.7940673828125
 40
9.500000000000027
 50
89.99999567428914
 51
270.0000006832454
  0
CIRCLE
  8
0
  6
CONTINUOUS
 62
     7
 10
201.3858032226563
 20
-825.1659545898438
 40
9.5
  0
CIRCLE
  8
0
  6
CONTINUOUS
 62
     7
 10
175.7576446533203
 20
-763.2940673828125
 40
9.5
  0
CIRCLE
  8
0
  6
CONTINUOUS
 62
     7
 10
201.3858032226563
 20
-701.4222412109375
 40
9.5
  0
ARC
  8
0
  6
CONTINUOUS
 62
     7
 10
263.2576599121094
 20
-675.7940673828125
 40
9.500000000000027
 50
89.99999567428914
 51
270.0000006832454
  0
ARC
  8
0
  6
CONTINUOUS
 62
     7
 10
263.2576599121094
 20
-763.2940673828125
 40
75.49999999999999
 50
89.99999567428898
 51
270.0000006832453
  0
ARC
  8
0
  6
CONTINUOUS
 62
     7
 10
263.2576599121094
 20
-763.2940673828125
 40
105
 50
89.999995674289
 51
270.0000006832453
  0
ARC
  8
0
  6
CONTINUOUS
 62
     7
 10
263.2576599121094
 20
-763.2940673828125
 40
62.00000000000006
 50
90.00000250447815
 51
270.0000006832453
  0
ARC
  8
0
  6
CONTINUOUS
 62
     7
 10
263.2576599121094
 20
-763.2940673828125
 40
66.99999999999994
 50
90.00000250447819
 51
270.0000006832453
  0
ARC
  8
0
  6
CONTINUOUS
 62
     7
 10
263.2576599121094
 20
-763.2940673828125
 40
67.99999999999996
 50
90.00000250447819
 51
270.0000006832453
  0
ARC
  8
0
  6
CONTINUOUS
 62
     7
 10
68.09276580810547
 20
-834.2940673828125
 40
6
 50
0
 51
90.0000025044782
  0
ARC
  8
0
  6
CONTINUOUS
 62
     7
 10
36.89276123046875
 20
-820.3441162109375
 40
0.1000000014901165
 50
180.0000050089634
 51
270.0000006832462
  0
ARC
  8
0
  6
CONTINUOUS
 62
     7
 10
77.09276580810547
 20
-865.2940673828125
 40
2.999999999999997
 50
180.0000050089569
 51
270.0000006832455
  0
ARC
  8
0
  6
CONTINUOUS
 62
     7
 10
27.99276351928711
 20
-820.3441162109375
 40
0.1000000014901162
 50
269.9999974955224
 51
0
  0
ARC
  8
0
  6
CONTINUOUS
 62
     7
 10
12.59276294708252
 20
-819.944091796875
 40
0.5000000000000001
 50
180.0000050089504
 51
270.0000006832452
  0
ARC
  8
0
  6
CONTINUOUS
 62
     7
 10
36.29276275634766
 20
-818.8441162109375
 40
0.5
 50
0
 51
90.00000250447846
  0
ARC
  8
0
  6
CONTINUOUS
 62
     7
 10
28.59276390075684
 20
-818.8441162109375
 40
0.5000000000000004
 50
90.00000250447806
 51
180.0000050089504
  0
ARC
  8
0
  6
CONTINUOUS
 62
     7
 10
41.5927619934082
 20
-820.944091796875
 40
0.5
 50
0
 51
90.00000250447846
  0
ARC
  8
0
  6
CONTINUOUS
 62
     7
 10
68.09276580810547
 20
-692.2940673828125
 40
6.000000000000006
 50
269.9999974955218
 51
0
  0
POLYLINE
  8
0
  6
CONTINUOUS
 62
     7
 66
     1
 10
0
 20
0
 70
     1
  0
VERTEX
  8
0
  6
CONTINUOUS
 62
     7
 10
-163.3098260536331
 20
-193.6638775772637
 42
0.1497887561355434
  0
VERTEX
  8
0
  6
CONTINUOUS
 62
     7
 10
-164.6686181280541
 20
-195.7918478008684
 42
0.1049344985805542
  0
VERTEX
  8
0
  6
CONTINUOUS
 62
     7
 10
-164.8248135725843
 20
-198.3302044821051
 42
0.07564923979776282
  0
VERTEX
  8
0
  6
CONTINUOUS
 62
     7
 10
-164.0867315364739
 20
-200.7745928445324
 42
0.06403560301963984
  0
VERTEX
  8
0
  6
CONTINUOUS
 62
     7
 10
-162.7088290834283
 20
-202.9301836180658
 42
0.06397774454086733
  0
VERTEX
  8
0
  6
CONTINUOUS
 62
     7
 10
-160.8367149719132
 20
-204.670668268566
 42
0.07566801199658965
  0
VERTEX
  8
0
  6
CONTINUOUS
 62
     7
 10
-158.5634136850182
 20
-205.8355883328104
 42
0.1050050298383976
  0
VERTEX
  8
0
  6
CONTINUOUS
 62
     7
 10
-156.0364057265492
 20
-206.1369228418821
 42
0.1497616476415073
  0
VERTEX
  8
0
  6
CONTINUOUS
 62
     7
 10
-153.700066278057
 20
-205.1813650226973
 42
0.1497887561348126
  0
VERTEX
  8
0
  6
CONTINUOUS
 62
     7
 10
-152.341274203636
 20
-203.0533947990925
 42
0.1049344985811531
  0
VERTEX
  8
0
  6
CONTINUOUS
 62
     7
 10
-152.1850787591059
 20
-200.5150381178559
 42
0.07564923979832215
  0
VERTEX
  8
0
  6
CONTINUOUS
 62
     7
 10
-152.9231607952163
 20
-198.0706497554286
 42
0.06403560301976111
  0
VERTEX
  8
0
  6
CONTINUOUS
 62
     7
 10
-154.3010632482618
 20
-195.9150589818952
 42
0.06397774454063217
  0
VERTEX
  8
0
  6
CONTINUOUS
 62
     7
 10
-156.173177359777
 20
-194.174574331395
 42
0.07566801199652101
  0
VERTEX
  8
0
  6
CONTINUOUS
 62
     7
 10
-158.446478646672
 20
-193.0096542671506
 42
0.1050050298388506
  0
VERTEX
  8
0
  6
CONTINUOUS
 62
     7
 10
-160.973486605141
 20
-192.7083197580789
 42
0.1497616476418474
  0
SEQEND
  8
0
  0
POLYLINE
  8
0
  6
CONTINUOUS
 62
     7
 66
     1
 10
0
 20
0
 70
     1
  0
VERTEX
  8
0
  6
CONTINUOUS
 62
     7
 10
-148.7449885004713
 20
-679.4249588144538
 42
0.1497887561332055
  0
VERTEX
  8
0
  6
CONTINUOUS
 62
     7
 10
-149.2358187439997
 20
-681.9015812818669
 42
0.1049344985825914
  0
VERTEX
  8
0
  6
CONTINUOUS
 62
     7
 10
-148.457174807185
 20
-684.3226069483422
 42
0.07564923979837247
  0
VERTEX
  8
0
  6
CONTINUOUS
 62
     7
 10
-146.8798339378002
 20
-686.3305400498591
 42
0.0640356030183942
  0
VERTEX
  8
0
  6
CONTINUOUS
 62
     7
 10
-144.811720989369
 20
-687.836559832459
 42
0.06397774454226336
  0
VERTEX
  8
0
  6
CONTINUOUS
 62
     7
 10
-142.4344364478155
 20
-688.7760364280439
 42
0.0756680119994021
  0
VERTEX
  8
0
  6
CONTINUOUS
 62
     7
 10
-139.8930378515995
 20
-689.0333896332487
 42
0.1050050298427351
  0
VERTEX
  8
0
  6
CONTINUOUS
 62
     7
 10
-137.4297424105661
 20
-688.3940561688446
 42
0.1497616476429991
  0
VERTEX
  8
0
  6
CONTINUOUS
 62
     7
 10
-135.6016180859026
 20
-686.6535004478291
 42
0.1497887561361439
  0
VERTEX
  8
0
  6
CONTINUOUS
 62
     7
 10
-135.1107878423742
 20
-684.176877980416
 42
0.1049344985841914
  0
VERTEX
  8
0
  6
CONTINUOUS
 62
     7
 10
-135.889431779189
 20
-681.7558523139406
 42
0.07564923979767316
  0
VERTEX
  8
0
  6
CONTINUOUS
 62
     7
 10
-137.4667726485737
 20
-679.7479192124238
 42
0.06403560301981991
  0
VERTEX
  8
0
  6
CONTINUOUS
 62
     7
 10
-139.5348855970049
 20
-678.2418994298239
 42
0.06397774454116771
  0
VERTEX
  8
0
  6
CONTINUOUS
 62
     7
 10
-141.9121701385585
 20
-677.3024228342391
 42
0.07566801199564487
  0
VERTEX
  8
0
  6
CONTINUOUS
 62
     7
 10
-144.4535687347744
 20
-677.0450696290342
 42
0.1050050298385738
  0
VERTEX
  8
0
  6
CONTINUOUS
 62
     7
 10
-146.9168641758079
 20
-677.6844030934383
 42
0.1497616476436366
  0
SEQEND
  8
0
  0
POLYLINE
  8
0
  6
CONTINUOUS
 62
     7
 66
     1
 10
0
 20
0
 70
     1
  0
VERTEX
  8
0
  6
CONTINUOUS
 62
     7
 10
-171.6422969070301
 20
26.97995062068844
 42
0.1497887561351383
  0
VERTEX
  8
0
  6
CONTINUOUS
 62
     7
 10
-173.0010889814511
 20
24.85198039708371
 42
0.1049344985810973
  0
VERTEX
  8
0
  6
CONTINUOUS
 62
     7
 10
-173.1572844259813
 20
22.3136237158471
 42
0.07564923979813129
  0
VERTEX
  8
0
  6
CONTINUOUS
 62
     7
 10
-172.4192023898709
 20
19.86923535341981
 42
0.06403560301969982
  0
VERTEX
  8
0
  6
CONTINUOUS
 62
     7
 10
-171.0412999368253
 20
17.71364457988642
 42
0.06397774454067069
  0
VERTEX
  8
0
  6
CONTINUOUS
 62
     7
 10
-169.1691858253102
 20
15.97315992938621
 42
0.07566801199673995
  0
VERTEX
  8
0
  6
CONTINUOUS
 62
     7
 10
-166.8958845384152
 20
14.80823986514183
 42
0.1050050298385813
  0
VERTEX
  8
0
  6
CONTINUOUS
 62
     7
 10
-164.3688765799462
 20
14.50690535607009
 42
0.1497616476412506
  0
VERTEX
  8
0
  6
CONTINUOUS
 62
     7
 10
-162.032537131454
 20
15.46246317525493
 42
0.1497887561354145
  0
VERTEX
  8
0
  6
CONTINUOUS
 62
     7
 10
-160.6737450570331
 20
17.59043339885966
 42
0.104934498581041
  0
VERTEX
  8
0
  6
CONTINUOUS
 62
     7
 10
-160.5175496125029
 20
20.12879008009626
 42
0.07564923979808361
  0
VERTEX
  8
0
  6
CONTINUOUS
 62
     7
 10
-161.2556316486133
 20
22.57317844252356
 42
0.06403560301981287
  0
VERTEX
  8
0
  6
CONTINUOUS
 62
     7
 10
-162.6335341016588
 20
24.728769216057
 42
0.06397774454072802
  0
VERTEX
  8
0
  6
CONTINUOUS
 62
     7
 10
-164.505648213174
 20
26.46925386655721
 42
0.07566801199687057
  0
VERTEX
  8
0
  6
CONTINUOUS
 62
     7
 10
-166.778949500069
 20
27.63417393080158
 42
0.1050050298386667
  0
VERTEX
  8
0
  6
CONTINUOUS
 62
     7
 10
-169.305957458538
 20
27.9355084398733
 42
0.149761647641213
  0
SEQEND
  8
0
  0
TEXT
  8
0
  6
CONTINUOUS
 62
     7
 10
-256.6253848292078
 20
-55.08525883052172
 40
10
 41
1.028571624755859
  1
50
 50
314.9999987477609
  0
TEXT
  8
0
  6
CONTINUOUS
 62
     7
 10
-266.6431361987893
 20
-63.30568726170907
 40
8
 41
1.017857261002064
  1
10K
 50
314.9999987477609
  0
TEXT
  8
0
  6
CONTINUOUS
 62
     7
 10
-238.9595477298135
 20
36.12559400559678
 40
8
 41
0.7090336359849498
  1
ＦＬ－１０ＡＰ
 50
224.9999996583774
  0
TEXT
  8
0
  6
CONTINUOUS
 62
     7
 10
-171.0050729553472
 20
-70.97390849433286
 40
8
 41
0.8553702791197961
  1
ＦＣＤ
 50
45.00000125223908
  0
TEXT
  8
0
  6
CONTINUOUS
 62
     7
 10
-264.8884921290124
 20
-285.1943858751994
 40
10
 41
1.028571624755859
  1
65
 50
314.9999987477609
  0
TEXT
  8
0
  6
CONTINUOUS
 62
     7
 10
-275.0087673023049
 20
-292.3976596127833
 40
8
 41
1.017857261002064
  1
10K
 50
314.9999987477609
  0
TEXT
  8
0
  6
CONTINUOUS
 62
     7
 10
-165.0296548645269
 20
-304.2612467511688
 40
8
 41
0.8553702791197961
  1
ＦＣＤ
 50
45.00000125223908
  0
TEXT
  8
0
  6
CONTINUOUS
 62
     7
 10
-248.6588965806899
 20
-181.5524924960594
 40
8
 41
0.7878151410768014
  1
ＦＬ－１０ＡＰ
 50
227.2999975594875
  0
TEXT
  8
0
  6
CONTINUOUS
 62
     7
 10
-230.2758847547377
 20
-573.0287936651436
 40
10
 41
1.028571510314941
  1
80
 50
337.4999993738804
  0
TEXT
  8
0
  6
CONTINUOUS
 62
     7
 10
-236.6676751054427
 20
-580.3189330594029
 40
8
 41
1.017857395112515
  1
10K
 50
337.4999993738804
  0
TEXT
  8
0
  6
CONTINUOUS
 62
     7
 10
-210.2280261724972
 20
-434.5650451671179
 40
8
 41
0.6173897870019133
  1
ＦＬ－１０
 50
203.9999956589045
  0
TEXT
  8
0
  6
CONTINUOUS
 62
     7
 10
-220.3885400749352
 20
-427.9601855470418
 40
8
 41
0.8643457468818216
  1
ＡＰ
 50
206.1000056211166
  0
TEXT
  8
0
  6
CONTINUOUS
 62
     7
 10
-126.0457679397847
 20
-547.9750331049993
 40
8
 41
0.8553702227708673
  1
ＦＣＤ
 50
65.5999986380647
  0
TEXT
  8
0
  6
CONTINUOUS
 62
     7
 10
-221.3463431948635
 20
-838.3976139159209
 40
10
 41
0.750000035762787
  1
100
 50
337.4999993738804
  0
TEXT
  8
0
  6
CONTINUOUS
 62
     7
 10
-225.0114708818099
 20
-847.7796264187779
 40
8
 41
1.017857395112515
  1
10K
 50
337.4999993738804
  0
TEXT
  8
0
  6
CONTINUOUS
 62
     7
 10
-195.3737366416932
 20
-678.1281429999386
 40
8
 41
0.7202881152460985
  1
ＦＬ－１０
 50
202.799999723625
  0
TEXT
  8
0
  6
CONTINUOUS
 62
     7
 10
-205.8673683663953
 20
-671.7475742401821
 40
8
 41
0.8643907659194049
  1
ＡＰ
 50
203.2000029221776
  0
TEXT
  8
0
  6
CONTINUOUS
 62
     7
 10
-97.0259700060852
 20
-808.7798403589364
 40
8
 41
0.8553702791197961
  1
ＦＣＤ
 50
61.50000000384613
  0
TEXT
  8
0
  6
CONTINUOUS
 62
     7
 10
-107.9585156440735
 20
137.1412048339844
 40
20
 41
1.007156245708466
  1
FL-10AP
  0
TEXT
  8
0
  6
CONTINUOUS
 62
     7
 10
-522.403820514679
 20
-29.76211357116699
 40
20
 41
1.007156245708466
  1
10K 50A
  0
TEXT
  8
0
  6
CONTINUOUS
 62
     7
 10
-503.650646686554
 20
-256.6756134033203
 40
20
 41
1.007156245708466
  1
10K 65A
  0
TEXT
  8
0
  6
CONTINUOUS
 62
     7
 10
-503.650646686554
 20
-519.2201538085938
 40
20
 41
1.007156245708466
  1
10K 80A
  0
TEXT
  8
0
  6
CONTINUOUS
 62
     7
 10
-509.2765927314758
 20
-766.7621459960938
 40
20
 41
1.006222822355188
  1
10K 100A
  0
ENDSEC
  0
EOF
