  0
SECTION
  2
HEADER
  9
$EXTMAX
 10
208.5
 20
148.5
  9
$EXTMIN
 10
-208.5
 20
-148.5
  0
ENDSEC
  0
SECTION
  2
TABLES
  0
TABLE
  2
LTYPE
 70
    22
  0
LTYPE
  2
CONTINUOUS
 70
    64
  3
Solid line
 72
    65
 73
     0
 40
0.000000
  0
LTYPE
  2
DASHED
 70
    64
  3
__ __ __ __ __ __ __ __ __ __ __ __ __ __ __
 72
    65
 73
     2
 40
3.500000
 49
2.000000
 49
-1.500000
  0
LTYPE
  2
CENTER
 70
    64
  3
____ _ ____ _ ____ _ ____ _ ____ _ ____ _ ____
 72
    65
 73
     4
 40
17.500000
 49
13.000000
 49
-1.500000
 49
1.500000
 49
-1.500000
  0
LTYPE
  2
PHANTOM
 70
    64
  3
_____ _ _ _____ _ _ _____ _ _ _____ _ _ ____  
 72
    65
 73
     6
 40
15.500000
 49
8.000000
 49
-1.500000
 49
1.500000
 49
-1.500000
 49
1.500000
 49
-1.500000
  0
LTYPE
  2
DOT
 70
    64
  3
. . . . . . . . . . . . . . . . . . . . . . . .
 72
    65
 73
     2
 40
0.25
 49
0.0
 49
-0.25
  0
ENDTAB
  0
TABLE
  2
LAYER
 70
     2
  0
LAYER
  2
0
 70
     0
 62
     7
  6
CONTINUOUS
  0
LAYER
  2
1
 70
     0
 62
     7
  6
CONTINUOUS
  0
ENDTAB
  0
TABLE
  2
STYLE
 70
     1
  0
STYLE
  2
STANDARD
 70
     0
 40
0.000000
 41
1.000000
 50
0.000000
 71
     0
 42
0.200000
  3
txt
  4
BIGFONT
  0
ENDTAB
  0
TABLE
  2
VIEW
 70
     0
  0
ENDTAB
  0
ENDSEC
  0
SECTION
  2
BLOCKS
  0
ENDSEC
  0
SECTION
  2
ENTITIES
  0
POINT
  8
0
  6
CONTINUOUS
 62
     7
 10
-205.0199279785156
 20
-14.17273998260498
  0
POINT
  8
0
  6
CONTINUOUS
 62
     7
 10
27.80152893066406
 20
-16.23310661315918
  0
POINT
  8
0
  6
CONTINUOUS
 62
     7
 10
277.4077758789063
 20
-20.65567588806152
  0
POINT
  8
0
  6
CONTINUOUS
 62
     7
 10
77.32904815673828
 20
-320.6844787597656
  0
POINT
  8
0
  6
CONTINUOUS
 62
     7
 10
407.565185546875
 20
-314.227783203125
  0
POINT
  8
0
  6
CONTINUOUS
 62
     7
 10
595.8506469726563
 20
-314.227783203125
  0
POINT
  8
0
  6
CONTINUOUS
 62
     7
 10
240.6145172119141
 20
-320.6844787597656
  0
POINT
  8
0
  6
CONTINUOUS
 62
     7
 10
-80.82895660400391
 20
-311.2881469726563
  0
POINT
  8
0
  6
CONTINUOUS
 62
     7
 10
-184.1144256591797
 20
-311.2881469726563
  0
POINT
  8
0
  6
CONTINUOUS
 62
     7
 10
384.6932373046875
 20
-20.65567588806152
  0
POINT
  8
0
  6
CONTINUOUS
 62
     7
 10
145.0870056152344
 20
-16.23310661315918
  0
POINT
  8
0
  6
CONTINUOUS
 62
     7
 10
-97.73446655273438
 20
-14.17273998260498
  0
LINE
  8
0
  6
CENTER
 62
     7
 10
-88.77545928955078
 20
-14.17273998260498
 11
-131.4371337890625
 21
-14.17273998260498
  0
LINE
  8
0
  6
CENTER
 62
     7
 10
-205.0199279785156
 20
24.47856712341309
 11
-205.0199279785156
 21
-56.62168121337891
  0
LINE
  8
0
  6
CONTINUOUS
 62
     7
 10
-120.7344665527344
 20
14.12726020812988
 11
-120.7344665527344
 21
-42.47274017333984
  0
LINE
  8
0
  6
CONTINUOUS
 62
     7
 10
-113.7344665527344
 20
16.07726097106934
 11
-113.7344665527344
 21
-44.4227409362793
  0
LINE
  8
0
  6
CONTINUOUS
 62
     7
 10
-97.73446655273438
 20
15.57726001739502
 11
-97.73446655273438
 21
-43.9227409362793
  0
LINE
  8
0
  6
CONTINUOUS
 62
     7
 10
-98.23446655273438
 20
-44.4227409362793
 11
-113.7344665527344
 21
-44.4227409362793
  0
LINE
  8
0
  6
CONTINUOUS
 62
     7
 10
-98.23446655273438
 20
16.07726097106934
 11
-113.7344665527344
 21
16.07726097106934
  0
LINE
  8
0
  6
CONTINUOUS
 62
     7
 10
-114.7344665527344
 20
-42.47274017333984
 11
-120.7344665527344
 21
-42.47274017333984
  0
LINE
  8
0
  6
CONTINUOUS
 62
     7
 10
-114.7344665527344
 20
14.12726020812988
 11
-120.7344665527344
 21
14.12726020812988
  0
LINE
  8
0
  6
CONTINUOUS
 62
     7
 10
-113.7344665527344
 20
-43.47274017333984
 11
-113.7344665527344
 21
-44.4227409362793
  0
LINE
  8
0
  6
CENTER
 62
     7
 10
-166.2536163330078
 20
-14.17273998260498
 11
-247.9130554199219
 21
-14.17273998260498
  0
LINE
  8
0
  6
CENTER
 62
     7
 10
154.0460052490234
 20
-16.23310661315918
 11
111.3843231201172
 21
-16.23310661315918
  0
LINE
  8
0
  6
CENTER
 62
     7
 10
27.80152893066406
 20
26.24769401550293
 11
27.80152893066406
 21
-60.30406188964844
  0
LINE
  8
0
  6
CONTINUOUS
 62
     7
 10
122.0869979858398
 20
19.71689414978027
 11
122.0869979858398
 21
-52.18310546875
  0
LINE
  8
0
  6
CONTINUOUS
 62
     7
 10
129.0870056152344
 20
21.91689300537109
 11
129.0870056152344
 21
-54.38310623168945
  0
LINE
  8
0
  6
CONTINUOUS
 62
     7
 10
145.0870056152344
 20
21.41689300537109
 11
145.0870056152344
 21
-53.88310623168945
  0
LINE
  8
0
  6
CENTER
 62
     7
 10
66.56784057617188
 20
-16.23310661315918
 11
-16.39949035644531
 21
-16.23310661315918
  0
LINE
  8
0
  6
CONTINUOUS
 62
     7
 10
144.5870056152344
 20
21.91689300537109
 11
129.0870056152344
 21
21.91689300537109
  0
LINE
  8
0
  6
CONTINUOUS
 62
     7
 10
144.5870056152344
 20
-54.38310623168945
 11
129.0870056152344
 21
-54.38310623168945
  0
LINE
  8
0
  6
CONTINUOUS
 62
     7
 10
128.0870056152344
 20
19.71689414978027
 11
122.0869979858398
 21
19.71689414978027
  0
LINE
  8
0
  6
CONTINUOUS
 62
     7
 10
128.0870056152344
 20
-52.18310546875
 11
122.0869979858398
 21
-52.18310546875
  0
LINE
  8
0
  6
CONTINUOUS
 62
     7
 10
129.0870056152344
 20
-53.18310546875
 11
129.0870056152344
 21
-54.38310623168945
  0
LINE
  8
0
  6
CENTER
 62
     7
 10
393.6522216796875
 20
-20.65567588806152
 11
350.9905700683594
 21
-20.65567588806152
  0
LINE
  8
0
  6
CENTER
 62
     7
 10
277.4077758789063
 20
28.60578155517578
 11
277.4077758789063
 21
-74.8031005859375
  0
LINE
  8
0
  6
CONTINUOUS
 62
     7
 10
361.6932373046875
 20
21.59432411193848
 11
361.6932373046875
 21
-62.90567398071289
  0
LINE
  8
0
  6
CONTINUOUS
 62
     7
 10
368.6932373046875
 20
23.89432525634766
 11
368.6932373046875
 21
-65.20567321777344
  0
LINE
  8
0
  6
CONTINUOUS
 62
     7
 10
384.6932373046875
 20
23.39432525634766
 11
384.6932373046875
 21
-64.70567321777344
  0
LINE
  8
0
  6
CENTER
 62
     7
 10
325.3121337890625
 20
-20.65567588806152
 11
226.1902313232422
 21
-20.65567588806152
  0
LINE
  8
0
  6
CONTINUOUS
 62
     7
 10
384.1932373046875
 20
-65.20567321777344
 11
368.6932373046875
 21
-65.20567321777344
  0
LINE
  8
0
  6
CONTINUOUS
 62
     7
 10
384.1932373046875
 20
23.89432525634766
 11
368.6932373046875
 21
23.89432525634766
  0
LINE
  8
0
  6
CONTINUOUS
 62
     7
 10
368.6932373046875
 20
-63.9556770324707
 11
368.6932373046875
 21
-65.25567626953125
  0
LINE
  8
0
  6
CONTINUOUS
 62
     7
 10
367.6932373046875
 20
21.59432411193848
 11
361.6932373046875
 21
21.59432411193848
  0
LINE
  8
0
  6
CONTINUOUS
 62
     7
 10
367.6932373046875
 20
-62.90567398071289
 11
361.6932373046875
 21
-62.90567398071289
  0
LINE
  8
0
  6
CENTER
 62
     7
 10
-71.86995697021484
 20
-311.2881469726563
 11
-114.5316314697266
 21
-311.2881469726563
  0
LINE
  8
0
  6
CONTINUOUS
 62
     7
 10
-80.82895660400391
 20
-254.6381378173828
 11
-80.82895660400391
 21
-367.9381408691406
  0
LINE
  8
0
  6
CONTINUOUS
 62
     7
 10
-81.32895660400391
 20
-254.1381378173828
 11
-98.32895660400391
 21
-254.1381378173828
  0
LINE
  8
0
  6
CONTINUOUS
 62
     7
 10
-81.32895660400391
 20
-368.4381408691406
 11
-98.32895660400391
 21
-368.4381408691406
  0
LINE
  8
0
  6
CONTINUOUS
 62
     7
 10
-98.32895660400391
 20
-254.1381378173828
 11
-98.32895660400391
 21
-368.4381408691406
  0
LINE
  8
0
  6
CONTINUOUS
 62
     7
 10
-106.3289566040039
 20
-256.6881408691406
 11
-106.3289566040039
 21
-365.8881530761719
  0
LINE
  8
0
  6
CONTINUOUS
 62
     7
 10
-98.32895660400391
 20
-366.8881530761719
 11
-98.32895660400391
 21
-368.4381408691406
  0
LINE
  8
0
  6
CONTINUOUS
 62
     7
 10
-99.32895660400391
 20
-365.8881530761719
 11
-106.3289566040039
 21
-365.8881530761719
  0
LINE
  8
0
  6
CONTINUOUS
 62
     7
 10
-99.32895660400391
 20
-256.6881408691406
 11
-106.3289566040039
 21
-256.6881408691406
  0
LINE
  8
0
  6
CENTER
 62
     7
 10
-124.2488250732422
 20
-311.2881469726563
 11
-256.1433410644531
 21
-311.2881469726563
  0
LINE
  8
0
  6
CENTER
 62
     7
 10
-184.1144256591797
 20
-247.9111633300781
 11
-184.1144256591797
 21
-376.960693359375
  0
LINE
  8
0
  6
CENTER
 62
     7
 10
249.5735168457031
 20
-320.6844787597656
 11
206.9118499755859
 21
-320.6844787597656
  0
LINE
  8
0
  6
CONTINUOUS
 62
     7
 10
240.6145172119141
 20
-251.2844696044922
 11
240.6145172119141
 21
-390.08447265625
  0
LINE
  8
0
  6
CONTINUOUS
 62
     7
 10
215.1145172119141
 20
-253.3844757080078
 11
215.1145172119141
 21
-387.9844665527344
  0
LINE
  8
0
  6
CONTINUOUS
 62
     7
 10
240.1145172119141
 20
-250.7844696044922
 11
223.1145172119141
 21
-250.7844696044922
  0
LINE
  8
0
  6
CONTINUOUS
 62
     7
 10
240.1145172119141
 20
-390.58447265625
 11
223.1145172119141
 21
-390.58447265625
  0
LINE
  8
0
  6
CONTINUOUS
 62
     7
 10
223.1145172119141
 20
-250.7844696044922
 11
223.1145172119141
 21
-390.58447265625
  0
LINE
  8
0
  6
CONTINUOUS
 62
     7
 10
223.1145172119141
 20
-388.9844665527344
 11
223.1145172119141
 21
-390.58447265625
  0
LINE
  8
0
  6
CONTINUOUS
 62
     7
 10
222.1145172119141
 20
-253.3844757080078
 11
215.1145172119141
 21
-253.3844757080078
  0
LINE
  8
0
  6
CONTINUOUS
 62
     7
 10
222.1145172119141
 20
-387.9844665527344
 11
215.1145172119141
 21
-387.9844665527344
  0
LINE
  8
0
  6
CENTER
 62
     7
 10
153.2019653320313
 20
-320.6844787597656
 11
-3.416018962860107
 21
-320.6844787597656
  0
LINE
  8
0
  6
CENTER
 62
     7
 10
77.32904815673828
 20
-237.8720703125
 11
77.32904815673828
 21
-400.5722961425781
  0
LINE
  8
0
  6
CENTER
 62
     7
 10
604.8096313476563
 20
-314.227783203125
 11
562.1480102539063
 21
-314.227783203125
  0
LINE
  8
0
  6
CONTINUOUS
 62
     7
 10
595.8506469726563
 20
-232.1277770996094
 11
595.8506469726563
 21
-396.3277893066406
  0
LINE
  8
0
  6
CONTINUOUS
 62
     7
 10
570.3506469726563
 20
-234.5277709960938
 11
570.3506469726563
 21
-393.9277648925781
  0
LINE
  8
0
  6
CONTINUOUS
 62
     7
 10
595.3506469726563
 20
-231.6277770996094
 11
578.3506469726563
 21
-231.6277770996094
  0
LINE
  8
0
  6
CONTINUOUS
 62
     7
 10
595.3506469726563
 20
-396.8277893066406
 11
578.3506469726563
 21
-396.8277893066406
  0
LINE
  8
0
  6
CONTINUOUS
 62
     7
 10
578.3506469726563
 20
-231.6277770996094
 11
578.3506469726563
 21
-396.8277893066406
  0
LINE
  8
0
  6
CONTINUOUS
 62
     7
 10
578.3506469726563
 20
-394.9277648925781
 11
578.3506469726563
 21
-396.8277893066406
  0
LINE
  8
0
  6
CONTINUOUS
 62
     7
 10
577.3506469726563
 20
-234.5277709960938
 11
570.3506469726563
 21
-234.5277709960938
  0
LINE
  8
0
  6
CONTINUOUS
 62
     7
 10
577.3506469726563
 20
-393.9277648925781
 11
570.3506469726563
 21
-393.9277648925781
  0
LINE
  8
0
  6
CENTER
 62
     7
 10
500.0765686035156
 20
-314.227783203125
 11
314.3768920898438
 21
-314.227783203125
  0
LINE
  8
0
  6
CENTER
 62
     7
 10
407.565185546875
 20
-220.7118835449219
 11
407.565185546875
 21
-411.518310546875
  0
LINE
  8
0
  6
CONTINUOUS
 62
     7
 10
-201.5109405517578
 20
-19.46733856201172
 11
-199.7679443359375
 21
-9.582304000854492
  0
LINE
  8
0
  6
CONTINUOUS
 62
     7
 10
-212.67333984375
 20
-9.582304000854492
 11
-208.3715362548828
 21
-9.582304000854492
  0
LINE
  8
0
  6
CONTINUOUS
 62
     7
 10
-203.1233215332031
 20
-12.34705448150635
 11
-201.7326202392578
 21
-12.59227180480957
  0
LINE
  8
0
  6
CONTINUOUS
 62
     7
 10
-195.4661560058594
 20
-9.582310676574707
 11
-194.9681549072266
 21
-6.758014678955078
  0
LINE
  8
0
  6
CONTINUOUS
 62
     7
 10
-206.5177459716797
 20
-15.33335590362549
 11
-205.9047088623047
 21
-11.85662078857422
  0
LINE
  8
0
  6
CONTINUOUS
 62
     7
 10
-207.2953948974609
 20
-11.61140441894531
 11
-205.9047088623047
 21
-11.85662078857422
  0
LINE
  8
0
  6
CONTINUOUS
 62
     7
 10
-203.7363586425781
 20
-15.82378959655762
 11
-203.1233215332031
 21
-12.34705448150635
  0
LINE
  8
0
  6
CONTINUOUS
 62
     7
 10
-207.9084320068359
 20
-15.08813858032227
 11
-207.2953948974609
 21
-11.61140441894531
  0
LINE
  8
0
  6
CONTINUOUS
 62
     7
 10
-195.4661560058594
 20
-9.582304000854492
 11
-199.7679595947266
 21
-9.582304000854492
  0
LINE
  8
0
  6
CONTINUOUS
 62
     7
 10
-212.67333984375
 20
-9.582304000854492
 11
-212.1753387451172
 21
-6.758008480072022
  0
LINE
  8
0
  6
CONTINUOUS
 62
     7
 10
-201.5109558105469
 20
-19.46733856201172
 11
-210.1145477294922
 21
-19.46733856201172
  0
LINE
  8
0
  6
CONTINUOUS
 62
     7
 10
-194.9681549072266
 20
-6.758008480072022
 11
-212.1753387451172
 21
-6.758008480072022
  0
LINE
  8
0
  6
CONTINUOUS
 62
     7
 10
-210.1145477294922
 20
-19.46733665466309
 11
-208.3715362548828
 21
-9.582304000854492
  0
LINE
  8
0
  6
CONTINUOUS
 62
     7
 10
-202.3456573486328
 20
-16.06900596618652
 11
-201.7326202392578
 21
-12.59227180480957
  0
LINE
  8
0
  6
CONTINUOUS
 62
     7
 10
31.31051445007324
 20
-21.5277042388916
 11
33.05351257324219
 21
-11.64267063140869
  0
LINE
  8
0
  6
CONTINUOUS
 62
     7
 10
20.14812278747559
 20
-11.64267063140869
 11
24.44991874694824
 21
-11.64267063140869
  0
LINE
  8
0
  6
CONTINUOUS
 62
     7
 10
29.69814682006836
 20
-14.40742111206055
 11
31.08884239196777
 21
-14.65263843536377
  0
LINE
  8
0
  6
CONTINUOUS
 62
     7
 10
37.35530853271484
 20
-11.64267730712891
 11
37.85330581665039
 21
-8.818381309509277
  0
LINE
  8
0
  6
CONTINUOUS
 62
     7
 10
26.3037166595459
 20
-17.39372253417969
 11
26.9167594909668
 21
-13.91698741912842
  0
LINE
  8
0
  6
CONTINUOUS
 62
     7
 10
25.52606582641602
 20
-13.67177104949951
 11
26.9167594909668
 21
-13.91698741912842
  0
LINE
  8
0
  6
CONTINUOUS
 62
     7
 10
29.08510589599609
 20
-17.88415718078613
 11
29.69814682006836
 21
-14.40742111206055
  0
LINE
  8
0
  6
CONTINUOUS
 62
     7
 10
24.91302299499512
 20
-17.14850616455078
 11
25.52606582641602
 21
-13.67177104949951
  0
LINE
  8
0
  6
CONTINUOUS
 62
     7
 10
37.35530471801758
 20
-11.64267063140869
 11
33.05350875854492
 21
-11.64267063140869
  0
LINE
  8
0
  6
CONTINUOUS
 62
     7
 10
20.14812278747559
 20
-11.64267063140869
 11
20.64612197875977
 21
-8.818375587463379
  0
LINE
  8
0
  6
CONTINUOUS
 62
     7
 10
31.31051254272461
 20
-21.5277042388916
 11
22.70691871643066
 21
-21.5277042388916
  0
LINE
  8
0
  6
CONTINUOUS
 62
     7
 10
37.85330581665039
 20
-8.818375587463379
 11
20.64612197875977
 21
-8.818375587463379
  0
LINE
  8
0
  6
CONTINUOUS
 62
     7
 10
22.7069206237793
 20
-21.52770233154297
 11
24.44991874694824
 21
-11.64267063140869
  0
LINE
  8
0
  6
CONTINUOUS
 62
     7
 10
30.47579956054688
 20
-18.12937355041504
 11
31.08884239196777
 21
-14.65263843536377
  0
LINE
  8
0
  6
CONTINUOUS
 62
     7
 10
280.916748046875
 20
-25.95027351379395
 11
282.6597290039063
 21
-16.06523895263672
  0
LINE
  8
0
  6
CONTINUOUS
 62
     7
 10
269.7543640136719
 20
-16.06523895263672
 11
274.05615234375
 21
-16.06523895263672
  0
LINE
  8
0
  6
CONTINUOUS
 62
     7
 10
279.3043823242188
 20
-18.82999038696289
 11
280.695068359375
 21
-19.0752067565918
  0
LINE
  8
0
  6
CONTINUOUS
 62
     7
 10
286.9615478515625
 20
-16.06524467468262
 11
287.4595336914063
 21
-13.24095058441162
  0
LINE
  8
0
  6
CONTINUOUS
 62
     7
 10
275.9099426269531
 20
-21.81629180908203
 11
276.5229797363281
 21
-18.33955574035645
  0
LINE
  8
0
  6
CONTINUOUS
 62
     7
 10
275.1322937011719
 20
-18.09433937072754
 11
276.5229797363281
 21
-18.33955574035645
  0
LINE
  8
0
  6
CONTINUOUS
 62
     7
 10
278.6913452148438
 20
-22.30672454833984
 11
279.3043823242188
 21
-18.82999038696289
  0
LINE
  8
0
  6
CONTINUOUS
 62
     7
 10
274.5192565917969
 20
-21.57107353210449
 11
275.1322937011719
 21
-18.09433937072754
  0
LINE
  8
0
  6
CONTINUOUS
 62
     7
 10
286.9615478515625
 20
-16.06523895263672
 11
282.6597290039063
 21
-16.06523895263672
  0
LINE
  8
0
  6
CONTINUOUS
 62
     7
 10
269.7543640136719
 20
-16.06523895263672
 11
270.2523498535156
 21
-13.24094390869141
  0
LINE
  8
0
  6
CONTINUOUS
 62
     7
 10
280.916748046875
 20
-25.95027351379395
 11
272.3131408691406
 21
-25.95027351379395
  0
LINE
  8
0
  6
CONTINUOUS
 62
     7
 10
287.4595336914063
 20
-13.24094390869141
 11
270.2523498535156
 21
-13.24094390869141
  0
LINE
  8
0
  6
CONTINUOUS
 62
     7
 10
272.3131408691406
 20
-25.95027160644531
 11
274.05615234375
 21
-16.06523895263672
  0
LINE
  8
0
  6
CONTINUOUS
 62
     7
 10
280.08203125
 20
-22.55194282531738
 11
280.695068359375
 21
-19.0752067565918
  0
LINE
  8
0
  6
CONTINUOUS
 62
     7
 10
-180.6054382324219
 20
-316.5827331542969
 11
-178.8624420166016
 21
-306.6977233886719
  0
LINE
  8
0
  6
CONTINUOUS
 62
     7
 10
-191.7678375244141
 20
-306.6977233886719
 11
-187.4660339355469
 21
-306.6977233886719
  0
LINE
  8
0
  6
CONTINUOUS
 62
     7
 10
-182.2178039550781
 20
-309.4624633789063
 11
-180.8271179199219
 21
-309.7076721191406
  0
LINE
  8
0
  6
CONTINUOUS
 62
     7
 10
-174.5606536865234
 20
-306.6977233886719
 11
-174.0626525878906
 21
-303.8734130859375
  0
LINE
  8
0
  6
CONTINUOUS
 62
     7
 10
-185.6122436523438
 20
-312.4487609863281
 11
-184.9991912841797
 21
-308.9720153808594
  0
LINE
  8
0
  6
CONTINUOUS
 62
     7
 10
-186.389892578125
 20
-308.726806640625
 11
-184.9991912841797
 21
-308.9720153808594
  0
LINE
  8
0
  6
CONTINUOUS
 62
     7
 10
-182.8308563232422
 20
-312.939208984375
 11
-182.2178039550781
 21
-309.4624633789063
  0
LINE
  8
0
  6
CONTINUOUS
 62
     7
 10
-187.0029296875
 20
-312.2035522460938
 11
-186.389892578125
 21
-308.726806640625
  0
LINE
  8
0
  6
CONTINUOUS
 62
     7
 10
-174.5606536865234
 20
-306.6977233886719
 11
-178.8624420166016
 21
-306.6977233886719
  0
LINE
  8
0
  6
CONTINUOUS
 62
     7
 10
-191.7678375244141
 20
-306.6977233886719
 11
-191.2698364257813
 21
-303.8734130859375
  0
LINE
  8
0
  6
CONTINUOUS
 62
     7
 10
-180.6054382324219
 20
-316.5827331542969
 11
-189.2090454101563
 21
-316.5827331542969
  0
LINE
  8
0
  6
CONTINUOUS
 62
     7
 10
-174.0626525878906
 20
-303.8734130859375
 11
-191.2698364257813
 21
-303.8734130859375
  0
LINE
  8
0
  6
CONTINUOUS
 62
     7
 10
-189.2090454101563
 20
-316.5827331542969
 11
-187.4660339355469
 21
-306.6977233886719
  0
LINE
  8
0
  6
CONTINUOUS
 62
     7
 10
-181.4401550292969
 20
-313.1844177246094
 11
-180.8271179199219
 21
-309.7076721191406
  0
LINE
  8
0
  6
CONTINUOUS
 62
     7
 10
80.83803558349609
 20
-325.9790649414063
 11
82.58103179931641
 21
-316.0940246582031
  0
LINE
  8
0
  6
CONTINUOUS
 62
     7
 10
69.67564392089844
 20
-316.0940246582031
 11
73.97743988037109
 21
-316.0940246582031
  0
LINE
  8
0
  6
CONTINUOUS
 62
     7
 10
79.22566223144531
 20
-318.8587951660156
 11
80.61636352539063
 21
-319.10400390625
  0
LINE
  8
0
  6
CONTINUOUS
 62
     7
 10
86.88282775878906
 20
-316.0940551757813
 11
87.38082885742188
 21
-313.2697448730469
  0
LINE
  8
0
  6
CONTINUOUS
 62
     7
 10
75.83123779296875
 20
-321.8450927734375
 11
76.44427490234375
 21
-318.3683471679688
  0
LINE
  8
0
  6
CONTINUOUS
 62
     7
 10
75.05358123779297
 20
-318.1231384277344
 11
76.44427490234375
 21
-318.3683471679688
  0
LINE
  8
0
  6
CONTINUOUS
 62
     7
 10
78.61262512207031
 20
-322.3355102539063
 11
79.22566223144531
 21
-318.8587951660156
  0
LINE
  8
0
  6
CONTINUOUS
 62
     7
 10
74.44054412841797
 20
-321.5998840332031
 11
75.05358123779297
 21
-318.1231384277344
  0
LINE
  8
0
  6
CONTINUOUS
 62
     7
 10
86.88282775878906
 20
-316.0940246582031
 11
82.58102416992188
 21
-316.0940246582031
  0
LINE
  8
0
  6
CONTINUOUS
 62
     7
 10
69.67564392089844
 20
-316.0940246582031
 11
70.17363739013672
 21
-313.2697448730469
  0
LINE
  8
0
  6
CONTINUOUS
 62
     7
 10
80.83803558349609
 20
-325.9790649414063
 11
72.23443603515625
 21
-325.9790649414063
  0
LINE
  8
0
  6
CONTINUOUS
 62
     7
 10
87.38082122802734
 20
-313.2697448730469
 11
70.17363739013672
 21
-313.2697448730469
  0
LINE
  8
0
  6
CONTINUOUS
 62
     7
 10
72.23443603515625
 20
-325.9790649414063
 11
73.97743988037109
 21
-316.0940246582031
  0
LINE
  8
0
  6
CONTINUOUS
 62
     7
 10
80.00331878662109
 20
-322.5807495117188
 11
80.61636352539063
 21
-319.10400390625
  0
LINE
  8
0
  6
CONTINUOUS
 62
     7
 10
411.0741577148438
 20
-319.5223693847656
 11
412.8171691894531
 21
-309.6373291015625
  0
LINE
  8
0
  6
CONTINUOUS
 62
     7
 10
399.9117736816406
 20
-309.6373291015625
 11
404.2135620117188
 21
-309.6373291015625
  0
LINE
  8
0
  6
CONTINUOUS
 62
     7
 10
409.4617919921875
 20
-312.402099609375
 11
410.8525085449219
 21
-312.6473083496094
  0
LINE
  8
0
  6
CONTINUOUS
 62
     7
 10
417.1189575195313
 20
-309.6373596191406
 11
417.6169738769531
 21
-306.8130493164063
  0
LINE
  8
0
  6
CONTINUOUS
 62
     7
 10
406.0673828125
 20
-315.3883972167969
 11
406.680419921875
 21
-311.9116516113281
  0
LINE
  8
0
  6
CONTINUOUS
 62
     7
 10
405.2897338867188
 20
-311.6664428710938
 11
406.680419921875
 21
-311.9116516113281
  0
LINE
  8
0
  6
CONTINUOUS
 62
     7
 10
408.8487548828125
 20
-315.8788146972656
 11
409.4617919921875
 21
-312.402099609375
  0
LINE
  8
0
  6
CONTINUOUS
 62
     7
 10
404.6766662597656
 20
-315.1431884765625
 11
405.2897338867188
 21
-311.6664428710938
  0
LINE
  8
0
  6
CONTINUOUS
 62
     7
 10
417.1189575195313
 20
-309.6373291015625
 11
412.8171691894531
 21
-309.6373291015625
  0
LINE
  8
0
  6
CONTINUOUS
 62
     7
 10
399.9117736816406
 20
-309.6373291015625
 11
400.4097900390625
 21
-306.8130493164063
  0
LINE
  8
0
  6
CONTINUOUS
 62
     7
 10
411.0741577148438
 20
-319.5223693847656
 11
402.4705810546875
 21
-319.5223693847656
  0
LINE
  8
0
  6
CONTINUOUS
 62
     7
 10
417.6169738769531
 20
-306.8130493164063
 11
400.4097900390625
 21
-306.8130493164063
  0
LINE
  8
0
  6
CONTINUOUS
 62
     7
 10
402.4705810546875
 20
-319.5223693847656
 11
404.2135620117188
 21
-309.6373291015625
  0
LINE
  8
0
  6
CONTINUOUS
 62
     7
 10
410.2394714355469
 20
-316.1240539550781
 11
410.8525085449219
 21
-312.6473083496094
  0
ARC
  8
0
  6
CONTINUOUS
 62
     7
 10
-98.23446655273438
 20
15.57726001739502
 40
0.5
 50
0
 51
90.00000250447846
  0
ARC
  8
0
  6
CONTINUOUS
 62
     7
 10
-98.23446655273438
 20
-43.9227409362793
 40
0.5000000000000004
 50
269.9999974955215
 51
0
  0
ARC
  8
0
  6
CONTINUOUS
 62
     7
 10
-114.7344665527344
 20
-43.47274017333984
 40
1
 50
0
 51
90.00000250447846
  0
ARC
  8
0
  6
CONTINUOUS
 62
     7
 10
-114.7344665527344
 20
15.12726020812988
 40
0.9999999999999991
 50
269.9999974955215
 51
0
  0
CIRCLE
  8
0
  6
CONTINUOUS
 62
     7
 10
-205.0199279785156
 20
-14.17273998260498
 40
28.29999923706055
  0
CIRCLE
  8
0
  6
CONTINUOUS
 62
     7
 10
-205.0199279785156
 20
-14.17273998260498
 40
30.25
  0
ARC
  8
0
  6
CONTINUOUS
 62
     7
 10
144.5870056152344
 20
-53.88310623168945
 40
0.5000000000000004
 50
269.9999974955215
 51
0
  0
ARC
  8
0
  6
CONTINUOUS
 62
     7
 10
144.5870056152344
 20
21.41689300537109
 40
0.5
 50
0
 51
90.00000250447846
  0
ARC
  8
0
  6
CONTINUOUS
 62
     7
 10
128.0870056152344
 20
20.71689414978027
 40
1.000000000000001
 50
269.9999974955215
 51
0
  0
ARC
  8
0
  6
CONTINUOUS
 62
     7
 10
128.0870056152344
 20
-53.18310546875
 40
1
 50
0
 51
90.00000250447846
  0
CIRCLE
  8
0
  6
CONTINUOUS
 62
     7
 10
27.80152893066406
 20
-16.23310661315918
 40
35.95000076293945
  0
CIRCLE
  8
0
  6
CONTINUOUS
 62
     7
 10
27.80152893066406
 20
-16.23310661315918
 40
38.15000152587891
  0
ARC
  8
0
  6
CONTINUOUS
 62
     7
 10
384.1932373046875
 20
-64.70567321777344
 40
0.5000000000000004
 50
269.9999974955248
 51
0
  0
ARC
  8
0
  6
CONTINUOUS
 62
     7
 10
384.1932373046875
 20
23.39432525634766
 40
0.5
 50
0
 51
90.00000250447521
  0
ARC
  8
0
  6
CONTINUOUS
 62
     7
 10
367.6932373046875
 20
-63.9556770324707
 40
1
 50
0
 51
90.00000250447846
  0
ARC
  8
0
  6
CONTINUOUS
 62
     7
 10
367.6932373046875
 20
22.59432411193848
 40
1.000000000000001
 50
269.9999974955215
 51
0
  0
CIRCLE
  8
0
  6
CONTINUOUS
 62
     7
 10
277.4077758789063
 20
-20.65567588806152
 40
44.54999923706055
  0
CIRCLE
  8
0
  6
CONTINUOUS
 62
     7
 10
277.4077758789063
 20
-20.65567588806152
 40
42.29999923706055
  0
ARC
  8
0
  6
CONTINUOUS
 62
     7
 10
-81.32895660400391
 20
-367.9381408691406
 40
0.5000000000000004
 50
269.9999974955215
 51
0
  0
ARC
  8
0
  6
CONTINUOUS
 62
     7
 10
-81.32895660400391
 20
-254.6381378173828
 40
0.5
 50
0
 51
90.00000250447846
  0
ARC
  8
0
  6
CONTINUOUS
 62
     7
 10
-99.32895660400391
 20
-255.6881408691406
 40
1.000000000000001
 50
269.9999974955215
 51
0
  0
ARC
  8
0
  6
CONTINUOUS
 62
     7
 10
-99.32895660400391
 20
-366.8881530761719
 40
1
 50
0
 51
90.00000250447846
  0
CIRCLE
  8
0
  6
CONTINUOUS
 62
     7
 10
-184.1144256591797
 20
-311.2881469726563
 40
54.59999847412109
  0
CIRCLE
  8
0
  6
CONTINUOUS
 62
     7
 10
-184.1144256591797
 20
-311.2881469726563
 40
57.15000152587891
  0
ARC
  8
0
  6
CONTINUOUS
 62
     7
 10
240.1145172119141
 20
-390.08447265625
 40
0.5000000000000004
 50
269.9999974955215
 51
0
  0
ARC
  8
0
  6
CONTINUOUS
 62
     7
 10
240.1145172119141
 20
-251.2844696044922
 40
0.5
 50
0
 51
90.00000250447846
  0
CIRCLE
  8
0
  6
CONTINUOUS
 62
     7
 10
77.32904815673828
 20
-320.6844787597656
 40
69.90000152587891
  0
CIRCLE
  8
0
  6
CONTINUOUS
 62
     7
 10
77.32904815673828
 20
-320.6844787597656
 40
63.90000152587891
  0
ARC
  8
0
  6
CONTINUOUS
 62
     7
 10
222.1145172119141
 20
-388.9844665527344
 40
1
 50
0
 51
90.00000250447846
  0
ARC
  8
0
  6
CONTINUOUS
 62
     7
 10
222.1145172119141
 20
-252.3844757080078
 40
1.000000000000001
 50
269.9999974955215
 51
0
  0
ARC
  8
0
  6
CONTINUOUS
 62
     7
 10
595.3506469726563
 20
-396.3277893066406
 40
0.5000000000000004
 50
269.9999974955182
 51
0
  0
ARC
  8
0
  6
CONTINUOUS
 62
     7
 10
595.3506469726563
 20
-232.1277770996094
 40
0.5
 50
0
 51
90.00000250448173
  0
CIRCLE
  8
0
  6
CONTINUOUS
 62
     7
 10
407.565185546875
 20
-314.227783203125
 40
82.59999847412109
  0
CIRCLE
  8
0
  6
CONTINUOUS
 62
     7
 10
407.565185546875
 20
-314.227783203125
 40
79.69999694824219
  0
ARC
  8
0
  6
CONTINUOUS
 62
     7
 10
577.3506469726563
 20
-394.9277648925781
 40
1
 50
0
 51
90.00000250447521
  0
ARC
  8
0
  6
CONTINUOUS
 62
     7
 10
577.3506469726563
 20
-233.5277709960938
 40
1.000000000000001
 50
269.9999974955248
 51
0
  0
ARC
  8
0
  6
CONTINUOUS
 62
     7
 10
-205.1270446777344
 20
-15.5785665512085
 40
1.412147641181952
 50
169.9999933470324
 51
350.0000120163671
  0
ARC
  8
0
  6
CONTINUOUS
 62
     7
 10
-205.1270446777344
 20
-15.5785665512085
 40
2.824295282363905
 50
169.9999933470324
 51
350.000012016367
  0
ARC
  8
0
  6
CONTINUOUS
 62
     7
 10
27.69441032409668
 20
-17.6389331817627
 40
1.412147641181946
 50
169.9999933470323
 51
350.000012016367
  0
ARC
  8
0
  6
CONTINUOUS
 62
     7
 10
27.69441032409668
 20
-17.6389331817627
 40
2.824295282363891
 50
169.9999933470324
 51
350.000012016367
  0
ARC
  8
0
  6
CONTINUOUS
 62
     7
 10
277.3006286621094
 20
-22.06150245666504
 40
1.412147641181953
 50
169.9999933470323
 51
350.0000120163671
  0
ARC
  8
0
  6
CONTINUOUS
 62
     7
 10
277.3006286621094
 20
-22.06150245666504
 40
2.824295282363905
 50
169.9999933470324
 51
350.0000120163671
  0
ARC
  8
0
  6
CONTINUOUS
 62
     7
 10
-184.2215423583984
 20
-312.6939697265625
 40
1.41214764118195
 50
169.9999933470331
 51
350.0000120163681
  0
ARC
  8
0
  6
CONTINUOUS
 62
     7
 10
-184.2215423583984
 20
-312.6939697265625
 40
2.824295282363909
 50
169.9999933470319
 51
350.0000120163668
  0
ARC
  8
0
  6
CONTINUOUS
 62
     7
 10
77.22193145751953
 20
-322.0903015136719
 40
1.41214764118195
 50
169.9999933470331
 51
350.000012016368
  0
ARC
  8
0
  6
CONTINUOUS
 62
     7
 10
77.22193145751953
 20
-322.0903015136719
 40
2.824295282363895
 50
169.9999933470319
 51
350.0000120163668
  0
ARC
  8
0
  6
CONTINUOUS
 62
     7
 10
407.4580688476563
 20
-315.6336059570313
 40
1.41214764118195
 50
169.9999933470331
 51
350.0000120163681
  0
ARC
  8
0
  6
CONTINUOUS
 62
     7
 10
407.4580688476563
 20
-315.6336059570313
 40
2.824295282363909
 50
169.9999933470319
 51
350.000012016367
  0
TEXT
  8
0
  6
CONTINUOUS
 62
     7
 10
-181.4357054233551
 20
-72.20720672607422
 40
10
 41
0.8512700469189696
  1
　５０Ａ
  0
TEXT
  8
0
  6
CONTINUOUS
 62
     7
 10
-181.4357054233551
 20
-87.20720672607422
 40
10
 41
0.8474110189900798
  1
（６０Ｓｕ）
  0
TEXT
  8
0
  6
CONTINUOUS
 62
     7
 10
52.45234084129334
 20
-89.37329864501953
 40
10
 41
0.8512700469189696
  1
　６５Ａ
  0
TEXT
  8
0
  6
CONTINUOUS
 62
     7
 10
52.45234084129334
 20
-104.3732986450195
 40
10
 41
0.8474110189900798
  1
（７５Ｓｕ）
  0
TEXT
  8
0
  6
CONTINUOUS
 62
     7
 10
306.5290772914887
 20
-95.12467956542969
 40
10
 41
0.8512700469189696
  1
　８０Ａ
  0
TEXT
  8
0
  6
CONTINUOUS
 62
     7
 10
306.5290772914887
 20
-110.1246795654297
 40
10
 41
0.8474110189900798
  1
（８０Ｓｕ）
  0
TEXT
  8
0
  6
CONTINUOUS
 62
     7
 10
-172.852667093277
 20
-413.3833618164063
 40
10
 41
0.8489270656764293
  1
　１００Ａ
  0
TEXT
  8
0
  6
CONTINUOUS
 62
     7
 10
-172.852667093277
 20
-428.3833618164063
 40
10
 41
0.8463497863096351
  1
（１００Ｓｕ）
  0
TEXT
  8
0
  6
CONTINUOUS
 62
     7
 10
125.2167756557465
 20
-420.6626586914063
 40
10
 41
0.8489270656764293
  1
　１２５Ａ
  0
TEXT
  8
0
  6
CONTINUOUS
 62
     7
 10
125.2167756557465
 20
-435.6626586914063
 40
10
 41
0.8463497863096351
  1
（１２５Ｓｕ）
  0
TEXT
  8
0
  6
CONTINUOUS
 62
     7
 10
458.996209859848
 20
-424.7833862304688
 40
10
 41
0.8489270656764293
  1
　１５０Ａ
  0
TEXT
  8
0
  6
CONTINUOUS
 62
     7
 10
458.996209859848
 20
-439.7833862304688
 40
10
 41
0.8463497863096351
  1
（１５０Ｓｕ）
  0
LINE
  8
0
  6
CONTINUOUS
 62
     7
 10
-217.7209273181021
 20
-16.00360562041538
 11
-216.7083322348594
 21
-16.18215346438069
  0
LINE
  8
0
  6
CONTINUOUS
 62
     7
 10
-213.6061462303793
 20
-14.06671928693249
 11
-212.6617816054855
 21
-14.23323625949366
  0
POLYLINE
  8
0
  6
CONTINUOUS
 62
     7
 66
     1
 10
0
 20
0
  0
VERTEX
  8
0
  6
CONTINUOUS
 62
     7
 10
-213.5876918706599
 20
-13.85579799005672
 42
0.07333214780387673
  0
VERTEX
  8
0
  6
CONTINUOUS
 62
     7
 10
-213.6393895405662
 20
-13.61591786166129
 42
0.07333214780387673
  0
VERTEX
  8
0
  6
CONTINUOUS
 62
     7
 10
-213.7900818544829
 20
-13.39645721205477
 42
0.07333214780387673
  0
VERTEX
  8
0
  6
CONTINUOUS
 62
     7
 10
-214.0269413284152
 20
-13.21609733889035
 42
0.07333214780387673
  0
VERTEX
  8
0
  6
CONTINUOUS
 62
     7
 10
-214.3298056127916
 20
-13.09019113792095
 42
0.07333214780387673
  0
VERTEX
  8
0
  6
CONTINUOUS
 62
     7
 10
-214.6728937858156
 20
-13.02945620804601
 42
0.07333214780387673
  0
VERTEX
  8
0
  6
CONTINUOUS
 62
     7
 10
-215.0270009203485
 20
-13.03906252987468
 42
0.07333214780387673
  0
VERTEX
  8
0
  6
CONTINUOUS
 62
     7
 10
-215.3619841147212
 20
-13.11819237796162
 42
0.07333214780387673
  0
VERTEX
  8
0
  6
CONTINUOUS
 62
     7
 10
-215.6493283673874
 20
-13.26010992860444
 42
0.07333214780387673
  0
VERTEX
  8
0
  6
CONTINUOUS
 62
     7
 10
-215.864573878731
 20
-13.45273463793104
 42
0.07333214780387673
  0
VERTEX
  8
0
  6
CONTINUOUS
 62
     7
 10
-215.9893981591706
 20
-13.67966958222528
 42
0.07333214780387673
  0
VERTEX
  8
0
  6
CONTINUOUS
 62
     7
 10
-216.0131757068617
 20
-13.92159722438031
 42
0.07333214780387673
  0
VERTEX
  8
0
  6
CONTINUOUS
 62
     7
 10
-215.9338824894926
 20
-14.15792379370541
 42
0.07333214780387673
  0
VERTEX
  8
0
  6
CONTINUOUS
 62
     7
 10
-215.7582682373601
 20
-14.36853230342943
 42
0.07333214780387673
  0
VERTEX
  8
0
  6
CONTINUOUS
 62
     7
 10
-215.5012818815008
 20
-14.53549498260344
 42
0.07333214780387673
  0
VERTEX
  8
0
  6
CONTINUOUS
 62
     7
 10
-215.1847990457007
 20
-14.6445993539008
 42
0.07333214780387673
  0
VERTEX
  8
0
  6
CONTINUOUS
 62
     7
 10
-214.8357599129415
 20
-14.68655805195954
 42
-1
  0
SEQEND
  8
0
  0
POLYLINE
  8
0
  6
CONTINUOUS
 62
     7
 66
     1
 10
0
 20
0
  0
VERTEX
  8
0
  6
CONTINUOUS
 62
     7
 10
-212.6287592105534
 20
-13.85579776855049
 42
0.07332668712448476
  0
VERTEX
  8
0
  6
CONTINUOUS
 62
     7
 10
-212.7212571305737
 20
-13.35393077287064
 42
0.07332668712448476
  0
VERTEX
  8
0
  6
CONTINUOUS
 62
     7
 10
-212.9908783968553
 20
-12.89477823467737
 42
0.07332668712448476
  0
VERTEX
  8
0
  6
CONTINUOUS
 62
     7
 10
-213.4146752369965
 20
-12.51741914832988
 42
0.07332668712448476
  0
VERTEX
  8
0
  6
CONTINUOUS
 62
     7
 10
-213.9565778202816
 20
-12.25397097454136
 42
0.07332668712448476
  0
VERTEX
  8
0
  6
CONTINUOUS
 62
     7
 10
-214.5704642019669
 20
-12.12685608679563
 42
0.07332668712448476
  0
VERTEX
  8
0
  6
CONTINUOUS
 62
     7
 10
-215.2040858144164
 20
-12.14689337765668
 42
0.07332668712448476
  0
VERTEX
  8
0
  6
CONTINUOUS
 62
     7
 10
-215.8035144020742
 20
-12.31237745052665
 42
0.07332668712448476
  0
VERTEX
  8
0
  6
CONTINUOUS
 62
     7
 10
-216.3177319165854
 20
-12.6092237678885
 42
0.07332668712448476
  0
VERTEX
  8
0
  6
CONTINUOUS
 62
     7
 10
-216.7029727208742
 20
-13.01216740230138
 42
0.07332668712448476
  0
VERTEX
  8
0
  6
CONTINUOUS
 62
     7
 10
-216.9264485322558
 20
-13.48691336308905
 42
0.07332668712448476
  0
VERTEX
  8
0
  6
CONTINUOUS
 62
     7
 10
-216.9691390704399
 20
-13.99305548197315
 42
0.07332668712448476
  0
VERTEX
  8
0
  6
CONTINUOUS
 62
     7
 10
-216.8274108952033
 20
-14.48751542797752
 42
0.07332668712448476
  0
VERTEX
  8
0
  6
CONTINUOUS
 62
     7
 10
-216.5133266526165
 20
-14.92820915313674
 42
0.07332668712448476
  0
VERTEX
  8
0
  6
CONTINUOUS
 62
     7
 10
-216.0536184095275
 20
-15.27762871364765
 42
0.07332668712448476
  0
VERTEX
  8
0
  6
CONTINUOUS
 62
     7
 10
-215.4874124569706
 20
-15.5060346135947
 42
0.07332668712448476
  0
VERTEX
  8
0
  6
CONTINUOUS
 62
     7
 10
-214.8628992270694
 20
-15.59398696724676
 42
-1
  0
SEQEND
  8
0
  0
POLYLINE
  8
0
  6
CONTINUOUS
 62
     7
 66
     1
 10
0
 20
0
  0
VERTEX
  8
0
  6
CONTINUOUS
 62
     7
 10
-216.7538469962708
 20
-16.45622327900144
 42
0.07459289906077718
  0
VERTEX
  8
0
  6
CONTINUOUS
 62
     7
 10
-216.7254021679713
 20
-16.75145154853038
 42
0.07459289906077718
  0
VERTEX
  8
0
  6
CONTINUOUS
 62
     7
 10
-216.5760378285667
 20
-17.02776479289963
 42
0.07459289906077718
  0
VERTEX
  8
0
  6
CONTINUOUS
 62
     7
 10
-216.3189044808322
 20
-17.26083553139094
 42
0.07459289906077718
  0
VERTEX
  8
0
  6
CONTINUOUS
 62
     7
 10
-215.9766409475041
 20
-17.43014348851198
 42
0.07459289906077718
  0
VERTEX
  8
0
  6
CONTINUOUS
 62
     7
 10
-215.5793811786458
 20
-17.52078226311754
 42
0.07459289906077718
  0
VERTEX
  8
0
  6
CONTINUOUS
 62
     7
 10
-215.1621011646012
 20
-17.52477173450593
 42
0.07459289906077718
  0
VERTEX
  8
0
  6
CONTINUOUS
 62
     7
 10
-214.7615395406066
 20
-17.44176065716049
 42
0.07459289906077718
  0
VERTEX
  8
0
  6
CONTINUOUS
 62
     7
 10
-214.4129630026411
 20
-17.27905758550152
 42
0.07459289906077718
  0
VERTEX
  8
0
  6
CONTINUOUS
 62
     7
 10
-214.147061317406
 20
-17.0509874059369
 42
0.07459289906077718
  0
VERTEX
  8
0
  6
CONTINUOUS
 62
     7
 10
-213.9872452994472
 20
-16.77763012913868
 42
0.07459289906077718
  0
VERTEX
  8
0
  6
CONTINUOUS
 62
     7
 10
-213.9475856499512
 20
-16.48305298321125
 42
0.07459289906077718
  0
VERTEX
  8
0
  6
CONTINUOUS
 62
     7
 10
-214.0315741282819
 20
-16.19319145978818
 42
0.07459289906077718
  0
VERTEX
  8
0
  6
CONTINUOUS
 62
     7
 10
-214.2318161265846
 20
-15.93356587237501
 42
0.07459289906077718
  0
VERTEX
  8
0
  6
CONTINUOUS
 62
     7
 10
-214.5306817141486
 20
-15.72703446827064
 42
0.07459289906077718
  0
VERTEX
  8
0
  6
CONTINUOUS
 62
     7
 10
-214.9018578315497
 20
-15.59178091710889
 42
0.07459289906077718
  0
VERTEX
  8
0
  6
CONTINUOUS
 62
     7
 10
-215.3126649745542
 20
-15.53971336381229
 42
-1
  0
SEQEND
  8
0
  0
POLYLINE
  8
0
  6
CONTINUOUS
 62
     7
 66
     1
 10
0
 20
0
  0
VERTEX
  8
0
  6
CONTINUOUS
 62
     7
 10
-217.7766396044939
 20
-16.44557392911698
 42
0.07398282385211347
  0
VERTEX
  8
0
  6
CONTINUOUS
 62
     7
 10
-217.7008633497668
 20
-16.99937767197924
 42
0.07398282385211347
  0
VERTEX
  8
0
  6
CONTINUOUS
 62
     7
 10
-217.4213959849457
 20
-17.51201161657612
 42
0.07398282385211347
  0
VERTEX
  8
0
  6
CONTINUOUS
 62
     7
 10
-216.9624462211759
 20
-17.93906912138093
 42
0.07398282385211347
  0
VERTEX
  8
0
  6
CONTINUOUS
 62
     7
 10
-216.3637703365059
 20
-18.2435565582365
 42
0.07398282385211347
  0
VERTEX
  8
0
  6
CONTINUOUS
 62
     7
 10
-215.6772283095451
 20
-18.39909786562694
 42
0.07398282385211347
  0
VERTEX
  8
0
  6
CONTINUOUS
 62
     7
 10
-214.9622914765277
 20
-18.39221936091244
 42
0.07398282385211347
  0
VERTEX
  8
0
  6
CONTINUOUS
 62
     7
 10
-214.2808908585902
 20
-18.22351689088841
 42
0.07398282385211347
  0
VERTEX
  8
0
  6
CONTINUOUS
 62
     7
 10
-213.6920524201575
 20
-17.90760421687515
 42
0.07398282385211347
  0
VERTEX
  8
0
  6
CONTINUOUS
 62
     7
 10
-213.2467839763153
 20
-17.47184710545231
 42
0.07398282385211347
  0
VERTEX
  8
0
  6
CONTINUOUS
 62
     7
 10
-212.9836566680839
 20
-16.95399278355174
 42
0.07398282385211347
  0
VERTEX
  8
0
  6
CONTINUOUS
 62
     7
 10
-212.9254637579378
 20
-16.39890010509459
 42
0.07398282385211347
  0
VERTEX
  8
0
  6
CONTINUOUS
 62
     7
 10
-213.0772461756232
 20
-15.85465367674054
 42
0.07398282385211347
  0
VERTEX
  8
0
  6
CONTINUOUS
 62
     7
 10
-213.4258558503125
 20
-15.36839855452974
 42
0.07398282385211347
  0
VERTEX
  8
0
  6
CONTINUOUS
 62
     7
 10
-213.941094655214
 20
-14.98225632859512
 42
0.07398282385211347
  0
VERTEX
  8
0
  6
CONTINUOUS
 62
     7
 10
-214.578330304169
 20
-14.72967636292464
 42
0.07398282385211347
  0
VERTEX
  8
0
  6
CONTINUOUS
 62
     7
 10
-215.2823625995912
 20
-14.63253826207935
 42
-1
  0
SEQEND
  8
0
  0
LINE
  8
0
  6
CONTINUOUS
 62
     7
 10
-196.5387068591178
 20
-16.00360562041538
 11
-195.526111775875
 21
-16.18215346438069
  0
LINE
  8
0
  6
CONTINUOUS
 62
     7
 10
-192.4239257713949
 20
-14.06671928693249
 11
-191.4795611465011
 21
-14.23323625949366
  0
POLYLINE
  8
0
  6
CONTINUOUS
 62
     7
 66
     1
 10
0
 20
0
  0
VERTEX
  8
0
  6
CONTINUOUS
 62
     7
 10
-192.4054714116755
 20
-13.85579799005672
 42
0.07333214780387673
  0
VERTEX
  8
0
  6
CONTINUOUS
 62
     7
 10
-192.4571690815819
 20
-13.61591786166129
 42
0.07333214780387673
  0
VERTEX
  8
0
  6
CONTINUOUS
 62
     7
 10
-192.6078613954986
 20
-13.39645721205477
 42
0.07333214780387673
  0
VERTEX
  8
0
  6
CONTINUOUS
 62
     7
 10
-192.8447208694308
 20
-13.21609733889035
 42
0.07333214780387673
  0
VERTEX
  8
0
  6
CONTINUOUS
 62
     7
 10
-193.1475851538072
 20
-13.09019113792095
 42
0.07333214780387673
  0
VERTEX
  8
0
  6
CONTINUOUS
 62
     7
 10
-193.4906733268312
 20
-13.02945620804601
 42
0.07333214780387673
  0
VERTEX
  8
0
  6
CONTINUOUS
 62
     7
 10
-193.8447804613641
 20
-13.03906252987468
 42
0.07333214780387673
  0
VERTEX
  8
0
  6
CONTINUOUS
 62
     7
 10
-194.1797636557368
 20
-13.11819237796162
 42
0.07333214780387673
  0
VERTEX
  8
0
  6
CONTINUOUS
 62
     7
 10
-194.467107908403
 20
-13.26010992860444
 42
0.07333214780387673
  0
VERTEX
  8
0
  6
CONTINUOUS
 62
     7
 10
-194.6823534197466
 20
-13.45273463793104
 42
0.07333214780387673
  0
VERTEX
  8
0
  6
CONTINUOUS
 62
     7
 10
-194.8071777001863
 20
-13.67966958222528
 42
0.07333214780387673
  0
VERTEX
  8
0
  6
CONTINUOUS
 62
     7
 10
-194.8309552478773
 20
-13.92159722438031
 42
0.07333214780387673
  0
VERTEX
  8
0
  6
CONTINUOUS
 62
     7
 10
-194.7516620305082
 20
-14.15792379370541
 42
0.07333214780387673
  0
VERTEX
  8
0
  6
CONTINUOUS
 62
     7
 10
-194.5760477783758
 20
-14.36853230342943
 42
0.07333214780387673
  0
VERTEX
  8
0
  6
CONTINUOUS
 62
     7
 10
-194.3190614225165
 20
-14.53549498260344
 42
0.07333214780387673
  0
VERTEX
  8
0
  6
CONTINUOUS
 62
     7
 10
-194.0025785867163
 20
-14.6445993539008
 42
0.07333214780387673
  0
VERTEX
  8
0
  6
CONTINUOUS
 62
     7
 10
-193.6535394539572
 20
-14.68655805195954
 42
-1
  0
SEQEND
  8
0
  0
POLYLINE
  8
0
  6
CONTINUOUS
 62
     7
 66
     1
 10
0
 20
0
  0
VERTEX
  8
0
  6
CONTINUOUS
 62
     7
 10
-191.446538751569
 20
-13.85579776855049
 42
0.07332668712448476
  0
VERTEX
  8
0
  6
CONTINUOUS
 62
     7
 10
-191.5390366715893
 20
-13.35393077287064
 42
0.07332668712448476
  0
VERTEX
  8
0
  6
CONTINUOUS
 62
     7
 10
-191.8086579378709
 20
-12.89477823467737
 42
0.07332668712448476
  0
VERTEX
  8
0
  6
CONTINUOUS
 62
     7
 10
-192.2324547780121
 20
-12.51741914832988
 42
0.07332668712448476
  0
VERTEX
  8
0
  6
CONTINUOUS
 62
     7
 10
-192.7743573612972
 20
-12.25397097454136
 42
0.07332668712448476
  0
VERTEX
  8
0
  6
CONTINUOUS
 62
     7
 10
-193.3882437429825
 20
-12.12685608679563
 42
0.07332668712448476
  0
VERTEX
  8
0
  6
CONTINUOUS
 62
     7
 10
-194.021865355432
 20
-12.14689337765668
 42
0.07332668712448476
  0
VERTEX
  8
0
  6
CONTINUOUS
 62
     7
 10
-194.6212939430898
 20
-12.31237745052665
 42
0.07332668712448476
  0
VERTEX
  8
0
  6
CONTINUOUS
 62
     7
 10
-195.135511457601
 20
-12.6092237678885
 42
0.07332668712448476
  0
VERTEX
  8
0
  6
CONTINUOUS
 62
     7
 10
-195.5207522618898
 20
-13.01216740230138
 42
0.07332668712448476
  0
VERTEX
  8
0
  6
CONTINUOUS
 62
     7
 10
-195.7442280732714
 20
-13.48691336308905
 42
0.07332668712448476
  0
VERTEX
  8
0
  6
CONTINUOUS
 62
     7
 10
-195.7869186114555
 20
-13.99305548197315
 42
0.07332668712448476
  0
VERTEX
  8
0
  6
CONTINUOUS
 62
     7
 10
-195.6451904362189
 20
-14.48751542797752
 42
0.07332668712448476
  0
VERTEX
  8
0
  6
CONTINUOUS
 62
     7
 10
-195.3311061936322
 20
-14.92820915313674
 42
0.07332668712448476
  0
VERTEX
  8
0
  6
CONTINUOUS
 62
     7
 10
-194.8713979505431
 20
-15.27762871364765
 42
0.07332668712448476
  0
VERTEX
  8
0
  6
CONTINUOUS
 62
     7
 10
-194.3051919979862
 20
-15.5060346135947
 42
0.07332668712448476
  0
VERTEX
  8
0
  6
CONTINUOUS
 62
     7
 10
-193.680678768085
 20
-15.59398696724676
 42
-1
  0
SEQEND
  8
0
  0
POLYLINE
  8
0
  6
CONTINUOUS
 62
     7
 66
     1
 10
0
 20
0
  0
VERTEX
  8
0
  6
CONTINUOUS
 62
     7
 10
-195.5716265372865
 20
-16.45622327900144
 42
0.07459289906077718
  0
VERTEX
  8
0
  6
CONTINUOUS
 62
     7
 10
-195.5431817089869
 20
-16.75145154853038
 42
0.07459289906077718
  0
VERTEX
  8
0
  6
CONTINUOUS
 62
     7
 10
-195.3938173695823
 20
-17.02776479289963
 42
0.07459289906077718
  0
VERTEX
  8
0
  6
CONTINUOUS
 62
     7
 10
-195.1366840218478
 20
-17.26083553139094
 42
0.07459289906077718
  0
VERTEX
  8
0
  6
CONTINUOUS
 62
     7
 10
-194.7944204885198
 20
-17.43014348851198
 42
0.07459289906077718
  0
VERTEX
  8
0
  6
CONTINUOUS
 62
     7
 10
-194.3971607196614
 20
-17.52078226311754
 42
0.07459289906077718
  0
VERTEX
  8
0
  6
CONTINUOUS
 62
     7
 10
-193.9798807056169
 20
-17.52477173450593
 42
0.07459289906077718
  0
VERTEX
  8
0
  6
CONTINUOUS
 62
     7
 10
-193.5793190816222
 20
-17.44176065716049
 42
0.07459289906077718
  0
VERTEX
  8
0
  6
CONTINUOUS
 62
     7
 10
-193.2307425436567
 20
-17.27905758550152
 42
0.07459289906077718
  0
VERTEX
  8
0
  6
CONTINUOUS
 62
     7
 10
-192.9648408584216
 20
-17.0509874059369
 42
0.07459289906077718
  0
VERTEX
  8
0
  6
CONTINUOUS
 62
     7
 10
-192.8050248404629
 20
-16.77763012913868
 42
0.07459289906077718
  0
VERTEX
  8
0
  6
CONTINUOUS
 62
     7
 10
-192.7653651909669
 20
-16.48305298321125
 42
0.07459289906077718
  0
VERTEX
  8
0
  6
CONTINUOUS
 62
     7
 10
-192.8493536692975
 20
-16.19319145978818
 42
0.07459289906077718
  0
VERTEX
  8
0
  6
CONTINUOUS
 62
     7
 10
-193.0495956676002
 20
-15.93356587237501
 42
0.07459289906077718
  0
VERTEX
  8
0
  6
CONTINUOUS
 62
     7
 10
-193.3484612551643
 20
-15.72703446827064
 42
0.07459289906077718
  0
VERTEX
  8
0
  6
CONTINUOUS
 62
     7
 10
-193.7196373725653
 20
-15.59178091710889
 42
0.07459289906077718
  0
VERTEX
  8
0
  6
CONTINUOUS
 62
     7
 10
-194.1304445155699
 20
-15.53971336381229
 42
-1
  0
SEQEND
  8
0
  0
POLYLINE
  8
0
  6
CONTINUOUS
 62
     7
 66
     1
 10
0
 20
0
  0
VERTEX
  8
0
  6
CONTINUOUS
 62
     7
 10
-196.5944191455095
 20
-16.44557392911698
 42
0.07398282385211347
  0
VERTEX
  8
0
  6
CONTINUOUS
 62
     7
 10
-196.5186428907824
 20
-16.99937767197924
 42
0.07398282385211347
  0
VERTEX
  8
0
  6
CONTINUOUS
 62
     7
 10
-196.2391755259613
 20
-17.51201161657612
 42
0.07398282385211347
  0
VERTEX
  8
0
  6
CONTINUOUS
 62
     7
 10
-195.7802257621916
 20
-17.93906912138093
 42
0.07398282385211347
  0
VERTEX
  8
0
  6
CONTINUOUS
 62
     7
 10
-195.1815498775216
 20
-18.2435565582365
 42
0.07398282385211347
  0
VERTEX
  8
0
  6
CONTINUOUS
 62
     7
 10
-194.4950078505607
 20
-18.39909786562694
 42
0.07398282385211347
  0
VERTEX
  8
0
  6
CONTINUOUS
 62
     7
 10
-193.7800710175433
 20
-18.39221936091244
 42
0.07398282385211347
  0
VERTEX
  8
0
  6
CONTINUOUS
 62
     7
 10
-193.0986703996058
 20
-18.22351689088841
 42
0.07398282385211347
  0
VERTEX
  8
0
  6
CONTINUOUS
 62
     7
 10
-192.5098319611731
 20
-17.90760421687515
 42
0.07398282385211347
  0
VERTEX
  8
0
  6
CONTINUOUS
 62
     7
 10
-192.0645635173309
 20
-17.47184710545231
 42
0.07398282385211347
  0
VERTEX
  8
0
  6
CONTINUOUS
 62
     7
 10
-191.8014362090995
 20
-16.95399278355174
 42
0.07398282385211347
  0
VERTEX
  8
0
  6
CONTINUOUS
 62
     7
 10
-191.7432432989534
 20
-16.39890010509459
 42
0.07398282385211347
  0
VERTEX
  8
0
  6
CONTINUOUS
 62
     7
 10
-191.8950257166389
 20
-15.85465367674054
 42
0.07398282385211347
  0
VERTEX
  8
0
  6
CONTINUOUS
 62
     7
 10
-192.2436353913282
 20
-15.36839855452974
 42
0.07398282385211347
  0
VERTEX
  8
0
  6
CONTINUOUS
 62
     7
 10
-192.7588741962296
 20
-14.98225632859512
 42
0.07398282385211347
  0
VERTEX
  8
0
  6
CONTINUOUS
 62
     7
 10
-193.3961098451846
 20
-14.72967636292464
 42
0.07398282385211347
  0
VERTEX
  8
0
  6
CONTINUOUS
 62
     7
 10
-194.1001421406068
 20
-14.63253826207935
 42
-1
  0
SEQEND
  8
0
  0
LINE
  8
0
  6
CONTINUOUS
 62
     7
 10
15.10053912782073
 20
-18.06397129729526
 11
16.11313421106344
 21
-18.24251914126058
  0
LINE
  8
0
  6
CONTINUOUS
 62
     7
 10
19.21532021554354
 20
-16.12708496381238
 11
20.15968484043735
 21
-16.29360193637355
  0
POLYLINE
  8
0
  6
CONTINUOUS
 62
     7
 66
     1
 10
0
 20
0
  0
VERTEX
  8
0
  6
CONTINUOUS
 62
     7
 10
19.23377457526294
 20
-15.9161636669366
 42
0.07333214780387673
  0
VERTEX
  8
0
  6
CONTINUOUS
 62
     7
 10
19.1820769053566
 20
-15.67628353854117
 42
0.07333214780387673
  0
VERTEX
  8
0
  6
CONTINUOUS
 62
     7
 10
19.03138459143991
 20
-15.45682288893465
 42
0.07333214780387673
  0
VERTEX
  8
0
  6
CONTINUOUS
 62
     7
 10
18.79452511750771
 20
-15.27646301577023
 42
0.07333214780387673
  0
VERTEX
  8
0
  6
CONTINUOUS
 62
     7
 10
18.49166083313127
 20
-15.15055681480084
 42
0.07333214780387673
  0
VERTEX
  8
0
  6
CONTINUOUS
 62
     7
 10
18.14857266010729
 20
-15.08982188492589
 42
0.07333214780387673
  0
VERTEX
  8
0
  6
CONTINUOUS
 62
     7
 10
17.79446552557438
 20
-15.09942820675456
 42
0.07333214780387673
  0
VERTEX
  8
0
  6
CONTINUOUS
 62
     7
 10
17.45948233120164
 20
-15.1785580548415
 42
0.07333214780387673
  0
VERTEX
  8
0
  6
CONTINUOUS
 62
     7
 10
17.17213807853544
 20
-15.32047560548432
 42
0.07333214780387673
  0
VERTEX
  8
0
  6
CONTINUOUS
 62
     7
 10
16.95689256719185
 20
-15.51310031481092
 42
0.07333214780387673
  0
VERTEX
  8
0
  6
CONTINUOUS
 62
     7
 10
16.8320682867522
 20
-15.74003525910517
 42
0.07333214780387673
  0
VERTEX
  8
0
  6
CONTINUOUS
 62
     7
 10
16.80829073906119
 20
-15.9819629012602
 42
0.07333214780387673
  0
VERTEX
  8
0
  6
CONTINUOUS
 62
     7
 10
16.88758395643021
 20
-16.21828947058529
 42
0.07333214780387673
  0
VERTEX
  8
0
  6
CONTINUOUS
 62
     7
 10
17.0631982085627
 20
-16.42889798030931
 42
0.07333214780387673
  0
VERTEX
  8
0
  6
CONTINUOUS
 62
     7
 10
17.32018456442201
 20
-16.59586065948333
 42
0.07333214780387673
  0
VERTEX
  8
0
  6
CONTINUOUS
 62
     7
 10
17.63666740022215
 20
-16.70496503078069
 42
0.07333214780387673
  0
VERTEX
  8
0
  6
CONTINUOUS
 62
     7
 10
17.98570653298132
 20
-16.74692372883943
 42
-1
  0
SEQEND
  8
0
  0
POLYLINE
  8
0
  6
CONTINUOUS
 62
     7
 66
     1
 10
0
 20
0
  0
VERTEX
  8
0
  6
CONTINUOUS
 62
     7
 10
20.19270723536944
 20
-15.91616344543037
 42
0.07332668712448476
  0
VERTEX
  8
0
  6
CONTINUOUS
 62
     7
 10
20.10020931534918
 20
-15.41429644975052
 42
0.07332668712448476
  0
VERTEX
  8
0
  6
CONTINUOUS
 62
     7
 10
19.83058804906757
 20
-14.95514391155725
 42
0.07332668712448476
  0
VERTEX
  8
0
  6
CONTINUOUS
 62
     7
 10
19.40679120892636
 20
-14.57778482520977
 42
0.07332668712448476
  0
VERTEX
  8
0
  6
CONTINUOUS
 62
     7
 10
18.86488862564128
 20
-14.31433665142124
 42
0.07332668712448476
  0
VERTEX
  8
0
  6
CONTINUOUS
 62
     7
 10
18.25100224395595
 20
-14.18722176367551
 42
0.07332668712448476
  0
VERTEX
  8
0
  6
CONTINUOUS
 62
     7
 10
17.61738063150647
 20
-14.20725905453656
 42
0.07332668712448476
  0
VERTEX
  8
0
  6
CONTINUOUS
 62
     7
 10
17.01795204384866
 20
-14.37274312740653
 42
0.07332668712448476
  0
VERTEX
  8
0
  6
CONTINUOUS
 62
     7
 10
16.50373452933746
 20
-14.66958944476838
 42
0.07332668712448476
  0
VERTEX
  8
0
  6
CONTINUOUS
 62
     7
 10
16.11849372504866
 20
-15.07253307918126
 42
0.07332668712448476
  0
VERTEX
  8
0
  6
CONTINUOUS
 62
     7
 10
15.89501791366707
 20
-15.54727903996894
 42
0.07332668712448476
  0
VERTEX
  8
0
  6
CONTINUOUS
 62
     7
 10
15.85232737548294
 20
-16.05342115885304
 42
0.07332668712448476
  0
VERTEX
  8
0
  6
CONTINUOUS
 62
     7
 10
15.99405555071953
 20
-16.5478811048574
 42
0.07332668712448476
  0
VERTEX
  8
0
  6
CONTINUOUS
 62
     7
 10
16.3081397933063
 20
-16.98857483001662
 42
0.07332668712448476
  0
VERTEX
  8
0
  6
CONTINUOUS
 62
     7
 10
16.76784803639537
 20
-17.33799439052753
 42
0.07332668712448476
  0
VERTEX
  8
0
  6
CONTINUOUS
 62
     7
 10
17.33405398895225
 20
-17.56640029047459
 42
0.07332668712448476
  0
VERTEX
  8
0
  6
CONTINUOUS
 62
     7
 10
17.95856721885348
 20
-17.65435264412665
 42
-1
  0
SEQEND
  8
0
  0
POLYLINE
  8
0
  6
CONTINUOUS
 62
     7
 66
     1
 10
0
 20
0
  0
VERTEX
  8
0
  6
CONTINUOUS
 62
     7
 10
16.06761944965202
 20
-18.51658895588132
 42
0.07459289906077718
  0
VERTEX
  8
0
  6
CONTINUOUS
 62
     7
 10
16.09606427795157
 20
-18.81181722541027
 42
0.07459289906077718
  0
VERTEX
  8
0
  6
CONTINUOUS
 62
     7
 10
16.24542861735614
 20
-19.08813046977951
 42
0.07459289906077718
  0
VERTEX
  8
0
  6
CONTINUOUS
 62
     7
 10
16.50256196509069
 20
-19.32120120827081
 42
0.07459289906077718
  0
VERTEX
  8
0
  6
CONTINUOUS
 62
     7
 10
16.84482549841869
 20
-19.49050916539186
 42
0.07459289906077718
  0
VERTEX
  8
0
  6
CONTINUOUS
 62
     7
 10
17.24208526727707
 20
-19.58114793999742
 42
0.07459289906077718
  0
VERTEX
  8
0
  6
CONTINUOUS
 62
     7
 10
17.6593652813216
 20
-19.58513741138581
 42
0.07459289906077718
  0
VERTEX
  8
0
  6
CONTINUOUS
 62
     7
 10
18.05992690531624
 20
-19.50212633404037
 42
0.07459289906077718
  0
VERTEX
  8
0
  6
CONTINUOUS
 62
     7
 10
18.40850344328178
 20
-19.3394232623814
 42
0.07459289906077718
  0
VERTEX
  8
0
  6
CONTINUOUS
 62
     7
 10
18.67440512851687
 20
-19.11135308281678
 42
0.07459289906077718
  0
VERTEX
  8
0
  6
CONTINUOUS
 62
     7
 10
18.8342211464756
 20
-18.83799580601856
 42
0.07459289906077718
  0
VERTEX
  8
0
  6
CONTINUOUS
 62
     7
 10
18.87388079597161
 20
-18.54341866009113
 42
0.07459289906077718
  0
VERTEX
  8
0
  6
CONTINUOUS
 62
     7
 10
18.78989231764096
 20
-18.25355713666806
 42
0.07459289906077718
  0
VERTEX
  8
0
  6
CONTINUOUS
 62
     7
 10
18.58965031933824
 20
-17.99393154925489
 42
0.07459289906077718
  0
VERTEX
  8
0
  6
CONTINUOUS
 62
     7
 10
18.29078473177421
 20
-17.78740014515052
 42
0.07459289906077718
  0
VERTEX
  8
0
  6
CONTINUOUS
 62
     7
 10
17.91960861437316
 20
-17.65214659398878
 42
0.07459289906077718
  0
VERTEX
  8
0
  6
CONTINUOUS
 62
     7
 10
17.50880147136863
 20
-17.60007904069217
 42
-1
  0
SEQEND
  8
0
  0
POLYLINE
  8
0
  6
CONTINUOUS
 62
     7
 66
     1
 10
0
 20
0
  0
VERTEX
  8
0
  6
CONTINUOUS
 62
     7
 10
15.044826841429
 20
-18.50593960599687
 42
0.07398282385211347
  0
VERTEX
  8
0
  6
CONTINUOUS
 62
     7
 10
15.12060309615608
 20
-19.05974334885912
 42
0.07398282385211347
  0
VERTEX
  8
0
  6
CONTINUOUS
 62
     7
 10
15.40007046097717
 20
-19.572377293456
 42
0.07398282385211347
  0
VERTEX
  8
0
  6
CONTINUOUS
 62
     7
 10
15.85902022474696
 20
-19.99943479826081
 42
0.07398282385211347
  0
VERTEX
  8
0
  6
CONTINUOUS
 62
     7
 10
16.45769610941696
 20
-20.30392223511639
 42
0.07398282385211347
  0
VERTEX
  8
0
  6
CONTINUOUS
 62
     7
 10
17.14423813637782
 20
-20.45946354250682
 42
0.07398282385211347
  0
VERTEX
  8
0
  6
CONTINUOUS
 62
     7
 10
17.85917496939517
 20
-20.45258503779233
 42
0.07398282385211347
  0
VERTEX
  8
0
  6
CONTINUOUS
 62
     7
 10
18.54057558733269
 20
-20.28388256776829
 42
0.07398282385211347
  0
VERTEX
  8
0
  6
CONTINUOUS
 62
     7
 10
19.12941402576537
 20
-19.96796989375503
 42
0.07398282385211347
  0
VERTEX
  8
0
  6
CONTINUOUS
 62
     7
 10
19.57468246960756
 20
-19.53221278233219
 42
0.07398282385211347
  0
VERTEX
  8
0
  6
CONTINUOUS
 62
     7
 10
19.83780977783894
 20
-19.01435846043163
 42
0.07398282385211347
  0
VERTEX
  8
0
  6
CONTINUOUS
 62
     7
 10
19.89600268798505
 20
-18.45926578197448
 42
0.07398282385211347
  0
VERTEX
  8
0
  6
CONTINUOUS
 62
     7
 10
19.74422027029963
 20
-17.91501935362042
 42
0.07398282385211347
  0
VERTEX
  8
0
  6
CONTINUOUS
 62
     7
 10
19.39561059561033
 20
-17.42876423140962
 42
0.07398282385211347
  0
VERTEX
  8
0
  6
CONTINUOUS
 62
     7
 10
18.88037179070886
 20
-17.042622005475
 42
0.07398282385211347
  0
VERTEX
  8
0
  6
CONTINUOUS
 62
     7
 10
18.24313614175389
 20
-16.79004203980452
 42
0.07398282385211347
  0
VERTEX
  8
0
  6
CONTINUOUS
 62
     7
 10
17.53910384633171
 20
-16.69290393895923
 42
-1
  0
SEQEND
  8
0
  0
LINE
  8
0
  6
CONTINUOUS
 62
     7
 10
36.2827538647592
 20
-18.06397129729526
 11
37.29534894800192
 21
-18.24251914126058
  0
LINE
  8
0
  6
CONTINUOUS
 62
     7
 10
40.39753495248202
 20
-16.12708496381238
 11
41.34189957737583
 21
-16.29360193637355
  0
POLYLINE
  8
0
  6
CONTINUOUS
 62
     7
 66
     1
 10
0
 20
0
  0
VERTEX
  8
0
  6
CONTINUOUS
 62
     7
 10
40.41598931220141
 20
-15.9161636669366
 42
0.07333214780387673
  0
VERTEX
  8
0
  6
CONTINUOUS
 62
     7
 10
40.36429164229508
 20
-15.67628353854117
 42
0.07333214780387673
  0
VERTEX
  8
0
  6
CONTINUOUS
 62
     7
 10
40.21359932837839
 20
-15.45682288893465
 42
0.07333214780387673
  0
VERTEX
  8
0
  6
CONTINUOUS
 62
     7
 10
39.97673985444619
 20
-15.27646301577023
 42
0.07333214780387673
  0
VERTEX
  8
0
  6
CONTINUOUS
 62
     7
 10
39.67387557006975
 20
-15.15055681480084
 42
0.07333214780387673
  0
VERTEX
  8
0
  6
CONTINUOUS
 62
     7
 10
39.33078739704577
 20
-15.08982188492589
 42
0.07333214780387673
  0
VERTEX
  8
0
  6
CONTINUOUS
 62
     7
 10
38.97668026251285
 20
-15.09942820675456
 42
0.07333214780387673
  0
VERTEX
  8
0
  6
CONTINUOUS
 62
     7
 10
38.64169706814012
 20
-15.1785580548415
 42
0.07333214780387673
  0
VERTEX
  8
0
  6
CONTINUOUS
 62
     7
 10
38.35435281547392
 20
-15.32047560548432
 42
0.07333214780387673
  0
VERTEX
  8
0
  6
CONTINUOUS
 62
     7
 10
38.13910730413033
 20
-15.51310031481092
 42
0.07333214780387673
  0
VERTEX
  8
0
  6
CONTINUOUS
 62
     7
 10
38.01428302369067
 20
-15.74003525910517
 42
0.07333214780387673
  0
VERTEX
  8
0
  6
CONTINUOUS
 62
     7
 10
37.99050547599966
 20
-15.9819629012602
 42
0.07333214780387673
  0
VERTEX
  8
0
  6
CONTINUOUS
 62
     7
 10
38.06979869336868
 20
-16.21828947058529
 42
0.07333214780387673
  0
VERTEX
  8
0
  6
CONTINUOUS
 62
     7
 10
38.24541294550118
 20
-16.42889798030931
 42
0.07333214780387673
  0
VERTEX
  8
0
  6
CONTINUOUS
 62
     7
 10
38.50239930136048
 20
-16.59586065948333
 42
0.07333214780387673
  0
VERTEX
  8
0
  6
CONTINUOUS
 62
     7
 10
38.81888213716063
 20
-16.70496503078069
 42
0.07333214780387673
  0
VERTEX
  8
0
  6
CONTINUOUS
 62
     7
 10
39.16792126991979
 20
-16.74692372883943
 42
-1
  0
SEQEND
  8
0
  0
POLYLINE
  8
0
  6
CONTINUOUS
 62
     7
 66
     1
 10
0
 20
0
  0
VERTEX
  8
0
  6
CONTINUOUS
 62
     7
 10
41.37492197230792
 20
-15.91616344543037
 42
0.07332668712448476
  0
VERTEX
  8
0
  6
CONTINUOUS
 62
     7
 10
41.28242405228766
 20
-15.41429644975052
 42
0.07332668712448476
  0
VERTEX
  8
0
  6
CONTINUOUS
 62
     7
 10
41.01280278600605
 20
-14.95514391155725
 42
0.07332668712448476
  0
VERTEX
  8
0
  6
CONTINUOUS
 62
     7
 10
40.58900594586483
 20
-14.57778482520977
 42
0.07332668712448476
  0
VERTEX
  8
0
  6
CONTINUOUS
 62
     7
 10
40.04710336257976
 20
-14.31433665142124
 42
0.07332668712448476
  0
VERTEX
  8
0
  6
CONTINUOUS
 62
     7
 10
39.43321698089442
 20
-14.18722176367551
 42
0.07332668712448476
  0
VERTEX
  8
0
  6
CONTINUOUS
 62
     7
 10
38.79959536844494
 20
-14.20725905453656
 42
0.07332668712448476
  0
VERTEX
  8
0
  6
CONTINUOUS
 62
     7
 10
38.20016678078714
 20
-14.37274312740653
 42
0.07332668712448476
  0
VERTEX
  8
0
  6
CONTINUOUS
 62
     7
 10
37.68594926627594
 20
-14.66958944476838
 42
0.07332668712448476
  0
VERTEX
  8
0
  6
CONTINUOUS
 62
     7
 10
37.30070846198714
 20
-15.07253307918126
 42
0.07332668712448476
  0
VERTEX
  8
0
  6
CONTINUOUS
 62
     7
 10
37.07723265060555
 20
-15.54727903996894
 42
0.07332668712448476
  0
VERTEX
  8
0
  6
CONTINUOUS
 62
     7
 10
37.03454211242142
 20
-16.05342115885304
 42
0.07332668712448476
  0
VERTEX
  8
0
  6
CONTINUOUS
 62
     7
 10
37.17627028765801
 20
-16.5478811048574
 42
0.07332668712448476
  0
VERTEX
  8
0
  6
CONTINUOUS
 62
     7
 10
37.49035453024478
 20
-16.98857483001662
 42
0.07332668712448476
  0
VERTEX
  8
0
  6
CONTINUOUS
 62
     7
 10
37.95006277333385
 20
-17.33799439052753
 42
0.07332668712448476
  0
VERTEX
  8
0
  6
CONTINUOUS
 62
     7
 10
38.51626872589073
 20
-17.56640029047459
 42
0.07332668712448476
  0
VERTEX
  8
0
  6
CONTINUOUS
 62
     7
 10
39.14078195579196
 20
-17.65435264412665
 42
-1
  0
SEQEND
  8
0
  0
POLYLINE
  8
0
  6
CONTINUOUS
 62
     7
 66
     1
 10
0
 20
0
  0
VERTEX
  8
0
  6
CONTINUOUS
 62
     7
 10
37.2498341865905
 20
-18.51658895588132
 42
0.07459289906077718
  0
VERTEX
  8
0
  6
CONTINUOUS
 62
     7
 10
37.27827901489005
 20
-18.81181722541027
 42
0.07459289906077718
  0
VERTEX
  8
0
  6
CONTINUOUS
 62
     7
 10
37.42764335429462
 20
-19.08813046977951
 42
0.07459289906077718
  0
VERTEX
  8
0
  6
CONTINUOUS
 62
     7
 10
37.68477670202916
 20
-19.32120120827081
 42
0.07459289906077718
  0
VERTEX
  8
0
  6
CONTINUOUS
 62
     7
 10
38.02704023535717
 20
-19.49050916539186
 42
0.07459289906077718
  0
VERTEX
  8
0
  6
CONTINUOUS
 62
     7
 10
38.42430000421554
 20
-19.58114793999742
 42
0.07459289906077718
  0
VERTEX
  8
0
  6
CONTINUOUS
 62
     7
 10
38.84158001826008
 20
-19.58513741138581
 42
0.07459289906077718
  0
VERTEX
  8
0
  6
CONTINUOUS
 62
     7
 10
39.24214164225472
 20
-19.50212633404037
 42
0.07459289906077718
  0
VERTEX
  8
0
  6
CONTINUOUS
 62
     7
 10
39.59071818022026
 20
-19.3394232623814
 42
0.07459289906077718
  0
VERTEX
  8
0
  6
CONTINUOUS
 62
     7
 10
39.85661986545535
 20
-19.11135308281678
 42
0.07459289906077718
  0
VERTEX
  8
0
  6
CONTINUOUS
 62
     7
 10
40.01643588341408
 20
-18.83799580601856
 42
0.07459289906077718
  0
VERTEX
  8
0
  6
CONTINUOUS
 62
     7
 10
40.05609553291009
 20
-18.54341866009113
 42
0.07459289906077718
  0
VERTEX
  8
0
  6
CONTINUOUS
 62
     7
 10
39.97210705457944
 20
-18.25355713666806
 42
0.07459289906077718
  0
VERTEX
  8
0
  6
CONTINUOUS
 62
     7
 10
39.77186505627672
 20
-17.99393154925489
 42
0.07459289906077718
  0
VERTEX
  8
0
  6
CONTINUOUS
 62
     7
 10
39.47299946871269
 20
-17.78740014515052
 42
0.07459289906077718
  0
VERTEX
  8
0
  6
CONTINUOUS
 62
     7
 10
39.10182335131164
 20
-17.65214659398878
 42
0.07459289906077718
  0
VERTEX
  8
0
  6
CONTINUOUS
 62
     7
 10
38.6910162083071
 20
-17.60007904069217
 42
-1
  0
SEQEND
  8
0
  0
POLYLINE
  8
0
  6
CONTINUOUS
 62
     7
 66
     1
 10
0
 20
0
  0
VERTEX
  8
0
  6
CONTINUOUS
 62
     7
 10
36.22704157836748
 20
-18.50593960599687
 42
0.07398282385211347
  0
VERTEX
  8
0
  6
CONTINUOUS
 62
     7
 10
36.30281783309457
 20
-19.05974334885912
 42
0.07398282385211347
  0
VERTEX
  8
0
  6
CONTINUOUS
 62
     7
 10
36.58228519791565
 20
-19.572377293456
 42
0.07398282385211347
  0
VERTEX
  8
0
  6
CONTINUOUS
 62
     7
 10
37.04123496168544
 20
-19.99943479826081
 42
0.07398282385211347
  0
VERTEX
  8
0
  6
CONTINUOUS
 62
     7
 10
37.63991084635543
 20
-20.30392223511639
 42
0.07398282385211347
  0
VERTEX
  8
0
  6
CONTINUOUS
 62
     7
 10
38.32645287331629
 20
-20.45946354250682
 42
0.07398282385211347
  0
VERTEX
  8
0
  6
CONTINUOUS
 62
     7
 10
39.04138970633365
 20
-20.45258503779233
 42
0.07398282385211347
  0
VERTEX
  8
0
  6
CONTINUOUS
 62
     7
 10
39.72279032427117
 20
-20.28388256776829
 42
0.07398282385211347
  0
VERTEX
  8
0
  6
CONTINUOUS
 62
     7
 10
40.31162876270385
 20
-19.96796989375503
 42
0.07398282385211347
  0
VERTEX
  8
0
  6
CONTINUOUS
 62
     7
 10
40.75689720654604
 20
-19.53221278233219
 42
0.07398282385211347
  0
VERTEX
  8
0
  6
CONTINUOUS
 62
     7
 10
41.02002451477742
 20
-19.01435846043163
 42
0.07398282385211347
  0
VERTEX
  8
0
  6
CONTINUOUS
 62
     7
 10
41.07821742492352
 20
-18.45926578197448
 42
0.07398282385211347
  0
VERTEX
  8
0
  6
CONTINUOUS
 62
     7
 10
40.92643500723811
 20
-17.91501935362042
 42
0.07398282385211347
  0
VERTEX
  8
0
  6
CONTINUOUS
 62
     7
 10
40.57782533254881
 20
-17.42876423140962
 42
0.07398282385211347
  0
VERTEX
  8
0
  6
CONTINUOUS
 62
     7
 10
40.06258652764733
 20
-17.042622005475
 42
0.07398282385211347
  0
VERTEX
  8
0
  6
CONTINUOUS
 62
     7
 10
39.42535087869237
 20
-16.79004203980452
 42
0.07398282385211347
  0
VERTEX
  8
0
  6
CONTINUOUS
 62
     7
 10
38.72131858327018
 20
-16.69290393895923
 42
-1
  0
SEQEND
  8
0
  0
LINE
  8
0
  6
CONTINUOUS
 62
     7
 10
264.7067612805307
 20
-22.48654057219761
 11
265.7193563637734
 21
-22.66508841616292
  0
LINE
  8
0
  6
CONTINUOUS
 62
     7
 10
268.8215423682535
 20
-20.54965423871472
 11
269.7659069931473
 21
-20.71617121127589
  0
POLYLINE
  8
0
  6
CONTINUOUS
 62
     7
 66
     1
 10
0
 20
0
  0
VERTEX
  8
0
  6
CONTINUOUS
 62
     7
 10
268.8399967279729
 20
-20.33873294183895
 42
0.07333214780387673
  0
VERTEX
  8
0
  6
CONTINUOUS
 62
     7
 10
268.7882990580666
 20
-20.09885281344351
 42
0.07333214780387673
  0
VERTEX
  8
0
  6
CONTINUOUS
 62
     7
 10
268.6376067441499
 20
-19.879392163837
 42
0.07333214780387673
  0
VERTEX
  8
0
  6
CONTINUOUS
 62
     7
 10
268.4007472702177
 20
-19.69903229067258
 42
0.07333214780387673
  0
VERTEX
  8
0
  6
CONTINUOUS
 62
     7
 10
268.0978829858412
 20
-19.57312608970318
 42
0.07333214780387673
  0
VERTEX
  8
0
  6
CONTINUOUS
 62
     7
 10
267.7547948128172
 20
-19.51239115982823
 42
0.07333214780387673
  0
VERTEX
  8
0
  6
CONTINUOUS
 62
     7
 10
267.4006876782843
 20
-19.5219974816569
 42
0.07333214780387673
  0
VERTEX
  8
0
  6
CONTINUOUS
 62
     7
 10
267.0657044839116
 20
-19.60112732974385
 42
0.07333214780387673
  0
VERTEX
  8
0
  6
CONTINUOUS
 62
     7
 10
266.7783602312454
 20
-19.74304488038667
 42
0.07333214780387673
  0
VERTEX
  8
0
  6
CONTINUOUS
 62
     7
 10
266.5631147199018
 20
-19.93566958971326
 42
0.07333214780387673
  0
VERTEX
  8
0
  6
CONTINUOUS
 62
     7
 10
266.4382904394622
 20
-20.16260453400751
 42
0.07333214780387673
  0
VERTEX
  8
0
  6
CONTINUOUS
 62
     7
 10
266.4145128917712
 20
-20.40453217616254
 42
0.07333214780387673
  0
VERTEX
  8
0
  6
CONTINUOUS
 62
     7
 10
266.4938061091402
 20
-20.64085874548763
 42
0.07333214780387673
  0
VERTEX
  8
0
  6
CONTINUOUS
 62
     7
 10
266.6694203612727
 20
-20.85146725521166
 42
0.07333214780387673
  0
VERTEX
  8
0
  6
CONTINUOUS
 62
     7
 10
266.926406717132
 20
-21.01842993438567
 42
0.07333214780387673
  0
VERTEX
  8
0
  6
CONTINUOUS
 62
     7
 10
267.2428895529321
 20
-21.12753430568303
 42
0.07333214780387673
  0
VERTEX
  8
0
  6
CONTINUOUS
 62
     7
 10
267.5919286856913
 20
-21.16949300374177
 42
-1
  0
SEQEND
  8
0
  0
POLYLINE
  8
0
  6
CONTINUOUS
 62
     7
 66
     1
 10
0
 20
0
  0
VERTEX
  8
0
  6
CONTINUOUS
 62
     7
 10
269.7989293880794
 20
-20.33873272033272
 42
0.07332668712448476
  0
VERTEX
  8
0
  6
CONTINUOUS
 62
     7
 10
269.7064314680591
 20
-19.83686572465287
 42
0.07332668712448476
  0
VERTEX
  8
0
  6
CONTINUOUS
 62
     7
 10
269.4368102017775
 20
-19.37771318645959
 42
0.07332668712448476
  0
VERTEX
  8
0
  6
CONTINUOUS
 62
     7
 10
269.0130133616363
 20
-19.00035410011211
 42
0.07332668712448476
  0
VERTEX
  8
0
  6
CONTINUOUS
 62
     7
 10
268.4711107783512
 20
-18.73690592632358
 42
0.07332668712448476
  0
VERTEX
  8
0
  6
CONTINUOUS
 62
     7
 10
267.8572243966659
 20
-18.60979103857785
 42
0.07332668712448476
  0
VERTEX
  8
0
  6
CONTINUOUS
 62
     7
 10
267.2236027842164
 20
-18.62982832943891
 42
0.07332668712448476
  0
VERTEX
  8
0
  6
CONTINUOUS
 62
     7
 10
266.6241741965586
 20
-18.79531240230888
 42
0.07332668712448476
  0
VERTEX
  8
0
  6
CONTINUOUS
 62
     7
 10
266.1099566820474
 20
-19.09215871967073
 42
0.07332668712448476
  0
VERTEX
  8
0
  6
CONTINUOUS
 62
     7
 10
265.7247158777586
 20
-19.4951023540836
 42
0.07332668712448476
  0
VERTEX
  8
0
  6
CONTINUOUS
 62
     7
 10
265.501240066377
 20
-19.96984831487128
 42
0.07332668712448476
  0
VERTEX
  8
0
  6
CONTINUOUS
 62
     7
 10
265.4585495281929
 20
-20.47599043375538
 42
0.07332668712448476
  0
VERTEX
  8
0
  6
CONTINUOUS
 62
     7
 10
265.6002777034295
 20
-20.97045037975974
 42
0.07332668712448476
  0
VERTEX
  8
0
  6
CONTINUOUS
 62
     7
 10
265.9143619460162
 20
-21.41114410491897
 42
0.07332668712448476
  0
VERTEX
  8
0
  6
CONTINUOUS
 62
     7
 10
266.3740701891053
 20
-21.76056366542987
 42
0.07332668712448476
  0
VERTEX
  8
0
  6
CONTINUOUS
 62
     7
 10
266.9402761416622
 20
-21.98896956537693
 42
0.07332668712448476
  0
VERTEX
  8
0
  6
CONTINUOUS
 62
     7
 10
267.5647893715634
 20
-22.07692191902899
 42
-1
  0
SEQEND
  8
0
  0
POLYLINE
  8
0
  6
CONTINUOUS
 62
     7
 66
     1
 10
0
 20
0
  0
VERTEX
  8
0
  6
CONTINUOUS
 62
     7
 10
265.673841602362
 20
-22.93915823078366
 42
0.07459289906077718
  0
VERTEX
  8
0
  6
CONTINUOUS
 62
     7
 10
265.7022864306615
 20
-23.23438650031261
 42
0.07459289906077718
  0
VERTEX
  8
0
  6
CONTINUOUS
 62
     7
 10
265.851650770066
 20
-23.51069974468186
 42
0.07459289906077718
  0
VERTEX
  8
0
  6
CONTINUOUS
 62
     7
 10
266.1087841178006
 20
-23.74377048317316
 42
0.07459289906077718
  0
VERTEX
  8
0
  6
CONTINUOUS
 62
     7
 10
266.4510476511287
 20
-23.91307844029421
 42
0.07459289906077718
  0
VERTEX
  8
0
  6
CONTINUOUS
 62
     7
 10
266.848307419987
 20
-24.00371721489977
 42
0.07459289906077718
  0
VERTEX
  8
0
  6
CONTINUOUS
 62
     7
 10
267.2655874340315
 20
-24.00770668628816
 42
0.07459289906077718
  0
VERTEX
  8
0
  6
CONTINUOUS
 62
     7
 10
267.6661490580262
 20
-23.92469560894272
 42
0.07459289906077718
  0
VERTEX
  8
0
  6
CONTINUOUS
 62
     7
 10
268.0147255959918
 20
-23.76199253728375
 42
0.07459289906077718
  0
VERTEX
  8
0
  6
CONTINUOUS
 62
     7
 10
268.2806272812268
 20
-23.53392235771913
 42
0.07459289906077718
  0
VERTEX
  8
0
  6
CONTINUOUS
 62
     7
 10
268.4404432991856
 20
-23.26056508092091
 42
0.07459289906077718
  0
VERTEX
  8
0
  6
CONTINUOUS
 62
     7
 10
268.4801029486816
 20
-22.96598793499348
 42
0.07459289906077718
  0
VERTEX
  8
0
  6
CONTINUOUS
 62
     7
 10
268.3961144703509
 20
-22.67612641157041
 42
0.07459289906077718
  0
VERTEX
  8
0
  6
CONTINUOUS
 62
     7
 10
268.1958724720482
 20
-22.41650082415723
 42
0.07459289906077718
  0
VERTEX
  8
0
  6
CONTINUOUS
 62
     7
 10
267.8970068844841
 20
-22.20996942005287
 42
0.07459289906077718
  0
VERTEX
  8
0
  6
CONTINUOUS
 62
     7
 10
267.5258307670831
 20
-22.07471586889112
 42
0.07459289906077718
  0
VERTEX
  8
0
  6
CONTINUOUS
 62
     7
 10
267.1150236240786
 20
-22.02264831559451
 42
-1
  0
SEQEND
  8
0
  0
POLYLINE
  8
0
  6
CONTINUOUS
 62
     7
 66
     1
 10
0
 20
0
  0
VERTEX
  8
0
  6
CONTINUOUS
 62
     7
 10
264.651048994139
 20
-22.92850888089921
 42
0.07398282385211347
  0
VERTEX
  8
0
  6
CONTINUOUS
 62
     7
 10
264.7268252488661
 20
-23.48231262376146
 42
0.07398282385211347
  0
VERTEX
  8
0
  6
CONTINUOUS
 62
     7
 10
265.0062926136872
 20
-23.99494656835834
 42
0.07398282385211347
  0
VERTEX
  8
0
  6
CONTINUOUS
 62
     7
 10
265.465242377457
 20
-24.42200407316315
 42
0.07398282385211347
  0
VERTEX
  8
0
  6
CONTINUOUS
 62
     7
 10
266.063918262127
 20
-24.72649151001873
 42
0.07398282385211347
  0
VERTEX
  8
0
  6
CONTINUOUS
 62
     7
 10
266.7504602890878
 20
-24.88203281740916
 42
0.07398282385211347
  0
VERTEX
  8
0
  6
CONTINUOUS
 62
     7
 10
267.4653971221052
 20
-24.87515431269467
 42
0.07398282385211347
  0
VERTEX
  8
0
  6
CONTINUOUS
 62
     7
 10
268.1467977400426
 20
-24.70645184267064
 42
0.07398282385211347
  0
VERTEX
  8
0
  6
CONTINUOUS
 62
     7
 10
268.7356361784753
 20
-24.39053916865737
 42
0.07398282385211347
  0
VERTEX
  8
0
  6
CONTINUOUS
 62
     7
 10
269.1809046223175
 20
-23.95478205723454
 42
0.07398282385211347
  0
VERTEX
  8
0
  6
CONTINUOUS
 62
     7
 10
269.4440319305489
 20
-23.43692773533397
 42
0.07398282385211347
  0
VERTEX
  8
0
  6
CONTINUOUS
 62
     7
 10
269.502224840695
 20
-22.88183505687682
 42
0.07398282385211347
  0
VERTEX
  8
0
  6
CONTINUOUS
 62
     7
 10
269.3504424230096
 20
-22.33758862852277
 42
0.07398282385211347
  0
VERTEX
  8
0
  6
CONTINUOUS
 62
     7
 10
269.0018327483203
 20
-21.85133350631197
 42
0.07398282385211347
  0
VERTEX
  8
0
  6
CONTINUOUS
 62
     7
 10
268.4865939434188
 20
-21.46519128037735
 42
0.07398282385211347
  0
VERTEX
  8
0
  6
CONTINUOUS
 62
     7
 10
267.8493582944639
 20
-21.21261131470687
 42
0.07398282385211347
  0
VERTEX
  8
0
  6
CONTINUOUS
 62
     7
 10
267.1453259990417
 20
-21.11547321386158
 42
-1
  0
SEQEND
  8
0
  0
LINE
  8
0
  6
CONTINUOUS
 62
     7
 10
285.8889817395151
 20
-22.48654057219761
 11
286.9015768227578
 21
-22.66508841616292
  0
LINE
  8
0
  6
CONTINUOUS
 62
     7
 10
290.0037628272379
 20
-20.54965423871472
 11
290.9481274521317
 21
-20.71617121127589
  0
POLYLINE
  8
0
  6
CONTINUOUS
 62
     7
 66
     1
 10
0
 20
0
  0
VERTEX
  8
0
  6
CONTINUOUS
 62
     7
 10
290.0222171869573
 20
-20.33873294183895
 42
0.07333214780387673
  0
VERTEX
  8
0
  6
CONTINUOUS
 62
     7
 10
289.970519517051
 20
-20.09885281344351
 42
0.07333214780387673
  0
VERTEX
  8
0
  6
CONTINUOUS
 62
     7
 10
289.8198272031343
 20
-19.879392163837
 42
0.07333214780387673
  0
VERTEX
  8
0
  6
CONTINUOUS
 62
     7
 10
289.582967729202
 20
-19.69903229067258
 42
0.07333214780387673
  0
VERTEX
  8
0
  6
CONTINUOUS
 62
     7
 10
289.2801034448256
 20
-19.57312608970318
 42
0.07333214780387673
  0
VERTEX
  8
0
  6
CONTINUOUS
 62
     7
 10
288.9370152718016
 20
-19.51239115982823
 42
0.07333214780387673
  0
VERTEX
  8
0
  6
CONTINUOUS
 62
     7
 10
288.5829081372687
 20
-19.5219974816569
 42
0.07333214780387673
  0
VERTEX
  8
0
  6
CONTINUOUS
 62
     7
 10
288.247924942896
 20
-19.60112732974385
 42
0.07333214780387673
  0
VERTEX
  8
0
  6
CONTINUOUS
 62
     7
 10
287.9605806902298
 20
-19.74304488038667
 42
0.07333214780387673
  0
VERTEX
  8
0
  6
CONTINUOUS
 62
     7
 10
287.7453351788862
 20
-19.93566958971326
 42
0.07333214780387673
  0
VERTEX
  8
0
  6
CONTINUOUS
 62
     7
 10
287.6205108984465
 20
-20.16260453400751
 42
0.07333214780387673
  0
VERTEX
  8
0
  6
CONTINUOUS
 62
     7
 10
287.5967333507555
 20
-20.40453217616254
 42
0.07333214780387673
  0
VERTEX
  8
0
  6
CONTINUOUS
 62
     7
 10
287.6760265681245
 20
-20.64085874548763
 42
0.07333214780387673
  0
VERTEX
  8
0
  6
CONTINUOUS
 62
     7
 10
287.8516408202571
 20
-20.85146725521166
 42
0.07333214780387673
  0
VERTEX
  8
0
  6
CONTINUOUS
 62
     7
 10
288.1086271761163
 20
-21.01842993438567
 42
0.07333214780387673
  0
VERTEX
  8
0
  6
CONTINUOUS
 62
     7
 10
288.4251100119165
 20
-21.12753430568303
 42
0.07333214780387673
  0
VERTEX
  8
0
  6
CONTINUOUS
 62
     7
 10
288.7741491446757
 20
-21.16949300374177
 42
-1
  0
SEQEND
  8
0
  0
POLYLINE
  8
0
  6
CONTINUOUS
 62
     7
 66
     1
 10
0
 20
0
  0
VERTEX
  8
0
  6
CONTINUOUS
 62
     7
 10
290.9811498470638
 20
-20.33873272033272
 42
0.07332668712448476
  0
VERTEX
  8
0
  6
CONTINUOUS
 62
     7
 10
290.8886519270435
 20
-19.83686572465287
 42
0.07332668712448476
  0
VERTEX
  8
0
  6
CONTINUOUS
 62
     7
 10
290.6190306607619
 20
-19.37771318645959
 42
0.07332668712448476
  0
VERTEX
  8
0
  6
CONTINUOUS
 62
     7
 10
290.1952338206207
 20
-19.00035410011211
 42
0.07332668712448476
  0
VERTEX
  8
0
  6
CONTINUOUS
 62
     7
 10
289.6533312373356
 20
-18.73690592632358
 42
0.07332668712448476
  0
VERTEX
  8
0
  6
CONTINUOUS
 62
     7
 10
289.0394448556502
 20
-18.60979103857785
 42
0.07332668712448476
  0
VERTEX
  8
0
  6
CONTINUOUS
 62
     7
 10
288.4058232432008
 20
-18.62982832943891
 42
0.07332668712448476
  0
VERTEX
  8
0
  6
CONTINUOUS
 62
     7
 10
287.806394655543
 20
-18.79531240230888
 42
0.07332668712448476
  0
VERTEX
  8
0
  6
CONTINUOUS
 62
     7
 10
287.2921771410318
 20
-19.09215871967073
 42
0.07332668712448476
  0
VERTEX
  8
0
  6
CONTINUOUS
 62
     7
 10
286.9069363367429
 20
-19.4951023540836
 42
0.07332668712448476
  0
VERTEX
  8
0
  6
CONTINUOUS
 62
     7
 10
286.6834605253614
 20
-19.96984831487128
 42
0.07332668712448476
  0
VERTEX
  8
0
  6
CONTINUOUS
 62
     7
 10
286.6407699871772
 20
-20.47599043375538
 42
0.07332668712448476
  0
VERTEX
  8
0
  6
CONTINUOUS
 62
     7
 10
286.7824981624138
 20
-20.97045037975974
 42
0.07332668712448476
  0
VERTEX
  8
0
  6
CONTINUOUS
 62
     7
 10
287.0965824050006
 20
-21.41114410491897
 42
0.07332668712448476
  0
VERTEX
  8
0
  6
CONTINUOUS
 62
     7
 10
287.5562906480897
 20
-21.76056366542987
 42
0.07332668712448476
  0
VERTEX
  8
0
  6
CONTINUOUS
 62
     7
 10
288.1224966006466
 20
-21.98896956537693
 42
0.07332668712448476
  0
VERTEX
  8
0
  6
CONTINUOUS
 62
     7
 10
288.7470098305478
 20
-22.07692191902899
 42
-1
  0
SEQEND
  8
0
  0
POLYLINE
  8
0
  6
CONTINUOUS
 62
     7
 66
     1
 10
0
 20
0
  0
VERTEX
  8
0
  6
CONTINUOUS
 62
     7
 10
286.8560620613463
 20
-22.93915823078366
 42
0.07459289906077718
  0
VERTEX
  8
0
  6
CONTINUOUS
 62
     7
 10
286.8845068896459
 20
-23.23438650031261
 42
0.07459289906077718
  0
VERTEX
  8
0
  6
CONTINUOUS
 62
     7
 10
287.0338712290504
 20
-23.51069974468186
 42
0.07459289906077718
  0
VERTEX
  8
0
  6
CONTINUOUS
 62
     7
 10
287.291004576785
 20
-23.74377048317316
 42
0.07459289906077718
  0
VERTEX
  8
0
  6
CONTINUOUS
 62
     7
 10
287.633268110113
 20
-23.91307844029421
 42
0.07459289906077718
  0
VERTEX
  8
0
  6
CONTINUOUS
 62
     7
 10
288.0305278789714
 20
-24.00371721489977
 42
0.07459289906077718
  0
VERTEX
  8
0
  6
CONTINUOUS
 62
     7
 10
288.4478078930159
 20
-24.00770668628816
 42
0.07459289906077718
  0
VERTEX
  8
0
  6
CONTINUOUS
 62
     7
 10
288.8483695170106
 20
-23.92469560894272
 42
0.07459289906077718
  0
VERTEX
  8
0
  6
CONTINUOUS
 62
     7
 10
289.1969460549761
 20
-23.76199253728375
 42
0.07459289906077718
  0
VERTEX
  8
0
  6
CONTINUOUS
 62
     7
 10
289.4628477402112
 20
-23.53392235771913
 42
0.07459289906077718
  0
VERTEX
  8
0
  6
CONTINUOUS
 62
     7
 10
289.62266375817
 20
-23.26056508092091
 42
0.07459289906077718
  0
VERTEX
  8
0
  6
CONTINUOUS
 62
     7
 10
289.662323407666
 20
-22.96598793499348
 42
0.07459289906077718
  0
VERTEX
  8
0
  6
CONTINUOUS
 62
     7
 10
289.5783349293353
 20
-22.67612641157041
 42
0.07459289906077718
  0
VERTEX
  8
0
  6
CONTINUOUS
 62
     7
 10
289.3780929310326
 20
-22.41650082415723
 42
0.07459289906077718
  0
VERTEX
  8
0
  6
CONTINUOUS
 62
     7
 10
289.0792273434685
 20
-22.20996942005287
 42
0.07459289906077718
  0
VERTEX
  8
0
  6
CONTINUOUS
 62
     7
 10
288.7080512260675
 20
-22.07471586889112
 42
0.07459289906077718
  0
VERTEX
  8
0
  6
CONTINUOUS
 62
     7
 10
288.2972440830629
 20
-22.02264831559451
 42
-1
  0
SEQEND
  8
0
  0
POLYLINE
  8
0
  6
CONTINUOUS
 62
     7
 66
     1
 10
0
 20
0
  0
VERTEX
  8
0
  6
CONTINUOUS
 62
     7
 10
285.8332694531234
 20
-22.92850888089921
 42
0.07398282385211347
  0
VERTEX
  8
0
  6
CONTINUOUS
 62
     7
 10
285.9090457078505
 20
-23.48231262376146
 42
0.07398282385211347
  0
VERTEX
  8
0
  6
CONTINUOUS
 62
     7
 10
286.1885130726715
 20
-23.99494656835834
 42
0.07398282385211347
  0
VERTEX
  8
0
  6
CONTINUOUS
 62
     7
 10
286.6474628364413
 20
-24.42200407316315
 42
0.07398282385211347
  0
VERTEX
  8
0
  6
CONTINUOUS
 62
     7
 10
287.2461387211113
 20
-24.72649151001873
 42
0.07398282385211347
  0
VERTEX
  8
0
  6
CONTINUOUS
 62
     7
 10
287.9326807480722
 20
-24.88203281740916
 42
0.07398282385211347
  0
VERTEX
  8
0
  6
CONTINUOUS
 62
     7
 10
288.6476175810896
 20
-24.87515431269467
 42
0.07398282385211347
  0
VERTEX
  8
0
  6
CONTINUOUS
 62
     7
 10
289.329018199027
 20
-24.70645184267064
 42
0.07398282385211347
  0
VERTEX
  8
0
  6
CONTINUOUS
 62
     7
 10
289.9178566374597
 20
-24.39053916865737
 42
0.07398282385211347
  0
VERTEX
  8
0
  6
CONTINUOUS
 62
     7
 10
290.3631250813019
 20
-23.95478205723454
 42
0.07398282385211347
  0
VERTEX
  8
0
  6
CONTINUOUS
 62
     7
 10
290.6262523895333
 20
-23.43692773533397
 42
0.07398282385211347
  0
VERTEX
  8
0
  6
CONTINUOUS
 62
     7
 10
290.6844452996794
 20
-22.88183505687682
 42
0.07398282385211347
  0
VERTEX
  8
0
  6
CONTINUOUS
 62
     7
 10
290.532662881994
 20
-22.33758862852277
 42
0.07398282385211347
  0
VERTEX
  8
0
  6
CONTINUOUS
 62
     7
 10
290.1840532073047
 20
-21.85133350631197
 42
0.07398282385211347
  0
VERTEX
  8
0
  6
CONTINUOUS
 62
     7
 10
289.6688144024032
 20
-21.46519128037735
 42
0.07398282385211347
  0
VERTEX
  8
0
  6
CONTINUOUS
 62
     7
 10
289.0315787534482
 20
-21.21261131470687
 42
0.07398282385211347
  0
VERTEX
  8
0
  6
CONTINUOUS
 62
     7
 10
288.3275464580261
 20
-21.11547321386158
 42
-1
  0
SEQEND
  8
0
  0
LINE
  8
0
  6
CONTINUOUS
 62
     7
 10
-196.8154249987662
 20
-313.1190021200492
 11
-195.8028299155235
 21
-313.2975499640145
  0
LINE
  8
0
  6
CONTINUOUS
 62
     7
 10
-192.7006439110434
 20
-311.1821157865663
 11
-191.7562792861496
 21
-311.3486327591274
  0
POLYLINE
  8
0
  6
CONTINUOUS
 62
     7
 66
     1
 10
0
 20
0
  0
VERTEX
  8
0
  6
CONTINUOUS
 62
     7
 10
-192.682189551324
 20
-310.9711944896905
 42
0.07333214780387673
  0
VERTEX
  8
0
  6
CONTINUOUS
 62
     7
 10
-192.7338872212303
 20
-310.7313143612951
 42
0.07333214780387673
  0
VERTEX
  8
0
  6
CONTINUOUS
 62
     7
 10
-192.884579535147
 20
-310.5118537116886
 42
0.07333214780387673
  0
VERTEX
  8
0
  6
CONTINUOUS
 62
     7
 10
-193.1214390090792
 20
-310.3314938385241
 42
0.07333214780387673
  0
VERTEX
  8
0
  6
CONTINUOUS
 62
     7
 10
-193.4243032934556
 20
-310.2055876375547
 42
0.07333214780387673
  0
VERTEX
  8
0
  6
CONTINUOUS
 62
     7
 10
-193.7673914664796
 20
-310.1448527076798
 42
0.07333214780387673
  0
VERTEX
  8
0
  6
CONTINUOUS
 62
     7
 10
-194.1214986010125
 20
-310.1544590295085
 42
0.07333214780387673
  0
VERTEX
  8
0
  6
CONTINUOUS
 62
     7
 10
-194.4564817953853
 20
-310.2335888775954
 42
0.07333214780387673
  0
VERTEX
  8
0
  6
CONTINUOUS
 62
     7
 10
-194.7438260480515
 20
-310.3755064282382
 42
0.07333214780387673
  0
VERTEX
  8
0
  6
CONTINUOUS
 62
     7
 10
-194.9590715593951
 20
-310.5681311375648
 42
0.07333214780387673
  0
VERTEX
  8
0
  6
CONTINUOUS
 62
     7
 10
-195.0838958398347
 20
-310.7950660818591
 42
0.07333214780387673
  0
VERTEX
  8
0
  6
CONTINUOUS
 62
     7
 10
-195.1076733875257
 20
-311.0369937240141
 42
0.07333214780387673
  0
VERTEX
  8
0
  6
CONTINUOUS
 62
     7
 10
-195.0283801701567
 20
-311.2733202933392
 42
0.07333214780387673
  0
VERTEX
  8
0
  6
CONTINUOUS
 62
     7
 10
-194.8527659180242
 20
-311.4839288030632
 42
0.07333214780387673
  0
VERTEX
  8
0
  6
CONTINUOUS
 62
     7
 10
-194.5957795621649
 20
-311.6508914822372
 42
0.07333214780387673
  0
VERTEX
  8
0
  6
CONTINUOUS
 62
     7
 10
-194.2792967263648
 20
-311.7599958535346
 42
0.07333214780387673
  0
VERTEX
  8
0
  6
CONTINUOUS
 62
     7
 10
-193.9302575936056
 20
-311.8019545515933
 42
-1
  0
SEQEND
  8
0
  0
POLYLINE
  8
0
  6
CONTINUOUS
 62
     7
 66
     1
 10
0
 20
0
  0
VERTEX
  8
0
  6
CONTINUOUS
 62
     7
 10
-191.7232568912175
 20
-310.9711942681843
 42
0.07332668712448476
  0
VERTEX
  8
0
  6
CONTINUOUS
 62
     7
 10
-191.8157548112377
 20
-310.4693272725044
 42
0.07332668712448476
  0
VERTEX
  8
0
  6
CONTINUOUS
 62
     7
 10
-192.0853760775193
 20
-310.0101747343111
 42
0.07332668712448476
  0
VERTEX
  8
0
  6
CONTINUOUS
 62
     7
 10
-192.5091729176606
 20
-309.6328156479636
 42
0.07332668712448476
  0
VERTEX
  8
0
  6
CONTINUOUS
 62
     7
 10
-193.0510755009456
 20
-309.3693674741751
 42
0.07332668712448476
  0
VERTEX
  8
0
  6
CONTINUOUS
 62
     7
 10
-193.664961882631
 20
-309.2422525864294
 42
0.07332668712448476
  0
VERTEX
  8
0
  6
CONTINUOUS
 62
     7
 10
-194.2985834950804
 20
-309.2622898772905
 42
0.07332668712448476
  0
VERTEX
  8
0
  6
CONTINUOUS
 62
     7
 10
-194.8980120827382
 20
-309.4277739501604
 42
0.07332668712448476
  0
VERTEX
  8
0
  6
CONTINUOUS
 62
     7
 10
-195.4122295972495
 20
-309.7246202675223
 42
0.07332668712448476
  0
VERTEX
  8
0
  6
CONTINUOUS
 62
     7
 10
-195.7974704015383
 20
-310.1275639019352
 42
0.07332668712448476
  0
VERTEX
  8
0
  6
CONTINUOUS
 62
     7
 10
-196.0209462129198
 20
-310.6023098627229
 42
0.07332668712448476
  0
VERTEX
  8
0
  6
CONTINUOUS
 62
     7
 10
-196.063636751104
 20
-311.108451981607
 42
0.07332668712448476
  0
VERTEX
  8
0
  6
CONTINUOUS
 62
     7
 10
-195.9219085758674
 20
-311.6029119276113
 42
0.07332668712448476
  0
VERTEX
  8
0
  6
CONTINUOUS
 62
     7
 10
-195.6078243332806
 20
-312.0436056527705
 42
0.07332668712448476
  0
VERTEX
  8
0
  6
CONTINUOUS
 62
     7
 10
-195.1481160901915
 20
-312.3930252132814
 42
0.07332668712448476
  0
VERTEX
  8
0
  6
CONTINUOUS
 62
     7
 10
-194.5819101376347
 20
-312.6214311132285
 42
0.07332668712448476
  0
VERTEX
  8
0
  6
CONTINUOUS
 62
     7
 10
-193.9573969077334
 20
-312.7093834668805
 42
-1
  0
SEQEND
  8
0
  0
POLYLINE
  8
0
  6
CONTINUOUS
 62
     7
 66
     1
 10
0
 20
0
  0
VERTEX
  8
0
  6
CONTINUOUS
 62
     7
 10
-195.8483446769349
 20
-313.5716197786352
 42
0.07459289906077718
  0
VERTEX
  8
0
  6
CONTINUOUS
 62
     7
 10
-195.8198998486353
 20
-313.8668480481642
 42
0.07459289906077718
  0
VERTEX
  8
0
  6
CONTINUOUS
 62
     7
 10
-195.6705355092308
 20
-314.1431612925334
 42
0.07459289906077718
  0
VERTEX
  8
0
  6
CONTINUOUS
 62
     7
 10
-195.4134021614962
 20
-314.3762320310247
 42
0.07459289906077718
  0
VERTEX
  8
0
  6
CONTINUOUS
 62
     7
 10
-195.0711386281682
 20
-314.5455399881458
 42
0.07459289906077718
  0
VERTEX
  8
0
  6
CONTINUOUS
 62
     7
 10
-194.6738788593098
 20
-314.6361787627513
 42
0.07459289906077718
  0
VERTEX
  8
0
  6
CONTINUOUS
 62
     7
 10
-194.2565988452653
 20
-314.6401682341397
 42
0.07459289906077718
  0
VERTEX
  8
0
  6
CONTINUOUS
 62
     7
 10
-193.8560372212707
 20
-314.5571571567943
 42
0.07459289906077718
  0
VERTEX
  8
0
  6
CONTINUOUS
 62
     7
 10
-193.5074606833051
 20
-314.3944540851353
 42
0.07459289906077718
  0
VERTEX
  8
0
  6
CONTINUOUS
 62
     7
 10
-193.2415589980701
 20
-314.1663839055707
 42
0.07459289906077718
  0
VERTEX
  8
0
  6
CONTINUOUS
 62
     7
 10
-193.0817429801113
 20
-313.8930266287725
 42
0.07459289906077718
  0
VERTEX
  8
0
  6
CONTINUOUS
 62
     7
 10
-193.0420833306153
 20
-313.598449482845
 42
0.07459289906077718
  0
VERTEX
  8
0
  6
CONTINUOUS
 62
     7
 10
-193.126071808946
 20
-313.308587959422
 42
0.07459289906077718
  0
VERTEX
  8
0
  6
CONTINUOUS
 62
     7
 10
-193.3263138072487
 20
-313.0489623720088
 42
0.07459289906077718
  0
VERTEX
  8
0
  6
CONTINUOUS
 62
     7
 10
-193.6251793948127
 20
-312.8424309679044
 42
0.07459289906077718
  0
VERTEX
  8
0
  6
CONTINUOUS
 62
     7
 10
-193.9963555122137
 20
-312.7071774167426
 42
0.07459289906077718
  0
VERTEX
  8
0
  6
CONTINUOUS
 62
     7
 10
-194.4071626552183
 20
-312.6551098634461
 42
-1
  0
SEQEND
  8
0
  0
POLYLINE
  8
0
  6
CONTINUOUS
 62
     7
 66
     1
 10
0
 20
0
  0
VERTEX
  8
0
  6
CONTINUOUS
 62
     7
 10
-196.8711372851579
 20
-313.5609704287508
 42
0.07398282385211347
  0
VERTEX
  8
0
  6
CONTINUOUS
 62
     7
 10
-196.7953610304309
 20
-314.114774171613
 42
0.07398282385211347
  0
VERTEX
  8
0
  6
CONTINUOUS
 62
     7
 10
-196.5158936656098
 20
-314.6274081162099
 42
0.07398282385211347
  0
VERTEX
  8
0
  6
CONTINUOUS
 62
     7
 10
-196.05694390184
 20
-315.0544656210147
 42
0.07398282385211347
  0
VERTEX
  8
0
  6
CONTINUOUS
 62
     7
 10
-195.45826801717
 20
-315.3589530578703
 42
0.07398282385211347
  0
VERTEX
  8
0
  6
CONTINUOUS
 62
     7
 10
-194.7717259902091
 20
-315.5144943652607
 42
0.07398282385211347
  0
VERTEX
  8
0
  6
CONTINUOUS
 62
     7
 10
-194.0567891571918
 20
-315.5076158605462
 42
0.07398282385211347
  0
VERTEX
  8
0
  6
CONTINUOUS
 62
     7
 10
-193.3753885392542
 20
-315.3389133905222
 42
0.07398282385211347
  0
VERTEX
  8
0
  6
CONTINUOUS
 62
     7
 10
-192.7865501008216
 20
-315.0230007165089
 42
0.07398282385211347
  0
VERTEX
  8
0
  6
CONTINUOUS
 62
     7
 10
-192.3412816569794
 20
-314.5872436050861
 42
0.07398282385211347
  0
VERTEX
  8
0
  6
CONTINUOUS
 62
     7
 10
-192.078154348748
 20
-314.0693892831855
 42
0.07398282385211347
  0
VERTEX
  8
0
  6
CONTINUOUS
 62
     7
 10
-192.0199614386019
 20
-313.5142966047284
 42
0.07398282385211347
  0
VERTEX
  8
0
  6
CONTINUOUS
 62
     7
 10
-192.1717438562873
 20
-312.9700501763743
 42
0.07398282385211347
  0
VERTEX
  8
0
  6
CONTINUOUS
 62
     7
 10
-192.5203535309766
 20
-312.4837950541635
 42
0.07398282385211347
  0
VERTEX
  8
0
  6
CONTINUOUS
 62
     7
 10
-193.0355923358781
 20
-312.0976528282289
 42
0.07398282385211347
  0
VERTEX
  8
0
  6
CONTINUOUS
 62
     7
 10
-193.672827984833
 20
-311.8450728625584
 42
0.07398282385211347
  0
VERTEX
  8
0
  6
CONTINUOUS
 62
     7
 10
-194.3768602802552
 20
-311.7479347617131
 42
-1
  0
SEQEND
  8
0
  0
LINE
  8
0
  6
CONTINUOUS
 62
     7
 10
-175.6332045397818
 20
-313.1190021200492
 11
-174.6206094565391
 21
-313.2975499640145
  0
LINE
  8
0
  6
CONTINUOUS
 62
     7
 10
-171.518423452059
 20
-311.1821157865663
 11
-170.5740588271652
 21
-311.3486327591274
  0
POLYLINE
  8
0
  6
CONTINUOUS
 62
     7
 66
     1
 10
0
 20
0
  0
VERTEX
  8
0
  6
CONTINUOUS
 62
     7
 10
-171.4999690923396
 20
-310.9711944896905
 42
0.07333214780387673
  0
VERTEX
  8
0
  6
CONTINUOUS
 62
     7
 10
-171.5516667622459
 20
-310.7313143612951
 42
0.07333214780387673
  0
VERTEX
  8
0
  6
CONTINUOUS
 62
     7
 10
-171.7023590761626
 20
-310.5118537116886
 42
0.07333214780387673
  0
VERTEX
  8
0
  6
CONTINUOUS
 62
     7
 10
-171.9392185500948
 20
-310.3314938385241
 42
0.07333214780387673
  0
VERTEX
  8
0
  6
CONTINUOUS
 62
     7
 10
-172.2420828344713
 20
-310.2055876375547
 42
0.07333214780387673
  0
VERTEX
  8
0
  6
CONTINUOUS
 62
     7
 10
-172.5851710074952
 20
-310.1448527076798
 42
0.07333214780387673
  0
VERTEX
  8
0
  6
CONTINUOUS
 62
     7
 10
-172.9392781420281
 20
-310.1544590295085
 42
0.07333214780387673
  0
VERTEX
  8
0
  6
CONTINUOUS
 62
     7
 10
-173.2742613364009
 20
-310.2335888775954
 42
0.07333214780387673
  0
VERTEX
  8
0
  6
CONTINUOUS
 62
     7
 10
-173.5616055890671
 20
-310.3755064282382
 42
0.07333214780387673
  0
VERTEX
  8
0
  6
CONTINUOUS
 62
     7
 10
-173.7768511004107
 20
-310.5681311375648
 42
0.07333214780387673
  0
VERTEX
  8
0
  6
CONTINUOUS
 62
     7
 10
-173.9016753808503
 20
-310.7950660818591
 42
0.07333214780387673
  0
VERTEX
  8
0
  6
CONTINUOUS
 62
     7
 10
-173.9254529285414
 20
-311.0369937240141
 42
0.07333214780387673
  0
VERTEX
  8
0
  6
CONTINUOUS
 62
     7
 10
-173.8461597111723
 20
-311.2733202933392
 42
0.07333214780387673
  0
VERTEX
  8
0
  6
CONTINUOUS
 62
     7
 10
-173.6705454590398
 20
-311.4839288030632
 42
0.07333214780387673
  0
VERTEX
  8
0
  6
CONTINUOUS
 62
     7
 10
-173.4135591031805
 20
-311.6508914822372
 42
0.07333214780387673
  0
VERTEX
  8
0
  6
CONTINUOUS
 62
     7
 10
-173.0970762673804
 20
-311.7599958535346
 42
0.07333214780387673
  0
VERTEX
  8
0
  6
CONTINUOUS
 62
     7
 10
-172.7480371346212
 20
-311.8019545515933
 42
-1
  0
SEQEND
  8
0
  0
POLYLINE
  8
0
  6
CONTINUOUS
 62
     7
 66
     1
 10
0
 20
0
  0
VERTEX
  8
0
  6
CONTINUOUS
 62
     7
 10
-170.5410364322331
 20
-310.9711942681843
 42
0.07332668712448476
  0
VERTEX
  8
0
  6
CONTINUOUS
 62
     7
 10
-170.6335343522534
 20
-310.4693272725044
 42
0.07332668712448476
  0
VERTEX
  8
0
  6
CONTINUOUS
 62
     7
 10
-170.903155618535
 20
-310.0101747343111
 42
0.07332668712448476
  0
VERTEX
  8
0
  6
CONTINUOUS
 62
     7
 10
-171.3269524586762
 20
-309.6328156479636
 42
0.07332668712448476
  0
VERTEX
  8
0
  6
CONTINUOUS
 62
     7
 10
-171.8688550419613
 20
-309.3693674741751
 42
0.07332668712448476
  0
VERTEX
  8
0
  6
CONTINUOUS
 62
     7
 10
-172.4827414236466
 20
-309.2422525864294
 42
0.07332668712448476
  0
VERTEX
  8
0
  6
CONTINUOUS
 62
     7
 10
-173.1163630360961
 20
-309.2622898772905
 42
0.07332668712448476
  0
VERTEX
  8
0
  6
CONTINUOUS
 62
     7
 10
-173.7157916237539
 20
-309.4277739501604
 42
0.07332668712448476
  0
VERTEX
  8
0
  6
CONTINUOUS
 62
     7
 10
-174.2300091382651
 20
-309.7246202675223
 42
0.07332668712448476
  0
VERTEX
  8
0
  6
CONTINUOUS
 62
     7
 10
-174.6152499425539
 20
-310.1275639019352
 42
0.07332668712448476
  0
VERTEX
  8
0
  6
CONTINUOUS
 62
     7
 10
-174.8387257539355
 20
-310.6023098627229
 42
0.07332668712448476
  0
VERTEX
  8
0
  6
CONTINUOUS
 62
     7
 10
-174.8814162921196
 20
-311.108451981607
 42
0.07332668712448476
  0
VERTEX
  8
0
  6
CONTINUOUS
 62
     7
 10
-174.739688116883
 20
-311.6029119276113
 42
0.07332668712448476
  0
VERTEX
  8
0
  6
CONTINUOUS
 62
     7
 10
-174.4256038742962
 20
-312.0436056527705
 42
0.07332668712448476
  0
VERTEX
  8
0
  6
CONTINUOUS
 62
     7
 10
-173.9658956312072
 20
-312.3930252132814
 42
0.07332668712448476
  0
VERTEX
  8
0
  6
CONTINUOUS
 62
     7
 10
-173.3996896786503
 20
-312.6214311132285
 42
0.07332668712448476
  0
VERTEX
  8
0
  6
CONTINUOUS
 62
     7
 10
-172.7751764487491
 20
-312.7093834668805
 42
-1
  0
SEQEND
  8
0
  0
POLYLINE
  8
0
  6
CONTINUOUS
 62
     7
 66
     1
 10
0
 20
0
  0
VERTEX
  8
0
  6
CONTINUOUS
 62
     7
 10
-174.6661242179505
 20
-313.5716197786352
 42
0.07459289906077718
  0
VERTEX
  8
0
  6
CONTINUOUS
 62
     7
 10
-174.6376793896509
 20
-313.8668480481642
 42
0.07459289906077718
  0
VERTEX
  8
0
  6
CONTINUOUS
 62
     7
 10
-174.4883150502464
 20
-314.1431612925334
 42
0.07459289906077718
  0
VERTEX
  8
0
  6
CONTINUOUS
 62
     7
 10
-174.2311817025118
 20
-314.3762320310247
 42
0.07459289906077718
  0
VERTEX
  8
0
  6
CONTINUOUS
 62
     7
 10
-173.8889181691838
 20
-314.5455399881458
 42
0.07459289906077718
  0
VERTEX
  8
0
  6
CONTINUOUS
 62
     7
 10
-173.4916584003255
 20
-314.6361787627513
 42
0.07459289906077718
  0
VERTEX
  8
0
  6
CONTINUOUS
 62
     7
 10
-173.0743783862809
 20
-314.6401682341397
 42
0.07459289906077718
  0
VERTEX
  8
0
  6
CONTINUOUS
 62
     7
 10
-172.6738167622863
 20
-314.5571571567943
 42
0.07459289906077718
  0
VERTEX
  8
0
  6
CONTINUOUS
 62
     7
 10
-172.3252402243208
 20
-314.3944540851353
 42
0.07459289906077718
  0
VERTEX
  8
0
  6
CONTINUOUS
 62
     7
 10
-172.0593385390857
 20
-314.1663839055707
 42
0.07459289906077718
  0
VERTEX
  8
0
  6
CONTINUOUS
 62
     7
 10
-171.8995225211269
 20
-313.8930266287725
 42
0.07459289906077718
  0
VERTEX
  8
0
  6
CONTINUOUS
 62
     7
 10
-171.8598628716309
 20
-313.598449482845
 42
0.07459289906077718
  0
VERTEX
  8
0
  6
CONTINUOUS
 62
     7
 10
-171.9438513499616
 20
-313.308587959422
 42
0.07459289906077718
  0
VERTEX
  8
0
  6
CONTINUOUS
 62
     7
 10
-172.1440933482643
 20
-313.0489623720088
 42
0.07459289906077718
  0
VERTEX
  8
0
  6
CONTINUOUS
 62
     7
 10
-172.4429589358283
 20
-312.8424309679044
 42
0.07459289906077718
  0
VERTEX
  8
0
  6
CONTINUOUS
 62
     7
 10
-172.8141350532294
 20
-312.7071774167426
 42
0.07459289906077718
  0
VERTEX
  8
0
  6
CONTINUOUS
 62
     7
 10
-173.2249421962339
 20
-312.6551098634461
 42
-1
  0
SEQEND
  8
0
  0
POLYLINE
  8
0
  6
CONTINUOUS
 62
     7
 66
     1
 10
0
 20
0
  0
VERTEX
  8
0
  6
CONTINUOUS
 62
     7
 10
-175.6889168261736
 20
-313.5609704287508
 42
0.07398282385211347
  0
VERTEX
  8
0
  6
CONTINUOUS
 62
     7
 10
-175.6131405714465
 20
-314.114774171613
 42
0.07398282385211347
  0
VERTEX
  8
0
  6
CONTINUOUS
 62
     7
 10
-175.3336732066254
 20
-314.6274081162099
 42
0.07398282385211347
  0
VERTEX
  8
0
  6
CONTINUOUS
 62
     7
 10
-174.8747234428556
 20
-315.0544656210147
 42
0.07398282385211347
  0
VERTEX
  8
0
  6
CONTINUOUS
 62
     7
 10
-174.2760475581856
 20
-315.3589530578703
 42
0.07398282385211347
  0
VERTEX
  8
0
  6
CONTINUOUS
 62
     7
 10
-173.5895055312248
 20
-315.5144943652607
 42
0.07398282385211347
  0
VERTEX
  8
0
  6
CONTINUOUS
 62
     7
 10
-172.8745686982074
 20
-315.5076158605462
 42
0.07398282385211347
  0
VERTEX
  8
0
  6
CONTINUOUS
 62
     7
 10
-172.1931680802699
 20
-315.3389133905222
 42
0.07398282385211347
  0
VERTEX
  8
0
  6
CONTINUOUS
 62
     7
 10
-171.6043296418372
 20
-315.0230007165089
 42
0.07398282385211347
  0
VERTEX
  8
0
  6
CONTINUOUS
 62
     7
 10
-171.159061197995
 20
-314.5872436050861
 42
0.07398282385211347
  0
VERTEX
  8
0
  6
CONTINUOUS
 62
     7
 10
-170.8959338897636
 20
-314.0693892831855
 42
0.07398282385211347
  0
VERTEX
  8
0
  6
CONTINUOUS
 62
     7
 10
-170.8377409796175
 20
-313.5142966047284
 42
0.07398282385211347
  0
VERTEX
  8
0
  6
CONTINUOUS
 62
     7
 10
-170.9895233973029
 20
-312.9700501763743
 42
0.07398282385211347
  0
VERTEX
  8
0
  6
CONTINUOUS
 62
     7
 10
-171.3381330719922
 20
-312.4837950541635
 42
0.07398282385211347
  0
VERTEX
  8
0
  6
CONTINUOUS
 62
     7
 10
-171.8533718768937
 20
-312.0976528282289
 42
0.07398282385211347
  0
VERTEX
  8
0
  6
CONTINUOUS
 62
     7
 10
-172.4906075258487
 20
-311.8450728625584
 42
0.07398282385211347
  0
VERTEX
  8
0
  6
CONTINUOUS
 62
     7
 10
-173.1946398212708
 20
-311.7479347617131
 42
-1
  0
SEQEND
  8
0
  0
LINE
  8
0
  6
CONTINUOUS
 62
     7
 10
64.62805644654631
 20
-322.5153339071586
 11
65.64065152978903
 21
-322.6938817511239
  0
LINE
  8
0
  6
CONTINUOUS
 62
     7
 10
68.74283753426913
 20
-320.5784475736757
 11
69.68720215916294
 21
-320.7449645462368
  0
POLYLINE
  8
0
  6
CONTINUOUS
 62
     7
 66
     1
 10
0
 20
0
  0
VERTEX
  8
0
  6
CONTINUOUS
 62
     7
 10
68.76129189398853
 20
-320.3675262767999
 42
0.07333214780387673
  0
VERTEX
  8
0
  6
CONTINUOUS
 62
     7
 10
68.70959422408218
 20
-320.1276461484044
 42
0.07333214780387673
  0
VERTEX
  8
0
  6
CONTINUOUS
 62
     7
 10
68.5589019101655
 20
-319.9081854987979
 42
0.07333214780387673
  0
VERTEX
  8
0
  6
CONTINUOUS
 62
     7
 10
68.32204243623329
 20
-319.7278256256335
 42
0.07333214780387673
  0
VERTEX
  8
0
  6
CONTINUOUS
 62
     7
 10
68.01917815185686
 20
-319.6019194246641
 42
0.07333214780387673
  0
VERTEX
  8
0
  6
CONTINUOUS
 62
     7
 10
67.67608997883288
 20
-319.5411844947892
 42
0.07333214780387673
  0
VERTEX
  8
0
  6
CONTINUOUS
 62
     7
 10
67.32198284429997
 20
-319.5507908166179
 42
0.07333214780387673
  0
VERTEX
  8
0
  6
CONTINUOUS
 62
     7
 10
66.98699964992724
 20
-319.6299206647048
 42
0.07333214780387673
  0
VERTEX
  8
0
  6
CONTINUOUS
 62
     7
 10
66.69965539726104
 20
-319.7718382153476
 42
0.07333214780387673
  0
VERTEX
  8
0
  6
CONTINUOUS
 62
     7
 10
66.48440988591746
 20
-319.9644629246742
 42
0.07333214780387673
  0
VERTEX
  8
0
  6
CONTINUOUS
 62
     7
 10
66.35958560547779
 20
-320.1913978689685
 42
0.07333214780387673
  0
VERTEX
  8
0
  6
CONTINUOUS
 62
     7
 10
66.33580805778679
 20
-320.4333255111235
 42
0.07333214780387673
  0
VERTEX
  8
0
  6
CONTINUOUS
 62
     7
 10
66.41510127515581
 20
-320.6696520804485
 42
0.07333214780387673
  0
VERTEX
  8
0
  6
CONTINUOUS
 62
     7
 10
66.5907155272883
 20
-320.8802605901726
 42
0.07333214780387673
  0
VERTEX
  8
0
  6
CONTINUOUS
 62
     7
 10
66.84770188314761
 20
-321.0472232693466
 42
0.07333214780387673
  0
VERTEX
  8
0
  6
CONTINUOUS
 62
     7
 10
67.16418471894775
 20
-321.156327640644
 42
0.07333214780387673
  0
VERTEX
  8
0
  6
CONTINUOUS
 62
     7
 10
67.51322385170691
 20
-321.1982863387027
 42
-1
  0
SEQEND
  8
0
  0
POLYLINE
  8
0
  6
CONTINUOUS
 62
     7
 66
     1
 10
0
 20
0
  0
VERTEX
  8
0
  6
CONTINUOUS
 62
     7
 10
69.72022455409503
 20
-320.3675260552936
 42
0.07332668712448476
  0
VERTEX
  8
0
  6
CONTINUOUS
 62
     7
 10
69.62772663407476
 20
-319.8656590596138
 42
0.07332668712448476
  0
VERTEX
  8
0
  6
CONTINUOUS
 62
     7
 10
69.35810536779316
 20
-319.4065065214205
 42
0.07332668712448476
  0
VERTEX
  8
0
  6
CONTINUOUS
 62
     7
 10
68.93430852765194
 20
-319.029147435073
 42
0.07332668712448476
  0
VERTEX
  8
0
  6
CONTINUOUS
 62
     7
 10
68.39240594436686
 20
-318.7656992612845
 42
0.07332668712448476
  0
VERTEX
  8
0
  6
CONTINUOUS
 62
     7
 10
67.77851956268152
 20
-318.6385843735388
 42
0.07332668712448476
  0
VERTEX
  8
0
  6
CONTINUOUS
 62
     7
 10
67.14489795023205
 20
-318.6586216643999
 42
0.07332668712448476
  0
VERTEX
  8
0
  6
CONTINUOUS
 62
     7
 10
66.54546936257424
 20
-318.8241057372698
 42
0.07332668712448476
  0
VERTEX
  8
0
  6
CONTINUOUS
 62
     7
 10
66.03125184806304
 20
-319.1209520546316
 42
0.07332668712448476
  0
VERTEX
  8
0
  6
CONTINUOUS
 62
     7
 10
65.64601104377422
 20
-319.5238956890445
 42
0.07332668712448476
  0
VERTEX
  8
0
  6
CONTINUOUS
 62
     7
 10
65.42253523239265
 20
-319.9986416498322
 42
0.07332668712448476
  0
VERTEX
  8
0
  6
CONTINUOUS
 62
     7
 10
65.37984469420852
 20
-320.5047837687163
 42
0.07332668712448476
  0
VERTEX
  8
0
  6
CONTINUOUS
 62
     7
 10
65.5215728694451
 20
-320.9992437147207
 42
0.07332668712448476
  0
VERTEX
  8
0
  6
CONTINUOUS
 62
     7
 10
65.83565711203188
 20
-321.4399374398799
 42
0.07332668712448476
  0
VERTEX
  8
0
  6
CONTINUOUS
 62
     7
 10
66.29536535512094
 20
-321.7893570003908
 42
0.07332668712448476
  0
VERTEX
  8
0
  6
CONTINUOUS
 62
     7
 10
66.86157130767782
 20
-322.0177629003379
 42
0.07332668712448476
  0
VERTEX
  8
0
  6
CONTINUOUS
 62
     7
 10
67.48608453757906
 20
-322.1057152539899
 42
-1
  0
SEQEND
  8
0
  0
POLYLINE
  8
0
  6
CONTINUOUS
 62
     7
 66
     1
 10
0
 20
0
  0
VERTEX
  8
0
  6
CONTINUOUS
 62
     7
 10
65.59513676837761
 20
-322.9679515657446
 42
0.07459289906077718
  0
VERTEX
  8
0
  6
CONTINUOUS
 62
     7
 10
65.62358159667717
 20
-323.2631798352736
 42
0.07459289906077718
  0
VERTEX
  8
0
  6
CONTINUOUS
 62
     7
 10
65.77294593608174
 20
-323.5394930796428
 42
0.07459289906077718
  0
VERTEX
  8
0
  6
CONTINUOUS
 62
     7
 10
66.03007928381628
 20
-323.7725638181341
 42
0.07459289906077718
  0
VERTEX
  8
0
  6
CONTINUOUS
 62
     7
 10
66.37234281714429
 20
-323.9418717752552
 42
0.07459289906077718
  0
VERTEX
  8
0
  6
CONTINUOUS
 62
     7
 10
66.76960258600266
 20
-324.0325105498607
 42
0.07459289906077718
  0
VERTEX
  8
0
  6
CONTINUOUS
 62
     7
 10
67.1868826000472
 20
-324.0365000212491
 42
0.07459289906077718
  0
VERTEX
  8
0
  6
CONTINUOUS
 62
     7
 10
67.58744422404183
 20
-323.9534889439037
 42
0.07459289906077718
  0
VERTEX
  8
0
  6
CONTINUOUS
 62
     7
 10
67.93602076200737
 20
-323.7907858722447
 42
0.07459289906077718
  0
VERTEX
  8
0
  6
CONTINUOUS
 62
     7
 10
68.20192244724247
 20
-323.5627156926801
 42
0.07459289906077718
  0
VERTEX
  8
0
  6
CONTINUOUS
 62
     7
 10
68.3617384652012
 20
-323.2893584158819
 42
0.07459289906077718
  0
VERTEX
  8
0
  6
CONTINUOUS
 62
     7
 10
68.4013981146972
 20
-322.9947812699544
 42
0.07459289906077718
  0
VERTEX
  8
0
  6
CONTINUOUS
 62
     7
 10
68.31740963636655
 20
-322.7049197465314
 42
0.07459289906077718
  0
VERTEX
  8
0
  6
CONTINUOUS
 62
     7
 10
68.11716763806383
 20
-322.4452941591181
 42
0.07459289906077718
  0
VERTEX
  8
0
  6
CONTINUOUS
 62
     7
 10
67.81830205049981
 20
-322.2387627550138
 42
0.07459289906077718
  0
VERTEX
  8
0
  6
CONTINUOUS
 62
     7
 10
67.44712593309876
 20
-322.103509203852
 42
0.07459289906077718
  0
VERTEX
  8
0
  6
CONTINUOUS
 62
     7
 10
67.03631879009423
 20
-322.0514416505554
 42
-1
  0
SEQEND
  8
0
  0
POLYLINE
  8
0
  6
CONTINUOUS
 62
     7
 66
     1
 10
0
 20
0
  0
VERTEX
  8
0
  6
CONTINUOUS
 62
     7
 10
64.57234416015459
 20
-322.9573022158601
 42
0.07398282385211347
  0
VERTEX
  8
0
  6
CONTINUOUS
 62
     7
 10
64.64812041488166
 20
-323.5111059587224
 42
0.07398282385211347
  0
VERTEX
  8
0
  6
CONTINUOUS
 62
     7
 10
64.92758777970276
 20
-324.0237399033193
 42
0.07398282385211347
  0
VERTEX
  8
0
  6
CONTINUOUS
 62
     7
 10
65.38653754347254
 20
-324.4507974081241
 42
0.07398282385211347
  0
VERTEX
  8
0
  6
CONTINUOUS
 62
     7
 10
65.98521342814254
 20
-324.7552848449797
 42
0.07398282385211347
  0
VERTEX
  8
0
  6
CONTINUOUS
 62
     7
 10
66.67175545510339
 20
-324.9108261523701
 42
0.07398282385211347
  0
VERTEX
  8
0
  6
CONTINUOUS
 62
     7
 10
67.38669228812076
 20
-324.9039476476556
 42
0.07398282385211347
  0
VERTEX
  8
0
  6
CONTINUOUS
 62
     7
 10
68.06809290605828
 20
-324.7352451776316
 42
0.07398282385211347
  0
VERTEX
  8
0
  6
CONTINUOUS
 62
     7
 10
68.65693134449096
 20
-324.4193325036183
 42
0.07398282385211347
  0
VERTEX
  8
0
  6
CONTINUOUS
 62
     7
 10
69.10219978833315
 20
-323.9835753921955
 42
0.07398282385211347
  0
VERTEX
  8
0
  6
CONTINUOUS
 62
     7
 10
69.36532709656453
 20
-323.4657210702949
 42
0.07398282385211347
  0
VERTEX
  8
0
  6
CONTINUOUS
 62
     7
 10
69.42352000671063
 20
-322.9106283918378
 42
0.07398282385211347
  0
VERTEX
  8
0
  6
CONTINUOUS
 62
     7
 10
69.27173758902522
 20
-322.3663819634837
 42
0.07398282385211347
  0
VERTEX
  8
0
  6
CONTINUOUS
 62
     7
 10
68.92312791433592
 20
-321.8801268412729
 42
0.07398282385211347
  0
VERTEX
  8
0
  6
CONTINUOUS
 62
     7
 10
68.40788910943445
 20
-321.4939846153383
 42
0.07398282385211347
  0
VERTEX
  8
0
  6
CONTINUOUS
 62
     7
 10
67.77065346047948
 20
-321.2414046496678
 42
0.07398282385211347
  0
VERTEX
  8
0
  6
CONTINUOUS
 62
     7
 10
67.0666211650573
 20
-321.1442665488225
 42
-1
  0
SEQEND
  8
0
  0
LINE
  8
0
  6
CONTINUOUS
 62
     7
 10
85.81027690553069
 20
-322.5153339071586
 11
86.8228719887734
 21
-322.6938817511239
  0
LINE
  8
0
  6
CONTINUOUS
 62
     7
 10
89.9250579932535
 20
-320.5784475736757
 11
90.86942261814731
 21
-320.7449645462368
  0
POLYLINE
  8
0
  6
CONTINUOUS
 62
     7
 66
     1
 10
0
 20
0
  0
VERTEX
  8
0
  6
CONTINUOUS
 62
     7
 10
89.9435123529729
 20
-320.3675262767999
 42
0.07333214780387673
  0
VERTEX
  8
0
  6
CONTINUOUS
 62
     7
 10
89.89181468306656
 20
-320.1276461484044
 42
0.07333214780387673
  0
VERTEX
  8
0
  6
CONTINUOUS
 62
     7
 10
89.74112236914988
 20
-319.9081854987979
 42
0.07333214780387673
  0
VERTEX
  8
0
  6
CONTINUOUS
 62
     7
 10
89.50426289521766
 20
-319.7278256256335
 42
0.07333214780387673
  0
VERTEX
  8
0
  6
CONTINUOUS
 62
     7
 10
89.20139861084124
 20
-319.6019194246641
 42
0.07333214780387673
  0
VERTEX
  8
0
  6
CONTINUOUS
 62
     7
 10
88.85831043781725
 20
-319.5411844947892
 42
0.07333214780387673
  0
VERTEX
  8
0
  6
CONTINUOUS
 62
     7
 10
88.50420330328434
 20
-319.5507908166179
 42
0.07333214780387673
  0
VERTEX
  8
0
  6
CONTINUOUS
 62
     7
 10
88.16922010891162
 20
-319.6299206647048
 42
0.07333214780387673
  0
VERTEX
  8
0
  6
CONTINUOUS
 62
     7
 10
87.88187585624542
 20
-319.7718382153476
 42
0.07333214780387673
  0
VERTEX
  8
0
  6
CONTINUOUS
 62
     7
 10
87.66663034490183
 20
-319.9644629246742
 42
0.07333214780387673
  0
VERTEX
  8
0
  6
CONTINUOUS
 62
     7
 10
87.54180606446217
 20
-320.1913978689685
 42
0.07333214780387673
  0
VERTEX
  8
0
  6
CONTINUOUS
 62
     7
 10
87.51802851677117
 20
-320.4333255111235
 42
0.07333214780387673
  0
VERTEX
  8
0
  6
CONTINUOUS
 62
     7
 10
87.59732173414018
 20
-320.6696520804485
 42
0.07333214780387673
  0
VERTEX
  8
0
  6
CONTINUOUS
 62
     7
 10
87.77293598627267
 20
-320.8802605901726
 42
0.07333214780387673
  0
VERTEX
  8
0
  6
CONTINUOUS
 62
     7
 10
88.02992234213198
 20
-321.0472232693466
 42
0.07333214780387673
  0
VERTEX
  8
0
  6
CONTINUOUS
 62
     7
 10
88.34640517793213
 20
-321.156327640644
 42
0.07333214780387673
  0
VERTEX
  8
0
  6
CONTINUOUS
 62
     7
 10
88.69544431069129
 20
-321.1982863387027
 42
-1
  0
SEQEND
  8
0
  0
POLYLINE
  8
0
  6
CONTINUOUS
 62
     7
 66
     1
 10
0
 20
0
  0
VERTEX
  8
0
  6
CONTINUOUS
 62
     7
 10
90.9024450130794
 20
-320.3675260552936
 42
0.07332668712448476
  0
VERTEX
  8
0
  6
CONTINUOUS
 62
     7
 10
90.80994709305914
 20
-319.8656590596138
 42
0.07332668712448476
  0
VERTEX
  8
0
  6
CONTINUOUS
 62
     7
 10
90.54032582677753
 20
-319.4065065214205
 42
0.07332668712448476
  0
VERTEX
  8
0
  6
CONTINUOUS
 62
     7
 10
90.11652898663631
 20
-319.029147435073
 42
0.07332668712448476
  0
VERTEX
  8
0
  6
CONTINUOUS
 62
     7
 10
89.57462640335123
 20
-318.7656992612845
 42
0.07332668712448476
  0
VERTEX
  8
0
  6
CONTINUOUS
 62
     7
 10
88.9607400216659
 20
-318.6385843735388
 42
0.07332668712448476
  0
VERTEX
  8
0
  6
CONTINUOUS
 62
     7
 10
88.32711840921643
 20
-318.6586216643999
 42
0.07332668712448476
  0
VERTEX
  8
0
  6
CONTINUOUS
 62
     7
 10
87.72768982155861
 20
-318.8241057372698
 42
0.07332668712448476
  0
VERTEX
  8
0
  6
CONTINUOUS
 62
     7
 10
87.21347230704741
 20
-319.1209520546316
 42
0.07332668712448476
  0
VERTEX
  8
0
  6
CONTINUOUS
 62
     7
 10
86.8282315027586
 20
-319.5238956890445
 42
0.07332668712448476
  0
VERTEX
  8
0
  6
CONTINUOUS
 62
     7
 10
86.60475569137702
 20
-319.9986416498322
 42
0.07332668712448476
  0
VERTEX
  8
0
  6
CONTINUOUS
 62
     7
 10
86.56206515319289
 20
-320.5047837687163
 42
0.07332668712448476
  0
VERTEX
  8
0
  6
CONTINUOUS
 62
     7
 10
86.70379332842947
 20
-320.9992437147207
 42
0.07332668712448476
  0
VERTEX
  8
0
  6
CONTINUOUS
 62
     7
 10
87.01787757101626
 20
-321.4399374398799
 42
0.07332668712448476
  0
VERTEX
  8
0
  6
CONTINUOUS
 62
     7
 10
87.47758581410531
 20
-321.7893570003908
 42
0.07332668712448476
  0
VERTEX
  8
0
  6
CONTINUOUS
 62
     7
 10
88.0437917666622
 20
-322.0177629003379
 42
0.07332668712448476
  0
VERTEX
  8
0
  6
CONTINUOUS
 62
     7
 10
88.66830499656344
 20
-322.1057152539899
 42
-1
  0
SEQEND
  8
0
  0
POLYLINE
  8
0
  6
CONTINUOUS
 62
     7
 66
     1
 10
0
 20
0
  0
VERTEX
  8
0
  6
CONTINUOUS
 62
     7
 10
86.77735722736199
 20
-322.9679515657446
 42
0.07459289906077718
  0
VERTEX
  8
0
  6
CONTINUOUS
 62
     7
 10
86.80580205566155
 20
-323.2631798352736
 42
0.07459289906077718
  0
VERTEX
  8
0
  6
CONTINUOUS
 62
     7
 10
86.95516639506612
 20
-323.5394930796428
 42
0.07459289906077718
  0
VERTEX
  8
0
  6
CONTINUOUS
 62
     7
 10
87.21229974280065
 20
-323.7725638181341
 42
0.07459289906077718
  0
VERTEX
  8
0
  6
CONTINUOUS
 62
     7
 10
87.55456327612866
 20
-323.9418717752552
 42
0.07459289906077718
  0
VERTEX
  8
0
  6
CONTINUOUS
 62
     7
 10
87.95182304498704
 20
-324.0325105498607
 42
0.07459289906077718
  0
VERTEX
  8
0
  6
CONTINUOUS
 62
     7
 10
88.36910305903157
 20
-324.0365000212491
 42
0.07459289906077718
  0
VERTEX
  8
0
  6
CONTINUOUS
 62
     7
 10
88.76966468302621
 20
-323.9534889439037
 42
0.07459289906077718
  0
VERTEX
  8
0
  6
CONTINUOUS
 62
     7
 10
89.11824122099175
 20
-323.7907858722447
 42
0.07459289906077718
  0
VERTEX
  8
0
  6
CONTINUOUS
 62
     7
 10
89.38414290622684
 20
-323.5627156926801
 42
0.07459289906077718
  0
VERTEX
  8
0
  6
CONTINUOUS
 62
     7
 10
89.54395892418557
 20
-323.2893584158819
 42
0.07459289906077718
  0
VERTEX
  8
0
  6
CONTINUOUS
 62
     7
 10
89.58361857368158
 20
-322.9947812699544
 42
0.07459289906077718
  0
VERTEX
  8
0
  6
CONTINUOUS
 62
     7
 10
89.49963009535092
 20
-322.7049197465314
 42
0.07459289906077718
  0
VERTEX
  8
0
  6
CONTINUOUS
 62
     7
 10
89.29938809704821
 20
-322.4452941591181
 42
0.07459289906077718
  0
VERTEX
  8
0
  6
CONTINUOUS
 62
     7
 10
89.00052250948419
 20
-322.2387627550138
 42
0.07459289906077718
  0
VERTEX
  8
0
  6
CONTINUOUS
 62
     7
 10
88.62934639208314
 20
-322.103509203852
 42
0.07459289906077718
  0
VERTEX
  8
0
  6
CONTINUOUS
 62
     7
 10
88.2185392490786
 20
-322.0514416505554
 42
-1
  0
SEQEND
  8
0
  0
POLYLINE
  8
0
  6
CONTINUOUS
 62
     7
 66
     1
 10
0
 20
0
  0
VERTEX
  8
0
  6
CONTINUOUS
 62
     7
 10
85.75456461913896
 20
-322.9573022158601
 42
0.07398282385211347
  0
VERTEX
  8
0
  6
CONTINUOUS
 62
     7
 10
85.83034087386604
 20
-323.5111059587224
 42
0.07398282385211347
  0
VERTEX
  8
0
  6
CONTINUOUS
 62
     7
 10
86.10980823868714
 20
-324.0237399033193
 42
0.07398282385211347
  0
VERTEX
  8
0
  6
CONTINUOUS
 62
     7
 10
86.56875800245692
 20
-324.4507974081241
 42
0.07398282385211347
  0
VERTEX
  8
0
  6
CONTINUOUS
 62
     7
 10
87.16743388712692
 20
-324.7552848449797
 42
0.07398282385211347
  0
VERTEX
  8
0
  6
CONTINUOUS
 62
     7
 10
87.85397591408777
 20
-324.9108261523701
 42
0.07398282385211347
  0
VERTEX
  8
0
  6
CONTINUOUS
 62
     7
 10
88.56891274710513
 20
-324.9039476476556
 42
0.07398282385211347
  0
VERTEX
  8
0
  6
CONTINUOUS
 62
     7
 10
89.25031336504266
 20
-324.7352451776316
 42
0.07398282385211347
  0
VERTEX
  8
0
  6
CONTINUOUS
 62
     7
 10
89.83915180347533
 20
-324.4193325036183
 42
0.07398282385211347
  0
VERTEX
  8
0
  6
CONTINUOUS
 62
     7
 10
90.28442024731753
 20
-323.9835753921955
 42
0.07398282385211347
  0
VERTEX
  8
0
  6
CONTINUOUS
 62
     7
 10
90.5475475555489
 20
-323.4657210702949
 42
0.07398282385211347
  0
VERTEX
  8
0
  6
CONTINUOUS
 62
     7
 10
90.60574046569501
 20
-322.9106283918378
 42
0.07398282385211347
  0
VERTEX
  8
0
  6
CONTINUOUS
 62
     7
 10
90.4539580480096
 20
-322.3663819634837
 42
0.07398282385211347
  0
VERTEX
  8
0
  6
CONTINUOUS
 62
     7
 10
90.1053483733203
 20
-321.8801268412729
 42
0.07398282385211347
  0
VERTEX
  8
0
  6
CONTINUOUS
 62
     7
 10
89.59010956841883
 20
-321.4939846153383
 42
0.07398282385211347
  0
VERTEX
  8
0
  6
CONTINUOUS
 62
     7
 10
88.95287391946386
 20
-321.2414046496678
 42
0.07398282385211347
  0
VERTEX
  8
0
  6
CONTINUOUS
 62
     7
 10
88.24884162404167
 20
-321.1442665488225
 42
-1
  0
SEQEND
  8
0
  0
LINE
  8
0
  6
CONTINUOUS
 62
     7
 10
394.8642014660776
 20
-316.0586383505179
 11
395.8767965493203
 21
-316.2371861944832
  0
LINE
  8
0
  6
CONTINUOUS
 62
     7
 10
398.9789825538004
 20
-314.121752017035
 11
399.9233471786942
 21
-314.2882689895962
  0
POLYLINE
  8
0
  6
CONTINUOUS
 62
     7
 66
     1
 10
0
 20
0
  0
VERTEX
  8
0
  6
CONTINUOUS
 62
     7
 10
398.9974369135198
 20
-313.9108307201593
 42
0.07333214780387673
  0
VERTEX
  8
0
  6
CONTINUOUS
 62
     7
 10
398.9457392436135
 20
-313.6709505917638
 42
0.07333214780387673
  0
VERTEX
  8
0
  6
CONTINUOUS
 62
     7
 10
398.7950469296968
 20
-313.4514899421573
 42
0.07333214780387673
  0
VERTEX
  8
0
  6
CONTINUOUS
 62
     7
 10
398.5581874557645
 20
-313.2711300689929
 42
0.07333214780387673
  0
VERTEX
  8
0
  6
CONTINUOUS
 62
     7
 10
398.2553231713881
 20
-313.1452238680235
 42
0.07333214780387673
  0
VERTEX
  8
0
  6
CONTINUOUS
 62
     7
 10
397.9122349983641
 20
-313.0844889381485
 42
0.07333214780387673
  0
VERTEX
  8
0
  6
CONTINUOUS
 62
     7
 10
397.5581278638312
 20
-313.0940952599772
 42
0.07333214780387673
  0
VERTEX
  8
0
  6
CONTINUOUS
 62
     7
 10
397.2231446694585
 20
-313.1732251080642
 42
0.07333214780387673
  0
VERTEX
  8
0
  6
CONTINUOUS
 62
     7
 10
396.9358004167923
 20
-313.315142658707
 42
0.07333214780387673
  0
VERTEX
  8
0
  6
CONTINUOUS
 62
     7
 10
396.7205549054487
 20
-313.5077673680336
 42
0.07333214780387673
  0
VERTEX
  8
0
  6
CONTINUOUS
 62
     7
 10
396.595730625009
 20
-313.7347023123278
 42
0.07333214780387673
  0
VERTEX
  8
0
  6
CONTINUOUS
 62
     7
 10
396.571953077318
 20
-313.9766299544829
 42
0.07333214780387673
  0
VERTEX
  8
0
  6
CONTINUOUS
 62
     7
 10
396.651246294687
 20
-314.2129565238079
 42
0.07333214780387673
  0
VERTEX
  8
0
  6
CONTINUOUS
 62
     7
 10
396.8268605468196
 20
-314.423565033532
 42
0.07333214780387673
  0
VERTEX
  8
0
  6
CONTINUOUS
 62
     7
 10
397.0838469026788
 20
-314.590527712706
 42
0.07333214780387673
  0
VERTEX
  8
0
  6
CONTINUOUS
 62
     7
 10
397.400329738479
 20
-314.6996320840033
 42
0.07333214780387673
  0
VERTEX
  8
0
  6
CONTINUOUS
 62
     7
 10
397.7493688712382
 20
-314.7415907820621
 42
-1
  0
SEQEND
  8
0
  0
POLYLINE
  8
0
  6
CONTINUOUS
 62
     7
 66
     1
 10
0
 20
0
  0
VERTEX
  8
0
  6
CONTINUOUS
 62
     7
 10
399.9563695736263
 20
-313.910830498653
 42
0.07332668712448476
  0
VERTEX
  8
0
  6
CONTINUOUS
 62
     7
 10
399.863871653606
 20
-313.4089635029732
 42
0.07332668712448476
  0
VERTEX
  8
0
  6
CONTINUOUS
 62
     7
 10
399.5942503873244
 20
-312.9498109647799
 42
0.07332668712448476
  0
VERTEX
  8
0
  6
CONTINUOUS
 62
     7
 10
399.1704535471832
 20
-312.5724518784324
 42
0.07332668712448476
  0
VERTEX
  8
0
  6
CONTINUOUS
 62
     7
 10
398.6285509638981
 20
-312.3090037046439
 42
0.07332668712448476
  0
VERTEX
  8
0
  6
CONTINUOUS
 62
     7
 10
398.0146645822127
 20
-312.1818888168982
 42
0.07332668712448476
  0
VERTEX
  8
0
  6
CONTINUOUS
 62
     7
 10
397.3810429697633
 20
-312.2019261077592
 42
0.07332668712448476
  0
VERTEX
  8
0
  6
CONTINUOUS
 62
     7
 10
396.7816143821055
 20
-312.3674101806292
 42
0.07332668712448476
  0
VERTEX
  8
0
  6
CONTINUOUS
 62
     7
 10
396.2673968675943
 20
-312.664256497991
 42
0.07332668712448476
  0
VERTEX
  8
0
  6
CONTINUOUS
 62
     7
 10
395.8821560633054
 20
-313.0672001324039
 42
0.07332668712448476
  0
VERTEX
  8
0
  6
CONTINUOUS
 62
     7
 10
395.6586802519239
 20
-313.5419460931916
 42
0.07332668712448476
  0
VERTEX
  8
0
  6
CONTINUOUS
 62
     7
 10
395.6159897137397
 20
-314.0480882120757
 42
0.07332668712448476
  0
VERTEX
  8
0
  6
CONTINUOUS
 62
     7
 10
395.7577178889763
 20
-314.54254815808
 42
0.07332668712448476
  0
VERTEX
  8
0
  6
CONTINUOUS
 62
     7
 10
396.0718021315631
 20
-314.9832418832393
 42
0.07332668712448476
  0
VERTEX
  8
0
  6
CONTINUOUS
 62
     7
 10
396.5315103746522
 20
-315.3326614437502
 42
0.07332668712448476
  0
VERTEX
  8
0
  6
CONTINUOUS
 62
     7
 10
397.0977163272091
 20
-315.5610673436972
 42
0.07332668712448476
  0
VERTEX
  8
0
  6
CONTINUOUS
 62
     7
 10
397.7222295571103
 20
-315.6490196973493
 42
-1
  0
SEQEND
  8
0
  0
POLYLINE
  8
0
  6
CONTINUOUS
 62
     7
 66
     1
 10
0
 20
0
  0
VERTEX
  8
0
  6
CONTINUOUS
 62
     7
 10
395.8312817879088
 20
-316.5112560091039
 42
0.07459289906077718
  0
VERTEX
  8
0
  6
CONTINUOUS
 62
     7
 10
395.8597266162084
 20
-316.8064842786329
 42
0.07459289906077718
  0
VERTEX
  8
0
  6
CONTINUOUS
 62
     7
 10
396.0090909556129
 20
-317.0827975230022
 42
0.07459289906077718
  0
VERTEX
  8
0
  6
CONTINUOUS
 62
     7
 10
396.2662243033475
 20
-317.3158682614935
 42
0.07459289906077718
  0
VERTEX
  8
0
  6
CONTINUOUS
 62
     7
 10
396.6084878366755
 20
-317.4851762186145
 42
0.07459289906077718
  0
VERTEX
  8
0
  6
CONTINUOUS
 62
     7
 10
397.0057476055339
 20
-317.5758149932201
 42
0.07459289906077718
  0
VERTEX
  8
0
  6
CONTINUOUS
 62
     7
 10
397.4230276195784
 20
-317.5798044646085
 42
0.07459289906077718
  0
VERTEX
  8
0
  6
CONTINUOUS
 62
     7
 10
397.8235892435731
 20
-317.496793387263
 42
0.07459289906077718
  0
VERTEX
  8
0
  6
CONTINUOUS
 62
     7
 10
398.1721657815386
 20
-317.334090315604
 42
0.07459289906077718
  0
VERTEX
  8
0
  6
CONTINUOUS
 62
     7
 10
398.4380674667737
 20
-317.1060201360394
 42
0.07459289906077718
  0
VERTEX
  8
0
  6
CONTINUOUS
 62
     7
 10
398.5978834847325
 20
-316.8326628592412
 42
0.07459289906077718
  0
VERTEX
  8
0
  6
CONTINUOUS
 62
     7
 10
398.6375431342285
 20
-316.5380857133138
 42
0.07459289906077718
  0
VERTEX
  8
0
  6
CONTINUOUS
 62
     7
 10
398.5535546558978
 20
-316.2482241898907
 42
0.07459289906077718
  0
VERTEX
  8
0
  6
CONTINUOUS
 62
     7
 10
398.3533126575951
 20
-315.9885986024775
 42
0.07459289906077718
  0
VERTEX
  8
0
  6
CONTINUOUS
 62
     7
 10
398.054447070031
 20
-315.7820671983732
 42
0.07459289906077718
  0
VERTEX
  8
0
  6
CONTINUOUS
 62
     7
 10
397.68327095263
 20
-315.6468136472114
 42
0.07459289906077718
  0
VERTEX
  8
0
  6
CONTINUOUS
 62
     7
 10
397.2724638096254
 20
-315.5947460939148
 42
-1
  0
SEQEND
  8
0
  0
POLYLINE
  8
0
  6
CONTINUOUS
 62
     7
 66
     1
 10
0
 20
0
  0
VERTEX
  8
0
  6
CONTINUOUS
 62
     7
 10
394.8084891796859
 20
-316.5006066592195
 42
0.07398282385211347
  0
VERTEX
  8
0
  6
CONTINUOUS
 62
     7
 10
394.884265434413
 20
-317.0544104020818
 42
0.07398282385211347
  0
VERTEX
  8
0
  6
CONTINUOUS
 62
     7
 10
395.163732799234
 20
-317.5670443466786
 42
0.07398282385211347
  0
VERTEX
  8
0
  6
CONTINUOUS
 62
     7
 10
395.6226825630038
 20
-317.9941018514834
 42
0.07398282385211347
  0
VERTEX
  8
0
  6
CONTINUOUS
 62
     7
 10
396.2213584476738
 20
-318.298589288339
 42
0.07398282385211347
  0
VERTEX
  8
0
  6
CONTINUOUS
 62
     7
 10
396.9079004746347
 20
-318.4541305957295
 42
0.07398282385211347
  0
VERTEX
  8
0
  6
CONTINUOUS
 62
     7
 10
397.6228373076521
 20
-318.447252091015
 42
0.07398282385211347
  0
VERTEX
  8
0
  6
CONTINUOUS
 62
     7
 10
398.3042379255895
 20
-318.2785496209909
 42
0.07398282385211347
  0
VERTEX
  8
0
  6
CONTINUOUS
 62
     7
 10
398.8930763640222
 20
-317.9626369469776
 42
0.07398282385211347
  0
VERTEX
  8
0
  6
CONTINUOUS
 62
     7
 10
399.3383448078644
 20
-317.5268798355548
 42
0.07398282385211347
  0
VERTEX
  8
0
  6
CONTINUOUS
 62
     7
 10
399.6014721160958
 20
-317.0090255136543
 42
0.07398282385211347
  0
VERTEX
  8
0
  6
CONTINUOUS
 62
     7
 10
399.6596650262419
 20
-316.4539328351971
 42
0.07398282385211347
  0
VERTEX
  8
0
  6
CONTINUOUS
 62
     7
 10
399.5078826085565
 20
-315.909686406843
 42
0.07398282385211347
  0
VERTEX
  8
0
  6
CONTINUOUS
 62
     7
 10
399.1592729338672
 20
-315.4234312846323
 42
0.07398282385211347
  0
VERTEX
  8
0
  6
CONTINUOUS
 62
     7
 10
398.6440341289657
 20
-315.0372890586976
 42
0.07398282385211347
  0
VERTEX
  8
0
  6
CONTINUOUS
 62
     7
 10
398.0067984800107
 20
-314.7847090930272
 42
0.07398282385211347
  0
VERTEX
  8
0
  6
CONTINUOUS
 62
     7
 10
397.3027661845886
 20
-314.6875709921819
 42
-1
  0
SEQEND
  8
0
  0
LINE
  8
0
  6
CONTINUOUS
 62
     7
 10
416.046421925062
 20
-316.0586383505179
 11
417.0590170083046
 21
-316.2371861944832
  0
LINE
  8
0
  6
CONTINUOUS
 62
     7
 10
420.1612030127848
 20
-314.121752017035
 11
421.1055676376786
 21
-314.2882689895962
  0
POLYLINE
  8
0
  6
CONTINUOUS
 62
     7
 66
     1
 10
0
 20
0
  0
VERTEX
  8
0
  6
CONTINUOUS
 62
     7
 10
420.1796573725042
 20
-313.9108307201593
 42
0.07333214780387673
  0
VERTEX
  8
0
  6
CONTINUOUS
 62
     7
 10
420.1279597025978
 20
-313.6709505917638
 42
0.07333214780387673
  0
VERTEX
  8
0
  6
CONTINUOUS
 62
     7
 10
419.9772673886811
 20
-313.4514899421573
 42
0.07333214780387673
  0
VERTEX
  8
0
  6
CONTINUOUS
 62
     7
 10
419.7404079147489
 20
-313.2711300689929
 42
0.07333214780387673
  0
VERTEX
  8
0
  6
CONTINUOUS
 62
     7
 10
419.4375436303725
 20
-313.1452238680235
 42
0.07333214780387673
  0
VERTEX
  8
0
  6
CONTINUOUS
 62
     7
 10
419.0944554573485
 20
-313.0844889381485
 42
0.07333214780387673
  0
VERTEX
  8
0
  6
CONTINUOUS
 62
     7
 10
418.7403483228156
 20
-313.0940952599772
 42
0.07333214780387673
  0
VERTEX
  8
0
  6
CONTINUOUS
 62
     7
 10
418.4053651284428
 20
-313.1732251080642
 42
0.07333214780387673
  0
VERTEX
  8
0
  6
CONTINUOUS
 62
     7
 10
418.1180208757767
 20
-313.315142658707
 42
0.07333214780387673
  0
VERTEX
  8
0
  6
CONTINUOUS
 62
     7
 10
417.9027753644331
 20
-313.5077673680336
 42
0.07333214780387673
  0
VERTEX
  8
0
  6
CONTINUOUS
 62
     7
 10
417.7779510839934
 20
-313.7347023123278
 42
0.07333214780387673
  0
VERTEX
  8
0
  6
CONTINUOUS
 62
     7
 10
417.7541735363024
 20
-313.9766299544829
 42
0.07333214780387673
  0
VERTEX
  8
0
  6
CONTINUOUS
 62
     7
 10
417.8334667536714
 20
-314.2129565238079
 42
0.07333214780387673
  0
VERTEX
  8
0
  6
CONTINUOUS
 62
     7
 10
418.0090810058039
 20
-314.423565033532
 42
0.07333214780387673
  0
VERTEX
  8
0
  6
CONTINUOUS
 62
     7
 10
418.2660673616632
 20
-314.590527712706
 42
0.07333214780387673
  0
VERTEX
  8
0
  6
CONTINUOUS
 62
     7
 10
418.5825501974634
 20
-314.6996320840033
 42
0.07333214780387673
  0
VERTEX
  8
0
  6
CONTINUOUS
 62
     7
 10
418.9315893302226
 20
-314.7415907820621
 42
-1
  0
SEQEND
  8
0
  0
POLYLINE
  8
0
  6
CONTINUOUS
 62
     7
 66
     1
 10
0
 20
0
  0
VERTEX
  8
0
  6
CONTINUOUS
 62
     7
 10
421.1385900326106
 20
-313.910830498653
 42
0.07332668712448476
  0
VERTEX
  8
0
  6
CONTINUOUS
 62
     7
 10
421.0460921125904
 20
-313.4089635029732
 42
0.07332668712448476
  0
VERTEX
  8
0
  6
CONTINUOUS
 62
     7
 10
420.7764708463088
 20
-312.9498109647799
 42
0.07332668712448476
  0
VERTEX
  8
0
  6
CONTINUOUS
 62
     7
 10
420.3526740061676
 20
-312.5724518784324
 42
0.07332668712448476
  0
VERTEX
  8
0
  6
CONTINUOUS
 62
     7
 10
419.8107714228825
 20
-312.3090037046439
 42
0.07332668712448476
  0
VERTEX
  8
0
  6
CONTINUOUS
 62
     7
 10
419.1968850411971
 20
-312.1818888168982
 42
0.07332668712448476
  0
VERTEX
  8
0
  6
CONTINUOUS
 62
     7
 10
418.5632634287476
 20
-312.2019261077592
 42
0.07332668712448476
  0
VERTEX
  8
0
  6
CONTINUOUS
 62
     7
 10
417.9638348410899
 20
-312.3674101806292
 42
0.07332668712448476
  0
VERTEX
  8
0
  6
CONTINUOUS
 62
     7
 10
417.4496173265787
 20
-312.664256497991
 42
0.07332668712448476
  0
VERTEX
  8
0
  6
CONTINUOUS
 62
     7
 10
417.0643765222898
 20
-313.0672001324039
 42
0.07332668712448476
  0
VERTEX
  8
0
  6
CONTINUOUS
 62
     7
 10
416.8409007109083
 20
-313.5419460931916
 42
0.07332668712448476
  0
VERTEX
  8
0
  6
CONTINUOUS
 62
     7
 10
416.7982101727241
 20
-314.0480882120757
 42
0.07332668712448476
  0
VERTEX
  8
0
  6
CONTINUOUS
 62
     7
 10
416.9399383479607
 20
-314.54254815808
 42
0.07332668712448476
  0
VERTEX
  8
0
  6
CONTINUOUS
 62
     7
 10
417.2540225905475
 20
-314.9832418832393
 42
0.07332668712448476
  0
VERTEX
  8
0
  6
CONTINUOUS
 62
     7
 10
417.7137308336365
 20
-315.3326614437502
 42
0.07332668712448476
  0
VERTEX
  8
0
  6
CONTINUOUS
 62
     7
 10
418.2799367861935
 20
-315.5610673436972
 42
0.07332668712448476
  0
VERTEX
  8
0
  6
CONTINUOUS
 62
     7
 10
418.9044500160946
 20
-315.6490196973493
 42
-1
  0
SEQEND
  8
0
  0
POLYLINE
  8
0
  6
CONTINUOUS
 62
     7
 66
     1
 10
0
 20
0
  0
VERTEX
  8
0
  6
CONTINUOUS
 62
     7
 10
417.0135022468932
 20
-316.5112560091039
 42
0.07459289906077718
  0
VERTEX
  8
0
  6
CONTINUOUS
 62
     7
 10
417.0419470751928
 20
-316.8064842786329
 42
0.07459289906077718
  0
VERTEX
  8
0
  6
CONTINUOUS
 62
     7
 10
417.1913114145973
 20
-317.0827975230022
 42
0.07459289906077718
  0
VERTEX
  8
0
  6
CONTINUOUS
 62
     7
 10
417.4484447623319
 20
-317.3158682614935
 42
0.07459289906077718
  0
VERTEX
  8
0
  6
CONTINUOUS
 62
     7
 10
417.7907082956599
 20
-317.4851762186145
 42
0.07459289906077718
  0
VERTEX
  8
0
  6
CONTINUOUS
 62
     7
 10
418.1879680645183
 20
-317.5758149932201
 42
0.07459289906077718
  0
VERTEX
  8
0
  6
CONTINUOUS
 62
     7
 10
418.6052480785628
 20
-317.5798044646085
 42
0.07459289906077718
  0
VERTEX
  8
0
  6
CONTINUOUS
 62
     7
 10
419.0058097025574
 20
-317.496793387263
 42
0.07459289906077718
  0
VERTEX
  8
0
  6
CONTINUOUS
 62
     7
 10
419.354386240523
 20
-317.334090315604
 42
0.07459289906077718
  0
VERTEX
  8
0
  6
CONTINUOUS
 62
     7
 10
419.6202879257581
 20
-317.1060201360394
 42
0.07459289906077718
  0
VERTEX
  8
0
  6
CONTINUOUS
 62
     7
 10
419.7801039437168
 20
-316.8326628592412
 42
0.07459289906077718
  0
VERTEX
  8
0
  6
CONTINUOUS
 62
     7
 10
419.8197635932128
 20
-316.5380857133138
 42
0.07459289906077718
  0
VERTEX
  8
0
  6
CONTINUOUS
 62
     7
 10
419.7357751148822
 20
-316.2482241898907
 42
0.07459289906077718
  0
VERTEX
  8
0
  6
CONTINUOUS
 62
     7
 10
419.5355331165795
 20
-315.9885986024775
 42
0.07459289906077718
  0
VERTEX
  8
0
  6
CONTINUOUS
 62
     7
 10
419.2366675290154
 20
-315.7820671983732
 42
0.07459289906077718
  0
VERTEX
  8
0
  6
CONTINUOUS
 62
     7
 10
418.8654914116144
 20
-315.6468136472114
 42
0.07459289906077718
  0
VERTEX
  8
0
  6
CONTINUOUS
 62
     7
 10
418.4546842686098
 20
-315.5947460939148
 42
-1
  0
SEQEND
  8
0
  0
POLYLINE
  8
0
  6
CONTINUOUS
 62
     7
 66
     1
 10
0
 20
0
  0
VERTEX
  8
0
  6
CONTINUOUS
 62
     7
 10
415.9907096386702
 20
-316.5006066592195
 42
0.07398282385211347
  0
VERTEX
  8
0
  6
CONTINUOUS
 62
     7
 10
416.0664858933973
 20
-317.0544104020818
 42
0.07398282385211347
  0
VERTEX
  8
0
  6
CONTINUOUS
 62
     7
 10
416.3459532582184
 20
-317.5670443466786
 42
0.07398282385211347
  0
VERTEX
  8
0
  6
CONTINUOUS
 62
     7
 10
416.8049030219882
 20
-317.9941018514834
 42
0.07398282385211347
  0
VERTEX
  8
0
  6
CONTINUOUS
 62
     7
 10
417.4035789066582
 20
-318.298589288339
 42
0.07398282385211347
  0
VERTEX
  8
0
  6
CONTINUOUS
 62
     7
 10
418.0901209336191
 20
-318.4541305957295
 42
0.07398282385211347
  0
VERTEX
  8
0
  6
CONTINUOUS
 62
     7
 10
418.8050577666364
 20
-318.447252091015
 42
0.07398282385211347
  0
VERTEX
  8
0
  6
CONTINUOUS
 62
     7
 10
419.4864583845739
 20
-318.2785496209909
 42
0.07398282385211347
  0
VERTEX
  8
0
  6
CONTINUOUS
 62
     7
 10
420.0752968230066
 20
-317.9626369469776
 42
0.07398282385211347
  0
VERTEX
  8
0
  6
CONTINUOUS
 62
     7
 10
420.5205652668488
 20
-317.5268798355548
 42
0.07398282385211347
  0
VERTEX
  8
0
  6
CONTINUOUS
 62
     7
 10
420.7836925750802
 20
-317.0090255136543
 42
0.07398282385211347
  0
VERTEX
  8
0
  6
CONTINUOUS
 62
     7
 10
420.8418854852263
 20
-316.4539328351971
 42
0.07398282385211347
  0
VERTEX
  8
0
  6
CONTINUOUS
 62
     7
 10
420.6901030675409
 20
-315.909686406843
 42
0.07398282385211347
  0
VERTEX
  8
0
  6
CONTINUOUS
 62
     7
 10
420.3414933928515
 20
-315.4234312846323
 42
0.07398282385211347
  0
VERTEX
  8
0
  6
CONTINUOUS
 62
     7
 10
419.8262545879501
 20
-315.0372890586976
 42
0.07398282385211347
  0
VERTEX
  8
0
  6
CONTINUOUS
 62
     7
 10
419.1890189389951
 20
-314.7847090930272
 42
0.07398282385211347
  0
VERTEX
  8
0
  6
CONTINUOUS
 62
     7
 10
418.4849866435729
 20
-314.6875709921819
 42
-1
  0
SEQEND
  8
0
  0
ENDSEC
  0
EOF
