  0
SECTION
  2
HEADER
  9
$EXTMAX
 10
208.5
 20
148.5
  9
$EXTMIN
 10
-208.5
 20
-148.5
  0
ENDSEC
  0
SECTION
  2
TABLES
  0
TABLE
  2
LTYPE
 70
    22
  0
LTYPE
  2
CONTINUOUS
 70
    64
  3
Solid line
 72
    65
 73
     0
 40
0.000000
  0
LTYPE
  2
DASHED
 70
    64
  3
__ __ __ __ __ __ __ __ __ __ __ __ __ __ __
 72
    65
 73
     2
 40
3.500000
 49
2.000000
 49
-1.500000
  0
LTYPE
  2
CENTER
 70
    64
  3
____ _ ____ _ ____ _ ____ _ ____ _ ____ _ ____
 72
    65
 73
     4
 40
17.500000
 49
13.000000
 49
-1.500000
 49
1.500000
 49
-1.500000
  0
LTYPE
  2
PHANTOM
 70
    64
  3
_____ _ _ _____ _ _ _____ _ _ _____ _ _ ____  
 72
    65
 73
     6
 40
15.500000
 49
8.000000
 49
-1.500000
 49
1.500000
 49
-1.500000
 49
1.500000
 49
-1.500000
  0
LTYPE
  2
DOT
 70
    64
  3
. . . . . . . . . . . . . . . . . . . . . . . .
 72
    65
 73
     2
 40
0.25
 49
0.0
 49
-0.25
  0
ENDTAB
  0
TABLE
  2
LAYER
 70
     2
  0
LAYER
  2
0
 70
     0
 62
     7
  6
CONTINUOUS
  0
LAYER
  2
1
 70
     0
 62
     7
  6
CONTINUOUS
  0
ENDTAB
  0
TABLE
  2
STYLE
 70
     1
  0
STYLE
  2
STANDARD
 70
     0
 40
0.000000
 41
1.000000
 50
0.000000
 71
     0
 42
0.200000
  3
txt
  4
BIGFONT
  0
ENDTAB
  0
TABLE
  2
VIEW
 70
     0
  0
ENDTAB
  0
ENDSEC
  0
SECTION
  2
BLOCKS
  0
ENDSEC
  0
SECTION
  2
ENTITIES
  0
POINT
  8
0
  6
CONTINUOUS
 62
     7
 10
776.634765625
 20
1195.18408203125
  0
POINT
  8
0
  6
CONTINUOUS
 62
     7
 10
196.6030120849609
 20
1202.450561523438
  0
POINT
  8
0
  6
CONTINUOUS
 62
     7
 10
-260.8863830566406
 20
762.8325805664063
  0
POINT
  8
0
  6
CONTINUOUS
 62
     7
 10
338.732421875
 20
762.8325805664063
  0
POINT
  8
0
  6
CONTINUOUS
 62
     7
 10
963.0963745117188
 20
759.1993408203125
  0
POINT
  8
0
  6
CONTINUOUS
 62
     7
 10
91.48836517333984
 20
762.8325805664063
  0
POINT
  8
0
  6
CONTINUOUS
 62
     7
 10
-507.8046875
 20
762.8325805664063
  0
POINT
  8
0
  6
CONTINUOUS
 62
     7
 10
-498.3419189453125
 20
1209.513305664063
  0
POINT
  8
0
  6
CONTINUOUS
 62
     7
 10
-331.6835021972656
 20
1209.513305664063
  0
POINT
  8
0
  6
CONTINUOUS
 62
     7
 10
-10.05539608001709
 20
1202.450561523438
  0
POINT
  8
0
  6
CONTINUOUS
 62
     7
 10
534.925537109375
 20
1195.18408203125
  0
POINT
  8
0
  6
CONTINUOUS
 62
     7
 10
723.852294921875
 20
759.1993408203125
  0
LINE
  8
0
  6
CONTINUOUS
 62
     7
 10
-523.8046875
 20
819.9825439453125
 11
-508.8046875
 21
819.9825439453125
  0
LINE
  8
0
  6
CENTER
 62
     7
 10
-616.6324462890625
 20
762.8325805664063
 11
-497.1585083007813
 21
762.8325805664063
  0
LINE
  8
0
  6
CONTINUOUS
 62
     7
 10
-605.8046875
 20
867.8325805664063
 11
-593.8046875
 21
867.8325805664063
  0
LINE
  8
0
  6
CONTINUOUS
 62
     7
 10
-523.8046875
 20
819.9825439453125
 11
-523.8046875
 21
705.6825561523438
  0
LINE
  8
0
  6
CONTINUOUS
 62
     7
 10
-537.6716918945313
 20
819.0352783203125
 11
-537.5046997070313
 21
819.9825439453125
  0
LINE
  8
0
  6
CONTINUOUS
 62
     7
 10
-532.5046997070313
 20
819.9825439453125
 11
-532.337646484375
 21
819.0352783203125
  0
LINE
  8
0
  6
CONTINUOUS
 62
     7
 10
-523.8046875
 20
705.6825561523438
 11
-508.8046875
 21
705.6825561523438
  0
LINE
  8
0
  6
CONTINUOUS
 62
     7
 10
-607.8046875
 20
865.8325805664063
 11
-607.8046875
 21
840.3325805664063
  0
LINE
  8
0
  6
CONTINUOUS
 62
     7
 10
-530.3680419921875
 20
817.382568359375
 11
-525.3046875
 21
817.382568359375
  0
LINE
  8
0
  6
CONTINUOUS
 62
     7
 10
-609.8046875
 20
838.3325805664063
 11
-609.8046875
 21
687.3325805664063
  0
LINE
  8
0
  6
CONTINUOUS
 62
     7
 10
-537.6716918945313
 20
706.6298828125
 11
-537.5046997070313
 21
705.6825561523438
  0
LINE
  8
0
  6
CONTINUOUS
 62
     7
 10
-591.8046875
 20
865.8325805664063
 11
-591.8046875
 21
820.382568359375
  0
LINE
  8
0
  6
CONTINUOUS
 62
     7
 10
-507.8046875
 20
818.9825439453125
 11
-507.8046875
 21
706.6825561523438
  0
LINE
  8
0
  6
CONTINUOUS
 62
     7
 10
-588.8046875
 20
817.382568359375
 11
-539.6412963867188
 21
817.382568359375
  0
LINE
  8
0
  6
CONTINUOUS
 62
     7
 10
-532.5046997070313
 20
819.9825439453125
 11
-532.5046997070313
 21
705.6825561523438
  0
LINE
  8
0
  6
CONTINUOUS
 62
     7
 10
-532.337646484375
 20
706.6298828125
 11
-532.5046997070313
 21
705.6825561523438
  0
LINE
  8
0
  6
CONTINUOUS
 62
     7
 10
-607.8046875
 20
840.3325805664063
 11
-607.8046875
 21
659.8325805664063
  0
LINE
  8
0
  6
CONTINUOUS
 62
     7
 10
-605.8046875
 20
657.8325805664063
 11
-593.8046875
 21
657.8325805664063
  0
LINE
  8
0
  6
CONTINUOUS
 62
     7
 10
-539.6412963867188
 20
708.2825927734375
 11
-588.8046875
 21
708.2825927734375
  0
LINE
  8
0
  6
CONTINUOUS
 62
     7
 10
-530.3680419921875
 20
708.2825927734375
 11
-525.3046875
 21
708.2825927734375
  0
LINE
  8
0
  6
CONTINUOUS
 62
     7
 10
-588.8046875
 20
817.382568359375
 11
-539.6412963867188
 21
817.382568359375
  0
LINE
  8
0
  6
CONTINUOUS
 62
     7
 10
-537.5046997070313
 20
705.6825561523438
 11
-532.5046997070313
 21
705.6825561523438
  0
LINE
  8
0
  6
CONTINUOUS
 62
     7
 10
-537.5046997070313
 20
819.9825439453125
 11
-537.5046997070313
 21
705.6825561523438
  0
LINE
  8
0
  6
CONTINUOUS
 62
     7
 10
-537.5046997070313
 20
819.9825439453125
 11
-532.5046997070313
 21
819.9825439453125
  0
LINE
  8
0
  6
CONTINUOUS
 62
     7
 10
-591.8046875
 20
820.382568359375
 11
-591.8046875
 21
659.8325805664063
  0
LINE
  8
0
  6
CENTER
 62
     7
 10
-335.1325988769531
 20
688.5863647460938
 11
-307.2362976074219
 21
716.482666015625
  0
LINE
  8
0
  6
CENTER
 62
     7
 10
-335.1325988769531
 20
837.0787963867188
 11
-304.360107421875
 21
806.3062744140625
  0
LINE
  8
0
  6
CONTINUOUS
 62
     7
 10
-523.8046875
 20
819.9825439453125
 11
-523.8046875
 21
818.882568359375
  0
LINE
  8
0
  6
CENTER
 62
     7
 10
-374.594482421875
 20
762.8325805664063
 11
-144.2090301513672
 21
762.8325805664063
  0
LINE
  8
0
  6
CENTER
 62
     7
 10
-260.8863830566406
 20
875.480224609375
 11
-260.8863830566406
 21
646.8911743164063
  0
LINE
  8
0
  6
CONTINUOUS
 62
     7
 10
66.78836059570313
 20
832.7325439453125
 11
66.78836059570313
 21
692.9325561523438
  0
LINE
  8
0
  6
CENTER
 62
     7
 10
-22.31607627868652
 20
762.8325805664063
 11
104.0244750976563
 21
762.8325805664063
  0
LINE
  8
0
  6
CONTINUOUS
 62
     7
 10
61.78836441040039
 20
832.7325439453125
 11
61.61251449584961
 21
831.7352905273438
  0
LINE
  8
0
  6
CONTINUOUS
 62
     7
 10
-8.511635780334473
 20
762.8325805664063
 11
-8.511635780334473
 21
639.8325805664063
  0
LINE
  8
0
  6
CONTINUOUS
 62
     7
 10
-8.511635780334473
 20
855.8325805664063
 11
-8.511635780334473
 21
639.8325805664063
  0
LINE
  8
0
  6
CONTINUOUS
 62
     7
 10
75.48836517333984
 20
832.7325439453125
 11
90.48836517333984
 21
832.7325439453125
  0
LINE
  8
0
  6
CONTINUOUS
 62
     7
 10
-10.51163578033447
 20
853.8325805664063
 11
-10.51163578033447
 21
853.8325805664063
  0
LINE
  8
0
  6
CONTINUOUS
 62
     7
 10
-10.51163578033447
 20
853.8325805664063
 11
-10.51163578033447
 21
671.8325805664063
  0
LINE
  8
0
  6
CONTINUOUS
 62
     7
 10
14.48836421966553
 20
695.5825805664063
 11
59.64289855957031
 21
695.5825805664063
  0
LINE
  8
0
  6
CONTINUOUS
 62
     7
 10
11.48836421966553
 20
885.8325805664063
 11
11.48836421966553
 21
833.0825805664063
  0
LINE
  8
0
  6
CONTINUOUS
 62
     7
 10
91.48836517333984
 20
831.7325439453125
 11
91.48836517333984
 21
693.9325561523438
  0
LINE
  8
0
  6
CONTINUOUS
 62
     7
 10
-8.511635780334473
 20
885.8325805664063
 11
-8.511635780334473
 21
855.8325805664063
  0
LINE
  8
0
  6
CONTINUOUS
 62
     7
 10
61.78836441040039
 20
692.9325561523438
 11
66.78836059570313
 21
692.9325561523438
  0
LINE
  8
0
  6
CENTER
 62
     7
 10
250.3440704345703
 20
674.4442138671875
 11
280.9773559570313
 21
705.0775146484375
  0
LINE
  8
0
  6
CONTINUOUS
 62
     7
 10
-6.511636257171631
 20
637.8325805664063
 11
9.488364219665527
 21
637.8325805664063
  0
LINE
  8
0
  6
CONTINUOUS
 62
     7
 10
75.48836517333984
 20
692.9325561523438
 11
90.48836517333984
 21
692.9325561523438
  0
LINE
  8
0
  6
CONTINUOUS
 62
     7
 10
75.48836517333984
 20
832.7325439453125
 11
75.48836517333984
 21
692.9325561523438
  0
LINE
  8
0
  6
CONTINUOUS
 62
     7
 10
66.96421051025391
 20
693.9298706054688
 11
66.78836059570313
 21
692.9325561523438
  0
LINE
  8
0
  6
CONTINUOUS
 62
     7
 10
61.78836441040039
 20
832.7325439453125
 11
61.78836441040039
 21
692.9325561523438
  0
LINE
  8
0
  6
CONTINUOUS
 62
     7
 10
14.48836421966553
 20
830.0825805664063
 11
59.64289855957031
 21
830.0825805664063
  0
LINE
  8
0
  6
CONTINUOUS
 62
     7
 10
61.61251449584961
 20
693.9298706054688
 11
61.78836441040039
 21
692.9325561523438
  0
LINE
  8
0
  6
CONTINUOUS
 62
     7
 10
61.78836441040039
 20
832.7325439453125
 11
66.78836059570313
 21
832.7325439453125
  0
LINE
  8
0
  6
CONTINUOUS
 62
     7
 10
75.48836517333984
 20
832.7325439453125
 11
75.48836517333984
 21
832.0825805664063
  0
LINE
  8
0
  6
CONTINUOUS
 62
     7
 10
66.78836059570313
 20
832.7325439453125
 11
66.96421051025391
 21
831.7352905273438
  0
LINE
  8
0
  6
CONTINUOUS
 62
     7
 10
73.48836517333984
 20
830.0825805664063
 11
68.93383026123047
 21
830.0825805664063
  0
LINE
  8
0
  6
CONTINUOUS
 62
     7
 10
68.93383026123047
 20
695.5825805664063
 11
73.98836517333984
 21
695.5825805664063
  0
LINE
  8
0
  6
CONTINUOUS
 62
     7
 10
11.48836421966553
 20
833.0825805664063
 11
11.48836421966553
 21
639.8325805664063
  0
LINE
  8
0
  6
CONTINUOUS
 62
     7
 10
-6.511636257171631
 20
887.8325805664063
 11
9.488364219665527
 21
887.8325805664063
  0
LINE
  8
0
  6
CENTER
 62
     7
 10
250.3440704345703
 20
851.220947265625
 11
281.5219116210938
 21
820.0430908203125
  0
LINE
  8
0
  6
CENTER
 62
     7
 10
203.9932098388672
 20
762.8325805664063
 11
473.8668212890625
 21
762.8325805664063
  0
LINE
  8
0
  6
CENTER
 62
     7
 10
338.732421875
 20
894.2944946289063
 11
338.732421875
 21
630.6727294921875
  0
LINE
  8
0
  6
CONTINUOUS
 62
     7
 10
-112.0553970336914
 20
1260.450561523438
 11
-112.0553970336914
 21
1144.450561523438
  0
LINE
  8
0
  6
CONTINUOUS
 62
     7
 10
-112.0553970336914
 20
1227.950561523438
 11
-112.0553970336914
 21
1227.950561523438
  0
LINE
  8
0
  6
CONTINUOUS
 62
     7
 10
-112.0553970336914
 20
1235.950561523438
 11
-112.0553970336914
 21
1235.950561523438
  0
LINE
  8
0
  6
CONTINUOUS
 62
     7
 10
-39.3498420715332
 20
1240.6005859375
 11
-39.3498420715332
 21
1164.608764648438
  0
LINE
  8
0
  6
CONTINUOUS
 62
     7
 10
-11.05539608001709
 20
1164.300537109375
 11
-25.55539512634277
 21
1164.300537109375
  0
LINE
  8
0
  6
CONTINUOUS
 62
     7
 10
-35.04681015014648
 20
1164.947875976563
 11
-35.16094970703125
 21
1164.300537109375
  0
LINE
  8
0
  6
CONTINUOUS
 62
     7
 10
-35.16094970703125
 20
1240.6005859375
 11
-35.16094970703125
 21
1164.644287109375
  0
LINE
  8
0
  6
CONTINUOUS
 62
     7
 10
-39.4639778137207
 20
1164.947875976563
 11
-39.3498420715332
 21
1164.300537109375
  0
LINE
  8
0
  6
CONTINUOUS
 62
     7
 10
-35.16094970703125
 20
1240.6005859375
 11
-39.3498420715332
 21
1240.6005859375
  0
LINE
  8
0
  6
CENTER
 62
     7
 10
-7.094264984130859
 20
1202.450561523438
 11
-118.2984008789063
 21
1202.450561523438
  0
LINE
  8
0
  6
CONTINUOUS
 62
     7
 10
-41.43359375
 20
1238.300537109375
 11
-91.05539703369141
 21
1238.300537109375
  0
LINE
  8
0
  6
CONTINUOUS
 62
     7
 10
-10.05539608001709
 20
1239.6005859375
 11
-10.05539608001709
 21
1165.300537109375
  0
LINE
  8
0
  6
CONTINUOUS
 62
     7
 10
-110.0553970336914
 20
1287.950561523438
 11
-110.0553970336914
 21
1262.450561523438
  0
LINE
  8
0
  6
CONTINUOUS
 62
     7
 10
-94.05539703369141
 20
1287.950561523438
 11
-94.05539703369141
 21
1241.300537109375
  0
LINE
  8
0
  6
CONTINUOUS
 62
     7
 10
-108.0553970336914
 20
1289.950561523438
 11
-96.05539703369141
 21
1289.950561523438
  0
LINE
  8
0
  6
CONTINUOUS
 62
     7
 10
-108.0553970336914
 20
1114.950561523438
 11
-96.05539703369141
 21
1114.950561523438
  0
LINE
  8
0
  6
CONTINUOUS
 62
     7
 10
-26.05539512634277
 20
1240.6005859375
 11
-26.05539512634277
 21
1164.800537109375
  0
LINE
  8
0
  6
CONTINUOUS
 62
     7
 10
-26.05539512634277
 20
1240.1005859375
 11
-26.05539512634277
 21
1239.800537109375
  0
LINE
  8
0
  6
CONTINUOUS
 62
     7
 10
-27.55539512634277
 20
1238.300537109375
 11
-33.07719802856445
 21
1238.300537109375
  0
LINE
  8
0
  6
CONTINUOUS
 62
     7
 10
-11.05539608001709
 20
1240.6005859375
 11
-25.55539512634277
 21
1240.6005859375
  0
LINE
  8
0
  6
CONTINUOUS
 62
     7
 10
-35.04681015014648
 20
1239.953247070313
 11
-35.16094970703125
 21
1240.6005859375
  0
LINE
  8
0
  6
CONTINUOUS
 62
     7
 10
-27.55539512634277
 20
1166.6005859375
 11
-33.07719802856445
 21
1166.6005859375
  0
LINE
  8
0
  6
CONTINUOUS
 62
     7
 10
-41.43359375
 20
1166.6005859375
 11
-91.05539703369141
 21
1166.6005859375
  0
LINE
  8
0
  6
CONTINUOUS
 62
     7
 10
-35.16094970703125
 20
1164.300537109375
 11
-39.3498420715332
 21
1164.300537109375
  0
LINE
  8
0
  6
CONTINUOUS
 62
     7
 10
-39.4639778137207
 20
1239.953247070313
 11
-39.3498420715332
 21
1240.6005859375
  0
LINE
  8
0
  6
CONTINUOUS
 62
     7
 10
-110.0553970336914
 20
1262.450561523438
 11
-110.0553970336914
 21
1116.950561523438
  0
LINE
  8
0
  6
CONTINUOUS
 62
     7
 10
-94.05539703369141
 20
1241.300537109375
 11
-94.05539703369141
 21
1116.950561523438
  0
LINE
  8
0
  6
CENTER
 62
     7
 10
196.6030120849609
 20
1292.907836914063
 11
196.6030120849609
 21
1107.690673828125
  0
LINE
  8
0
  6
CENTER
 62
     7
 10
103.5988235473633
 20
1202.450561523438
 11
288.9287414550781
 21
1202.450561523438
  0
LINE
  8
0
  6
CONTINUOUS
 62
     7
 10
432.9255676269531
 20
1258.18408203125
 11
432.9255676269531
 21
1132.18408203125
  0
LINE
  8
0
  6
CENTER
 62
     7
 10
420.9290771484375
 20
1195.18408203125
 11
542.6082763671875
 21
1195.18408203125
  0
LINE
  8
0
  6
CONTINUOUS
 62
     7
 10
534.925537109375
 20
1238.734130859375
 11
534.925537109375
 21
1195.18408203125
  0
LINE
  8
0
  6
CENTER
 62
     7
 10
706.3312377929688
 20
1124.880615234375
 11
737.7546997070313
 21
1156.304077148438
  0
LINE
  8
0
  6
CONTINUOUS
 62
     7
 10
450.9255676269531
 20
1240.384155273438
 11
450.9255676269531
 21
1104.68408203125
  0
LINE
  8
0
  6
CONTINUOUS
 62
     7
 10
505.2255554199219
 20
1239.734130859375
 11
505.1026000976563
 21
1239.036865234375
  0
LINE
  8
0
  6
CONTINUOUS
 62
     7
 10
432.9255676269531
 20
1258.18408203125
 11
432.9255676269531
 21
1258.18408203125
  0
LINE
  8
0
  6
CONTINUOUS
 62
     7
 10
510.2255554199219
 20
1239.734130859375
 11
510.304443359375
 21
1239.286865234375
  0
LINE
  8
0
  6
CONTINUOUS
 62
     7
 10
512.2740478515625
 20
1237.634155273438
 11
517.425537109375
 21
1237.634155273438
  0
LINE
  8
0
  6
CONTINUOUS
 62
     7
 10
518.925537109375
 20
1239.734130859375
 11
533.925537109375
 21
1239.734130859375
  0
LINE
  8
0
  6
CONTINUOUS
 62
     7
 10
453.9255676269531
 20
1237.384155273438
 11
503.1329956054688
 21
1237.384155273438
  0
LINE
  8
0
  6
CONTINUOUS
 62
     7
 10
436.9255676269531
 20
1102.68408203125
 11
448.9255676269531
 21
1102.68408203125
  0
LINE
  8
0
  6
CONTINUOUS
 62
     7
 10
436.9255676269531
 20
1287.68408203125
 11
448.9255676269531
 21
1287.68408203125
  0
LINE
  8
0
  6
CONTINUOUS
 62
     7
 10
510.2255554199219
 20
1239.734130859375
 11
505.2255554199219
 21
1239.734130859375
  0
LINE
  8
0
  6
CONTINUOUS
 62
     7
 10
510.304443359375
 20
1151.081420898438
 11
510.2255554199219
 21
1150.634155273438
  0
LINE
  8
0
  6
CONTINUOUS
 62
     7
 10
505.2255554199219
 20
1239.734130859375
 11
505.2255554199219
 21
1150.634155273438
  0
LINE
  8
0
  6
CONTINUOUS
 62
     7
 10
518.925537109375
 20
1239.734130859375
 11
518.925537109375
 21
1239.134155273438
  0
LINE
  8
0
  6
CONTINUOUS
 62
     7
 10
510.2255554199219
 20
1239.734130859375
 11
510.2255554199219
 21
1150.634155273438
  0
LINE
  8
0
  6
CONTINUOUS
 62
     7
 10
518.925537109375
 20
1239.734130859375
 11
518.925537109375
 21
1150.634155273438
  0
LINE
  8
0
  6
CONTINUOUS
 62
     7
 10
518.925537109375
 20
1150.634155273438
 11
533.925537109375
 21
1150.634155273438
  0
LINE
  8
0
  6
CONTINUOUS
 62
     7
 10
534.925537109375
 20
1238.734130859375
 11
534.925537109375
 21
1151.634155273438
  0
LINE
  8
0
  6
CONTINUOUS
 62
     7
 10
450.9255676269531
 20
1285.68408203125
 11
450.9255676269531
 21
1240.384155273438
  0
LINE
  8
0
  6
CONTINUOUS
 62
     7
 10
505.2255554199219
 20
1150.634155273438
 11
510.2255554199219
 21
1150.634155273438
  0
LINE
  8
0
  6
CONTINUOUS
 62
     7
 10
512.2740478515625
 20
1152.734130859375
 11
517.425537109375
 21
1152.734130859375
  0
LINE
  8
0
  6
CONTINUOUS
 62
     7
 10
505.1026000976563
 20
1151.331420898438
 11
505.2255554199219
 21
1150.634155273438
  0
LINE
  8
0
  6
CONTINUOUS
 62
     7
 10
453.9255676269531
 20
1152.984130859375
 11
503.1329956054688
 21
1152.984130859375
  0
LINE
  8
0
  6
CONTINUOUS
 62
     7
 10
434.9255676269531
 20
1285.68408203125
 11
434.9255676269531
 21
1260.18408203125
  0
LINE
  8
0
  6
CONTINUOUS
 62
     7
 10
434.9255676269531
 20
1285.68408203125
 11
434.9255676269531
 21
1260.18408203125
  0
LINE
  8
0
  6
CONTINUOUS
 62
     7
 10
434.9255676269531
 20
1260.18408203125
 11
434.9255676269531
 21
1104.68408203125
  0
LINE
  8
0
  6
CENTER
 62
     7
 10
776.634765625
 20
1304.89208984375
 11
776.634765625
 21
1090.3857421875
  0
LINE
  8
0
  6
CENTER
 62
     7
 10
676.2850341796875
 20
1195.18408203125
 11
875.7468872070313
 21
1195.18408203125
  0
LINE
  8
0
  6
CENTER
 62
     7
 10
706.5713500976563
 20
1265.24755859375
 11
738.6533203125
 21
1233.16552734375
  0
LINE
  8
0
  6
CONTINUOUS
 62
     7
 10
-600.3419189453125
 20
1257.513305664063
 11
-600.3419189453125
 21
1161.513305664063
  0
LINE
  8
0
  6
CONTINUOUS
 62
     7
 10
-498.3419189453125
 20
1238.763305664063
 11
-498.3419189453125
 21
1180.263305664063
  0
LINE
  8
0
  6
CONTINUOUS
 62
     7
 10
-598.3419189453125
 20
1285.013305664063
 11
-598.3419189453125
 21
1259.513305664063
  0
LINE
  8
0
  6
CENTER
 62
     7
 10
-605.3419189453125
 20
1209.513305664063
 11
-493.3419189453125
 21
1209.513305664063
  0
LINE
  8
0
  6
CONTINUOUS
 62
     7
 10
-598.3419189453125
 20
1259.513305664063
 11
-598.3419189453125
 21
1134.013305664063
  0
LINE
  8
0
  6
CONTINUOUS
 62
     7
 10
-596.3419189453125
 20
1287.013305664063
 11
-586.3419189453125
 21
1287.013305664063
  0
LINE
  8
0
  6
CONTINUOUS
 62
     7
 10
-584.3419189453125
 20
1285.013305664063
 11
-584.3419189453125
 21
1240.71337890625
  0
LINE
  8
0
  6
CONTINUOUS
 62
     7
 10
-596.3419189453125
 20
1132.013305664063
 11
-586.3419189453125
 21
1132.013305664063
  0
LINE
  8
0
  6
CONTINUOUS
 62
     7
 10
-584.3419189453125
 20
1134.013305664063
 11
-584.3419189453125
 21
1240.71337890625
  0
LINE
  8
0
  6
CONTINUOUS
 62
     7
 10
-513.8419189453125
 20
1179.263305664063
 11
-499.3419189453125
 21
1179.263305664063
  0
LINE
  8
0
  6
CONTINUOUS
 62
     7
 10
-528.0419311523438
 20
1239.763305664063
 11
-523.0419311523438
 21
1239.763305664063
  0
LINE
  8
0
  6
CONTINUOUS
 62
     7
 10
-514.3419189453125
 20
1239.763305664063
 11
-514.3419189453125
 21
1179.763305664063
  0
LINE
  8
0
  6
CONTINUOUS
 62
     7
 10
-523.0419311523438
 20
1239.763305664063
 11
-523.0159301757813
 21
1239.616088867188
  0
LINE
  8
0
  6
CONTINUOUS
 62
     7
 10
-528.0419311523438
 20
1239.763305664063
 11
-528.1119995117188
 21
1239.366088867188
  0
LINE
  8
0
  6
CONTINUOUS
 62
     7
 10
-521.0463256835938
 20
1237.96337890625
 11
-515.8319091796875
 21
1237.96337890625
  0
LINE
  8
0
  6
CONTINUOUS
 62
     7
 10
-513.8419189453125
 20
1239.763305664063
 11
-499.3419189453125
 21
1239.763305664063
  0
LINE
  8
0
  6
CONTINUOUS
 62
     7
 10
-581.3419189453125
 20
1237.71337890625
 11
-530.0816040039063
 21
1237.71337890625
  0
LINE
  8
0
  6
CONTINUOUS
 62
     7
 10
-528.0419311523438
 20
1179.263305664063
 11
-523.0419311523438
 21
1179.263305664063
  0
LINE
  8
0
  6
CONTINUOUS
 62
     7
 10
-523.0419311523438
 20
1179.263305664063
 11
-523.0159301757813
 21
1179.41064453125
  0
LINE
  8
0
  6
CONTINUOUS
 62
     7
 10
-528.0419311523438
 20
1179.263305664063
 11
-528.1119995117188
 21
1179.66064453125
  0
LINE
  8
0
  6
CONTINUOUS
 62
     7
 10
-521.0463256835938
 20
1181.063354492188
 11
-515.8319091796875
 21
1181.063354492188
  0
LINE
  8
0
  6
CONTINUOUS
 62
     7
 10
-581.3419189453125
 20
1181.313354492188
 11
-530.0816040039063
 21
1181.313354492188
  0
LINE
  8
0
  6
CONTINUOUS
 62
     7
 10
-528.0419311523438
 20
1239.763305664063
 11
-528.0419311523438
 21
1179.263305664063
  0
LINE
  8
0
  6
CONTINUOUS
 62
     7
 10
-523.0419311523438
 20
1239.763305664063
 11
-523.0419311523438
 21
1179.263305664063
  0
LINE
  8
0
  6
CENTER
 62
     7
 10
-331.6835021972656
 20
1292.013305664063
 11
-331.6835021972656
 21
1127.013305664063
  0
LINE
  8
0
  6
CENTER
 62
     7
 10
-414.1835021972656
 20
1209.513305664063
 11
-249.1835021972656
 21
1209.513305664063
  0
LINE
  8
0
  6
CENTER
 62
     7
 10
963.0963745117188
 20
909.1993408203125
 11
963.0963745117188
 21
615.1824340820313
  0
LINE
  8
0
  6
CENTER
 62
     7
 10
813.0963745117188
 20
759.1993408203125
 11
1113.096313476563
 21
759.1993408203125
  0
LINE
  8
0
  6
CENTER
 62
     7
 10
865.869140625
 20
856.4265747070313
 11
890.617919921875
 21
831.6777954101563
  0
LINE
  8
0
  6
CENTER
 62
     7
 10
1060.323486328125
 20
856.4265747070313
 11
1035.574829101563
 21
831.6777954101563
  0
LINE
  8
0
  6
CENTER
 62
     7
 10
865.869140625
 20
661.97216796875
 11
890.617919921875
 21
686.720947265625
  0
LINE
  8
0
  6
CENTER
 62
     7
 10
1060.323486328125
 20
661.97216796875
 11
1035.574829101563
 21
686.720947265625
  0
LINE
  8
0
  6
CONTINUOUS
 62
     7
 10
723.852294921875
 20
840.7993774414063
 11
723.852294921875
 21
677.599365234375
  0
LINE
  8
0
  6
CONTINUOUS
 62
     7
 10
623.852294921875
 20
867.1993408203125
 11
623.852294921875
 21
621.1993408203125
  0
LINE
  8
0
  6
CONTINUOUS
 62
     7
 10
621.852294921875
 20
865.1993408203125
 11
621.852294921875
 21
653.1993408203125
  0
LINE
  8
0
  6
CENTER
 62
     7
 10
611.852294921875
 20
759.1993408203125
 11
733.852294921875
 21
759.1993408203125
  0
LINE
  8
0
  6
CONTINUOUS
 62
     7
 10
623.852294921875
 20
867.1993408203125
 11
623.852294921875
 21
897.1993408203125
  0
LINE
  8
0
  6
CONTINUOUS
 62
     7
 10
643.852294921875
 20
841.849365234375
 11
643.852294921875
 21
897.1993408203125
  0
LINE
  8
0
  6
CONTINUOUS
 62
     7
 10
643.852294921875
 20
841.849365234375
 11
643.852294921875
 21
621.1993408203125
  0
LINE
  8
0
  6
CONTINUOUS
 62
     7
 10
625.852294921875
 20
899.1993408203125
 11
641.852294921875
 21
899.1993408203125
  0
LINE
  8
0
  6
CONTINUOUS
 62
     7
 10
625.852294921875
 20
619.1993408203125
 11
641.852294921875
 21
619.1993408203125
  0
LINE
  8
0
  6
CONTINUOUS
 62
     7
 10
694.1522827148438
 20
841.7993774414063
 11
699.1522827148438
 21
841.7993774414063
  0
LINE
  8
0
  6
CONTINUOUS
 62
     7
 10
707.852294921875
 20
841.7993774414063
 11
707.852294921875
 21
840.599365234375
  0
LINE
  8
0
  6
CONTINUOUS
 62
     7
 10
699.1522827148438
 20
841.7993774414063
 11
699.3369750976563
 21
840.7520751953125
  0
LINE
  8
0
  6
CONTINUOUS
 62
     7
 10
694.1522827148438
 20
841.7993774414063
 11
693.9235229492188
 21
840.5020751953125
  0
LINE
  8
0
  6
CONTINUOUS
 62
     7
 10
707.852294921875
 20
841.7993774414063
 11
722.852294921875
 21
841.7993774414063
  0
LINE
  8
0
  6
CONTINUOUS
 62
     7
 10
701.3065795898438
 20
839.099365234375
 11
706.352294921875
 21
839.099365234375
  0
LINE
  8
0
  6
CONTINUOUS
 62
     7
 10
646.852294921875
 20
838.849365234375
 11
691.9539184570313
 21
838.849365234375
  0
LINE
  8
0
  6
CONTINUOUS
 62
     7
 10
707.852294921875
 20
676.599365234375
 11
707.852294921875
 21
841.7993774414063
  0
LINE
  8
0
  6
CONTINUOUS
 62
     7
 10
694.1522827148438
 20
676.599365234375
 11
699.1522827148438
 21
676.599365234375
  0
LINE
  8
0
  6
CONTINUOUS
 62
     7
 10
699.1522827148438
 20
676.599365234375
 11
699.3369750976563
 21
677.6466674804688
  0
LINE
  8
0
  6
CONTINUOUS
 62
     7
 10
694.1522827148438
 20
676.599365234375
 11
693.9235229492188
 21
677.8966674804688
  0
LINE
  8
0
  6
CONTINUOUS
 62
     7
 10
707.852294921875
 20
676.599365234375
 11
722.852294921875
 21
676.599365234375
  0
LINE
  8
0
  6
CONTINUOUS
 62
     7
 10
701.3065795898438
 20
679.2993774414063
 11
706.352294921875
 21
679.2993774414063
  0
LINE
  8
0
  6
CONTINUOUS
 62
     7
 10
646.852294921875
 20
679.5493774414063
 11
691.9539184570313
 21
679.5493774414063
  0
LINE
  8
0
  6
CONTINUOUS
 62
     7
 10
699.1522827148438
 20
676.599365234375
 11
699.1522827148438
 21
841.7993774414063
  0
LINE
  8
0
  6
CONTINUOUS
 62
     7
 10
694.1522827148438
 20
676.599365234375
 11
694.1522827148438
 21
841.7993774414063
  0
LINE
  8
0
  6
CONTINUOUS
 62
     7
 10
-63.95989227294922
 20
1196.129760742188
 11
-62.21689224243164
 21
1206.014770507813
  0
LINE
  8
0
  6
CONTINUOUS
 62
     7
 10
-75.12228393554688
 20
1206.014770507813
 11
-70.82048797607422
 21
1206.014770507813
  0
LINE
  8
0
  6
CONTINUOUS
 62
     7
 10
-65.57225799560547
 20
1203.25
 11
-64.18156433105469
 21
1203.004760742188
  0
LINE
  8
0
  6
CONTINUOUS
 62
     7
 10
-57.91510009765625
 20
1206.014770507813
 11
-57.41709899902344
 21
1208.838989257813
  0
LINE
  8
0
  6
CONTINUOUS
 62
     7
 10
-68.96669006347656
 20
1200.263671875
 11
-68.35364532470703
 21
1203.740478515625
  0
LINE
  8
0
  6
CONTINUOUS
 62
     7
 10
-69.74433898925781
 20
1203.985595703125
 11
-68.35364532470703
 21
1203.740478515625
  0
LINE
  8
0
  6
CONTINUOUS
 62
     7
 10
-66.185302734375
 20
1199.773315429688
 11
-65.57225799560547
 21
1203.25
  0
LINE
  8
0
  6
CONTINUOUS
 62
     7
 10
-70.35738372802734
 20
1200.508911132813
 11
-69.74433898925781
 21
1203.985595703125
  0
LINE
  8
0
  6
CONTINUOUS
 62
     7
 10
-57.91510009765625
 20
1206.014770507813
 11
-62.21689605712891
 21
1206.014770507813
  0
LINE
  8
0
  6
CONTINUOUS
 62
     7
 10
-75.12228393554688
 20
1206.014770507813
 11
-74.62428283691406
 21
1208.839111328125
  0
LINE
  8
0
  6
CONTINUOUS
 62
     7
 10
-63.95989227294922
 20
1196.129760742188
 11
-72.56348419189453
 21
1196.129760742188
  0
LINE
  8
0
  6
CONTINUOUS
 62
     7
 10
-57.41709899902344
 20
1208.839111328125
 11
-74.62428283691406
 21
1208.839111328125
  0
LINE
  8
0
  6
CONTINUOUS
 62
     7
 10
-72.56348419189453
 20
1196.129760742188
 11
-70.82048797607422
 21
1206.014770507813
  0
LINE
  8
0
  6
CONTINUOUS
 62
     7
 10
-64.79460906982422
 20
1199.528076171875
 11
-64.18156433105469
 21
1203.004760742188
  0
LINE
  8
0
  6
CONTINUOUS
 62
     7
 10
-555.0811157226563
 20
1206.5908203125
 11
-554.4680786132813
 21
1210.067626953125
  0
LINE
  8
0
  6
CONTINUOUS
 62
     7
 10
-562.8500366210938
 20
1203.192504882813
 11
-561.1069946289063
 21
1213.077514648438
  0
LINE
  8
0
  6
CONTINUOUS
 62
     7
 10
-547.70361328125
 20
1215.90185546875
 11
-564.9108276367188
 21
1215.90185546875
  0
LINE
  8
0
  6
CONTINUOUS
 62
     7
 10
-554.2463989257813
 20
1203.192504882813
 11
-562.8500366210938
 21
1203.192504882813
  0
LINE
  8
0
  6
CONTINUOUS
 62
     7
 10
-565.4088134765625
 20
1213.077514648438
 11
-564.9108276367188
 21
1215.90185546875
  0
LINE
  8
0
  6
CONTINUOUS
 62
     7
 10
-548.2015991210938
 20
1213.077514648438
 11
-552.50341796875
 21
1213.077514648438
  0
LINE
  8
0
  6
CONTINUOUS
 62
     7
 10
-560.6439208984375
 20
1207.57177734375
 11
-560.0308837890625
 21
1211.048461914063
  0
LINE
  8
0
  6
CONTINUOUS
 62
     7
 10
-556.4718017578125
 20
1206.836059570313
 11
-555.8587646484375
 21
1210.312866210938
  0
LINE
  8
0
  6
CONTINUOUS
 62
     7
 10
-560.0308837890625
 20
1211.048461914063
 11
-558.6401977539063
 21
1210.80322265625
  0
LINE
  8
0
  6
CONTINUOUS
 62
     7
 10
-559.2532348632813
 20
1207.326538085938
 11
-558.6401977539063
 21
1210.80322265625
  0
LINE
  8
0
  6
CONTINUOUS
 62
     7
 10
-548.2015991210938
 20
1213.077514648438
 11
-547.70361328125
 21
1215.90185546875
  0
LINE
  8
0
  6
CONTINUOUS
 62
     7
 10
-555.8587646484375
 20
1210.312866210938
 11
-554.4680786132813
 21
1210.067626953125
  0
LINE
  8
0
  6
CONTINUOUS
 62
     7
 10
-565.4088134765625
 20
1213.077514648438
 11
-561.1069946289063
 21
1213.077514648438
  0
LINE
  8
0
  6
CONTINUOUS
 62
     7
 10
-554.2463989257813
 20
1203.192504882813
 11
-552.50341796875
 21
1213.077514648438
  0
LINE
  8
0
  6
CONTINUOUS
 62
     7
 10
480.99462890625
 20
1188.86328125
 11
482.7376403808594
 21
1198.748291015625
  0
LINE
  8
0
  6
CONTINUOUS
 62
     7
 10
469.8322448730469
 20
1198.748291015625
 11
474.134033203125
 21
1198.748291015625
  0
LINE
  8
0
  6
CONTINUOUS
 62
     7
 10
479.3822631835938
 20
1195.983642578125
 11
480.77294921875
 21
1195.738403320313
  0
LINE
  8
0
  6
CONTINUOUS
 62
     7
 10
487.0394287109375
 20
1198.748291015625
 11
487.5374145507813
 21
1201.572631835938
  0
LINE
  8
0
  6
CONTINUOUS
 62
     7
 10
475.9878540039063
 20
1192.997314453125
 11
476.6008911132813
 21
1196.473999023438
  0
LINE
  8
0
  6
CONTINUOUS
 62
     7
 10
475.2101745605469
 20
1196.71923828125
 11
476.6008911132813
 21
1196.473999023438
  0
LINE
  8
0
  6
CONTINUOUS
 62
     7
 10
478.7692260742188
 20
1192.5068359375
 11
479.3822631835938
 21
1195.983642578125
  0
LINE
  8
0
  6
CONTINUOUS
 62
     7
 10
474.5971374511719
 20
1193.242553710938
 11
475.2101745605469
 21
1196.71923828125
  0
LINE
  8
0
  6
CONTINUOUS
 62
     7
 10
487.0394287109375
 20
1198.748291015625
 11
482.7376403808594
 21
1198.748291015625
  0
LINE
  8
0
  6
CONTINUOUS
 62
     7
 10
469.8322448730469
 20
1198.748291015625
 11
470.3302307128906
 21
1201.572631835938
  0
LINE
  8
0
  6
CONTINUOUS
 62
     7
 10
480.99462890625
 20
1188.86328125
 11
472.3910522460938
 21
1188.86328125
  0
LINE
  8
0
  6
CONTINUOUS
 62
     7
 10
487.5374145507813
 20
1201.572631835938
 11
470.3302307128906
 21
1201.572631835938
  0
LINE
  8
0
  6
CONTINUOUS
 62
     7
 10
472.3910522460938
 20
1188.86328125
 11
474.134033203125
 21
1198.748291015625
  0
LINE
  8
0
  6
CONTINUOUS
 62
     7
 10
480.159912109375
 20
1192.261596679688
 11
480.77294921875
 21
1195.738403320313
  0
LINE
  8
0
  6
CONTINUOUS
 62
     7
 10
-562.5703125
 20
759.9100952148438
 11
-561.957275390625
 21
763.3868408203125
  0
LINE
  8
0
  6
CONTINUOUS
 62
     7
 10
-570.3391723632813
 20
756.51171875
 11
-568.59619140625
 21
766.3967895507813
  0
LINE
  8
0
  6
CONTINUOUS
 62
     7
 10
-555.1928100585938
 20
769.2210693359375
 11
-572.3999633789063
 21
769.2210693359375
  0
LINE
  8
0
  6
CONTINUOUS
 62
     7
 10
-561.735595703125
 20
756.51171875
 11
-570.3391723632813
 21
756.51171875
  0
LINE
  8
0
  6
CONTINUOUS
 62
     7
 10
-572.8980102539063
 20
766.3967895507813
 11
-572.3999633789063
 21
769.2210693359375
  0
LINE
  8
0
  6
CONTINUOUS
 62
     7
 10
-555.6907958984375
 20
766.3967895507813
 11
-559.9926147460938
 21
766.3967895507813
  0
LINE
  8
0
  6
CONTINUOUS
 62
     7
 10
-568.1331176757813
 20
760.8909301757813
 11
-567.52001953125
 21
764.36767578125
  0
LINE
  8
0
  6
CONTINUOUS
 62
     7
 10
-563.9609985351563
 20
760.1552734375
 11
-563.3479614257813
 21
763.6320190429688
  0
LINE
  8
0
  6
CONTINUOUS
 62
     7
 10
-567.52001953125
 20
764.36767578125
 11
-566.1293334960938
 21
764.1224365234375
  0
LINE
  8
0
  6
CONTINUOUS
 62
     7
 10
-566.7423706054688
 20
760.645751953125
 11
-566.1293334960938
 21
764.1224365234375
  0
LINE
  8
0
  6
CONTINUOUS
 62
     7
 10
-555.6907958984375
 20
766.3967895507813
 11
-555.1928100585938
 21
769.2210693359375
  0
LINE
  8
0
  6
CONTINUOUS
 62
     7
 10
-563.3479614257813
 20
763.6320190429688
 11
-561.957275390625
 21
763.3868408203125
  0
LINE
  8
0
  6
CONTINUOUS
 62
     7
 10
-572.8980102539063
 20
766.3967895507813
 11
-568.59619140625
 21
766.3967895507813
  0
LINE
  8
0
  6
CONTINUOUS
 62
     7
 10
-561.735595703125
 20
756.51171875
 11
-559.9926147460938
 21
766.3967895507813
  0
LINE
  8
0
  6
CONTINUOUS
 62
     7
 10
33.77298736572266
 20
764.36767578125
 11
35.16368103027344
 21
764.1224365234375
  0
LINE
  8
0
  6
CONTINUOUS
 62
     7
 10
37.33202743530273
 20
760.1552734375
 11
37.945068359375
 21
763.6320190429688
  0
LINE
  8
0
  6
CONTINUOUS
 62
     7
 10
33.15994644165039
 20
760.8909301757813
 11
33.77298736572266
 21
764.36767578125
  0
LINE
  8
0
  6
CONTINUOUS
 62
     7
 10
45.60222625732422
 20
766.3967895507813
 11
41.30043029785156
 21
766.3967895507813
  0
LINE
  8
0
  6
CONTINUOUS
 62
     7
 10
28.39504432678223
 20
766.3967895507813
 11
28.89304351806641
 21
769.2210693359375
  0
LINE
  8
0
  6
CONTINUOUS
 62
     7
 10
39.55743408203125
 20
756.51171875
 11
30.95384025573731
 21
756.51171875
  0
LINE
  8
0
  6
CONTINUOUS
 62
     7
 10
46.10022735595703
 20
769.2210693359375
 11
28.89304351806641
 21
769.2210693359375
  0
LINE
  8
0
  6
CONTINUOUS
 62
     7
 10
30.95384216308594
 20
756.51171875
 11
32.69683837890625
 21
766.3967895507813
  0
LINE
  8
0
  6
CONTINUOUS
 62
     7
 10
38.72272109985352
 20
759.9100952148438
 11
39.33576202392578
 21
763.3868408203125
  0
LINE
  8
0
  6
CONTINUOUS
 62
     7
 10
34.55064010620117
 20
760.645751953125
 11
35.16368103027344
 21
764.1224365234375
  0
LINE
  8
0
  6
CONTINUOUS
 62
     7
 10
45.60223007202148
 20
766.3967895507813
 11
46.10022735595703
 21
769.2210693359375
  0
LINE
  8
0
  6
CONTINUOUS
 62
     7
 10
37.945068359375
 20
763.6320190429688
 11
39.33576202392578
 21
763.3868408203125
  0
LINE
  8
0
  6
CONTINUOUS
 62
     7
 10
39.55743408203125
 20
756.51171875
 11
41.30043411254883
 21
766.3967895507813
  0
LINE
  8
0
  6
CONTINUOUS
 62
     7
 10
28.39504432678223
 20
766.3967895507813
 11
32.69683837890625
 21
766.3967895507813
  0
LINE
  8
0
  6
CONTINUOUS
 62
     7
 10
666.91455078125
 20
757.0125122070313
 11
667.527587890625
 21
760.4892578125
  0
LINE
  8
0
  6
CONTINUOUS
 62
     7
 10
670.3090209960938
 20
759.9988403320313
 11
671.69970703125
 21
759.7536010742188
  0
LINE
  8
0
  6
CONTINUOUS
 62
     7
 10
677.9661865234375
 20
762.7635498046875
 11
678.4641723632813
 21
765.587890625
  0
LINE
  8
0
  6
CONTINUOUS
 62
     7
 10
660.7589721679688
 20
762.7635498046875
 11
665.060791015625
 21
762.7635498046875
  0
LINE
  8
0
  6
CONTINUOUS
 62
     7
 10
671.92138671875
 20
752.8785400390625
 11
673.6643676757813
 21
762.7635498046875
  0
LINE
  8
0
  6
CONTINUOUS
 62
     7
 10
665.5238647460938
 20
757.2577514648438
 11
666.1369018554688
 21
760.7344970703125
  0
LINE
  8
0
  6
CONTINUOUS
 62
     7
 10
669.6959838867188
 20
756.5220947265625
 11
670.3090209960938
 21
759.9988403320313
  0
LINE
  8
0
  6
CONTINUOUS
 62
     7
 10
677.9661865234375
 20
762.7635498046875
 11
673.6643676757813
 21
762.7635498046875
  0
LINE
  8
0
  6
CONTINUOUS
 62
     7
 10
671.92138671875
 20
752.8785400390625
 11
663.3177490234375
 21
752.8785400390625
  0
LINE
  8
0
  6
CONTINUOUS
 62
     7
 10
660.7589721679688
 20
762.7635498046875
 11
661.2569580078125
 21
765.587890625
  0
LINE
  8
0
  6
CONTINUOUS
 62
     7
 10
678.4641723632813
 20
765.587890625
 11
661.2569580078125
 21
765.587890625
  0
LINE
  8
0
  6
CONTINUOUS
 62
     7
 10
671.086669921875
 20
756.27685546875
 11
671.69970703125
 21
759.7536010742188
  0
LINE
  8
0
  6
CONTINUOUS
 62
     7
 10
663.3177490234375
 20
752.8785400390625
 11
665.060791015625
 21
762.7635498046875
  0
LINE
  8
0
  6
CONTINUOUS
 62
     7
 10
666.1369018554688
 20
760.7344970703125
 11
667.527587890625
 21
760.4892578125
  0
LINE
  8
0
  6
CENTER
 62
     7
 10
397.2225952148438
 20
704.3424072265625
 11
427.1207580566406
 21
674.4442138671875
  0
LINE
  8
0
  6
CENTER
 62
     7
 10
398.7388610839844
 20
822.8389892578125
 11
427.1207580566406
 21
851.220947265625
  0
LINE
  8
0
  6
CENTER
 62
     7
 10
-214.8613739013672
 20
716.8075561523438
 11
-186.6401672363281
 21
688.5863647460938
  0
LINE
  8
0
  6
CENTER
 62
     7
 10
-211.5550689697266
 20
812.1638793945313
 11
-186.6401672363281
 21
837.0787963867188
  0
LINE
  8
0
  6
CENTER
 62
     7
 10
814.0206909179688
 20
1157.798217773438
 11
846.5294799804688
 21
1125.289428710938
  0
LINE
  8
0
  6
CENTER
 62
     7
 10
815.477294921875
 20
1234.026611328125
 11
847.9688720703125
 21
1266.518188476563
  0
CIRCLE
  8
0
  6
CONTINUOUS
 62
     7
 10
-260.8863830566406
 20
850.3325805664063
 40
9.5
  0
CIRCLE
  8
0
  6
CONTINUOUS
 62
     7
 10
-260.8863830566406
 20
762.8325805664063
 40
57.15000152587891
  0
CIRCLE
  8
0
  6
CONTINUOUS
 62
     7
 10
-199.0145416259766
 20
700.9607543945313
 40
9.5
  0
CIRCLE
  8
0
  6
CONTINUOUS
 62
     7
 10
-260.8863830566406
 20
675.3325805664063
 40
9.5
  0
CIRCLE
  8
0
  6
CONTINUOUS
 62
     7
 10
-260.8863830566406
 20
762.8325805664063
 40
105
  0
CIRCLE
  8
0
  6
CONTINUOUS
 62
     7
 10
-260.8863830566406
 20
762.8325805664063
 40
50.04999923706055
  0
CIRCLE
  8
0
  6
CONTINUOUS
 62
     7
 10
-322.7582397460938
 20
700.9607543945313
 40
9.5
  0
CIRCLE
  8
0
  6
CONTINUOUS
 62
     7
 10
-199.0145416259766
 20
824.7044067382813
 40
9.5
  0
ARC
  8
0
  6
CONTINUOUS
 62
     7
 10
-588.8046875
 20
820.382568359375
 40
3.000000000000012
 50
180.0000050089569
 51
270.0000006832452
  0
CIRCLE
  8
0
  6
CONTINUOUS
 62
     7
 10
-173.3863830566406
 20
762.8325805664063
 40
9.5
  0
ARC
  8
0
  6
CONTINUOUS
 62
     7
 10
-525.3046875
 20
706.7825927734375
 40
1.5
 50
0
 51
90.00000250447738
  0
ARC
  8
0
  6
CONTINUOUS
 62
     7
 10
-609.8046875
 20
840.3325805664063
 40
2.000000000000002
 50
269.9999974955215
 51
0
  0
CIRCLE
  8
0
  6
CONTINUOUS
 62
     7
 10
-322.7582397460938
 20
824.7044067382813
 40
9.5
  0
ARC
  8
0
  6
CONTINUOUS
 62
     7
 10
-530.3680419921875
 20
706.2825927734375
 40
2.000000000000002
 50
90.00000250447846
 51
169.9999933470331
  0
ARC
  8
0
  6
CONTINUOUS
 62
     7
 10
-508.8046875
 20
706.6825561523438
 40
1.000000000000001
 50
269.9999974955215
 51
0
  0
ARC
  8
0
  6
CONTINUOUS
 62
     7
 10
-605.8046875
 20
865.8325805664063
 40
2.000000000000002
 50
90.00000250447846
 51
180.0000050089569
  0
ARC
  8
0
  6
CONTINUOUS
 62
     7
 10
-609.8046875
 20
685.3325805664063
 40
2
 50
0
 51
90.00000250447846
  0
ARC
  8
0
  6
CONTINUOUS
 62
     7
 10
-539.6412963867188
 20
706.2825927734375
 40
1.999999999999958
 50
9.999999709093608
 51
90.00000250447846
  0
CIRCLE
  8
0
  6
CONTINUOUS
 62
     7
 10
-348.3863830566406
 20
762.8325805664063
 40
9.5
  0
ARC
  8
0
  6
CONTINUOUS
 62
     7
 10
-593.8046875
 20
865.8325805664063
 40
2
 50
0
 51
90.00000250447846
  0
CIRCLE
  8
0
  6
CENTER
 62
     7
 10
-260.8863830566406
 20
762.8325805664063
 40
87.5
  0
ARC
  8
0
  6
CONTINUOUS
 62
     7
 10
-605.8046875
 20
659.8325805664063
 40
2.000000000000008
 50
180.0000050089569
 51
270.0000006832462
  0
ARC
  8
0
  6
CONTINUOUS
 62
     7
 10
-508.8046875
 20
818.9825439453125
 40
1
 50
0
 51
90.00000250447846
  0
ARC
  8
0
  6
CONTINUOUS
 62
     7
 10
-593.8046875
 20
659.8325805664063
 40
2.000000000000002
 50
269.9999974955215
 51
0
  0
ARC
  8
0
  6
CONTINUOUS
 62
     7
 10
-539.6412963867188
 20
819.382568359375
 40
2.000000000000002
 50
269.9999974955215
 51
350.0000002909064
  0
ARC
  8
0
  6
CONTINUOUS
 62
     7
 10
-525.3046875
 20
818.882568359375
 40
1.500000000000002
 50
269.9999974955227
 51
0
  0
ARC
  8
0
  6
CONTINUOUS
 62
     7
 10
-588.8046875
 20
705.2825927734375
 40
3.000000000000003
 50
90.00000250447738
 51
180.0000050089569
  0
ARC
  8
0
  6
CONTINUOUS
 62
     7
 10
-530.3680419921875
 20
819.382568359375
 40
1.999999999999965
 50
190.0000066529669
 51
269.9999974955215
  0
CIRCLE
  8
0
  6
CONTINUOUS
 62
     7
 10
338.732421875
 20
867.8325805664063
 40
11.5
  0
ARC
  8
0
  6
CONTINUOUS
 62
     7
 10
-10.51163578033447
 20
855.8325805664063
 40
2.000000000000002
 50
269.9999974955218
 51
0
  0
CIRCLE
  8
0
  6
CONTINUOUS
 62
     7
 10
338.732421875
 20
657.8325805664063
 40
11.5
  0
ARC
  8
0
  6
CONTINUOUS
 62
     7
 10
-10.51163578033447
 20
669.8325805664063
 40
2
 50
0
 51
90.00000250447816
  0
ARC
  8
0
  6
CONTINUOUS
 62
     7
 10
9.488364219665527
 20
885.8325805664063
 40
2
 50
0
 51
90.00000250447816
  0
ARC
  8
0
  6
CONTINUOUS
 62
     7
 10
9.488364219665527
 20
639.8325805664063
 40
2.000000000000002
 50
269.9999974955218
 51
0
  0
CIRCLE
  8
0
  6
CONTINUOUS
 62
     7
 10
338.732421875
 20
762.8325805664063
 40
125
  0
CIRCLE
  8
0
  6
CONTINUOUS
 62
     7
 10
338.732421875
 20
762.8325805664063
 40
62.75
  0
CIRCLE
  8
0
  6
CONTINUOUS
 62
     7
 10
443.732421875
 20
762.8325805664063
 40
11.5
  0
ARC
  8
0
  6
CONTINUOUS
 62
     7
 10
14.48836421966553
 20
692.5825805664063
 40
3.000000000000003
 50
90.00000250447816
 51
180.0000050089569
  0
CIRCLE
  8
0
  6
CENTER
 62
     7
 10
338.732421875
 20
762.8325805664063
 40
105
  0
ARC
  8
0
  6
CONTINUOUS
 62
     7
 10
59.64289855957031
 20
693.5825805664063
 40
2
 50
9.999999709093396
 51
90.00000250447806
  0
CIRCLE
  8
0
  6
CONTINUOUS
 62
     7
 10
264.4862060546875
 20
688.5863647460938
 40
11.5
  0
CIRCLE
  8
0
  6
CONTINUOUS
 62
     7
 10
412.9786376953125
 20
688.5863647460938
 40
11.5
  0
ARC
  8
0
  6
CONTINUOUS
 62
     7
 10
73.98836517333984
 20
694.0825805664063
 40
1.5
 50
0
 51
90.00000250447792
  0
ARC
  8
0
  6
CONTINUOUS
 62
     7
 10
-6.511636257171631
 20
639.8325805664063
 40
2
 50
180.0000050089569
 51
270.0000006832453
  0
ARC
  8
0
  6
CONTINUOUS
 62
     7
 10
68.93383026123047
 20
832.0825805664063
 40
1.999999999999993
 50
190.0000066529668
 51
269.9999974955219
  0
ARC
  8
0
  6
CONTINUOUS
 62
     7
 10
73.48836517333984
 20
832.0825805664063
 40
2.000000000000002
 50
269.9999974955219
 51
0
  0
ARC
  8
0
  6
CONTINUOUS
 62
     7
 10
90.48836517333984
 20
693.9325561523438
 40
1.000000000000001
 50
269.9999974955215
 51
0
  0
ARC
  8
0
  6
CONTINUOUS
 62
     7
 10
68.93383026123047
 20
693.5825805664063
 40
2.000000000000002
 50
90.00000250447806
 51
169.9999933470332
  0
ARC
  8
0
  6
CONTINUOUS
 62
     7
 10
90.48836517333984
 20
831.7325439453125
 40
1
 50
0
 51
90.00000250447846
  0
ARC
  8
0
  6
CONTINUOUS
 62
     7
 10
59.64289855957031
 20
832.0825805664063
 40
2.000000000000002
 50
269.9999974955217
 51
350.0000002909066
  0
ARC
  8
0
  6
CONTINUOUS
 62
     7
 10
14.48836421966553
 20
833.0825805664063
 40
3.000000000000001
 50
180.0000050089569
 51
270.0000006832453
  0
ARC
  8
0
  6
CONTINUOUS
 62
     7
 10
-6.511636257171631
 20
885.8325805664063
 40
2.000000000000002
 50
90.00000250447816
 51
180.0000050089569
  0
CIRCLE
  8
0
  6
CONTINUOUS
 62
     7
 10
412.9786376953125
 20
837.0787963867188
 40
11.5
  0
CIRCLE
  8
0
  6
CONTINUOUS
 62
     7
 10
233.732421875
 20
762.8325805664063
 40
11.5
  0
CIRCLE
  8
0
  6
CONTINUOUS
 62
     7
 10
264.4862060546875
 20
837.0787963867188
 40
11.5
  0
CIRCLE
  8
0
  6
CONTINUOUS
 62
     7
 10
338.732421875
 20
762.8325805664063
 40
69.90000152587891
  0
CIRCLE
  8
0
  6
CONTINUOUS
 62
     7
 10
196.6030120849609
 20
1202.450561523438
 40
38.15000152587891
  0
CIRCLE
  8
0
  6
CONTINUOUS
 62
     7
 10
196.6030120849609
 20
1202.450561523438
 40
31.85000038146973
  0
ARC
  8
0
  6
CONTINUOUS
 62
     7
 10
-25.55539512634277
 20
1240.1005859375
 40
0.5000000000000004
 50
90.00000250447806
 51
180.0000050089635
  0
ARC
  8
0
  6
CONTINUOUS
 62
     7
 10
-11.05539608001709
 20
1165.300537109375
 40
1.000000000000001
 50
269.9999974955218
 51
0
  0
ARC
  8
0
  6
CONTINUOUS
 62
     7
 10
-11.05539608001709
 20
1239.6005859375
 40
1
 50
0
 51
90.00000250447816
  0
CIRCLE
  8
0
  6
CONTINUOUS
 62
     7
 10
126.6030197143555
 20
1202.450561523438
 40
9.5
  0
CIRCLE
  8
0
  6
CENTER
 62
     7
 10
196.6030120849609
 20
1202.450561523438
 40
70
  0
ARC
  8
0
  6
CONTINUOUS
 62
     7
 10
-91.05539703369141
 20
1163.6005859375
 40
3.000000000000003
 50
90.0000025044782
 51
180.0000050089548
  0
ARC
  8
0
  6
CONTINUOUS
 62
     7
 10
-41.43359375
 20
1164.6005859375
 40
1.999999999999981
 50
9.99999970909019
 51
90.00000250447806
  0
ARC
  8
0
  6
CONTINUOUS
 62
     7
 10
-27.55539512634277
 20
1165.1005859375
 40
1.5
 50
0
 51
90.0000025044782
  0
ARC
  8
0
  6
CONTINUOUS
 62
     7
 10
-112.0553970336914
 20
1142.450561523438
 40
2
 50
0
 51
90.00000250447806
  0
ARC
  8
0
  6
CONTINUOUS
 62
     7
 10
-108.0553970336914
 20
1116.950561523438
 40
1.999999999999993
 50
180.0000050089569
 51
270.0000006832455
  0
ARC
  8
0
  6
CONTINUOUS
 62
     7
 10
-96.05539703369141
 20
1116.950561523438
 40
2.000000000000002
 50
269.9999974955219
 51
0
  0
CIRCLE
  8
0
  6
CONTINUOUS
 62
     7
 10
196.6030120849609
 20
1202.450561523438
 40
87.5
  0
ARC
  8
0
  6
CONTINUOUS
 62
     7
 10
-33.07719802856445
 20
1240.300537109375
 40
1.999999999999993
 50
190.0000066529668
 51
269.9999974955217
  0
ARC
  8
0
  6
CONTINUOUS
 62
     7
 10
-96.05539703369141
 20
1287.950561523438
 40
2
 50
0
 51
90.00000250447806
  0
ARC
  8
0
  6
CONTINUOUS
 62
     7
 10
-112.0553970336914
 20
1262.450561523438
 40
2.000000000000002
 50
269.9999974955219
 51
0
  0
ARC
  8
0
  6
CONTINUOUS
 62
     7
 10
-108.0553970336914
 20
1287.950561523438
 40
2.000000000000002
 50
90.00000250447806
 51
180.0000050089569
  0
ARC
  8
0
  6
CONTINUOUS
 62
     7
 10
-27.55539512634277
 20
1239.800537109375
 40
1.500000000000002
 50
269.9999974955218
 51
0
  0
ARC
  8
0
  6
CONTINUOUS
 62
     7
 10
-33.07719802856445
 20
1164.6005859375
 40
2.000000000000002
 50
90.00000250447806
 51
169.9999933470332
  0
ARC
  8
0
  6
CONTINUOUS
 62
     7
 10
-41.43359375
 20
1240.300537109375
 40
2.000000000000002
 50
269.9999974955217
 51
350.0000002909098
  0
ARC
  8
0
  6
CONTINUOUS
 62
     7
 10
-91.05539703369141
 20
1241.300537109375
 40
2.999999999999997
 50
180.0000050089548
 51
270.0000006832455
  0
ARC
  8
0
  6
CONTINUOUS
 62
     7
 10
-25.55539512634277
 20
1164.800537109375
 40
0.4999999999999983
 50
180.0000050089635
 51
270.0000006832455
  0
CIRCLE
  8
0
  6
CONTINUOUS
 62
     7
 10
196.6030120849609
 20
1272.450561523438
 40
9.5
  0
CIRCLE
  8
0
  6
CONTINUOUS
 62
     7
 10
266.60302734375
 20
1202.450561523438
 40
9.5
  0
CIRCLE
  8
0
  6
CONTINUOUS
 62
     7
 10
196.6030120849609
 20
1132.450561523438
 40
9.5
  0
CIRCLE
  8
0
  6
CONTINUOUS
 62
     7
 10
776.634765625
 20
1195.18408203125
 40
92.5
  0
CIRCLE
  8
0
  6
CONTINUOUS
 62
     7
 10
776.634765625
 20
1195.18408203125
 40
44.54999923706055
  0
CIRCLE
  8
0
  6
CONTINUOUS
 62
     7
 10
776.634765625
 20
1270.18408203125
 40
9.5
  0
CIRCLE
  8
0
  6
CONTINUOUS
 62
     7
 10
851.634765625
 20
1195.18408203125
 40
9.5
  0
CIRCLE
  8
0
  6
CONTINUOUS
 62
     7
 10
701.634765625
 20
1195.18408203125
 40
9.5
  0
ARC
  8
0
  6
CONTINUOUS
 62
     7
 10
517.425537109375
 20
1239.134155273438
 40
1.500000000000002
 50
269.9999974955227
 51
0
  0
ARC
  8
0
  6
CONTINUOUS
 62
     7
 10
512.2740478515625
 20
1239.634155273438
 40
2.000000000000021
 50
190.0000066529666
 51
269.9999974955215
  0
CIRCLE
  8
0
  6
CENTER
 62
     7
 10
776.634765625
 20
1195.18408203125
 40
75
  0
CIRCLE
  8
0
  6
CONTINUOUS
 62
     7
 10
723.601806640625
 20
1142.151123046875
 40
9.5
  0
CIRCLE
  8
0
  6
CONTINUOUS
 62
     7
 10
829.6677856445313
 20
1142.151123046875
 40
9.5
  0
ARC
  8
0
  6
CONTINUOUS
 62
     7
 10
503.1329956054688
 20
1239.384155273438
 40
2.000000000000002
 50
269.9999974955215
 51
350.0000002909099
  0
CIRCLE
  8
0
  6
CONTINUOUS
 62
     7
 10
776.634765625
 20
1120.18408203125
 40
9.5
  0
ARC
  8
0
  6
CONTINUOUS
 62
     7
 10
432.9255676269531
 20
1260.18408203125
 40
2.000000000000002
 50
269.9999974955215
 51
0
  0
ARC
  8
0
  6
CONTINUOUS
 62
     7
 10
448.9255676269531
 20
1104.68408203125
 40
2.000000000000002
 50
269.9999974955215
 51
0
  0
ARC
  8
0
  6
CONTINUOUS
 62
     7
 10
432.9255676269531
 20
1130.18408203125
 40
2
 50
0
 51
90.00000250447846
  0
ARC
  8
0
  6
CONTINUOUS
 62
     7
 10
436.9255676269531
 20
1285.68408203125
 40
2.000000000000002
 50
90.00000250447846
 51
180.0000050089569
  0
ARC
  8
0
  6
CONTINUOUS
 62
     7
 10
517.425537109375
 20
1151.234130859375
 40
1.5
 50
0
 51
90.00000250447738
  0
CIRCLE
  8
0
  6
CONTINUOUS
 62
     7
 10
776.634765625
 20
1195.18408203125
 40
38.45000076293945
  0
CIRCLE
  8
0
  6
CONTINUOUS
 62
     7
 10
829.6677856445313
 20
1248.217163085938
 40
9.5
  0
CIRCLE
  8
0
  6
CONTINUOUS
 62
     7
 10
723.601806640625
 20
1248.217163085938
 40
9.5
  0
ARC
  8
0
  6
CONTINUOUS
 62
     7
 10
512.2740478515625
 20
1150.734130859375
 40
2.000000000000002
 50
90.00000250447846
 51
169.9999933470334
  0
ARC
  8
0
  6
CONTINUOUS
 62
     7
 10
436.9255676269531
 20
1104.68408203125
 40
2.000000000000008
 50
180.0000050089569
 51
270.0000006832446
  0
ARC
  8
0
  6
CONTINUOUS
 62
     7
 10
453.9255676269531
 20
1149.984130859375
 40
3.000000000000003
 50
90.00000250447846
 51
180.0000050089548
  0
ARC
  8
0
  6
CONTINUOUS
 62
     7
 10
503.1329956054688
 20
1150.984130859375
 40
1.999999999999994
 50
9.999999709090117
 51
90.00000250447846
  0
ARC
  8
0
  6
CONTINUOUS
 62
     7
 10
533.925537109375
 20
1238.734130859375
 40
1
 50
0
 51
90.00000250447521
  0
ARC
  8
0
  6
CONTINUOUS
 62
     7
 10
533.925537109375
 20
1151.634155273438
 40
1.000000000000001
 50
269.9999974955248
 51
0
  0
ARC
  8
0
  6
CONTINUOUS
 62
     7
 10
453.9255676269531
 20
1240.384155273438
 40
3.000000000000012
 50
180.0000050089548
 51
270.0000006832452
  0
ARC
  8
0
  6
CONTINUOUS
 62
     7
 10
448.9255676269531
 20
1285.68408203125
 40
2
 50
0
 51
90.00000250447846
  0
ARC
  8
0
  6
CONTINUOUS
 62
     7
 10
-600.3419189453125
 20
1259.513305664063
 40
2.000000000000002
 50
269.9999974955215
 51
0
  0
ARC
  8
0
  6
CONTINUOUS
 62
     7
 10
-586.3419189453125
 20
1285.013305664063
 40
2
 50
0
 51
90.00000250447846
  0
ARC
  8
0
  6
CONTINUOUS
 62
     7
 10
-596.3419189453125
 20
1285.013305664063
 40
2.000000000000002
 50
90.00000250447846
 51
180.0000050089569
  0
ARC
  8
0
  6
CONTINUOUS
 62
     7
 10
-586.3419189453125
 20
1134.013305664063
 40
2.000000000000002
 50
269.9999974955215
 51
0
  0
ARC
  8
0
  6
CONTINUOUS
 62
     7
 10
-600.3419189453125
 20
1159.513305664063
 40
2
 50
0
 51
90.00000250447846
  0
ARC
  8
0
  6
CONTINUOUS
 62
     7
 10
-596.3419189453125
 20
1134.013305664063
 40
2.000000000000008
 50
180.0000050089569
 51
270.0000006832462
  0
ARC
  8
0
  6
CONTINUOUS
 62
     7
 10
-499.3419189453125
 20
1238.763305664063
 40
1
 50
0
 51
90.00000250447846
  0
ARC
  8
0
  6
CONTINUOUS
 62
     7
 10
-499.3419189453125
 20
1180.263305664063
 40
1.000000000000001
 50
269.9999974955215
 51
0
  0
ARC
  8
0
  6
CONTINUOUS
 62
     7
 10
-513.8419189453125
 20
1239.263305664063
 40
0.5000000000000004
 50
90.00000250448173
 51
174.2608292758274
  0
ARC
  8
0
  6
CONTINUOUS
 62
     7
 10
-515.8319091796875
 20
1239.46337890625
 40
1.500000000000002
 50
269.9999974955227
 51
354.2608293895108
  0
ARC
  8
0
  6
CONTINUOUS
 62
     7
 10
-521.0463256835938
 20
1239.96337890625
 40
1.999999999999965
 50
190.0000066529669
 51
269.9999974955215
  0
ARC
  8
0
  6
CONTINUOUS
 62
     7
 10
-530.0816040039063
 20
1239.71337890625
 40
2.000000000000002
 50
269.9999974955215
 51
350.0000002909096
  0
ARC
  8
0
  6
CONTINUOUS
 62
     7
 10
-581.3419189453125
 20
1240.71337890625
 40
3.000000000000012
 50
180.0000050089548
 51
270.0000006832452
  0
ARC
  8
0
  6
CONTINUOUS
 62
     7
 10
-513.8419189453125
 20
1179.763305664063
 40
0.5000000000000203
 50
185.7391707241725
 51
269.9999974955182
  0
ARC
  8
0
  6
CONTINUOUS
 62
     7
 10
-515.8319091796875
 20
1179.563354492188
 40
1.499999999999957
 50
5.739170610489211
 51
90.00000250447738
  0
ARC
  8
0
  6
CONTINUOUS
 62
     7
 10
-581.3419189453125
 20
1178.313354492188
 40
3.000000000000003
 50
90.00000250447738
 51
180.0000050089548
  0
ARC
  8
0
  6
CONTINUOUS
 62
     7
 10
-530.0816040039063
 20
1179.313354492188
 40
1.999999999999939
 50
9.999999709090401
 51
90.00000250447846
  0
ARC
  8
0
  6
CONTINUOUS
 62
     7
 10
-521.0463256835938
 20
1179.063354492188
 40
2.000000000000002
 50
90.00000250447846
 51
169.9999933470331
  0
CIRCLE
  8
0
  6
CONTINUOUS
 62
     7
 10
-331.6835021972656
 20
1209.513305664063
 40
77.5
  0
CIRCLE
  8
0
  6
CONTINUOUS
 62
     7
 10
-331.6835021972656
 20
1209.513305664063
 40
30.25
  0
CIRCLE
  8
0
  6
CONTINUOUS
 62
     7
 10
-331.6835021972656
 20
1209.513305664063
 40
24.20000076293945
  0
CIRCLE
  8
0
  6
CENTER
 62
     7
 10
-331.6835021972656
 20
1209.513305664063
 40
60
  0
CIRCLE
  8
0
  6
CONTINUOUS
 62
     7
 10
-331.6835021972656
 20
1269.513305664063
 40
9.5
  0
CIRCLE
  8
0
  6
CONTINUOUS
 62
     7
 10
-391.6835021972656
 20
1209.513305664063
 40
9.5
  0
CIRCLE
  8
0
  6
CONTINUOUS
 62
     7
 10
-331.6835021972656
 20
1149.513305664063
 40
9.5
  0
CIRCLE
  8
0
  6
CONTINUOUS
 62
     7
 10
-271.6835021972656
 20
1209.513305664063
 40
9.5
  0
CIRCLE
  8
0
  6
CONTINUOUS
 62
     7
 10
963.0963745117188
 20
759.1993408203125
 40
140
  0
CIRCLE
  8
0
  6
CONTINUOUS
 62
     7
 10
963.0963745117188
 20
759.1993408203125
 40
82.59999847412109
  0
CIRCLE
  8
0
  6
CENTER
 62
     7
 10
963.0963745117188
 20
759.1993408203125
 40
120
  0
CIRCLE
  8
0
  6
CONTINUOUS
 62
     7
 10
963.0963745117188
 20
879.1993408203125
 40
11.5
  0
CIRCLE
  8
0
  6
CONTINUOUS
 62
     7
 10
878.2435302734375
 20
844.0521850585938
 40
11.5
  0
CIRCLE
  8
0
  6
CONTINUOUS
 62
     7
 10
843.0963745117188
 20
759.1993408203125
 40
11.5
  0
CIRCLE
  8
0
  6
CONTINUOUS
 62
     7
 10
878.2435302734375
 20
674.3465576171875
 40
11.5
  0
CIRCLE
  8
0
  6
CONTINUOUS
 62
     7
 10
963.0963745117188
 20
639.1993408203125
 40
11.5
  0
CIRCLE
  8
0
  6
CONTINUOUS
 62
     7
 10
1047.94921875
 20
674.3465576171875
 40
11.5
  0
CIRCLE
  8
0
  6
CONTINUOUS
 62
     7
 10
1083.096313476563
 20
759.1993408203125
 40
11.5
  0
CIRCLE
  8
0
  6
CONTINUOUS
 62
     7
 10
1047.94921875
 20
844.0521850585938
 40
11.5
  0
CIRCLE
  8
0
  6
CONTINUOUS
 62
     7
 10
963.0963745117188
 20
759.1993408203125
 40
74.15000152587891
  0
ARC
  8
0
  6
CONTINUOUS
 62
     7
 10
621.852294921875
 20
867.1993408203125
 40
2.000000000000002
 50
269.9999974955215
 51
0
  0
ARC
  8
0
  6
CONTINUOUS
 62
     7
 10
621.852294921875
 20
651.1993408203125
 40
2
 50
0
 51
90.00000250447846
  0
ARC
  8
0
  6
CONTINUOUS
 62
     7
 10
641.852294921875
 20
897.1993408203125
 40
2
 50
0
 51
90.00000250447846
  0
ARC
  8
0
  6
CONTINUOUS
 62
     7
 10
625.852294921875
 20
897.1993408203125
 40
2.000000000000002
 50
90.00000250447846
 51
180.0000050089569
  0
ARC
  8
0
  6
CONTINUOUS
 62
     7
 10
625.852294921875
 20
621.1993408203125
 40
2.000000000000008
 50
180.0000050089569
 51
270.0000006832462
  0
ARC
  8
0
  6
CONTINUOUS
 62
     7
 10
641.852294921875
 20
621.1993408203125
 40
2.000000000000002
 50
269.9999974955215
 51
0
  0
ARC
  8
0
  6
CONTINUOUS
 62
     7
 10
722.852294921875
 20
840.7993774414063
 40
1
 50
0
 51
90.00000250447521
  0
ARC
  8
0
  6
CONTINUOUS
 62
     7
 10
701.3065795898438
 20
841.099365234375
 40
1.999999999999965
 50
190.0000066529669
 51
269.9999974955215
  0
ARC
  8
0
  6
CONTINUOUS
 62
     7
 10
706.352294921875
 20
840.599365234375
 40
1.500000000000002
 50
269.9999974955227
 51
0
  0
ARC
  8
0
  6
CONTINUOUS
 62
     7
 10
691.9539184570313
 20
840.849365234375
 40
2.000000000000002
 50
269.9999974955215
 51
350.0000002909064
  0
ARC
  8
0
  6
CONTINUOUS
 62
     7
 10
646.852294921875
 20
841.849365234375
 40
3.000000000000012
 50
180.0000050089569
 51
270.0000006832452
  0
ARC
  8
0
  6
CONTINUOUS
 62
     7
 10
706.352294921875
 20
677.7993774414063
 40
1.5
 50
0
 51
90.00000250447738
  0
ARC
  8
0
  6
CONTINUOUS
 62
     7
 10
722.852294921875
 20
677.599365234375
 40
1.000000000000001
 50
269.9999974955248
 51
0
  0
ARC
  8
0
  6
CONTINUOUS
 62
     7
 10
701.3065795898438
 20
677.2993774414063
 40
2.000000000000002
 50
90.00000250447846
 51
169.9999933470331
  0
ARC
  8
0
  6
CONTINUOUS
 62
     7
 10
691.9539184570313
 20
677.5493774414063
 40
1.999999999999958
 50
9.999999709093608
 51
90.00000250447846
  0
ARC
  8
0
  6
CONTINUOUS
 62
     7
 10
646.852294921875
 20
676.5493774414063
 40
3.000000000000003
 50
90.00000250447738
 51
180.0000050089569
  0
ARC
  8
0
  6
CONTINUOUS
 62
     7
 10
-67.57599639892578
 20
1200.018432617188
 40
1.412147641181969
 50
169.9999933470285
 51
350.000012016368
  0
ARC
  8
0
  6
CONTINUOUS
 62
     7
 10
-67.57599639892578
 20
1200.018432617188
 40
2.824295282363885
 50
169.999993347033
 51
350.000012016368
  0
ARC
  8
0
  6
CONTINUOUS
 62
     7
 10
-557.862548828125
 20
1207.081298828125
 40
2.824295282363899
 50
169.9999933470331
 51
350.0000120163681
  0
ARC
  8
0
  6
CONTINUOUS
 62
     7
 10
-557.862548828125
 20
1207.081298828125
 40
1.412147641181969
 50
169.9999933470285
 51
350.0000120163677
  0
ARC
  8
0
  6
CONTINUOUS
 62
     7
 10
477.3785400390625
 20
1192.752075195313
 40
1.412147641181969
 50
169.9999933470285
 51
350.0000120163681
  0
ARC
  8
0
  6
CONTINUOUS
 62
     7
 10
477.3785400390625
 20
1192.752075195313
 40
2.824295282363899
 50
169.9999933470331
 51
350.0000120163681
  0
ARC
  8
0
  6
CONTINUOUS
 62
     7
 10
-565.3516845703125
 20
760.4005126953125
 40
2.824295282363899
 50
169.9999933470331
 51
350.0000120163681
  0
ARC
  8
0
  6
CONTINUOUS
 62
     7
 10
-565.3516845703125
 20
760.4005126953125
 40
1.41214764118195
 50
169.9999933470331
 51
350.0000120163677
  0
ARC
  8
0
  6
CONTINUOUS
 62
     7
 10
35.94133377075195
 20
760.4005126953125
 40
1.412147641181943
 50
169.999993347033
 51
350.000012016368
  0
ARC
  8
0
  6
CONTINUOUS
 62
     7
 10
35.94133377075195
 20
760.4005126953125
 40
2.824295282363885
 50
169.999993347033
 51
350.000012016368
  0
ARC
  8
0
  6
CONTINUOUS
 62
     7
 10
668.3052368164063
 20
756.767333984375
 40
1.41214764118195
 50
169.9999933470331
 51
350.0000120163677
  0
ARC
  8
0
  6
CONTINUOUS
 62
     7
 10
668.3052368164063
 20
756.767333984375
 40
2.824295282363899
 50
169.9999933470331
 51
350.0000120163681
  0
TEXT
  8
0
  6
CONTINUOUS
 62
     7
 10
-565.1698362827301
 20
864.18310546875
 40
10
 41
0.8489270656764293
  1
　１００Ａ
  0
TEXT
  8
0
  6
CONTINUOUS
 62
     7
 10
-565.1698362827301
 20
849.18310546875
 40
10
 41
0.8463497863096351
  1
（１００Ｓｕ）
  0
TEXT
  8
0
  6
CONTINUOUS
 62
     7
 10
-77.4561824798584
 20
1288.839599609375
 40
10
 41
0.8276140972163679
  1
　６５Ａ
  0
TEXT
  8
0
  6
CONTINUOUS
 62
     7
 10
-77.4561824798584
 20
1273.839599609375
 40
10
 41
0.823862303970948
  1
（７５Ｓｕ）
  0
TEXT
  8
0
  6
CONTINUOUS
 62
     7
 10
474.40598487854
 20
1282.786743164063
 40
10
 41
0.8276140972163679
  1
　８０Ａ
  0
TEXT
  8
0
  6
CONTINUOUS
 62
     7
 10
474.40598487854
 20
1267.786743164063
 40
10
 41
0.823862303970948
  1
（８０Ｓｕ）
  0
TEXT
  8
0
  6
CONTINUOUS
 62
     7
 10
-562.3587400913239
 20
1283.77880859375
 40
10
 41
0.8512700469189696
  1
　５０Ａ
  0
TEXT
  8
0
  6
CONTINUOUS
 62
     7
 10
-562.3587400913239
 20
1268.77880859375
 40
10
 41
0.8474110189900798
  1
（６０Ｓｕ）
  0
TEXT
  8
0
  6
CONTINUOUS
 62
     7
 10
672.4410035610199
 20
889.2080688476563
 40
10
 41
0.8489270656764293
  1
　１５０Ａ
  0
TEXT
  8
0
  6
CONTINUOUS
 62
     7
 10
672.4410035610199
 20
874.2080688476563
 40
10
 41
0.8463497863096351
  1
（１５０Ｓｕ）
  0
TEXT
  8
0
  6
CONTINUOUS
 62
     7
 10
35.80336546897888
 20
885.8489379882813
 40
10
 41
0.8489270656764293
  1
　１２５Ａ
  0
TEXT
  8
0
  6
CONTINUOUS
 62
     7
 10
35.80336546897888
 20
870.8489379882813
 40
10
 41
0.8463497863096351
  1
（１２５Ｓｕ）
  0
LINE
  8
0
  6
CONTINUOUS
 62
     7
 10
-80.16986378050447
 20
1199.593430741279
 11
-79.15726869726176
 21
1199.414882897314
  0
LINE
  8
0
  6
CONTINUOUS
 62
     7
 10
-76.05508269278165
 20
1201.530317074762
 11
-75.11071806788785
 21
1201.363800102201
  0
POLYLINE
  8
0
  6
CONTINUOUS
 62
     7
 66
     1
 10
0
 20
0
  0
VERTEX
  8
0
  6
CONTINUOUS
 62
     7
 10
-76.03662833306225
 20
1201.741238371638
 42
0.07333214780387673
  0
VERTEX
  8
0
  6
CONTINUOUS
 62
     7
 10
-76.08832600296859
 20
1201.981118500033
 42
0.07333214780387673
  0
VERTEX
  8
0
  6
CONTINUOUS
 62
     7
 10
-76.23901831688528
 20
1202.20057914964
 42
0.07333214780387673
  0
VERTEX
  8
0
  6
CONTINUOUS
 62
     7
 10
-76.47587779081748
 20
1202.380939022804
 42
0.07333214780387673
  0
VERTEX
  8
0
  6
CONTINUOUS
 62
     7
 10
-76.77874207519392
 20
1202.506845223773
 42
0.07333214780387673
  0
VERTEX
  8
0
  6
CONTINUOUS
 62
     7
 10
-77.1218302482179
 20
1202.567580153648
 42
0.07333214780387673
  0
VERTEX
  8
0
  6
CONTINUOUS
 62
     7
 10
-77.47593738275081
 20
1202.55797383182
 42
0.07333214780387673
  0
VERTEX
  8
0
  6
CONTINUOUS
 62
     7
 10
-77.81092057712354
 20
1202.478843983733
 42
0.07333214780387673
  0
VERTEX
  8
0
  6
CONTINUOUS
 62
     7
 10
-78.09826482978974
 20
1202.33692643309
 42
0.07333214780387673
  0
VERTEX
  8
0
  6
CONTINUOUS
 62
     7
 10
-78.31351034113334
 20
1202.144301723763
 42
0.07333214780387673
  0
VERTEX
  8
0
  6
CONTINUOUS
 62
     7
 10
-78.43833462157299
 20
1201.917366779469
 42
0.07333214780387673
  0
VERTEX
  8
0
  6
CONTINUOUS
 62
     7
 10
-78.462112169264
 20
1201.675439137314
 42
0.07333214780387673
  0
VERTEX
  8
0
  6
CONTINUOUS
 62
     7
 10
-78.38281895189498
 20
1201.439112567989
 42
0.07333214780387673
  0
VERTEX
  8
0
  6
CONTINUOUS
 62
     7
 10
-78.20720469976249
 20
1201.228504058265
 42
0.07333214780387673
  0
VERTEX
  8
0
  6
CONTINUOUS
 62
     7
 10
-77.95021834390317
 20
1201.061541379091
 42
0.07333214780387673
  0
VERTEX
  8
0
  6
CONTINUOUS
 62
     7
 10
-77.63373550810304
 20
1200.952437007793
 42
0.07333214780387673
  0
VERTEX
  8
0
  6
CONTINUOUS
 62
     7
 10
-77.28469637534387
 20
1200.910478309735
 42
-1
  0
SEQEND
  8
0
  0
POLYLINE
  8
0
  6
CONTINUOUS
 62
     7
 66
     1
 10
0
 20
0
  0
VERTEX
  8
0
  6
CONTINUOUS
 62
     7
 10
-75.07769567295574
 20
1201.741238593144
 42
0.07332668712448476
  0
VERTEX
  8
0
  6
CONTINUOUS
 62
     7
 10
-75.17019359297601
 20
1202.243105588824
 42
0.07332668712448476
  0
VERTEX
  8
0
  6
CONTINUOUS
 62
     7
 10
-75.43981485925761
 20
1202.702258127017
 42
0.07332668712448476
  0
VERTEX
  8
0
  6
CONTINUOUS
 62
     7
 10
-75.86361169939883
 20
1203.079617213365
 42
0.07332668712448476
  0
VERTEX
  8
0
  6
CONTINUOUS
 62
     7
 10
-76.40551428268392
 20
1203.343065387153
 42
0.07332668712448476
  0
VERTEX
  8
0
  6
CONTINUOUS
 62
     7
 10
-77.01940066436926
 20
1203.470180274899
 42
0.07332668712448476
  0
VERTEX
  8
0
  6
CONTINUOUS
 62
     7
 10
-77.65302227681875
 20
1203.450142984038
 42
0.07332668712448476
  0
VERTEX
  8
0
  6
CONTINUOUS
 62
     7
 10
-78.25245086447654
 20
1203.284658911168
 42
0.07332668712448476
  0
VERTEX
  8
0
  6
CONTINUOUS
 62
     7
 10
-78.76666837898775
 20
1202.987812593806
 42
0.07332668712448476
  0
VERTEX
  8
0
  6
CONTINUOUS
 62
     7
 10
-79.15190918327656
 20
1202.584868959393
 42
0.07332668712448476
  0
VERTEX
  8
0
  6
CONTINUOUS
 62
     7
 10
-79.37538499465815
 20
1202.110122998605
 42
0.07332668712448476
  0
VERTEX
  8
0
  6
CONTINUOUS
 62
     7
 10
-79.41807553284228
 20
1201.603980879721
 42
0.07332668712448476
  0
VERTEX
  8
0
  6
CONTINUOUS
 62
     7
 10
-79.27634735760569
 20
1201.109520933717
 42
0.07332668712448476
  0
VERTEX
  8
0
  6
CONTINUOUS
 62
     7
 10
-78.96226311501891
 20
1200.668827208558
 42
0.07332668712448476
  0
VERTEX
  8
0
  6
CONTINUOUS
 62
     7
 10
-78.50255487192985
 20
1200.319407648047
 42
0.07332668712448476
  0
VERTEX
  8
0
  6
CONTINUOUS
 62
     7
 10
-77.93634891937296
 20
1200.0910017481
 42
0.07332668712448476
  0
VERTEX
  8
0
  6
CONTINUOUS
 62
     7
 10
-77.31183568947172
 20
1200.003049394448
 42
-1
  0
SEQEND
  8
0
  0
POLYLINE
  8
0
  6
CONTINUOUS
 62
     7
 66
     1
 10
0
 20
0
  0
VERTEX
  8
0
  6
CONTINUOUS
 62
     7
 10
-79.20278345867315
 20
1199.140813082693
 42
0.07459289906077718
  0
VERTEX
  8
0
  6
CONTINUOUS
 62
     7
 10
-79.1743386303736
 20
1198.845584813164
 42
0.07459289906077718
  0
VERTEX
  8
0
  6
CONTINUOUS
 62
     7
 10
-79.02497429096904
 20
1198.569271568795
 42
0.07459289906077718
  0
VERTEX
  8
0
  6
CONTINUOUS
 62
     7
 10
-78.76784094323449
 20
1198.336200830303
 42
0.07459289906077718
  0
VERTEX
  8
0
  6
CONTINUOUS
 62
     7
 10
-78.4255774099065
 20
1198.166892873182
 42
0.07459289906077718
  0
VERTEX
  8
0
  6
CONTINUOUS
 62
     7
 10
-78.02831764104812
 20
1198.076254098577
 42
0.07459289906077718
  0
VERTEX
  8
0
  6
CONTINUOUS
 62
     7
 10
-77.61103762700358
 20
1198.072264627188
 42
0.07459289906077718
  0
VERTEX
  8
0
  6
CONTINUOUS
 62
     7
 10
-77.21047600300895
 20
1198.155275704534
 42
0.07459289906077718
  0
VERTEX
  8
0
  6
CONTINUOUS
 62
     7
 10
-76.86189946504341
 20
1198.317978776193
 42
0.07459289906077718
  0
VERTEX
  8
0
  6
CONTINUOUS
 62
     7
 10
-76.59599777980833
 20
1198.546048955757
 42
0.07459289906077718
  0
VERTEX
  8
0
  6
CONTINUOUS
 62
     7
 10
-76.4361817618496
 20
1198.819406232556
 42
0.07459289906077718
  0
VERTEX
  8
0
  6
CONTINUOUS
 62
     7
 10
-76.39652211235359
 20
1199.113983378483
 42
0.07459289906077718
  0
VERTEX
  8
0
  6
CONTINUOUS
 62
     7
 10
-76.48051059068425
 20
1199.403844901906
 42
0.07459289906077718
  0
VERTEX
  8
0
  6
CONTINUOUS
 62
     7
 10
-76.68075258898695
 20
1199.663470489319
 42
0.07459289906077718
  0
VERTEX
  8
0
  6
CONTINUOUS
 62
     7
 10
-76.97961817655099
 20
1199.870001893424
 42
0.07459289906077718
  0
VERTEX
  8
0
  6
CONTINUOUS
 62
     7
 10
-77.35079429395204
 20
1200.005255444585
 42
0.07459289906077718
  0
VERTEX
  8
0
  6
CONTINUOUS
 62
     7
 10
-77.76160143695655
 20
1200.057322997882
 42
-1
  0
SEQEND
  8
0
  0
POLYLINE
  8
0
  6
CONTINUOUS
 62
     7
 66
     1
 10
0
 20
0
  0
VERTEX
  8
0
  6
CONTINUOUS
 62
     7
 10
-80.22557606689621
 20
1199.151462432577
 42
0.07398282385211347
  0
VERTEX
  8
0
  6
CONTINUOUS
 62
     7
 10
-80.14979981216912
 20
1198.597658689715
 42
0.07398282385211347
  0
VERTEX
  8
0
  6
CONTINUOUS
 62
     7
 10
-79.87033244734803
 20
1198.085024745118
 42
0.07398282385211347
  0
VERTEX
  8
0
  6
CONTINUOUS
 62
     7
 10
-79.41138268357824
 20
1197.657967240313
 42
0.07398282385211347
  0
VERTEX
  8
0
  6
CONTINUOUS
 62
     7
 10
-78.81270679890824
 20
1197.353479803458
 42
0.07398282385211347
  0
VERTEX
  8
0
  6
CONTINUOUS
 62
     7
 10
-78.12616477194739
 20
1197.197938496067
 42
0.07398282385211347
  0
VERTEX
  8
0
  6
CONTINUOUS
 62
     7
 10
-77.41122793893003
 20
1197.204817000782
 42
0.07398282385211347
  0
VERTEX
  8
0
  6
CONTINUOUS
 62
     7
 10
-76.7298273209925
 20
1197.373519470806
 42
0.07398282385211347
  0
VERTEX
  8
0
  6
CONTINUOUS
 62
     7
 10
-76.14098888255982
 20
1197.689432144819
 42
0.07398282385211347
  0
VERTEX
  8
0
  6
CONTINUOUS
 62
     7
 10
-75.69572043871763
 20
1198.125189256242
 42
0.07398282385211347
  0
VERTEX
  8
0
  6
CONTINUOUS
 62
     7
 10
-75.43259313048625
 20
1198.643043578143
 42
0.07398282385211347
  0
VERTEX
  8
0
  6
CONTINUOUS
 62
     7
 10
-75.37440022034014
 20
1199.1981362566
 42
0.07398282385211347
  0
VERTEX
  8
0
  6
CONTINUOUS
 62
     7
 10
-75.52618263802556
 20
1199.742382684954
 42
0.07398282385211347
  0
VERTEX
  8
0
  6
CONTINUOUS
 62
     7
 10
-75.87479231271486
 20
1200.228637807165
 42
0.07398282385211347
  0
VERTEX
  8
0
  6
CONTINUOUS
 62
     7
 10
-76.39003111761633
 20
1200.614780033099
 42
0.07398282385211347
  0
VERTEX
  8
0
  6
CONTINUOUS
 62
     7
 10
-77.0272667665713
 20
1200.86735999877
 42
0.07398282385211347
  0
VERTEX
  8
0
  6
CONTINUOUS
 62
     7
 10
-77.73129906199348
 20
1200.964498099615
 42
-1
  0
SEQEND
  8
0
  0
LINE
  8
0
  6
CONTINUOUS
 62
     7
 10
-58.98765095091463
 20
1199.593430741279
 11
-57.97505586767191
 21
1199.414882897314
  0
LINE
  8
0
  6
CONTINUOUS
 62
     7
 10
-54.87286986319181
 20
1201.530317074762
 11
-53.928505238298
 21
1201.363800102201
  0
POLYLINE
  8
0
  6
CONTINUOUS
 62
     7
 66
     1
 10
0
 20
0
  0
VERTEX
  8
0
  6
CONTINUOUS
 62
     7
 10
-54.85441550347241
 20
1201.741238371638
 42
0.07333214780387673
  0
VERTEX
  8
0
  6
CONTINUOUS
 62
     7
 10
-54.90611317337875
 20
1201.981118500033
 42
0.07333214780387673
  0
VERTEX
  8
0
  6
CONTINUOUS
 62
     7
 10
-55.05680548729544
 20
1202.20057914964
 42
0.07333214780387673
  0
VERTEX
  8
0
  6
CONTINUOUS
 62
     7
 10
-55.29366496122764
 20
1202.380939022804
 42
0.07333214780387673
  0
VERTEX
  8
0
  6
CONTINUOUS
 62
     7
 10
-55.59652924560408
 20
1202.506845223773
 42
0.07333214780387673
  0
VERTEX
  8
0
  6
CONTINUOUS
 62
     7
 10
-55.93961741862806
 20
1202.567580153648
 42
0.07333214780387673
  0
VERTEX
  8
0
  6
CONTINUOUS
 62
     7
 10
-56.29372455316098
 20
1202.55797383182
 42
0.07333214780387673
  0
VERTEX
  8
0
  6
CONTINUOUS
 62
     7
 10
-56.62870774753371
 20
1202.478843983733
 42
0.07333214780387673
  0
VERTEX
  8
0
  6
CONTINUOUS
 62
     7
 10
-56.91605200019992
 20
1202.33692643309
 42
0.07333214780387673
  0
VERTEX
  8
0
  6
CONTINUOUS
 62
     7
 10
-57.1312975115435
 20
1202.144301723763
 42
0.07333214780387673
  0
VERTEX
  8
0
  6
CONTINUOUS
 62
     7
 10
-57.25612179198316
 20
1201.917366779469
 42
0.07333214780387673
  0
VERTEX
  8
0
  6
CONTINUOUS
 62
     7
 10
-57.27989933967417
 20
1201.675439137314
 42
0.07333214780387673
  0
VERTEX
  8
0
  6
CONTINUOUS
 62
     7
 10
-57.20060612230515
 20
1201.439112567989
 42
0.07333214780387673
  0
VERTEX
  8
0
  6
CONTINUOUS
 62
     7
 10
-57.02499187017266
 20
1201.228504058265
 42
0.07333214780387673
  0
VERTEX
  8
0
  6
CONTINUOUS
 62
     7
 10
-56.76800551431335
 20
1201.061541379091
 42
0.07333214780387673
  0
VERTEX
  8
0
  6
CONTINUOUS
 62
     7
 10
-56.4515226785132
 20
1200.952437007793
 42
0.07333214780387673
  0
VERTEX
  8
0
  6
CONTINUOUS
 62
     7
 10
-56.10248354575404
 20
1200.910478309735
 42
-1
  0
SEQEND
  8
0
  0
POLYLINE
  8
0
  6
CONTINUOUS
 62
     7
 66
     1
 10
0
 20
0
  0
VERTEX
  8
0
  6
CONTINUOUS
 62
     7
 10
-53.89548284336591
 20
1201.741238593144
 42
0.07332668712448476
  0
VERTEX
  8
0
  6
CONTINUOUS
 62
     7
 10
-53.98798076338616
 20
1202.243105588824
 42
0.07332668712448476
  0
VERTEX
  8
0
  6
CONTINUOUS
 62
     7
 10
-54.25760202966777
 20
1202.702258127017
 42
0.07332668712448476
  0
VERTEX
  8
0
  6
CONTINUOUS
 62
     7
 10
-54.68139886980899
 20
1203.079617213365
 42
0.07332668712448476
  0
VERTEX
  8
0
  6
CONTINUOUS
 62
     7
 10
-55.22330145309407
 20
1203.343065387153
 42
0.07332668712448476
  0
VERTEX
  8
0
  6
CONTINUOUS
 62
     7
 10
-55.83718783477941
 20
1203.470180274899
 42
0.07332668712448476
  0
VERTEX
  8
0
  6
CONTINUOUS
 62
     7
 10
-56.47080944722889
 20
1203.450142984038
 42
0.07332668712448476
  0
VERTEX
  8
0
  6
CONTINUOUS
 62
     7
 10
-57.07023803488669
 20
1203.284658911168
 42
0.07332668712448476
  0
VERTEX
  8
0
  6
CONTINUOUS
 62
     7
 10
-57.58445554939789
 20
1202.987812593806
 42
0.07332668712448476
  0
VERTEX
  8
0
  6
CONTINUOUS
 62
     7
 10
-57.96969635368671
 20
1202.584868959393
 42
0.07332668712448476
  0
VERTEX
  8
0
  6
CONTINUOUS
 62
     7
 10
-58.19317216506829
 20
1202.110122998605
 42
0.07332668712448476
  0
VERTEX
  8
0
  6
CONTINUOUS
 62
     7
 10
-58.23586270325242
 20
1201.603980879721
 42
0.07332668712448476
  0
VERTEX
  8
0
  6
CONTINUOUS
 62
     7
 10
-58.09413452801583
 20
1201.109520933717
 42
0.07332668712448476
  0
VERTEX
  8
0
  6
CONTINUOUS
 62
     7
 10
-57.78005028542906
 20
1200.668827208558
 42
0.07332668712448476
  0
VERTEX
  8
0
  6
CONTINUOUS
 62
     7
 10
-57.32034204233999
 20
1200.319407648047
 42
0.07332668712448476
  0
VERTEX
  8
0
  6
CONTINUOUS
 62
     7
 10
-56.7541360897831
 20
1200.0910017481
 42
0.07332668712448476
  0
VERTEX
  8
0
  6
CONTINUOUS
 62
     7
 10
-56.12962285988188
 20
1200.003049394448
 42
-1
  0
SEQEND
  8
0
  0
POLYLINE
  8
0
  6
CONTINUOUS
 62
     7
 66
     1
 10
0
 20
0
  0
VERTEX
  8
0
  6
CONTINUOUS
 62
     7
 10
-58.02057062908332
 20
1199.140813082693
 42
0.07459289906077718
  0
VERTEX
  8
0
  6
CONTINUOUS
 62
     7
 10
-57.99212580078377
 20
1198.845584813164
 42
0.07459289906077718
  0
VERTEX
  8
0
  6
CONTINUOUS
 62
     7
 10
-57.8427614613792
 20
1198.569271568795
 42
0.07459289906077718
  0
VERTEX
  8
0
  6
CONTINUOUS
 62
     7
 10
-57.58562811364466
 20
1198.336200830303
 42
0.07459289906077718
  0
VERTEX
  8
0
  6
CONTINUOUS
 62
     7
 10
-57.24336458031665
 20
1198.166892873182
 42
0.07459289906077718
  0
VERTEX
  8
0
  6
CONTINUOUS
 62
     7
 10
-56.84610481145828
 20
1198.076254098577
 42
0.07459289906077718
  0
VERTEX
  8
0
  6
CONTINUOUS
 62
     7
 10
-56.42882479741375
 20
1198.072264627188
 42
0.07459289906077718
  0
VERTEX
  8
0
  6
CONTINUOUS
 62
     7
 10
-56.02826317341911
 20
1198.155275704534
 42
0.07459289906077718
  0
VERTEX
  8
0
  6
CONTINUOUS
 62
     7
 10
-55.67968663545358
 20
1198.317978776193
 42
0.07459289906077718
  0
VERTEX
  8
0
  6
CONTINUOUS
 62
     7
 10
-55.41378495021849
 20
1198.546048955757
 42
0.07459289906077718
  0
VERTEX
  8
0
  6
CONTINUOUS
 62
     7
 10
-55.25396893225976
 20
1198.819406232556
 42
0.07459289906077718
  0
VERTEX
  8
0
  6
CONTINUOUS
 62
     7
 10
-55.21430928276375
 20
1199.113983378483
 42
0.07459289906077718
  0
VERTEX
  8
0
  6
CONTINUOUS
 62
     7
 10
-55.2982977610944
 20
1199.403844901906
 42
0.07459289906077718
  0
VERTEX
  8
0
  6
CONTINUOUS
 62
     7
 10
-55.49853975939712
 20
1199.663470489319
 42
0.07459289906077718
  0
VERTEX
  8
0
  6
CONTINUOUS
 62
     7
 10
-55.79740534696114
 20
1199.870001893424
 42
0.07459289906077718
  0
VERTEX
  8
0
  6
CONTINUOUS
 62
     7
 10
-56.16858146436219
 20
1200.005255444585
 42
0.07459289906077718
  0
VERTEX
  8
0
  6
CONTINUOUS
 62
     7
 10
-56.57938860736672
 20
1200.057322997882
 42
-1
  0
SEQEND
  8
0
  0
POLYLINE
  8
0
  6
CONTINUOUS
 62
     7
 66
     1
 10
0
 20
0
  0
VERTEX
  8
0
  6
CONTINUOUS
 62
     7
 10
-59.04336323730636
 20
1199.151462432577
 42
0.07398282385211347
  0
VERTEX
  8
0
  6
CONTINUOUS
 62
     7
 10
-58.96758698257927
 20
1198.597658689715
 42
0.07398282385211347
  0
VERTEX
  8
0
  6
CONTINUOUS
 62
     7
 10
-58.68811961775818
 20
1198.085024745118
 42
0.07398282385211347
  0
VERTEX
  8
0
  6
CONTINUOUS
 62
     7
 10
-58.2291698539884
 20
1197.657967240313
 42
0.07398282385211347
  0
VERTEX
  8
0
  6
CONTINUOUS
 62
     7
 10
-57.63049396931839
 20
1197.353479803458
 42
0.07398282385211347
  0
VERTEX
  8
0
  6
CONTINUOUS
 62
     7
 10
-56.94395194235754
 20
1197.197938496067
 42
0.07398282385211347
  0
VERTEX
  8
0
  6
CONTINUOUS
 62
     7
 10
-56.22901510934018
 20
1197.204817000782
 42
0.07398282385211347
  0
VERTEX
  8
0
  6
CONTINUOUS
 62
     7
 10
-55.54761449140266
 20
1197.373519470806
 42
0.07398282385211347
  0
VERTEX
  8
0
  6
CONTINUOUS
 62
     7
 10
-54.95877605296998
 20
1197.689432144819
 42
0.07398282385211347
  0
VERTEX
  8
0
  6
CONTINUOUS
 62
     7
 10
-54.51350760912779
 20
1198.125189256242
 42
0.07398282385211347
  0
VERTEX
  8
0
  6
CONTINUOUS
 62
     7
 10
-54.25038030089641
 20
1198.643043578143
 42
0.07398282385211347
  0
VERTEX
  8
0
  6
CONTINUOUS
 62
     7
 10
-54.1921873907503
 20
1199.1981362566
 42
0.07398282385211347
  0
VERTEX
  8
0
  6
CONTINUOUS
 62
     7
 10
-54.34396980843572
 20
1199.742382684954
 42
0.07398282385211347
  0
VERTEX
  8
0
  6
CONTINUOUS
 62
     7
 10
-54.69257948312502
 20
1200.228637807165
 42
0.07398282385211347
  0
VERTEX
  8
0
  6
CONTINUOUS
 62
     7
 10
-55.2078182880265
 20
1200.614780033099
 42
0.07398282385211347
  0
VERTEX
  8
0
  6
CONTINUOUS
 62
     7
 10
-55.84505393698146
 20
1200.86735999877
 42
0.07398282385211347
  0
VERTEX
  8
0
  6
CONTINUOUS
 62
     7
 10
-56.54908623240365
 20
1200.964498099615
 42
-1
  0
SEQEND
  8
0
  0
LINE
  8
0
  6
CONTINUOUS
 62
     7
 10
-549.2741652331412
 20
1206.656296952217
 11
-548.2615701498985
 21
1206.477749108251
  0
LINE
  8
0
  6
CONTINUOUS
 62
     7
 10
-545.1593841454184
 20
1208.593183285699
 11
-544.2150195205246
 21
1208.426666313138
  0
POLYLINE
  8
0
  6
CONTINUOUS
 62
     7
 66
     1
 10
0
 20
0
  0
VERTEX
  8
0
  6
CONTINUOUS
 62
     7
 10
-545.140929785699
 20
1208.804104582575
 42
0.07333214780387673
  0
VERTEX
  8
0
  6
CONTINUOUS
 62
     7
 10
-545.1926274556054
 20
1209.043984710971
 42
0.07333214780387673
  0
VERTEX
  8
0
  6
CONTINUOUS
 62
     7
 10
-545.3433197695221
 20
1209.263445360577
 42
0.07333214780387673
  0
VERTEX
  8
0
  6
CONTINUOUS
 62
     7
 10
-545.5801792434542
 20
1209.443805233741
 42
0.07333214780387673
  0
VERTEX
  8
0
  6
CONTINUOUS
 62
     7
 10
-545.8830435278306
 20
1209.569711434711
 42
0.07333214780387673
  0
VERTEX
  8
0
  6
CONTINUOUS
 62
     7
 10
-546.2261317008546
 20
1209.630446364586
 42
0.07333214780387673
  0
VERTEX
  8
0
  6
CONTINUOUS
 62
     7
 10
-546.5802388353875
 20
1209.620840042757
 42
0.07333214780387673
  0
VERTEX
  8
0
  6
CONTINUOUS
 62
     7
 10
-546.9152220297602
 20
1209.54171019467
 42
0.07333214780387673
  0
VERTEX
  8
0
  6
CONTINUOUS
 62
     7
 10
-547.2025662824265
 20
1209.399792644028
 42
0.07333214780387673
  0
VERTEX
  8
0
  6
CONTINUOUS
 62
     7
 10
-547.4178117937701
 20
1209.207167934701
 42
0.07333214780387673
  0
VERTEX
  8
0
  6
CONTINUOUS
 62
     7
 10
-547.5426360742097
 20
1208.980232990406
 42
0.07333214780387673
  0
VERTEX
  8
0
  6
CONTINUOUS
 62
     7
 10
-547.5664136219007
 20
1208.738305348252
 42
0.07333214780387673
  0
VERTEX
  8
0
  6
CONTINUOUS
 62
     7
 10
-547.4871204045317
 20
1208.501978778926
 42
0.07333214780387673
  0
VERTEX
  8
0
  6
CONTINUOUS
 62
     7
 10
-547.3115061523992
 20
1208.291370269202
 42
0.07333214780387673
  0
VERTEX
  8
0
  6
CONTINUOUS
 62
     7
 10
-547.0545197965399
 20
1208.124407590028
 42
0.07333214780387673
  0
VERTEX
  8
0
  6
CONTINUOUS
 62
     7
 10
-546.7380369607398
 20
1208.015303218731
 42
0.07333214780387673
  0
VERTEX
  8
0
  6
CONTINUOUS
 62
     7
 10
-546.3889978279806
 20
1207.973344520672
 42
-1
  0
SEQEND
  8
0
  0
POLYLINE
  8
0
  6
CONTINUOUS
 62
     7
 66
     1
 10
0
 20
0
  0
VERTEX
  8
0
  6
CONTINUOUS
 62
     7
 10
-544.1819971255925
 20
1208.804104804081
 42
0.07332668712448476
  0
VERTEX
  8
0
  6
CONTINUOUS
 62
     7
 10
-544.2744950456128
 20
1209.305971799761
 42
0.07332668712448476
  0
VERTEX
  8
0
  6
CONTINUOUS
 62
     7
 10
-544.5441163118943
 20
1209.765124337955
 42
0.07332668712448476
  0
VERTEX
  8
0
  6
CONTINUOUS
 62
     7
 10
-544.9679131520355
 20
1210.142483424302
 42
0.07332668712448476
  0
VERTEX
  8
0
  6
CONTINUOUS
 62
     7
 10
-545.5098157353207
 20
1210.405931598091
 42
0.07332668712448476
  0
VERTEX
  8
0
  6
CONTINUOUS
 62
     7
 10
-546.123702117006
 20
1210.533046485836
 42
0.07332668712448476
  0
VERTEX
  8
0
  6
CONTINUOUS
 62
     7
 10
-546.7573237294555
 20
1210.513009194975
 42
0.07332668712448476
  0
VERTEX
  8
0
  6
CONTINUOUS
 62
     7
 10
-547.3567523171133
 20
1210.347525122105
 42
0.07332668712448476
  0
VERTEX
  8
0
  6
CONTINUOUS
 62
     7
 10
-547.8709698316245
 20
1210.050678804744
 42
0.07332668712448476
  0
VERTEX
  8
0
  6
CONTINUOUS
 62
     7
 10
-548.2562106359133
 20
1209.64773517033
 42
0.07332668712448476
  0
VERTEX
  8
0
  6
CONTINUOUS
 62
     7
 10
-548.4796864472949
 20
1209.172989209543
 42
0.07332668712448476
  0
VERTEX
  8
0
  6
CONTINUOUS
 62
     7
 10
-548.522376985479
 20
1208.666847090659
 42
0.07332668712448476
  0
VERTEX
  8
0
  6
CONTINUOUS
 62
     7
 10
-548.3806488102424
 20
1208.172387144654
 42
0.07332668712448476
  0
VERTEX
  8
0
  6
CONTINUOUS
 62
     7
 10
-548.0665645676556
 20
1207.731693419495
 42
0.07332668712448476
  0
VERTEX
  8
0
  6
CONTINUOUS
 62
     7
 10
-547.6068563245666
 20
1207.382273858984
 42
0.07332668712448476
  0
VERTEX
  8
0
  6
CONTINUOUS
 62
     7
 10
-547.0406503720097
 20
1207.153867959037
 42
0.07332668712448476
  0
VERTEX
  8
0
  6
CONTINUOUS
 62
     7
 10
-546.4161371421085
 20
1207.065915605385
 42
-1
  0
SEQEND
  8
0
  0
POLYLINE
  8
0
  6
CONTINUOUS
 62
     7
 66
     1
 10
0
 20
0
  0
VERTEX
  8
0
  6
CONTINUOUS
 62
     7
 10
-548.3070849113099
 20
1206.20367929363
 42
0.07459289906077718
  0
VERTEX
  8
0
  6
CONTINUOUS
 62
     7
 10
-548.2786400830104
 20
1205.908451024101
 42
0.07459289906077718
  0
VERTEX
  8
0
  6
CONTINUOUS
 62
     7
 10
-548.1292757436058
 20
1205.632137779732
 42
0.07459289906077718
  0
VERTEX
  8
0
  6
CONTINUOUS
 62
     7
 10
-547.8721423958713
 20
1205.399067041241
 42
0.07459289906077718
  0
VERTEX
  8
0
  6
CONTINUOUS
 62
     7
 10
-547.5298788625432
 20
1205.22975908412
 42
0.07459289906077718
  0
VERTEX
  8
0
  6
CONTINUOUS
 62
     7
 10
-547.1326190936849
 20
1205.139120309514
 42
0.07459289906077718
  0
VERTEX
  8
0
  6
CONTINUOUS
 62
     7
 10
-546.7153390796403
 20
1205.135130838126
 42
0.07459289906077718
  0
VERTEX
  8
0
  6
CONTINUOUS
 62
     7
 10
-546.3147774556458
 20
1205.218141915471
 42
0.07459289906077718
  0
VERTEX
  8
0
  6
CONTINUOUS
 62
     7
 10
-545.9662009176801
 20
1205.38084498713
 42
0.07459289906077718
  0
VERTEX
  8
0
  6
CONTINUOUS
 62
     7
 10
-545.7002992324451
 20
1205.608915166695
 42
0.07459289906077718
  0
VERTEX
  8
0
  6
CONTINUOUS
 62
     7
 10
-545.5404832144864
 20
1205.882272443493
 42
0.07459289906077718
  0
VERTEX
  8
0
  6
CONTINUOUS
 62
     7
 10
-545.5008235649904
 20
1206.176849589421
 42
0.07459289906077718
  0
VERTEX
  8
0
  6
CONTINUOUS
 62
     7
 10
-545.584812043321
 20
1206.466711112844
 42
0.07459289906077718
  0
VERTEX
  8
0
  6
CONTINUOUS
 62
     7
 10
-545.7850540416237
 20
1206.726336700257
 42
0.07459289906077718
  0
VERTEX
  8
0
  6
CONTINUOUS
 62
     7
 10
-546.0839196291878
 20
1206.932868104361
 42
0.07459289906077718
  0
VERTEX
  8
0
  6
CONTINUOUS
 62
     7
 10
-546.4550957465888
 20
1207.068121655523
 42
0.07459289906077718
  0
VERTEX
  8
0
  6
CONTINUOUS
 62
     7
 10
-546.8659028895933
 20
1207.12018920882
 42
-1
  0
SEQEND
  8
0
  0
POLYLINE
  8
0
  6
CONTINUOUS
 62
     7
 66
     1
 10
0
 20
0
  0
VERTEX
  8
0
  6
CONTINUOUS
 62
     7
 10
-549.3298775195329
 20
1206.214328643515
 42
0.07398282385211347
  0
VERTEX
  8
0
  6
CONTINUOUS
 62
     7
 10
-549.2541012648059
 20
1205.660524900653
 42
0.07398282385211347
  0
VERTEX
  8
0
  6
CONTINUOUS
 62
     7
 10
-548.9746338999847
 20
1205.147890956056
 42
0.07398282385211347
  0
VERTEX
  8
0
  6
CONTINUOUS
 62
     7
 10
-548.515684136215
 20
1204.720833451251
 42
0.07398282385211347
  0
VERTEX
  8
0
  6
CONTINUOUS
 62
     7
 10
-547.917008251545
 20
1204.416346014395
 42
0.07398282385211347
  0
VERTEX
  8
0
  6
CONTINUOUS
 62
     7
 10
-547.2304662245841
 20
1204.260804707005
 42
0.07398282385211347
  0
VERTEX
  8
0
  6
CONTINUOUS
 62
     7
 10
-546.5155293915667
 20
1204.26768321172
 42
0.07398282385211347
  0
VERTEX
  8
0
  6
CONTINUOUS
 62
     7
 10
-545.8341287736292
 20
1204.436385681743
 42
0.07398282385211347
  0
VERTEX
  8
0
  6
CONTINUOUS
 62
     7
 10
-545.2452903351965
 20
1204.752298355757
 42
0.07398282385211347
  0
VERTEX
  8
0
  6
CONTINUOUS
 62
     7
 10
-544.8000218913544
 20
1205.18805546718
 42
0.07398282385211347
  0
VERTEX
  8
0
  6
CONTINUOUS
 62
     7
 10
-544.5368945831229
 20
1205.70590978908
 42
0.07398282385211347
  0
VERTEX
  8
0
  6
CONTINUOUS
 62
     7
 10
-544.4787016729769
 20
1206.261002467537
 42
0.07398282385211347
  0
VERTEX
  8
0
  6
CONTINUOUS
 62
     7
 10
-544.6304840906623
 20
1206.805248895891
 42
0.07398282385211347
  0
VERTEX
  8
0
  6
CONTINUOUS
 62
     7
 10
-544.9790937653515
 20
1207.291504018102
 42
0.07398282385211347
  0
VERTEX
  8
0
  6
CONTINUOUS
 62
     7
 10
-545.4943325702531
 20
1207.677646244037
 42
0.07398282385211347
  0
VERTEX
  8
0
  6
CONTINUOUS
 62
     7
 10
-546.131568219208
 20
1207.930226209707
 42
0.07398282385211347
  0
VERTEX
  8
0
  6
CONTINUOUS
 62
     7
 10
-546.8356005146302
 20
1208.027364310553
 42
-1
  0
SEQEND
  8
0
  0
LINE
  8
0
  6
CONTINUOUS
 62
     7
 10
-570.4564162097037
 20
1206.656296952217
 11
-569.443821126461
 21
1206.477749108251
  0
LINE
  8
0
  6
CONTINUOUS
 62
     7
 10
-566.3416351219809
 20
1208.593183285699
 11
-565.3972704970871
 21
1208.426666313138
  0
POLYLINE
  8
0
  6
CONTINUOUS
 62
     7
 66
     1
 10
0
 20
0
  0
VERTEX
  8
0
  6
CONTINUOUS
 62
     7
 10
-566.3231807622615
 20
1208.804104582575
 42
0.07333214780387673
  0
VERTEX
  8
0
  6
CONTINUOUS
 62
     7
 10
-566.3748784321679
 20
1209.043984710971
 42
0.07333214780387673
  0
VERTEX
  8
0
  6
CONTINUOUS
 62
     7
 10
-566.5255707460846
 20
1209.263445360577
 42
0.07333214780387673
  0
VERTEX
  8
0
  6
CONTINUOUS
 62
     7
 10
-566.7624302200167
 20
1209.443805233741
 42
0.07333214780387673
  0
VERTEX
  8
0
  6
CONTINUOUS
 62
     7
 10
-567.0652945043931
 20
1209.569711434711
 42
0.07333214780387673
  0
VERTEX
  8
0
  6
CONTINUOUS
 62
     7
 10
-567.4083826774171
 20
1209.630446364586
 42
0.07333214780387673
  0
VERTEX
  8
0
  6
CONTINUOUS
 62
     7
 10
-567.76248981195
 20
1209.620840042757
 42
0.07333214780387673
  0
VERTEX
  8
0
  6
CONTINUOUS
 62
     7
 10
-568.0974730063227
 20
1209.54171019467
 42
0.07333214780387673
  0
VERTEX
  8
0
  6
CONTINUOUS
 62
     7
 10
-568.384817258989
 20
1209.399792644028
 42
0.07333214780387673
  0
VERTEX
  8
0
  6
CONTINUOUS
 62
     7
 10
-568.6000627703326
 20
1209.207167934701
 42
0.07333214780387673
  0
VERTEX
  8
0
  6
CONTINUOUS
 62
     7
 10
-568.7248870507722
 20
1208.980232990406
 42
0.07333214780387673
  0
VERTEX
  8
0
  6
CONTINUOUS
 62
     7
 10
-568.7486645984632
 20
1208.738305348252
 42
0.07333214780387673
  0
VERTEX
  8
0
  6
CONTINUOUS
 62
     7
 10
-568.6693713810942
 20
1208.501978778926
 42
0.07333214780387673
  0
VERTEX
  8
0
  6
CONTINUOUS
 62
     7
 10
-568.4937571289617
 20
1208.291370269202
 42
0.07333214780387673
  0
VERTEX
  8
0
  6
CONTINUOUS
 62
     7
 10
-568.2367707731024
 20
1208.124407590028
 42
0.07333214780387673
  0
VERTEX
  8
0
  6
CONTINUOUS
 62
     7
 10
-567.9202879373023
 20
1208.015303218731
 42
0.07333214780387673
  0
VERTEX
  8
0
  6
CONTINUOUS
 62
     7
 10
-567.5712488045431
 20
1207.973344520672
 42
-1
  0
SEQEND
  8
0
  0
POLYLINE
  8
0
  6
CONTINUOUS
 62
     7
 66
     1
 10
0
 20
0
  0
VERTEX
  8
0
  6
CONTINUOUS
 62
     7
 10
-565.364248102155
 20
1208.804104804081
 42
0.07332668712448476
  0
VERTEX
  8
0
  6
CONTINUOUS
 62
     7
 10
-565.4567460221753
 20
1209.305971799761
 42
0.07332668712448476
  0
VERTEX
  8
0
  6
CONTINUOUS
 62
     7
 10
-565.7263672884568
 20
1209.765124337955
 42
0.07332668712448476
  0
VERTEX
  8
0
  6
CONTINUOUS
 62
     7
 10
-566.150164128598
 20
1210.142483424302
 42
0.07332668712448476
  0
VERTEX
  8
0
  6
CONTINUOUS
 62
     7
 10
-566.6920667118832
 20
1210.405931598091
 42
0.07332668712448476
  0
VERTEX
  8
0
  6
CONTINUOUS
 62
     7
 10
-567.3059530935685
 20
1210.533046485836
 42
0.07332668712448476
  0
VERTEX
  8
0
  6
CONTINUOUS
 62
     7
 10
-567.939574706018
 20
1210.513009194975
 42
0.07332668712448476
  0
VERTEX
  8
0
  6
CONTINUOUS
 62
     7
 10
-568.5390032936758
 20
1210.347525122105
 42
0.07332668712448476
  0
VERTEX
  8
0
  6
CONTINUOUS
 62
     7
 10
-569.053220808187
 20
1210.050678804744
 42
0.07332668712448476
  0
VERTEX
  8
0
  6
CONTINUOUS
 62
     7
 10
-569.4384616124758
 20
1209.64773517033
 42
0.07332668712448476
  0
VERTEX
  8
0
  6
CONTINUOUS
 62
     7
 10
-569.6619374238574
 20
1209.172989209543
 42
0.07332668712448476
  0
VERTEX
  8
0
  6
CONTINUOUS
 62
     7
 10
-569.7046279620415
 20
1208.666847090659
 42
0.07332668712448476
  0
VERTEX
  8
0
  6
CONTINUOUS
 62
     7
 10
-569.5628997868049
 20
1208.172387144654
 42
0.07332668712448476
  0
VERTEX
  8
0
  6
CONTINUOUS
 62
     7
 10
-569.2488155442181
 20
1207.731693419495
 42
0.07332668712448476
  0
VERTEX
  8
0
  6
CONTINUOUS
 62
     7
 10
-568.7891073011291
 20
1207.382273858984
 42
0.07332668712448476
  0
VERTEX
  8
0
  6
CONTINUOUS
 62
     7
 10
-568.2229013485722
 20
1207.153867959037
 42
0.07332668712448476
  0
VERTEX
  8
0
  6
CONTINUOUS
 62
     7
 10
-567.598388118671
 20
1207.065915605385
 42
-1
  0
SEQEND
  8
0
  0
POLYLINE
  8
0
  6
CONTINUOUS
 62
     7
 66
     1
 10
0
 20
0
  0
VERTEX
  8
0
  6
CONTINUOUS
 62
     7
 10
-569.4893358878724
 20
1206.20367929363
 42
0.07459289906077718
  0
VERTEX
  8
0
  6
CONTINUOUS
 62
     7
 10
-569.4608910595729
 20
1205.908451024101
 42
0.07459289906077718
  0
VERTEX
  8
0
  6
CONTINUOUS
 62
     7
 10
-569.3115267201683
 20
1205.632137779732
 42
0.07459289906077718
  0
VERTEX
  8
0
  6
CONTINUOUS
 62
     7
 10
-569.0543933724338
 20
1205.399067041241
 42
0.07459289906077718
  0
VERTEX
  8
0
  6
CONTINUOUS
 62
     7
 10
-568.7121298391057
 20
1205.22975908412
 42
0.07459289906077718
  0
VERTEX
  8
0
  6
CONTINUOUS
 62
     7
 10
-568.3148700702474
 20
1205.139120309514
 42
0.07459289906077718
  0
VERTEX
  8
0
  6
CONTINUOUS
 62
     7
 10
-567.8975900562028
 20
1205.135130838126
 42
0.07459289906077718
  0
VERTEX
  8
0
  6
CONTINUOUS
 62
     7
 10
-567.4970284322083
 20
1205.218141915471
 42
0.07459289906077718
  0
VERTEX
  8
0
  6
CONTINUOUS
 62
     7
 10
-567.1484518942426
 20
1205.38084498713
 42
0.07459289906077718
  0
VERTEX
  8
0
  6
CONTINUOUS
 62
     7
 10
-566.8825502090076
 20
1205.608915166695
 42
0.07459289906077718
  0
VERTEX
  8
0
  6
CONTINUOUS
 62
     7
 10
-566.7227341910489
 20
1205.882272443493
 42
0.07459289906077718
  0
VERTEX
  8
0
  6
CONTINUOUS
 62
     7
 10
-566.6830745415529
 20
1206.176849589421
 42
0.07459289906077718
  0
VERTEX
  8
0
  6
CONTINUOUS
 62
     7
 10
-566.7670630198835
 20
1206.466711112844
 42
0.07459289906077718
  0
VERTEX
  8
0
  6
CONTINUOUS
 62
     7
 10
-566.9673050181862
 20
1206.726336700257
 42
0.07459289906077718
  0
VERTEX
  8
0
  6
CONTINUOUS
 62
     7
 10
-567.2661706057503
 20
1206.932868104361
 42
0.07459289906077718
  0
VERTEX
  8
0
  6
CONTINUOUS
 62
     7
 10
-567.6373467231513
 20
1207.068121655523
 42
0.07459289906077718
  0
VERTEX
  8
0
  6
CONTINUOUS
 62
     7
 10
-568.0481538661558
 20
1207.12018920882
 42
-1
  0
SEQEND
  8
0
  0
POLYLINE
  8
0
  6
CONTINUOUS
 62
     7
 66
     1
 10
0
 20
0
  0
VERTEX
  8
0
  6
CONTINUOUS
 62
     7
 10
-570.5121284960954
 20
1206.214328643515
 42
0.07398282385211347
  0
VERTEX
  8
0
  6
CONTINUOUS
 62
     7
 10
-570.4363522413684
 20
1205.660524900653
 42
0.07398282385211347
  0
VERTEX
  8
0
  6
CONTINUOUS
 62
     7
 10
-570.1568848765472
 20
1205.147890956056
 42
0.07398282385211347
  0
VERTEX
  8
0
  6
CONTINUOUS
 62
     7
 10
-569.6979351127775
 20
1204.720833451251
 42
0.07398282385211347
  0
VERTEX
  8
0
  6
CONTINUOUS
 62
     7
 10
-569.0992592281075
 20
1204.416346014395
 42
0.07398282385211347
  0
VERTEX
  8
0
  6
CONTINUOUS
 62
     7
 10
-568.4127172011466
 20
1204.260804707005
 42
0.07398282385211347
  0
VERTEX
  8
0
  6
CONTINUOUS
 62
     7
 10
-567.6977803681292
 20
1204.26768321172
 42
0.07398282385211347
  0
VERTEX
  8
0
  6
CONTINUOUS
 62
     7
 10
-567.0163797501917
 20
1204.436385681743
 42
0.07398282385211347
  0
VERTEX
  8
0
  6
CONTINUOUS
 62
     7
 10
-566.427541311759
 20
1204.752298355757
 42
0.07398282385211347
  0
VERTEX
  8
0
  6
CONTINUOUS
 62
     7
 10
-565.9822728679169
 20
1205.18805546718
 42
0.07398282385211347
  0
VERTEX
  8
0
  6
CONTINUOUS
 62
     7
 10
-565.7191455596854
 20
1205.70590978908
 42
0.07398282385211347
  0
VERTEX
  8
0
  6
CONTINUOUS
 62
     7
 10
-565.6609526495394
 20
1206.261002467537
 42
0.07398282385211347
  0
VERTEX
  8
0
  6
CONTINUOUS
 62
     7
 10
-565.8127350672248
 20
1206.805248895891
 42
0.07398282385211347
  0
VERTEX
  8
0
  6
CONTINUOUS
 62
     7
 10
-566.161344741914
 20
1207.291504018102
 42
0.07398282385211347
  0
VERTEX
  8
0
  6
CONTINUOUS
 62
     7
 10
-566.6765835468156
 20
1207.677646244037
 42
0.07398282385211347
  0
VERTEX
  8
0
  6
CONTINUOUS
 62
     7
 10
-567.3138191957705
 20
1207.930226209707
 42
0.07398282385211347
  0
VERTEX
  8
0
  6
CONTINUOUS
 62
     7
 10
-568.0178514911927
 20
1208.027364310553
 42
-1
  0
SEQEND
  8
0
  0
LINE
  8
0
  6
CONTINUOUS
 62
     7
 10
464.7846726574838
 20
1192.327073319404
 11
465.7972677407265
 21
1192.148525475439
  0
LINE
  8
0
  6
CONTINUOUS
 62
     7
 10
468.8994537452066
 20
1194.263959652887
 11
469.8438183701005
 21
1194.097442680326
  0
POLYLINE
  8
0
  6
CONTINUOUS
 62
     7
 66
     1
 10
0
 20
0
  0
VERTEX
  8
0
  6
CONTINUOUS
 62
     7
 10
468.917908104926
 20
1194.474880949763
 42
0.07333214780387673
  0
VERTEX
  8
0
  6
CONTINUOUS
 62
     7
 10
468.8662104350197
 20
1194.714761078158
 42
0.07333214780387673
  0
VERTEX
  8
0
  6
CONTINUOUS
 62
     7
 10
468.715518121103
 20
1194.934221727765
 42
0.07333214780387673
  0
VERTEX
  8
0
  6
CONTINUOUS
 62
     7
 10
468.4786586471708
 20
1195.114581600929
 42
0.07333214780387673
  0
VERTEX
  8
0
  6
CONTINUOUS
 62
     7
 10
468.1757943627944
 20
1195.240487801898
 42
0.07333214780387673
  0
VERTEX
  8
0
  6
CONTINUOUS
 62
     7
 10
467.8327061897704
 20
1195.301222731773
 42
0.07333214780387673
  0
VERTEX
  8
0
  6
CONTINUOUS
 62
     7
 10
467.4785990552375
 20
1195.291616409945
 42
0.07333214780387673
  0
VERTEX
  8
0
  6
CONTINUOUS
 62
     7
 10
467.1436158608647
 20
1195.212486561858
 42
0.07333214780387673
  0
VERTEX
  8
0
  6
CONTINUOUS
 62
     7
 10
466.8562716081985
 20
1195.070569011215
 42
0.07333214780387673
  0
VERTEX
  8
0
  6
CONTINUOUS
 62
     7
 10
466.6410260968549
 20
1194.877944301888
 42
0.07333214780387673
  0
VERTEX
  8
0
  6
CONTINUOUS
 62
     7
 10
466.5162018164153
 20
1194.651009357594
 42
0.07333214780387673
  0
VERTEX
  8
0
  6
CONTINUOUS
 62
     7
 10
466.4924242687243
 20
1194.409081715439
 42
0.07333214780387673
  0
VERTEX
  8
0
  6
CONTINUOUS
 62
     7
 10
466.5717174860933
 20
1194.172755146114
 42
0.07333214780387673
  0
VERTEX
  8
0
  6
CONTINUOUS
 62
     7
 10
466.7473317382258
 20
1193.96214663639
 42
0.07333214780387673
  0
VERTEX
  8
0
  6
CONTINUOUS
 62
     7
 10
467.0043180940851
 20
1193.795183957216
 42
0.07333214780387673
  0
VERTEX
  8
0
  6
CONTINUOUS
 62
     7
 10
467.3208009298853
 20
1193.686079585918
 42
0.07333214780387673
  0
VERTEX
  8
0
  6
CONTINUOUS
 62
     7
 10
467.6698400626444
 20
1193.64412088786
 42
-1
  0
SEQEND
  8
0
  0
POLYLINE
  8
0
  6
CONTINUOUS
 62
     7
 66
     1
 10
0
 20
0
  0
VERTEX
  8
0
  6
CONTINUOUS
 62
     7
 10
469.8768407650325
 20
1194.474881171269
 42
0.07332668712448476
  0
VERTEX
  8
0
  6
CONTINUOUS
 62
     7
 10
469.7843428450123
 20
1194.976748166949
 42
0.07332668712448476
  0
VERTEX
  8
0
  6
CONTINUOUS
 62
     7
 10
469.5147215787306
 20
1195.435900705142
 42
0.07332668712448476
  0
VERTEX
  8
0
  6
CONTINUOUS
 62
     7
 10
469.0909247385894
 20
1195.81325979149
 42
0.07332668712448476
  0
VERTEX
  8
0
  6
CONTINUOUS
 62
     7
 10
468.5490221553043
 20
1196.076707965278
 42
0.07332668712448476
  0
VERTEX
  8
0
  6
CONTINUOUS
 62
     7
 10
467.935135773619
 20
1196.203822853024
 42
0.07332668712448476
  0
VERTEX
  8
0
  6
CONTINUOUS
 62
     7
 10
467.3015141611695
 20
1196.183785562163
 42
0.07332668712448476
  0
VERTEX
  8
0
  6
CONTINUOUS
 62
     7
 10
466.7020855735117
 20
1196.018301489293
 42
0.07332668712448476
  0
VERTEX
  8
0
  6
CONTINUOUS
 62
     7
 10
466.1878680590006
 20
1195.721455171931
 42
0.07332668712448476
  0
VERTEX
  8
0
  6
CONTINUOUS
 62
     7
 10
465.8026272547117
 20
1195.318511537518
 42
0.07332668712448476
  0
VERTEX
  8
0
  6
CONTINUOUS
 62
     7
 10
465.5791514433302
 20
1194.84376557673
 42
0.07332668712448476
  0
VERTEX
  8
0
  6
CONTINUOUS
 62
     7
 10
465.536460905146
 20
1194.337623457846
 42
0.07332668712448476
  0
VERTEX
  8
0
  6
CONTINUOUS
 62
     7
 10
465.6781890803826
 20
1193.843163511842
 42
0.07332668712448476
  0
VERTEX
  8
0
  6
CONTINUOUS
 62
     7
 10
465.9922733229694
 20
1193.402469786683
 42
0.07332668712448476
  0
VERTEX
  8
0
  6
CONTINUOUS
 62
     7
 10
466.4519815660584
 20
1193.053050226172
 42
0.07332668712448476
  0
VERTEX
  8
0
  6
CONTINUOUS
 62
     7
 10
467.0181875186153
 20
1192.824644326225
 42
0.07332668712448476
  0
VERTEX
  8
0
  6
CONTINUOUS
 62
     7
 10
467.6427007485165
 20
1192.736691972573
 42
-1
  0
SEQEND
  8
0
  0
POLYLINE
  8
0
  6
CONTINUOUS
 62
     7
 66
     1
 10
0
 20
0
  0
VERTEX
  8
0
  6
CONTINUOUS
 62
     7
 10
465.7517529793151
 20
1191.874455660818
 42
0.07459289906077718
  0
VERTEX
  8
0
  6
CONTINUOUS
 62
     7
 10
465.7801978076146
 20
1191.579227391289
 42
0.07459289906077718
  0
VERTEX
  8
0
  6
CONTINUOUS
 62
     7
 10
465.9295621470192
 20
1191.30291414692
 42
0.07459289906077718
  0
VERTEX
  8
0
  6
CONTINUOUS
 62
     7
 10
466.1866954947537
 20
1191.069843408428
 42
0.07459289906077718
  0
VERTEX
  8
0
  6
CONTINUOUS
 62
     7
 10
466.5289590280818
 20
1190.900535451307
 42
0.07459289906077718
  0
VERTEX
  8
0
  6
CONTINUOUS
 62
     7
 10
466.9262187969401
 20
1190.809896676702
 42
0.07459289906077718
  0
VERTEX
  8
0
  6
CONTINUOUS
 62
     7
 10
467.3434988109847
 20
1190.805907205313
 42
0.07459289906077718
  0
VERTEX
  8
0
  6
CONTINUOUS
 62
     7
 10
467.7440604349793
 20
1190.888918282659
 42
0.07459289906077718
  0
VERTEX
  8
0
  6
CONTINUOUS
 62
     7
 10
468.0926369729448
 20
1191.051621354318
 42
0.07459289906077718
  0
VERTEX
  8
0
  6
CONTINUOUS
 62
     7
 10
468.35853865818
 20
1191.279691533882
 42
0.07459289906077718
  0
VERTEX
  8
0
  6
CONTINUOUS
 62
     7
 10
468.5183546761387
 20
1191.553048810681
 42
0.07459289906077718
  0
VERTEX
  8
0
  6
CONTINUOUS
 62
     7
 10
468.5580143256347
 20
1191.847625956608
 42
0.07459289906077718
  0
VERTEX
  8
0
  6
CONTINUOUS
 62
     7
 10
468.474025847304
 20
1192.137487480031
 42
0.07459289906077718
  0
VERTEX
  8
0
  6
CONTINUOUS
 62
     7
 10
468.2737838490013
 20
1192.397113067444
 42
0.07459289906077718
  0
VERTEX
  8
0
  6
CONTINUOUS
 62
     7
 10
467.9749182614373
 20
1192.603644471549
 42
0.07459289906077718
  0
VERTEX
  8
0
  6
CONTINUOUS
 62
     7
 10
467.6037421440362
 20
1192.73889802271
 42
0.07459289906077718
  0
VERTEX
  8
0
  6
CONTINUOUS
 62
     7
 10
467.1929350010317
 20
1192.790965576007
 42
-1
  0
SEQEND
  8
0
  0
POLYLINE
  8
0
  6
CONTINUOUS
 62
     7
 66
     1
 10
0
 20
0
  0
VERTEX
  8
0
  6
CONTINUOUS
 62
     7
 10
464.7289603710921
 20
1191.885105010702
 42
0.07398282385211347
  0
VERTEX
  8
0
  6
CONTINUOUS
 62
     7
 10
464.8047366258192
 20
1191.33130126784
 42
0.07398282385211347
  0
VERTEX
  8
0
  6
CONTINUOUS
 62
     7
 10
465.0842039906403
 20
1190.818667323243
 42
0.07398282385211347
  0
VERTEX
  8
0
  6
CONTINUOUS
 62
     7
 10
465.5431537544101
 20
1190.391609818438
 42
0.07398282385211347
  0
VERTEX
  8
0
  6
CONTINUOUS
 62
     7
 10
466.1418296390801
 20
1190.087122381583
 42
0.07398282385211347
  0
VERTEX
  8
0
  6
CONTINUOUS
 62
     7
 10
466.8283716660409
 20
1189.931581074192
 42
0.07398282385211347
  0
VERTEX
  8
0
  6
CONTINUOUS
 62
     7
 10
467.5433084990583
 20
1189.938459578907
 42
0.07398282385211347
  0
VERTEX
  8
0
  6
CONTINUOUS
 62
     7
 10
468.2247091169958
 20
1190.107162048931
 42
0.07398282385211347
  0
VERTEX
  8
0
  6
CONTINUOUS
 62
     7
 10
468.8135475554285
 20
1190.423074722944
 42
0.07398282385211347
  0
VERTEX
  8
0
  6
CONTINUOUS
 62
     7
 10
469.2588159992707
 20
1190.858831834367
 42
0.07398282385211347
  0
VERTEX
  8
0
  6
CONTINUOUS
 62
     7
 10
469.5219433075021
 20
1191.376686156268
 42
0.07398282385211347
  0
VERTEX
  8
0
  6
CONTINUOUS
 62
     7
 10
469.5801362176482
 20
1191.931778834725
 42
0.07398282385211347
  0
VERTEX
  8
0
  6
CONTINUOUS
 62
     7
 10
469.4283537999627
 20
1192.476025263079
 42
0.07398282385211347
  0
VERTEX
  8
0
  6
CONTINUOUS
 62
     7
 10
469.0797441252734
 20
1192.96228038529
 42
0.07398282385211347
  0
VERTEX
  8
0
  6
CONTINUOUS
 62
     7
 10
468.564505320372
 20
1193.348422611224
 42
0.07398282385211347
  0
VERTEX
  8
0
  6
CONTINUOUS
 62
     7
 10
467.927269671417
 20
1193.601002576895
 42
0.07398282385211347
  0
VERTEX
  8
0
  6
CONTINUOUS
 62
     7
 10
467.2232373759948
 20
1193.69814067774
 42
-1
  0
SEQEND
  8
0
  0
LINE
  8
0
  6
CONTINUOUS
 62
     7
 10
485.9668625988901
 20
1192.327073319404
 11
486.9794576821328
 21
1192.148525475439
  0
LINE
  8
0
  6
CONTINUOUS
 62
     7
 10
490.0816436866129
 20
1194.263959652887
 11
491.0260083115067
 21
1194.097442680326
  0
POLYLINE
  8
0
  6
CONTINUOUS
 62
     7
 66
     1
 10
0
 20
0
  0
VERTEX
  8
0
  6
CONTINUOUS
 62
     7
 10
490.1000980463323
 20
1194.474880949763
 42
0.07333214780387673
  0
VERTEX
  8
0
  6
CONTINUOUS
 62
     7
 10
490.048400376426
 20
1194.714761078158
 42
0.07333214780387673
  0
VERTEX
  8
0
  6
CONTINUOUS
 62
     7
 10
489.8977080625093
 20
1194.934221727765
 42
0.07333214780387673
  0
VERTEX
  8
0
  6
CONTINUOUS
 62
     7
 10
489.660848588577
 20
1195.114581600929
 42
0.07333214780387673
  0
VERTEX
  8
0
  6
CONTINUOUS
 62
     7
 10
489.3579843042006
 20
1195.240487801898
 42
0.07333214780387673
  0
VERTEX
  8
0
  6
CONTINUOUS
 62
     7
 10
489.0148961311766
 20
1195.301222731773
 42
0.07333214780387673
  0
VERTEX
  8
0
  6
CONTINUOUS
 62
     7
 10
488.6607889966437
 20
1195.291616409945
 42
0.07333214780387673
  0
VERTEX
  8
0
  6
CONTINUOUS
 62
     7
 10
488.325805802271
 20
1195.212486561858
 42
0.07333214780387673
  0
VERTEX
  8
0
  6
CONTINUOUS
 62
     7
 10
488.0384615496048
 20
1195.070569011215
 42
0.07333214780387673
  0
VERTEX
  8
0
  6
CONTINUOUS
 62
     7
 10
487.8232160382612
 20
1194.877944301888
 42
0.07333214780387673
  0
VERTEX
  8
0
  6
CONTINUOUS
 62
     7
 10
487.6983917578215
 20
1194.651009357594
 42
0.07333214780387673
  0
VERTEX
  8
0
  6
CONTINUOUS
 62
     7
 10
487.6746142101305
 20
1194.409081715439
 42
0.07333214780387673
  0
VERTEX
  8
0
  6
CONTINUOUS
 62
     7
 10
487.7539074274995
 20
1194.172755146114
 42
0.07333214780387673
  0
VERTEX
  8
0
  6
CONTINUOUS
 62
     7
 10
487.9295216796321
 20
1193.96214663639
 42
0.07333214780387673
  0
VERTEX
  8
0
  6
CONTINUOUS
 62
     7
 10
488.1865080354913
 20
1193.795183957216
 42
0.07333214780387673
  0
VERTEX
  8
0
  6
CONTINUOUS
 62
     7
 10
488.5029908712915
 20
1193.686079585918
 42
0.07333214780387673
  0
VERTEX
  8
0
  6
CONTINUOUS
 62
     7
 10
488.8520300040507
 20
1193.64412088786
 42
-1
  0
SEQEND
  8
0
  0
POLYLINE
  8
0
  6
CONTINUOUS
 62
     7
 66
     1
 10
0
 20
0
  0
VERTEX
  8
0
  6
CONTINUOUS
 62
     7
 10
491.0590307064388
 20
1194.474881171269
 42
0.07332668712448476
  0
VERTEX
  8
0
  6
CONTINUOUS
 62
     7
 10
490.9665327864185
 20
1194.976748166949
 42
0.07332668712448476
  0
VERTEX
  8
0
  6
CONTINUOUS
 62
     7
 10
490.6969115201369
 20
1195.435900705142
 42
0.07332668712448476
  0
VERTEX
  8
0
  6
CONTINUOUS
 62
     7
 10
490.2731146799957
 20
1195.81325979149
 42
0.07332668712448476
  0
VERTEX
  8
0
  6
CONTINUOUS
 62
     7
 10
489.7312120967106
 20
1196.076707965278
 42
0.07332668712448476
  0
VERTEX
  8
0
  6
CONTINUOUS
 62
     7
 10
489.1173257150253
 20
1196.203822853024
 42
0.07332668712448476
  0
VERTEX
  8
0
  6
CONTINUOUS
 62
     7
 10
488.4837041025758
 20
1196.183785562163
 42
0.07332668712448476
  0
VERTEX
  8
0
  6
CONTINUOUS
 62
     7
 10
487.884275514918
 20
1196.018301489293
 42
0.07332668712448476
  0
VERTEX
  8
0
  6
CONTINUOUS
 62
     7
 10
487.3700580004068
 20
1195.721455171931
 42
0.07332668712448476
  0
VERTEX
  8
0
  6
CONTINUOUS
 62
     7
 10
486.9848171961179
 20
1195.318511537518
 42
0.07332668712448476
  0
VERTEX
  8
0
  6
CONTINUOUS
 62
     7
 10
486.7613413847364
 20
1194.84376557673
 42
0.07332668712448476
  0
VERTEX
  8
0
  6
CONTINUOUS
 62
     7
 10
486.7186508465522
 20
1194.337623457846
 42
0.07332668712448476
  0
VERTEX
  8
0
  6
CONTINUOUS
 62
     7
 10
486.8603790217888
 20
1193.843163511842
 42
0.07332668712448476
  0
VERTEX
  8
0
  6
CONTINUOUS
 62
     7
 10
487.1744632643756
 20
1193.402469786683
 42
0.07332668712448476
  0
VERTEX
  8
0
  6
CONTINUOUS
 62
     7
 10
487.6341715074647
 20
1193.053050226172
 42
0.07332668712448476
  0
VERTEX
  8
0
  6
CONTINUOUS
 62
     7
 10
488.2003774600216
 20
1192.824644326225
 42
0.07332668712448476
  0
VERTEX
  8
0
  6
CONTINUOUS
 62
     7
 10
488.8248906899228
 20
1192.736691972573
 42
-1
  0
SEQEND
  8
0
  0
POLYLINE
  8
0
  6
CONTINUOUS
 62
     7
 66
     1
 10
0
 20
0
  0
VERTEX
  8
0
  6
CONTINUOUS
 62
     7
 10
486.9339429207213
 20
1191.874455660818
 42
0.07459289906077718
  0
VERTEX
  8
0
  6
CONTINUOUS
 62
     7
 10
486.9623877490209
 20
1191.579227391289
 42
0.07459289906077718
  0
VERTEX
  8
0
  6
CONTINUOUS
 62
     7
 10
487.1117520884255
 20
1191.30291414692
 42
0.07459289906077718
  0
VERTEX
  8
0
  6
CONTINUOUS
 62
     7
 10
487.36888543616
 20
1191.069843408428
 42
0.07459289906077718
  0
VERTEX
  8
0
  6
CONTINUOUS
 62
     7
 10
487.711148969488
 20
1190.900535451307
 42
0.07459289906077718
  0
VERTEX
  8
0
  6
CONTINUOUS
 62
     7
 10
488.1084087383464
 20
1190.809896676702
 42
0.07459289906077718
  0
VERTEX
  8
0
  6
CONTINUOUS
 62
     7
 10
488.5256887523909
 20
1190.805907205313
 42
0.07459289906077718
  0
VERTEX
  8
0
  6
CONTINUOUS
 62
     7
 10
488.9262503763856
 20
1190.888918282659
 42
0.07459289906077718
  0
VERTEX
  8
0
  6
CONTINUOUS
 62
     7
 10
489.2748269143511
 20
1191.051621354318
 42
0.07459289906077718
  0
VERTEX
  8
0
  6
CONTINUOUS
 62
     7
 10
489.5407285995862
 20
1191.279691533882
 42
0.07459289906077718
  0
VERTEX
  8
0
  6
CONTINUOUS
 62
     7
 10
489.700544617545
 20
1191.553048810681
 42
0.07459289906077718
  0
VERTEX
  8
0
  6
CONTINUOUS
 62
     7
 10
489.740204267041
 20
1191.847625956608
 42
0.07459289906077718
  0
VERTEX
  8
0
  6
CONTINUOUS
 62
     7
 10
489.6562157887103
 20
1192.137487480031
 42
0.07459289906077718
  0
VERTEX
  8
0
  6
CONTINUOUS
 62
     7
 10
489.4559737904075
 20
1192.397113067444
 42
0.07459289906077718
  0
VERTEX
  8
0
  6
CONTINUOUS
 62
     7
 10
489.1571082028435
 20
1192.603644471549
 42
0.07459289906077718
  0
VERTEX
  8
0
  6
CONTINUOUS
 62
     7
 10
488.7859320854425
 20
1192.73889802271
 42
0.07459289906077718
  0
VERTEX
  8
0
  6
CONTINUOUS
 62
     7
 10
488.3751249424379
 20
1192.790965576007
 42
-1
  0
SEQEND
  8
0
  0
POLYLINE
  8
0
  6
CONTINUOUS
 62
     7
 66
     1
 10
0
 20
0
  0
VERTEX
  8
0
  6
CONTINUOUS
 62
     7
 10
485.9111503124984
 20
1191.885105010702
 42
0.07398282385211347
  0
VERTEX
  8
0
  6
CONTINUOUS
 62
     7
 10
485.9869265672255
 20
1191.33130126784
 42
0.07398282385211347
  0
VERTEX
  8
0
  6
CONTINUOUS
 62
     7
 10
486.2663939320465
 20
1190.818667323243
 42
0.07398282385211347
  0
VERTEX
  8
0
  6
CONTINUOUS
 62
     7
 10
486.7253436958163
 20
1190.391609818438
 42
0.07398282385211347
  0
VERTEX
  8
0
  6
CONTINUOUS
 62
     7
 10
487.3240195804863
 20
1190.087122381583
 42
0.07398282385211347
  0
VERTEX
  8
0
  6
CONTINUOUS
 62
     7
 10
488.0105616074472
 20
1189.931581074192
 42
0.07398282385211347
  0
VERTEX
  8
0
  6
CONTINUOUS
 62
     7
 10
488.7254984404646
 20
1189.938459578907
 42
0.07398282385211347
  0
VERTEX
  8
0
  6
CONTINUOUS
 62
     7
 10
489.406899058402
 20
1190.107162048931
 42
0.07398282385211347
  0
VERTEX
  8
0
  6
CONTINUOUS
 62
     7
 10
489.9957374968348
 20
1190.423074722944
 42
0.07398282385211347
  0
VERTEX
  8
0
  6
CONTINUOUS
 62
     7
 10
490.4410059406769
 20
1190.858831834367
 42
0.07398282385211347
  0
VERTEX
  8
0
  6
CONTINUOUS
 62
     7
 10
490.7041332489083
 20
1191.376686156268
 42
0.07398282385211347
  0
VERTEX
  8
0
  6
CONTINUOUS
 62
     7
 10
490.7623261590544
 20
1191.931778834725
 42
0.07398282385211347
  0
VERTEX
  8
0
  6
CONTINUOUS
 62
     7
 10
490.610543741369
 20
1192.476025263079
 42
0.07398282385211347
  0
VERTEX
  8
0
  6
CONTINUOUS
 62
     7
 10
490.2619340666797
 20
1192.96228038529
 42
0.07398282385211347
  0
VERTEX
  8
0
  6
CONTINUOUS
 62
     7
 10
489.7466952617782
 20
1193.348422611224
 42
0.07398282385211347
  0
VERTEX
  8
0
  6
CONTINUOUS
 62
     7
 10
489.1094596128232
 20
1193.601002576895
 42
0.07398282385211347
  0
VERTEX
  8
0
  6
CONTINUOUS
 62
     7
 10
488.4054273174011
 20
1193.69814067774
 42
-1
  0
SEQEND
  8
0
  0
LINE
  8
0
  6
CONTINUOUS
 62
     7
 10
-556.7633620104849
 20
759.9754497842478
 11
-555.7507669272422
 21
759.7969019402824
  0
LINE
  8
0
  6
CONTINUOUS
 62
     7
 10
-552.6485809227621
 20
761.9123361177306
 11
-551.7042162978684
 21
761.7458191451694
  0
POLYLINE
  8
0
  6
CONTINUOUS
 62
     7
 66
     1
 10
0
 20
0
  0
VERTEX
  8
0
  6
CONTINUOUS
 62
     7
 10
-552.6301265630427
 20
762.1232574146063
 42
0.07333214780387673
  0
VERTEX
  8
0
  6
CONTINUOUS
 62
     7
 10
-552.6818242329491
 20
762.3631375430017
 42
0.07333214780387673
  0
VERTEX
  8
0
  6
CONTINUOUS
 62
     7
 10
-552.8325165468658
 20
762.5825981926083
 42
0.07333214780387673
  0
VERTEX
  8
0
  6
CONTINUOUS
 62
     7
 10
-553.0693760207979
 20
762.7629580657728
 42
0.07333214780387673
  0
VERTEX
  8
0
  6
CONTINUOUS
 62
     7
 10
-553.3722403051744
 20
762.8888642667421
 42
0.07333214780387673
  0
VERTEX
  8
0
  6
CONTINUOUS
 62
     7
 10
-553.7153284781983
 20
762.9495991966171
 42
0.07333214780387673
  0
VERTEX
  8
0
  6
CONTINUOUS
 62
     7
 10
-554.0694356127312
 20
762.9399928747884
 42
0.07333214780387673
  0
VERTEX
  8
0
  6
CONTINUOUS
 62
     7
 10
-554.404418807104
 20
762.8608630267014
 42
0.07333214780387673
  0
VERTEX
  8
0
  6
CONTINUOUS
 62
     7
 10
-554.6917630597702
 20
762.7189454760586
 42
0.07333214780387673
  0
VERTEX
  8
0
  6
CONTINUOUS
 62
     7
 10
-554.9070085711138
 20
762.5263207667321
 42
0.07333214780387673
  0
VERTEX
  8
0
  6
CONTINUOUS
 62
     7
 10
-555.0318328515534
 20
762.2993858224378
 42
0.07333214780387673
  0
VERTEX
  8
0
  6
CONTINUOUS
 62
     7
 10
-555.0556103992444
 20
762.0574581802828
 42
0.07333214780387673
  0
VERTEX
  8
0
  6
CONTINUOUS
 62
     7
 10
-554.9763171818754
 20
761.8211316109577
 42
0.07333214780387673
  0
VERTEX
  8
0
  6
CONTINUOUS
 62
     7
 10
-554.8007029297429
 20
761.6105231012336
 42
0.07333214780387673
  0
VERTEX
  8
0
  6
CONTINUOUS
 62
     7
 10
-554.5437165738837
 20
761.4435604220596
 42
0.07333214780387673
  0
VERTEX
  8
0
  6
CONTINUOUS
 62
     7
 10
-554.2272337380836
 20
761.3344560507622
 42
0.07333214780387673
  0
VERTEX
  8
0
  6
CONTINUOUS
 62
     7
 10
-553.8781946053243
 20
761.2924973527034
 42
-1
  0
SEQEND
  8
0
  0
POLYLINE
  8
0
  6
CONTINUOUS
 62
     7
 66
     1
 10
0
 20
0
  0
VERTEX
  8
0
  6
CONTINUOUS
 62
     7
 10
-551.6711939029362
 20
762.1232576361126
 42
0.07332668712448476
  0
VERTEX
  8
0
  6
CONTINUOUS
 62
     7
 10
-551.7636918229565
 20
762.6251246317925
 42
0.07332668712448476
  0
VERTEX
  8
0
  6
CONTINUOUS
 62
     7
 10
-552.0333130892382
 20
763.0842771699857
 42
0.07332668712448476
  0
VERTEX
  8
0
  6
CONTINUOUS
 62
     7
 10
-552.4571099293793
 20
763.4616362563332
 42
0.07332668712448476
  0
VERTEX
  8
0
  6
CONTINUOUS
 62
     7
 10
-552.9990125126644
 20
763.7250844301217
 42
0.07332668712448476
  0
VERTEX
  8
0
  6
CONTINUOUS
 62
     7
 10
-553.6128988943498
 20
763.8521993178674
 42
0.07332668712448476
  0
VERTEX
  8
0
  6
CONTINUOUS
 62
     7
 10
-554.2465205067992
 20
763.8321620270064
 42
0.07332668712448476
  0
VERTEX
  8
0
  6
CONTINUOUS
 62
     7
 10
-554.8459490944571
 20
763.6666779541364
 42
0.07332668712448476
  0
VERTEX
  8
0
  6
CONTINUOUS
 62
     7
 10
-555.3601666089683
 20
763.3698316367746
 42
0.07332668712448476
  0
VERTEX
  8
0
  6
CONTINUOUS
 62
     7
 10
-555.745407413257
 20
762.9668880023617
 42
0.07332668712448476
  0
VERTEX
  8
0
  6
CONTINUOUS
 62
     7
 10
-555.9688832246386
 20
762.492142041574
 42
0.07332668712448476
  0
VERTEX
  8
0
  6
CONTINUOUS
 62
     7
 10
-556.0115737628228
 20
761.9859999226899
 42
0.07332668712448476
  0
VERTEX
  8
0
  6
CONTINUOUS
 62
     7
 10
-555.8698455875862
 20
761.4915399766855
 42
0.07332668712448476
  0
VERTEX
  8
0
  6
CONTINUOUS
 62
     7
 10
-555.5557613449994
 20
761.0508462515263
 42
0.07332668712448476
  0
VERTEX
  8
0
  6
CONTINUOUS
 62
     7
 10
-555.0960531019103
 20
760.7014266910154
 42
0.07332668712448476
  0
VERTEX
  8
0
  6
CONTINUOUS
 62
     7
 10
-554.5298471493535
 20
760.4730207910683
 42
0.07332668712448476
  0
VERTEX
  8
0
  6
CONTINUOUS
 62
     7
 10
-553.9053339194522
 20
760.3850684374163
 42
-1
  0
SEQEND
  8
0
  0
POLYLINE
  8
0
  6
CONTINUOUS
 62
     7
 66
     1
 10
0
 20
0
  0
VERTEX
  8
0
  6
CONTINUOUS
 62
     7
 10
-555.7962816886536
 20
759.5228321256616
 42
0.07459289906077718
  0
VERTEX
  8
0
  6
CONTINUOUS
 62
     7
 10
-555.7678368603541
 20
759.2276038561327
 42
0.07459289906077718
  0
VERTEX
  8
0
  6
CONTINUOUS
 62
     7
 10
-555.6184725209496
 20
758.9512906117634
 42
0.07459289906077718
  0
VERTEX
  8
0
  6
CONTINUOUS
 62
     7
 10
-555.361339173215
 20
758.7182198732721
 42
0.07459289906077718
  0
VERTEX
  8
0
  6
CONTINUOUS
 62
     7
 10
-555.019075639887
 20
758.548911916151
 42
0.07459289906077718
  0
VERTEX
  8
0
  6
CONTINUOUS
 62
     7
 10
-554.6218158710286
 20
758.4582731415454
 42
0.07459289906077718
  0
VERTEX
  8
0
  6
CONTINUOUS
 62
     7
 10
-554.2045358569841
 20
758.4542836701571
 42
0.07459289906077718
  0
VERTEX
  8
0
  6
CONTINUOUS
 62
     7
 10
-553.8039742329895
 20
758.5372947475025
 42
0.07459289906077718
  0
VERTEX
  8
0
  6
CONTINUOUS
 62
     7
 10
-553.4553976950239
 20
758.6999978191615
 42
0.07459289906077718
  0
VERTEX
  8
0
  6
CONTINUOUS
 62
     7
 10
-553.1894960097889
 20
758.9280679987261
 42
0.07459289906077718
  0
VERTEX
  8
0
  6
CONTINUOUS
 62
     7
 10
-553.0296799918301
 20
759.2014252755243
 42
0.07459289906077718
  0
VERTEX
  8
0
  6
CONTINUOUS
 62
     7
 10
-552.9900203423341
 20
759.4960024214518
 42
0.07459289906077718
  0
VERTEX
  8
0
  6
CONTINUOUS
 62
     7
 10
-553.0740088206647
 20
759.7858639448749
 42
0.07459289906077718
  0
VERTEX
  8
0
  6
CONTINUOUS
 62
     7
 10
-553.2742508189674
 20
760.045489532288
 42
0.07459289906077718
  0
VERTEX
  8
0
  6
CONTINUOUS
 62
     7
 10
-553.5731164065314
 20
760.2520209363925
 42
0.07459289906077718
  0
VERTEX
  8
0
  6
CONTINUOUS
 62
     7
 10
-553.9442925239325
 20
760.3872744875542
 42
0.07459289906077718
  0
VERTEX
  8
0
  6
CONTINUOUS
 62
     7
 10
-554.355099666937
 20
760.4393420408508
 42
-1
  0
SEQEND
  8
0
  0
POLYLINE
  8
0
  6
CONTINUOUS
 62
     7
 66
     1
 10
0
 20
0
  0
VERTEX
  8
0
  6
CONTINUOUS
 62
     7
 10
-556.8190742968767
 20
759.5334814755462
 42
0.07398282385211347
  0
VERTEX
  8
0
  6
CONTINUOUS
 62
     7
 10
-556.7432980421496
 20
758.9796777326839
 42
0.07398282385211347
  0
VERTEX
  8
0
  6
CONTINUOUS
 62
     7
 10
-556.4638306773285
 20
758.467043788087
 42
0.07398282385211347
  0
VERTEX
  8
0
  6
CONTINUOUS
 62
     7
 10
-556.0048809135587
 20
758.0399862832823
 42
0.07398282385211347
  0
VERTEX
  8
0
  6
CONTINUOUS
 62
     7
 10
-555.4062050288887
 20
757.7354988464266
 42
0.07398282385211347
  0
VERTEX
  8
0
  6
CONTINUOUS
 62
     7
 10
-554.7196630019279
 20
757.5799575390362
 42
0.07398282385211347
  0
VERTEX
  8
0
  6
CONTINUOUS
 62
     7
 10
-554.0047261689105
 20
757.5868360437507
 42
0.07398282385211347
  0
VERTEX
  8
0
  6
CONTINUOUS
 62
     7
 10
-553.323325550973
 20
757.7555385137747
 42
0.07398282385211347
  0
VERTEX
  8
0
  6
CONTINUOUS
 62
     7
 10
-552.7344871125403
 20
758.0714511877879
 42
0.07398282385211347
  0
VERTEX
  8
0
  6
CONTINUOUS
 62
     7
 10
-552.2892186686981
 20
758.5072082992108
 42
0.07398282385211347
  0
VERTEX
  8
0
  6
CONTINUOUS
 62
     7
 10
-552.0260913604667
 20
759.0250626211114
 42
0.07398282385211347
  0
VERTEX
  8
0
  6
CONTINUOUS
 62
     7
 10
-551.9678984503206
 20
759.5801552995686
 42
0.07398282385211347
  0
VERTEX
  8
0
  6
CONTINUOUS
 62
     7
 10
-552.1196808680061
 20
760.1244017279225
 42
0.07398282385211347
  0
VERTEX
  8
0
  6
CONTINUOUS
 62
     7
 10
-552.4682905426953
 20
760.6106568501334
 42
0.07398282385211347
  0
VERTEX
  8
0
  6
CONTINUOUS
 62
     7
 10
-552.9835293475968
 20
760.996799076068
 42
0.07398282385211347
  0
VERTEX
  8
0
  6
CONTINUOUS
 62
     7
 10
-553.6207649965518
 20
761.2493790417384
 42
0.07398282385211347
  0
VERTEX
  8
0
  6
CONTINUOUS
 62
     7
 10
-554.3247972919739
 20
761.3465171425837
 42
-1
  0
SEQEND
  8
0
  0
LINE
  8
0
  6
CONTINUOUS
 62
     7
 10
-577.9455519518912
 20
759.9754497842478
 11
-576.9329568686485
 21
759.7969019402824
  0
LINE
  8
0
  6
CONTINUOUS
 62
     7
 10
-573.8307708641684
 20
761.9123361177306
 11
-572.8864062392746
 21
761.7458191451694
  0
POLYLINE
  8
0
  6
CONTINUOUS
 62
     7
 66
     1
 10
0
 20
0
  0
VERTEX
  8
0
  6
CONTINUOUS
 62
     7
 10
-573.812316504449
 20
762.1232574146063
 42
0.07333214780387673
  0
VERTEX
  8
0
  6
CONTINUOUS
 62
     7
 10
-573.8640141743554
 20
762.3631375430017
 42
0.07333214780387673
  0
VERTEX
  8
0
  6
CONTINUOUS
 62
     7
 10
-574.0147064882721
 20
762.5825981926083
 42
0.07333214780387673
  0
VERTEX
  8
0
  6
CONTINUOUS
 62
     7
 10
-574.2515659622042
 20
762.7629580657728
 42
0.07333214780387673
  0
VERTEX
  8
0
  6
CONTINUOUS
 62
     7
 10
-574.5544302465806
 20
762.8888642667421
 42
0.07333214780387673
  0
VERTEX
  8
0
  6
CONTINUOUS
 62
     7
 10
-574.8975184196046
 20
762.9495991966171
 42
0.07333214780387673
  0
VERTEX
  8
0
  6
CONTINUOUS
 62
     7
 10
-575.2516255541375
 20
762.9399928747884
 42
0.07333214780387673
  0
VERTEX
  8
0
  6
CONTINUOUS
 62
     7
 10
-575.5866087485102
 20
762.8608630267014
 42
0.07333214780387673
  0
VERTEX
  8
0
  6
CONTINUOUS
 62
     7
 10
-575.8739530011765
 20
762.7189454760586
 42
0.07333214780387673
  0
VERTEX
  8
0
  6
CONTINUOUS
 62
     7
 10
-576.0891985125201
 20
762.5263207667321
 42
0.07333214780387673
  0
VERTEX
  8
0
  6
CONTINUOUS
 62
     7
 10
-576.2140227929597
 20
762.2993858224378
 42
0.07333214780387673
  0
VERTEX
  8
0
  6
CONTINUOUS
 62
     7
 10
-576.2378003406507
 20
762.0574581802828
 42
0.07333214780387673
  0
VERTEX
  8
0
  6
CONTINUOUS
 62
     7
 10
-576.1585071232817
 20
761.8211316109577
 42
0.07333214780387673
  0
VERTEX
  8
0
  6
CONTINUOUS
 62
     7
 10
-575.9828928711492
 20
761.6105231012336
 42
0.07333214780387673
  0
VERTEX
  8
0
  6
CONTINUOUS
 62
     7
 10
-575.7259065152899
 20
761.4435604220596
 42
0.07333214780387673
  0
VERTEX
  8
0
  6
CONTINUOUS
 62
     7
 10
-575.4094236794898
 20
761.3344560507622
 42
0.07333214780387673
  0
VERTEX
  8
0
  6
CONTINUOUS
 62
     7
 10
-575.0603845467306
 20
761.2924973527034
 42
-1
  0
SEQEND
  8
0
  0
POLYLINE
  8
0
  6
CONTINUOUS
 62
     7
 66
     1
 10
0
 20
0
  0
VERTEX
  8
0
  6
CONTINUOUS
 62
     7
 10
-572.8533838443425
 20
762.1232576361126
 42
0.07332668712448476
  0
VERTEX
  8
0
  6
CONTINUOUS
 62
     7
 10
-572.9458817643628
 20
762.6251246317925
 42
0.07332668712448476
  0
VERTEX
  8
0
  6
CONTINUOUS
 62
     7
 10
-573.2155030306444
 20
763.0842771699857
 42
0.07332668712448476
  0
VERTEX
  8
0
  6
CONTINUOUS
 62
     7
 10
-573.6392998707855
 20
763.4616362563332
 42
0.07332668712448476
  0
VERTEX
  8
0
  6
CONTINUOUS
 62
     7
 10
-574.1812024540707
 20
763.7250844301217
 42
0.07332668712448476
  0
VERTEX
  8
0
  6
CONTINUOUS
 62
     7
 10
-574.795088835756
 20
763.8521993178674
 42
0.07332668712448476
  0
VERTEX
  8
0
  6
CONTINUOUS
 62
     7
 10
-575.4287104482055
 20
763.8321620270064
 42
0.07332668712448476
  0
VERTEX
  8
0
  6
CONTINUOUS
 62
     7
 10
-576.0281390358633
 20
763.6666779541364
 42
0.07332668712448476
  0
VERTEX
  8
0
  6
CONTINUOUS
 62
     7
 10
-576.5423565503745
 20
763.3698316367746
 42
0.07332668712448476
  0
VERTEX
  8
0
  6
CONTINUOUS
 62
     7
 10
-576.9275973546633
 20
762.9668880023617
 42
0.07332668712448476
  0
VERTEX
  8
0
  6
CONTINUOUS
 62
     7
 10
-577.1510731660449
 20
762.492142041574
 42
0.07332668712448476
  0
VERTEX
  8
0
  6
CONTINUOUS
 62
     7
 10
-577.193763704229
 20
761.9859999226899
 42
0.07332668712448476
  0
VERTEX
  8
0
  6
CONTINUOUS
 62
     7
 10
-577.0520355289924
 20
761.4915399766855
 42
0.07332668712448476
  0
VERTEX
  8
0
  6
CONTINUOUS
 62
     7
 10
-576.7379512864056
 20
761.0508462515263
 42
0.07332668712448476
  0
VERTEX
  8
0
  6
CONTINUOUS
 62
     7
 10
-576.2782430433166
 20
760.7014266910154
 42
0.07332668712448476
  0
VERTEX
  8
0
  6
CONTINUOUS
 62
     7
 10
-575.7120370907597
 20
760.4730207910683
 42
0.07332668712448476
  0
VERTEX
  8
0
  6
CONTINUOUS
 62
     7
 10
-575.0875238608585
 20
760.3850684374163
 42
-1
  0
SEQEND
  8
0
  0
POLYLINE
  8
0
  6
CONTINUOUS
 62
     7
 66
     1
 10
0
 20
0
  0
VERTEX
  8
0
  6
CONTINUOUS
 62
     7
 10
-576.9784716300599
 20
759.5228321256616
 42
0.07459289906077718
  0
VERTEX
  8
0
  6
CONTINUOUS
 62
     7
 10
-576.9500268017604
 20
759.2276038561327
 42
0.07459289906077718
  0
VERTEX
  8
0
  6
CONTINUOUS
 62
     7
 10
-576.8006624623558
 20
758.9512906117634
 42
0.07459289906077718
  0
VERTEX
  8
0
  6
CONTINUOUS
 62
     7
 10
-576.5435291146213
 20
758.7182198732721
 42
0.07459289906077718
  0
VERTEX
  8
0
  6
CONTINUOUS
 62
     7
 10
-576.2012655812932
 20
758.548911916151
 42
0.07459289906077718
  0
VERTEX
  8
0
  6
CONTINUOUS
 62
     7
 10
-575.8040058124349
 20
758.4582731415454
 42
0.07459289906077718
  0
VERTEX
  8
0
  6
CONTINUOUS
 62
     7
 10
-575.3867257983903
 20
758.4542836701571
 42
0.07459289906077718
  0
VERTEX
  8
0
  6
CONTINUOUS
 62
     7
 10
-574.9861641743958
 20
758.5372947475025
 42
0.07459289906077718
  0
VERTEX
  8
0
  6
CONTINUOUS
 62
     7
 10
-574.6375876364301
 20
758.6999978191615
 42
0.07459289906077718
  0
VERTEX
  8
0
  6
CONTINUOUS
 62
     7
 10
-574.3716859511951
 20
758.9280679987261
 42
0.07459289906077718
  0
VERTEX
  8
0
  6
CONTINUOUS
 62
     7
 10
-574.2118699332364
 20
759.2014252755243
 42
0.07459289906077718
  0
VERTEX
  8
0
  6
CONTINUOUS
 62
     7
 10
-574.1722102837404
 20
759.4960024214518
 42
0.07459289906077718
  0
VERTEX
  8
0
  6
CONTINUOUS
 62
     7
 10
-574.256198762071
 20
759.7858639448749
 42
0.07459289906077718
  0
VERTEX
  8
0
  6
CONTINUOUS
 62
     7
 10
-574.4564407603737
 20
760.045489532288
 42
0.07459289906077718
  0
VERTEX
  8
0
  6
CONTINUOUS
 62
     7
 10
-574.7553063479377
 20
760.2520209363925
 42
0.07459289906077718
  0
VERTEX
  8
0
  6
CONTINUOUS
 62
     7
 10
-575.1264824653388
 20
760.3872744875542
 42
0.07459289906077718
  0
VERTEX
  8
0
  6
CONTINUOUS
 62
     7
 10
-575.5372896083433
 20
760.4393420408508
 42
-1
  0
SEQEND
  8
0
  0
POLYLINE
  8
0
  6
CONTINUOUS
 62
     7
 66
     1
 10
0
 20
0
  0
VERTEX
  8
0
  6
CONTINUOUS
 62
     7
 10
-578.0012642382829
 20
759.5334814755462
 42
0.07398282385211347
  0
VERTEX
  8
0
  6
CONTINUOUS
 62
     7
 10
-577.9254879835559
 20
758.9796777326839
 42
0.07398282385211347
  0
VERTEX
  8
0
  6
CONTINUOUS
 62
     7
 10
-577.6460206187347
 20
758.467043788087
 42
0.07398282385211347
  0
VERTEX
  8
0
  6
CONTINUOUS
 62
     7
 10
-577.187070854965
 20
758.0399862832823
 42
0.07398282385211347
  0
VERTEX
  8
0
  6
CONTINUOUS
 62
     7
 10
-576.588394970295
 20
757.7354988464266
 42
0.07398282385211347
  0
VERTEX
  8
0
  6
CONTINUOUS
 62
     7
 10
-575.9018529433341
 20
757.5799575390362
 42
0.07398282385211347
  0
VERTEX
  8
0
  6
CONTINUOUS
 62
     7
 10
-575.1869161103167
 20
757.5868360437507
 42
0.07398282385211347
  0
VERTEX
  8
0
  6
CONTINUOUS
 62
     7
 10
-574.5055154923792
 20
757.7555385137747
 42
0.07398282385211347
  0
VERTEX
  8
0
  6
CONTINUOUS
 62
     7
 10
-573.9166770539465
 20
758.0714511877879
 42
0.07398282385211347
  0
VERTEX
  8
0
  6
CONTINUOUS
 62
     7
 10
-573.4714086101044
 20
758.5072082992108
 42
0.07398282385211347
  0
VERTEX
  8
0
  6
CONTINUOUS
 62
     7
 10
-573.2082813018729
 20
759.0250626211114
 42
0.07398282385211347
  0
VERTEX
  8
0
  6
CONTINUOUS
 62
     7
 10
-573.1500883917269
 20
759.5801552995686
 42
0.07398282385211347
  0
VERTEX
  8
0
  6
CONTINUOUS
 62
     7
 10
-573.3018708094123
 20
760.1244017279225
 42
0.07398282385211347
  0
VERTEX
  8
0
  6
CONTINUOUS
 62
     7
 10
-573.6504804841015
 20
760.6106568501334
 42
0.07398282385211347
  0
VERTEX
  8
0
  6
CONTINUOUS
 62
     7
 10
-574.1657192890031
 20
760.996799076068
 42
0.07398282385211347
  0
VERTEX
  8
0
  6
CONTINUOUS
 62
     7
 10
-574.802954937958
 20
761.2493790417384
 42
0.07398282385211347
  0
VERTEX
  8
0
  6
CONTINUOUS
 62
     7
 10
-575.5069872333802
 20
761.3465171425837
 42
-1
  0
SEQEND
  8
0
  0
LINE
  8
0
  6
CONTINUOUS
 62
     7
 10
23.34746066712737
 20
759.9754497842478
 11
24.36005575037008
 21
759.7969019402824
  0
LINE
  8
0
  6
CONTINUOUS
 62
     7
 10
27.46224175485018
 20
761.9123361177306
 11
28.40660637974399
 21
761.7458191451694
  0
POLYLINE
  8
0
  6
CONTINUOUS
 62
     7
 66
     1
 10
0
 20
0
  0
VERTEX
  8
0
  6
CONTINUOUS
 62
     7
 10
27.48069611456957
 20
762.1232574146063
 42
0.07333214780387673
  0
VERTEX
  8
0
  6
CONTINUOUS
 62
     7
 10
27.42899844466324
 20
762.3631375430017
 42
0.07333214780387673
  0
VERTEX
  8
0
  6
CONTINUOUS
 62
     7
 10
27.27830613074654
 20
762.5825981926083
 42
0.07333214780387673
  0
VERTEX
  8
0
  6
CONTINUOUS
 62
     7
 10
27.04144665681434
 20
762.7629580657728
 42
0.07333214780387673
  0
VERTEX
  8
0
  6
CONTINUOUS
 62
     7
 10
26.73858237243791
 20
762.8888642667421
 42
0.07333214780387673
  0
VERTEX
  8
0
  6
CONTINUOUS
 62
     7
 10
26.39549419941393
 20
762.9495991966171
 42
0.07333214780387673
  0
VERTEX
  8
0
  6
CONTINUOUS
 62
     7
 10
26.04138706488102
 20
762.9399928747884
 42
0.07333214780387673
  0
VERTEX
  8
0
  6
CONTINUOUS
 62
     7
 10
25.70640387050829
 20
762.8608630267014
 42
0.07333214780387673
  0
VERTEX
  8
0
  6
CONTINUOUS
 62
     7
 10
25.41905961784208
 20
762.7189454760586
 42
0.07333214780387673
  0
VERTEX
  8
0
  6
CONTINUOUS
 62
     7
 10
25.2038141064985
 20
762.5263207667321
 42
0.07333214780387673
  0
VERTEX
  8
0
  6
CONTINUOUS
 62
     7
 10
25.07898982605884
 20
762.2993858224378
 42
0.07333214780387673
  0
VERTEX
  8
0
  6
CONTINUOUS
 62
     7
 10
25.05521227836784
 20
762.0574581802828
 42
0.07333214780387673
  0
VERTEX
  8
0
  6
CONTINUOUS
 62
     7
 10
25.13450549573685
 20
761.8211316109577
 42
0.07333214780387673
  0
VERTEX
  8
0
  6
CONTINUOUS
 62
     7
 10
25.31011974786935
 20
761.6105231012336
 42
0.07333214780387673
  0
VERTEX
  8
0
  6
CONTINUOUS
 62
     7
 10
25.56710610372865
 20
761.4435604220596
 42
0.07333214780387673
  0
VERTEX
  8
0
  6
CONTINUOUS
 62
     7
 10
25.88358893952879
 20
761.3344560507622
 42
0.07333214780387673
  0
VERTEX
  8
0
  6
CONTINUOUS
 62
     7
 10
26.23262807228796
 20
761.2924973527034
 42
-1
  0
SEQEND
  8
0
  0
POLYLINE
  8
0
  6
CONTINUOUS
 62
     7
 66
     1
 10
0
 20
0
  0
VERTEX
  8
0
  6
CONTINUOUS
 62
     7
 10
28.43962877467608
 20
762.1232576361126
 42
0.07332668712448476
  0
VERTEX
  8
0
  6
CONTINUOUS
 62
     7
 10
28.34713085465582
 20
762.6251246317925
 42
0.07332668712448476
  0
VERTEX
  8
0
  6
CONTINUOUS
 62
     7
 10
28.07750958837422
 20
763.0842771699857
 42
0.07332668712448476
  0
VERTEX
  8
0
  6
CONTINUOUS
 62
     7
 10
27.653712748233
 20
763.4616362563332
 42
0.07332668712448476
  0
VERTEX
  8
0
  6
CONTINUOUS
 62
     7
 10
27.11181016494792
 20
763.7250844301217
 42
0.07332668712448476
  0
VERTEX
  8
0
  6
CONTINUOUS
 62
     7
 10
26.49792378326259
 20
763.8521993178674
 42
0.07332668712448476
  0
VERTEX
  8
0
  6
CONTINUOUS
 62
     7
 10
25.86430217081311
 20
763.8321620270064
 42
0.07332668712448476
  0
VERTEX
  8
0
  6
CONTINUOUS
 62
     7
 10
25.2648735831553
 20
763.6666779541364
 42
0.07332668712448476
  0
VERTEX
  8
0
  6
CONTINUOUS
 62
     7
 10
24.75065606864411
 20
763.3698316367745
 42
0.07332668712448476
  0
VERTEX
  8
0
  6
CONTINUOUS
 62
     7
 10
24.3654152643553
 20
762.9668880023617
 42
0.07332668712448476
  0
VERTEX
  8
0
  6
CONTINUOUS
 62
     7
 10
24.14193945297371
 20
762.492142041574
 42
0.07332668712448476
  0
VERTEX
  8
0
  6
CONTINUOUS
 62
     7
 10
24.09924891478958
 20
761.9859999226899
 42
0.07332668712448476
  0
VERTEX
  8
0
  6
CONTINUOUS
 62
     7
 10
24.24097709002617
 20
761.4915399766855
 42
0.07332668712448476
  0
VERTEX
  8
0
  6
CONTINUOUS
 62
     7
 10
24.55506133261294
 20
761.0508462515263
 42
0.07332668712448476
  0
VERTEX
  8
0
  6
CONTINUOUS
 62
     7
 10
25.01476957570201
 20
760.7014266910154
 42
0.07332668712448476
  0
VERTEX
  8
0
  6
CONTINUOUS
 62
     7
 10
25.58097552825889
 20
760.4730207910683
 42
0.07332668712448476
  0
VERTEX
  8
0
  6
CONTINUOUS
 62
     7
 10
26.20548875816012
 20
760.3850684374163
 42
-1
  0
SEQEND
  8
0
  0
POLYLINE
  8
0
  6
CONTINUOUS
 62
     7
 66
     1
 10
0
 20
0
  0
VERTEX
  8
0
  6
CONTINUOUS
 62
     7
 10
24.31454098895867
 20
759.5228321256616
 42
0.07459289906077718
  0
VERTEX
  8
0
  6
CONTINUOUS
 62
     7
 10
24.34298581725822
 20
759.2276038561327
 42
0.07459289906077718
  0
VERTEX
  8
0
  6
CONTINUOUS
 62
     7
 10
24.49235015666278
 20
758.9512906117634
 42
0.07459289906077718
  0
VERTEX
  8
0
  6
CONTINUOUS
 62
     7
 10
24.74948350439733
 20
758.7182198732721
 42
0.07459289906077718
  0
VERTEX
  8
0
  6
CONTINUOUS
 62
     7
 10
25.09174703772533
 20
758.548911916151
 42
0.07459289906077718
  0
VERTEX
  8
0
  6
CONTINUOUS
 62
     7
 10
25.48900680658371
 20
758.4582731415454
 42
0.07459289906077718
  0
VERTEX
  8
0
  6
CONTINUOUS
 62
     7
 10
25.90628682062824
 20
758.4542836701571
 42
0.07459289906077718
  0
VERTEX
  8
0
  6
CONTINUOUS
 62
     7
 10
26.30684844462288
 20
758.5372947475025
 42
0.07459289906077718
  0
VERTEX
  8
0
  6
CONTINUOUS
 62
     7
 10
26.65542498258842
 20
758.6999978191615
 42
0.07459289906077718
  0
VERTEX
  8
0
  6
CONTINUOUS
 62
     7
 10
26.92132666782351
 20
758.9280679987261
 42
0.07459289906077718
  0
VERTEX
  8
0
  6
CONTINUOUS
 62
     7
 10
27.08114268578224
 20
759.2014252755243
 42
0.07459289906077718
  0
VERTEX
  8
0
  6
CONTINUOUS
 62
     7
 10
27.12080233527825
 20
759.4960024214518
 42
0.07459289906077718
  0
VERTEX
  8
0
  6
CONTINUOUS
 62
     7
 10
27.0368138569476
 20
759.7858639448749
 42
0.07459289906077718
  0
VERTEX
  8
0
  6
CONTINUOUS
 62
     7
 10
26.83657185864488
 20
760.045489532288
 42
0.07459289906077718
  0
VERTEX
  8
0
  6
CONTINUOUS
 62
     7
 10
26.53770627108085
 20
760.2520209363925
 42
0.07459289906077718
  0
VERTEX
  8
0
  6
CONTINUOUS
 62
     7
 10
26.16653015367981
 20
760.3872744875542
 42
0.07459289906077718
  0
VERTEX
  8
0
  6
CONTINUOUS
 62
     7
 10
25.75572301067527
 20
760.4393420408508
 42
-1
  0
SEQEND
  8
0
  0
POLYLINE
  8
0
  6
CONTINUOUS
 62
     7
 66
     1
 10
0
 20
0
  0
VERTEX
  8
0
  6
CONTINUOUS
 62
     7
 10
23.29174838073563
 20
759.5334814755462
 42
0.07398282385211347
  0
VERTEX
  8
0
  6
CONTINUOUS
 62
     7
 10
23.36752463546272
 20
758.9796777326839
 42
0.07398282385211347
  0
VERTEX
  8
0
  6
CONTINUOUS
 62
     7
 10
23.64699200028381
 20
758.467043788087
 42
0.07398282385211347
  0
VERTEX
  8
0
  6
CONTINUOUS
 62
     7
 10
24.1059417640536
 20
758.0399862832823
 42
0.07398282385211347
  0
VERTEX
  8
0
  6
CONTINUOUS
 62
     7
 10
24.7046176487236
 20
757.7354988464266
 42
0.07398282385211347
  0
VERTEX
  8
0
  6
CONTINUOUS
 62
     7
 10
25.39115967568446
 20
757.5799575390362
 42
0.07398282385211347
  0
VERTEX
  8
0
  6
CONTINUOUS
 62
     7
 10
26.10609650870182
 20
757.5868360437507
 42
0.07398282385211347
  0
VERTEX
  8
0
  6
CONTINUOUS
 62
     7
 10
26.78749712663934
 20
757.7555385137747
 42
0.07398282385211347
  0
VERTEX
  8
0
  6
CONTINUOUS
 62
     7
 10
27.37633556507202
 20
758.0714511877879
 42
0.07398282385211347
  0
VERTEX
  8
0
  6
CONTINUOUS
 62
     7
 10
27.82160400891421
 20
758.5072082992108
 42
0.07398282385211347
  0
VERTEX
  8
0
  6
CONTINUOUS
 62
     7
 10
28.08473131714559
 20
759.0250626211114
 42
0.07398282385211347
  0
VERTEX
  8
0
  6
CONTINUOUS
 62
     7
 10
28.14292422729169
 20
759.5801552995686
 42
0.07398282385211347
  0
VERTEX
  8
0
  6
CONTINUOUS
 62
     7
 10
27.99114180960628
 20
760.1244017279225
 42
0.07398282385211347
  0
VERTEX
  8
0
  6
CONTINUOUS
 62
     7
 10
27.64253213491698
 20
760.6106568501334
 42
0.07398282385211347
  0
VERTEX
  8
0
  6
CONTINUOUS
 62
     7
 10
27.1272933300155
 20
760.996799076068
 42
0.07398282385211347
  0
VERTEX
  8
0
  6
CONTINUOUS
 62
     7
 10
26.49005768106053
 20
761.2493790417384
 42
0.07398282385211347
  0
VERTEX
  8
0
  6
CONTINUOUS
 62
     7
 10
25.78602538563835
 20
761.3465171425837
 42
-1
  0
SEQEND
  8
0
  0
LINE
  8
0
  6
CONTINUOUS
 62
     7
 10
44.52967540406584
 20
759.9754497842478
 11
45.54227048730856
 21
759.7969019402824
  0
LINE
  8
0
  6
CONTINUOUS
 62
     7
 10
48.64445649178866
 20
761.9123361177306
 11
49.58882111668247
 21
761.7458191451694
  0
POLYLINE
  8
0
  6
CONTINUOUS
 62
     7
 66
     1
 10
0
 20
0
  0
VERTEX
  8
0
  6
CONTINUOUS
 62
     7
 10
48.66291085150805
 20
762.1232574146063
 42
0.07333214780387673
  0
VERTEX
  8
0
  6
CONTINUOUS
 62
     7
 10
48.61121318160171
 20
762.3631375430017
 42
0.07333214780387673
  0
VERTEX
  8
0
  6
CONTINUOUS
 62
     7
 10
48.46052086768502
 20
762.5825981926083
 42
0.07333214780387673
  0
VERTEX
  8
0
  6
CONTINUOUS
 62
     7
 10
48.22366139375282
 20
762.7629580657728
 42
0.07333214780387673
  0
VERTEX
  8
0
  6
CONTINUOUS
 62
     7
 10
47.92079710937639
 20
762.8888642667421
 42
0.07333214780387673
  0
VERTEX
  8
0
  6
CONTINUOUS
 62
     7
 10
47.57770893635241
 20
762.9495991966171
 42
0.07333214780387673
  0
VERTEX
  8
0
  6
CONTINUOUS
 62
     7
 10
47.22360180181949
 20
762.9399928747884
 42
0.07333214780387673
  0
VERTEX
  8
0
  6
CONTINUOUS
 62
     7
 10
46.88861860744676
 20
762.8608630267014
 42
0.07333214780387673
  0
VERTEX
  8
0
  6
CONTINUOUS
 62
     7
 10
46.60127435478056
 20
762.7189454760586
 42
0.07333214780387673
  0
VERTEX
  8
0
  6
CONTINUOUS
 62
     7
 10
46.38602884343698
 20
762.5263207667321
 42
0.07333214780387673
  0
VERTEX
  8
0
  6
CONTINUOUS
 62
     7
 10
46.26120456299731
 20
762.2993858224378
 42
0.07333214780387673
  0
VERTEX
  8
0
  6
CONTINUOUS
 62
     7
 10
46.23742701530631
 20
762.0574581802828
 42
0.07333214780387673
  0
VERTEX
  8
0
  6
CONTINUOUS
 62
     7
 10
46.31672023267533
 20
761.8211316109577
 42
0.07333214780387673
  0
VERTEX
  8
0
  6
CONTINUOUS
 62
     7
 10
46.49233448480783
 20
761.6105231012336
 42
0.07333214780387673
  0
VERTEX
  8
0
  6
CONTINUOUS
 62
     7
 10
46.74932084066712
 20
761.4435604220596
 42
0.07333214780387673
  0
VERTEX
  8
0
  6
CONTINUOUS
 62
     7
 10
47.06580367646727
 20
761.3344560507622
 42
0.07333214780387673
  0
VERTEX
  8
0
  6
CONTINUOUS
 62
     7
 10
47.41484280922643
 20
761.2924973527034
 42
-1
  0
SEQEND
  8
0
  0
POLYLINE
  8
0
  6
CONTINUOUS
 62
     7
 66
     1
 10
0
 20
0
  0
VERTEX
  8
0
  6
CONTINUOUS
 62
     7
 10
49.62184351161456
 20
762.1232576361126
 42
0.07332668712448476
  0
VERTEX
  8
0
  6
CONTINUOUS
 62
     7
 10
49.5293455915943
 20
762.6251246317925
 42
0.07332668712448476
  0
VERTEX
  8
0
  6
CONTINUOUS
 62
     7
 10
49.25972432531269
 20
763.0842771699857
 42
0.07332668712448476
  0
VERTEX
  8
0
  6
CONTINUOUS
 62
     7
 10
48.83592748517147
 20
763.4616362563332
 42
0.07332668712448476
  0
VERTEX
  8
0
  6
CONTINUOUS
 62
     7
 10
48.2940249018864
 20
763.7250844301217
 42
0.07332668712448476
  0
VERTEX
  8
0
  6
CONTINUOUS
 62
     7
 10
47.68013852020106
 20
763.8521993178674
 42
0.07332668712448476
  0
VERTEX
  8
0
  6
CONTINUOUS
 62
     7
 10
47.04651690775158
 20
763.8321620270064
 42
0.07332668712448476
  0
VERTEX
  8
0
  6
CONTINUOUS
 62
     7
 10
46.44708832009378
 20
763.6666779541364
 42
0.07332668712448476
  0
VERTEX
  8
0
  6
CONTINUOUS
 62
     7
 10
45.93287080558258
 20
763.3698316367745
 42
0.07332668712448476
  0
VERTEX
  8
0
  6
CONTINUOUS
 62
     7
 10
45.54763000129378
 20
762.9668880023617
 42
0.07332668712448476
  0
VERTEX
  8
0
  6
CONTINUOUS
 62
     7
 10
45.32415418991219
 20
762.492142041574
 42
0.07332668712448476
  0
VERTEX
  8
0
  6
CONTINUOUS
 62
     7
 10
45.28146365172806
 20
761.9859999226899
 42
0.07332668712448476
  0
VERTEX
  8
0
  6
CONTINUOUS
 62
     7
 10
45.42319182696465
 20
761.4915399766855
 42
0.07332668712448476
  0
VERTEX
  8
0
  6
CONTINUOUS
 62
     7
 10
45.73727606955142
 20
761.0508462515263
 42
0.07332668712448476
  0
VERTEX
  8
0
  6
CONTINUOUS
 62
     7
 10
46.19698431264048
 20
760.7014266910154
 42
0.07332668712448476
  0
VERTEX
  8
0
  6
CONTINUOUS
 62
     7
 10
46.76319026519737
 20
760.4730207910683
 42
0.07332668712448476
  0
VERTEX
  8
0
  6
CONTINUOUS
 62
     7
 10
47.3877034950986
 20
760.3850684374163
 42
-1
  0
SEQEND
  8
0
  0
POLYLINE
  8
0
  6
CONTINUOUS
 62
     7
 66
     1
 10
0
 20
0
  0
VERTEX
  8
0
  6
CONTINUOUS
 62
     7
 10
45.49675572589714
 20
759.5228321256616
 42
0.07459289906077718
  0
VERTEX
  8
0
  6
CONTINUOUS
 62
     7
 10
45.52520055419669
 20
759.2276038561327
 42
0.07459289906077718
  0
VERTEX
  8
0
  6
CONTINUOUS
 62
     7
 10
45.67456489360126
 20
758.9512906117634
 42
0.07459289906077718
  0
VERTEX
  8
0
  6
CONTINUOUS
 62
     7
 10
45.9316982413358
 20
758.7182198732721
 42
0.07459289906077718
  0
VERTEX
  8
0
  6
CONTINUOUS
 62
     7
 10
46.27396177466381
 20
758.548911916151
 42
0.07459289906077718
  0
VERTEX
  8
0
  6
CONTINUOUS
 62
     7
 10
46.67122154352218
 20
758.4582731415454
 42
0.07459289906077718
  0
VERTEX
  8
0
  6
CONTINUOUS
 62
     7
 10
47.08850155756672
 20
758.4542836701571
 42
0.07459289906077718
  0
VERTEX
  8
0
  6
CONTINUOUS
 62
     7
 10
47.48906318156136
 20
758.5372947475025
 42
0.07459289906077718
  0
VERTEX
  8
0
  6
CONTINUOUS
 62
     7
 10
47.8376397195269
 20
758.6999978191615
 42
0.07459289906077718
  0
VERTEX
  8
0
  6
CONTINUOUS
 62
     7
 10
48.10354140476198
 20
758.9280679987261
 42
0.07459289906077718
  0
VERTEX
  8
0
  6
CONTINUOUS
 62
     7
 10
48.26335742272072
 20
759.2014252755243
 42
0.07459289906077718
  0
VERTEX
  8
0
  6
CONTINUOUS
 62
     7
 10
48.30301707221673
 20
759.4960024214518
 42
0.07459289906077718
  0
VERTEX
  8
0
  6
CONTINUOUS
 62
     7
 10
48.21902859388608
 20
759.7858639448749
 42
0.07459289906077718
  0
VERTEX
  8
0
  6
CONTINUOUS
 62
     7
 10
48.01878659558336
 20
760.045489532288
 42
0.07459289906077718
  0
VERTEX
  8
0
  6
CONTINUOUS
 62
     7
 10
47.71992100801933
 20
760.2520209363925
 42
0.07459289906077718
  0
VERTEX
  8
0
  6
CONTINUOUS
 62
     7
 10
47.34874489061829
 20
760.3872744875542
 42
0.07459289906077718
  0
VERTEX
  8
0
  6
CONTINUOUS
 62
     7
 10
46.93793774761375
 20
760.4393420408508
 42
-1
  0
SEQEND
  8
0
  0
POLYLINE
  8
0
  6
CONTINUOUS
 62
     7
 66
     1
 10
0
 20
0
  0
VERTEX
  8
0
  6
CONTINUOUS
 62
     7
 10
44.47396311767411
 20
759.5334814755462
 42
0.07398282385211347
  0
VERTEX
  8
0
  6
CONTINUOUS
 62
     7
 10
44.5497393724012
 20
758.9796777326839
 42
0.07398282385211347
  0
VERTEX
  8
0
  6
CONTINUOUS
 62
     7
 10
44.82920673722229
 20
758.467043788087
 42
0.07398282385211347
  0
VERTEX
  8
0
  6
CONTINUOUS
 62
     7
 10
45.28815650099207
 20
758.0399862832823
 42
0.07398282385211347
  0
VERTEX
  8
0
  6
CONTINUOUS
 62
     7
 10
45.88683238566208
 20
757.7354988464266
 42
0.07398282385211347
  0
VERTEX
  8
0
  6
CONTINUOUS
 62
     7
 10
46.57337441262293
 20
757.5799575390362
 42
0.07398282385211347
  0
VERTEX
  8
0
  6
CONTINUOUS
 62
     7
 10
47.28831124564029
 20
757.5868360437507
 42
0.07398282385211347
  0
VERTEX
  8
0
  6
CONTINUOUS
 62
     7
 10
47.96971186357781
 20
757.7555385137747
 42
0.07398282385211347
  0
VERTEX
  8
0
  6
CONTINUOUS
 62
     7
 10
48.55855030201049
 20
758.0714511877879
 42
0.07398282385211347
  0
VERTEX
  8
0
  6
CONTINUOUS
 62
     7
 10
49.00381874585268
 20
758.5072082992108
 42
0.07398282385211347
  0
VERTEX
  8
0
  6
CONTINUOUS
 62
     7
 10
49.26694605408406
 20
759.0250626211114
 42
0.07398282385211347
  0
VERTEX
  8
0
  6
CONTINUOUS
 62
     7
 10
49.32513896423017
 20
759.5801552995686
 42
0.07398282385211347
  0
VERTEX
  8
0
  6
CONTINUOUS
 62
     7
 10
49.17335654654475
 20
760.1244017279225
 42
0.07398282385211347
  0
VERTEX
  8
0
  6
CONTINUOUS
 62
     7
 10
48.82474687185545
 20
760.6106568501334
 42
0.07398282385211347
  0
VERTEX
  8
0
  6
CONTINUOUS
 62
     7
 10
48.30950806695397
 20
760.996799076068
 42
0.07398282385211347
  0
VERTEX
  8
0
  6
CONTINUOUS
 62
     7
 10
47.67227241799901
 20
761.2493790417384
 42
0.07398282385211347
  0
VERTEX
  8
0
  6
CONTINUOUS
 62
     7
 10
46.96824012257682
 20
761.3465171425837
 42
-1
  0
SEQEND
  8
0
  0
LINE
  8
0
  6
CONTINUOUS
 62
     7
 10
676.8936204113901
 20
756.3422710733103
 11
677.9062154946328
 21
756.1637232293449
  0
LINE
  8
0
  6
CONTINUOUS
 62
     7
 10
681.0084014991129
 20
758.2791574067931
 11
681.9527661240066
 21
758.1126404342319
  0
POLYLINE
  8
0
  6
CONTINUOUS
 62
     7
 66
     1
 10
0
 20
0
  0
VERTEX
  8
0
  6
CONTINUOUS
 62
     7
 10
681.0268558588323
 20
758.4900787036688
 42
0.07333214780387673
  0
VERTEX
  8
0
  6
CONTINUOUS
 62
     7
 10
680.9751581889259
 20
758.7299588320642
 42
0.07333214780387673
  0
VERTEX
  8
0
  6
CONTINUOUS
 62
     7
 10
680.8244658750092
 20
758.9494194816708
 42
0.07333214780387673
  0
VERTEX
  8
0
  6
CONTINUOUS
 62
     7
 10
680.5876064010771
 20
759.1297793548353
 42
0.07333214780387673
  0
VERTEX
  8
0
  6
CONTINUOUS
 62
     7
 10
680.2847421167006
 20
759.2556855558046
 42
0.07333214780387673
  0
VERTEX
  8
0
  6
CONTINUOUS
 62
     7
 10
679.9416539436767
 20
759.3164204856796
 42
0.07333214780387673
  0
VERTEX
  8
0
  6
CONTINUOUS
 62
     7
 10
679.5875468091438
 20
759.3068141638509
 42
0.07333214780387673
  0
VERTEX
  8
0
  6
CONTINUOUS
 62
     7
 10
679.252563614771
 20
759.2276843157639
 42
0.07333214780387673
  0
VERTEX
  8
0
  6
CONTINUOUS
 62
     7
 10
678.9652193621048
 20
759.0857667651211
 42
0.07333214780387673
  0
VERTEX
  8
0
  6
CONTINUOUS
 62
     7
 10
678.7499738507612
 20
758.8931420557946
 42
0.07333214780387673
  0
VERTEX
  8
0
  6
CONTINUOUS
 62
     7
 10
678.6251495703216
 20
758.6662071115003
 42
0.07333214780387673
  0
VERTEX
  8
0
  6
CONTINUOUS
 62
     7
 10
678.6013720226306
 20
758.4242794693453
 42
0.07333214780387673
  0
VERTEX
  8
0
  6
CONTINUOUS
 62
     7
 10
678.6806652399996
 20
758.1879529000202
 42
0.07333214780387673
  0
VERTEX
  8
0
  6
CONTINUOUS
 62
     7
 10
678.8562794921321
 20
757.9773443902961
 42
0.07333214780387673
  0
VERTEX
  8
0
  6
CONTINUOUS
 62
     7
 10
679.1132658479913
 20
757.8103817111221
 42
0.07333214780387673
  0
VERTEX
  8
0
  6
CONTINUOUS
 62
     7
 10
679.4297486837914
 20
757.7012773398247
 42
0.07333214780387673
  0
VERTEX
  8
0
  6
CONTINUOUS
 62
     7
 10
679.7787878165507
 20
757.6593186417659
 42
-1
  0
SEQEND
  8
0
  0
POLYLINE
  8
0
  6
CONTINUOUS
 62
     7
 66
     1
 10
0
 20
0
  0
VERTEX
  8
0
  6
CONTINUOUS
 62
     7
 10
681.9857885189388
 20
758.4900789251751
 42
0.07332668712448476
  0
VERTEX
  8
0
  6
CONTINUOUS
 62
     7
 10
681.8932905989185
 20
758.991945920855
 42
0.07332668712448476
  0
VERTEX
  8
0
  6
CONTINUOUS
 62
     7
 10
681.6236693326368
 20
759.4510984590482
 42
0.07332668712448476
  0
VERTEX
  8
0
  6
CONTINUOUS
 62
     7
 10
681.1998724924957
 20
759.8284575453957
 42
0.07332668712448476
  0
VERTEX
  8
0
  6
CONTINUOUS
 62
     7
 10
680.6579699092106
 20
760.0919057191842
 42
0.07332668712448476
  0
VERTEX
  8
0
  6
CONTINUOUS
 62
     7
 10
680.0440835275252
 20
760.2190206069299
 42
0.07332668712448476
  0
VERTEX
  8
0
  6
CONTINUOUS
 62
     7
 10
679.4104619150758
 20
760.1989833160689
 42
0.07332668712448476
  0
VERTEX
  8
0
  6
CONTINUOUS
 62
     7
 10
678.8110333274179
 20
760.0334992431989
 42
0.07332668712448476
  0
VERTEX
  8
0
  6
CONTINUOUS
 62
     7
 10
678.2968158129067
 20
759.7366529258371
 42
0.07332668712448476
  0
VERTEX
  8
0
  6
CONTINUOUS
 62
     7
 10
677.911575008618
 20
759.3337092914242
 42
0.07332668712448476
  0
VERTEX
  8
0
  6
CONTINUOUS
 62
     7
 10
677.6880991972364
 20
758.8589633306365
 42
0.07332668712448476
  0
VERTEX
  8
0
  6
CONTINUOUS
 62
     7
 10
677.6454086590522
 20
758.3528212117524
 42
0.07332668712448476
  0
VERTEX
  8
0
  6
CONTINUOUS
 62
     7
 10
677.7871368342888
 20
757.858361265748
 42
0.07332668712448476
  0
VERTEX
  8
0
  6
CONTINUOUS
 62
     7
 10
678.1012210768756
 20
757.4176675405888
 42
0.07332668712448476
  0
VERTEX
  8
0
  6
CONTINUOUS
 62
     7
 10
678.5609293199647
 20
757.0682479800779
 42
0.07332668712448476
  0
VERTEX
  8
0
  6
CONTINUOUS
 62
     7
 10
679.1271352725215
 20
756.8398420801308
 42
0.07332668712448476
  0
VERTEX
  8
0
  6
CONTINUOUS
 62
     7
 10
679.7516485024228
 20
756.7518897264788
 42
-1
  0
SEQEND
  8
0
  0
POLYLINE
  8
0
  6
CONTINUOUS
 62
     7
 66
     1
 10
0
 20
0
  0
VERTEX
  8
0
  6
CONTINUOUS
 62
     7
 10
677.8607007332214
 20
755.8896534147241
 42
0.07459289906077718
  0
VERTEX
  8
0
  6
CONTINUOUS
 62
     7
 10
677.8891455615209
 20
755.5944251451952
 42
0.07459289906077718
  0
VERTEX
  8
0
  6
CONTINUOUS
 62
     7
 10
678.0385099009254
 20
755.3181119008259
 42
0.07459289906077718
  0
VERTEX
  8
0
  6
CONTINUOUS
 62
     7
 10
678.29564324866
 20
755.0850411623346
 42
0.07459289906077718
  0
VERTEX
  8
0
  6
CONTINUOUS
 62
     7
 10
678.637906781988
 20
754.9157332052135
 42
0.07459289906077718
  0
VERTEX
  8
0
  6
CONTINUOUS
 62
     7
 10
679.0351665508464
 20
754.8250944306079
 42
0.07459289906077718
  0
VERTEX
  8
0
  6
CONTINUOUS
 62
     7
 10
679.4524465648909
 20
754.8211049592196
 42
0.07459289906077718
  0
VERTEX
  8
0
  6
CONTINUOUS
 62
     7
 10
679.8530081888855
 20
754.904116036565
 42
0.07459289906077718
  0
VERTEX
  8
0
  6
CONTINUOUS
 62
     7
 10
680.2015847268511
 20
755.066819108224
 42
0.07459289906077718
  0
VERTEX
  8
0
  6
CONTINUOUS
 62
     7
 10
680.4674864120862
 20
755.2948892877886
 42
0.07459289906077718
  0
VERTEX
  8
0
  6
CONTINUOUS
 62
     7
 10
680.6273024300449
 20
755.5682465645868
 42
0.07459289906077718
  0
VERTEX
  8
0
  6
CONTINUOUS
 62
     7
 10
680.6669620795409
 20
755.8628237105143
 42
0.07459289906077718
  0
VERTEX
  8
0
  6
CONTINUOUS
 62
     7
 10
680.5829736012103
 20
756.1526852339374
 42
0.07459289906077718
  0
VERTEX
  8
0
  6
CONTINUOUS
 62
     7
 10
680.3827316029076
 20
756.4123108213505
 42
0.07459289906077718
  0
VERTEX
  8
0
  6
CONTINUOUS
 62
     7
 10
680.0838660153436
 20
756.618842225455
 42
0.07459289906077718
  0
VERTEX
  8
0
  6
CONTINUOUS
 62
     7
 10
679.7126898979425
 20
756.7540957766167
 42
0.07459289906077718
  0
VERTEX
  8
0
  6
CONTINUOUS
 62
     7
 10
679.301882754938
 20
756.8061633299133
 42
-1
  0
SEQEND
  8
0
  0
POLYLINE
  8
0
  6
CONTINUOUS
 62
     7
 66
     1
 10
0
 20
0
  0
VERTEX
  8
0
  6
CONTINUOUS
 62
     7
 10
676.8379081249983
 20
755.9003027646087
 42
0.07398282385211347
  0
VERTEX
  8
0
  6
CONTINUOUS
 62
     7
 10
676.9136843797254
 20
755.3464990217464
 42
0.07398282385211347
  0
VERTEX
  8
0
  6
CONTINUOUS
 62
     7
 10
677.1931517445465
 20
754.8338650771495
 42
0.07398282385211347
  0
VERTEX
  8
0
  6
CONTINUOUS
 62
     7
 10
677.6521015083163
 20
754.4068075723448
 42
0.07398282385211347
  0
VERTEX
  8
0
  6
CONTINUOUS
 62
     7
 10
678.2507773929863
 20
754.1023201354891
 42
0.07398282385211347
  0
VERTEX
  8
0
  6
CONTINUOUS
 62
     7
 10
678.9373194199471
 20
753.9467788280987
 42
0.07398282385211347
  0
VERTEX
  8
0
  6
CONTINUOUS
 62
     7
 10
679.6522562529646
 20
753.9536573328132
 42
0.07398282385211347
  0
VERTEX
  8
0
  6
CONTINUOUS
 62
     7
 10
680.333656870902
 20
754.1223598028372
 42
0.07398282385211347
  0
VERTEX
  8
0
  6
CONTINUOUS
 62
     7
 10
680.9224953093348
 20
754.4382724768504
 42
0.07398282385211347
  0
VERTEX
  8
0
  6
CONTINUOUS
 62
     7
 10
681.3677637531769
 20
754.8740295882733
 42
0.07398282385211347
  0
VERTEX
  8
0
  6
CONTINUOUS
 62
     7
 10
681.6308910614083
 20
755.3918839101739
 42
0.07398282385211347
  0
VERTEX
  8
0
  6
CONTINUOUS
 62
     7
 10
681.6890839715544
 20
755.9469765886311
 42
0.07398282385211347
  0
VERTEX
  8
0
  6
CONTINUOUS
 62
     7
 10
681.5373015538689
 20
756.491223016985
 42
0.07398282385211347
  0
VERTEX
  8
0
  6
CONTINUOUS
 62
     7
 10
681.1886918791797
 20
756.9774781391959
 42
0.07398282385211347
  0
VERTEX
  8
0
  6
CONTINUOUS
 62
     7
 10
680.6734530742782
 20
757.3636203651305
 42
0.07398282385211347
  0
VERTEX
  8
0
  6
CONTINUOUS
 62
     7
 10
680.0362174253232
 20
757.6162003308009
 42
0.07398282385211347
  0
VERTEX
  8
0
  6
CONTINUOUS
 62
     7
 10
679.3321851299011
 20
757.7133384316462
 42
-1
  0
SEQEND
  8
0
  0
LINE
  8
0
  6
CONTINUOUS
 62
     7
 10
655.7113694348276
 20
756.3422710733103
 11
656.7239645180703
 21
756.1637232293449
  0
LINE
  8
0
  6
CONTINUOUS
 62
     7
 10
659.8261505225504
 20
758.2791574067931
 11
660.7705151474441
 21
758.1126404342319
  0
POLYLINE
  8
0
  6
CONTINUOUS
 62
     7
 66
     1
 10
0
 20
0
  0
VERTEX
  8
0
  6
CONTINUOUS
 62
     7
 10
659.8446048822698
 20
758.4900787036688
 42
0.07333214780387673
  0
VERTEX
  8
0
  6
CONTINUOUS
 62
     7
 10
659.7929072123634
 20
758.7299588320642
 42
0.07333214780387673
  0
VERTEX
  8
0
  6
CONTINUOUS
 62
     7
 10
659.6422148984467
 20
758.9494194816708
 42
0.07333214780387673
  0
VERTEX
  8
0
  6
CONTINUOUS
 62
     7
 10
659.4053554245146
 20
759.1297793548353
 42
0.07333214780387673
  0
VERTEX
  8
0
  6
CONTINUOUS
 62
     7
 10
659.1024911401381
 20
759.2556855558046
 42
0.07333214780387673
  0
VERTEX
  8
0
  6
CONTINUOUS
 62
     7
 10
658.7594029671142
 20
759.3164204856796
 42
0.07333214780387673
  0
VERTEX
  8
0
  6
CONTINUOUS
 62
     7
 10
658.4052958325813
 20
759.3068141638509
 42
0.07333214780387673
  0
VERTEX
  8
0
  6
CONTINUOUS
 62
     7
 10
658.0703126382085
 20
759.2276843157639
 42
0.07333214780387673
  0
VERTEX
  8
0
  6
CONTINUOUS
 62
     7
 10
657.7829683855423
 20
759.0857667651211
 42
0.07333214780387673
  0
VERTEX
  8
0
  6
CONTINUOUS
 62
     7
 10
657.5677228741987
 20
758.8931420557946
 42
0.07333214780387673
  0
VERTEX
  8
0
  6
CONTINUOUS
 62
     7
 10
657.4428985937591
 20
758.6662071115003
 42
0.07333214780387673
  0
VERTEX
  8
0
  6
CONTINUOUS
 62
     7
 10
657.4191210460681
 20
758.4242794693453
 42
0.07333214780387673
  0
VERTEX
  8
0
  6
CONTINUOUS
 62
     7
 10
657.4984142634371
 20
758.1879529000202
 42
0.07333214780387673
  0
VERTEX
  8
0
  6
CONTINUOUS
 62
     7
 10
657.6740285155696
 20
757.9773443902961
 42
0.07333214780387673
  0
VERTEX
  8
0
  6
CONTINUOUS
 62
     7
 10
657.9310148714288
 20
757.8103817111221
 42
0.07333214780387673
  0
VERTEX
  8
0
  6
CONTINUOUS
 62
     7
 10
658.2474977072289
 20
757.7012773398247
 42
0.07333214780387673
  0
VERTEX
  8
0
  6
CONTINUOUS
 62
     7
 10
658.5965368399882
 20
757.6593186417659
 42
-1
  0
SEQEND
  8
0
  0
POLYLINE
  8
0
  6
CONTINUOUS
 62
     7
 66
     1
 10
0
 20
0
  0
VERTEX
  8
0
  6
CONTINUOUS
 62
     7
 10
660.8035375423763
 20
758.4900789251751
 42
0.07332668712448476
  0
VERTEX
  8
0
  6
CONTINUOUS
 62
     7
 10
660.711039622356
 20
758.991945920855
 42
0.07332668712448476
  0
VERTEX
  8
0
  6
CONTINUOUS
 62
     7
 10
660.4414183560743
 20
759.4510984590482
 42
0.07332668712448476
  0
VERTEX
  8
0
  6
CONTINUOUS
 62
     7
 10
660.0176215159332
 20
759.8284575453957
 42
0.07332668712448476
  0
VERTEX
  8
0
  6
CONTINUOUS
 62
     7
 10
659.4757189326481
 20
760.0919057191842
 42
0.07332668712448476
  0
VERTEX
  8
0
  6
CONTINUOUS
 62
     7
 10
658.8618325509627
 20
760.2190206069299
 42
0.07332668712448476
  0
VERTEX
  8
0
  6
CONTINUOUS
 62
     7
 10
658.2282109385133
 20
760.1989833160689
 42
0.07332668712448476
  0
VERTEX
  8
0
  6
CONTINUOUS
 62
     7
 10
657.6287823508554
 20
760.0334992431989
 42
0.07332668712448476
  0
VERTEX
  8
0
  6
CONTINUOUS
 62
     7
 10
657.1145648363442
 20
759.7366529258371
 42
0.07332668712448476
  0
VERTEX
  8
0
  6
CONTINUOUS
 62
     7
 10
656.7293240320555
 20
759.3337092914242
 42
0.07332668712448476
  0
VERTEX
  8
0
  6
CONTINUOUS
 62
     7
 10
656.5058482206739
 20
758.8589633306365
 42
0.07332668712448476
  0
VERTEX
  8
0
  6
CONTINUOUS
 62
     7
 10
656.4631576824897
 20
758.3528212117524
 42
0.07332668712448476
  0
VERTEX
  8
0
  6
CONTINUOUS
 62
     7
 10
656.6048858577263
 20
757.858361265748
 42
0.07332668712448476
  0
VERTEX
  8
0
  6
CONTINUOUS
 62
     7
 10
656.9189701003131
 20
757.4176675405888
 42
0.07332668712448476
  0
VERTEX
  8
0
  6
CONTINUOUS
 62
     7
 10
657.3786783434022
 20
757.0682479800779
 42
0.07332668712448476
  0
VERTEX
  8
0
  6
CONTINUOUS
 62
     7
 10
657.944884295959
 20
756.8398420801308
 42
0.07332668712448476
  0
VERTEX
  8
0
  6
CONTINUOUS
 62
     7
 10
658.5693975258603
 20
756.7518897264788
 42
-1
  0
SEQEND
  8
0
  0
POLYLINE
  8
0
  6
CONTINUOUS
 62
     7
 66
     1
 10
0
 20
0
  0
VERTEX
  8
0
  6
CONTINUOUS
 62
     7
 10
656.6784497566589
 20
755.8896534147241
 42
0.07459289906077718
  0
VERTEX
  8
0
  6
CONTINUOUS
 62
     7
 10
656.7068945849584
 20
755.5944251451952
 42
0.07459289906077718
  0
VERTEX
  8
0
  6
CONTINUOUS
 62
     7
 10
656.8562589243629
 20
755.3181119008259
 42
0.07459289906077718
  0
VERTEX
  8
0
  6
CONTINUOUS
 62
     7
 10
657.1133922720975
 20
755.0850411623346
 42
0.07459289906077718
  0
VERTEX
  8
0
  6
CONTINUOUS
 62
     7
 10
657.4556558054255
 20
754.9157332052135
 42
0.07459289906077718
  0
VERTEX
  8
0
  6
CONTINUOUS
 62
     7
 10
657.8529155742839
 20
754.8250944306079
 42
0.07459289906077718
  0
VERTEX
  8
0
  6
CONTINUOUS
 62
     7
 10
658.2701955883284
 20
754.8211049592196
 42
0.07459289906077718
  0
VERTEX
  8
0
  6
CONTINUOUS
 62
     7
 10
658.670757212323
 20
754.904116036565
 42
0.07459289906077718
  0
VERTEX
  8
0
  6
CONTINUOUS
 62
     7
 10
659.0193337502886
 20
755.066819108224
 42
0.07459289906077718
  0
VERTEX
  8
0
  6
CONTINUOUS
 62
     7
 10
659.2852354355237
 20
755.2948892877886
 42
0.07459289906077718
  0
VERTEX
  8
0
  6
CONTINUOUS
 62
     7
 10
659.4450514534824
 20
755.5682465645868
 42
0.07459289906077718
  0
VERTEX
  8
0
  6
CONTINUOUS
 62
     7
 10
659.4847111029784
 20
755.8628237105143
 42
0.07459289906077718
  0
VERTEX
  8
0
  6
CONTINUOUS
 62
     7
 10
659.4007226246478
 20
756.1526852339374
 42
0.07459289906077718
  0
VERTEX
  8
0
  6
CONTINUOUS
 62
     7
 10
659.2004806263451
 20
756.4123108213505
 42
0.07459289906077718
  0
VERTEX
  8
0
  6
CONTINUOUS
 62
     7
 10
658.9016150387811
 20
756.618842225455
 42
0.07459289906077718
  0
VERTEX
  8
0
  6
CONTINUOUS
 62
     7
 10
658.53043892138
 20
756.7540957766167
 42
0.07459289906077718
  0
VERTEX
  8
0
  6
CONTINUOUS
 62
     7
 10
658.1196317783755
 20
756.8061633299133
 42
-1
  0
SEQEND
  8
0
  0
POLYLINE
  8
0
  6
CONTINUOUS
 62
     7
 66
     1
 10
0
 20
0
  0
VERTEX
  8
0
  6
CONTINUOUS
 62
     7
 10
655.6556571484358
 20
755.9003027646087
 42
0.07398282385211347
  0
VERTEX
  8
0
  6
CONTINUOUS
 62
     7
 10
655.7314334031629
 20
755.3464990217464
 42
0.07398282385211347
  0
VERTEX
  8
0
  6
CONTINUOUS
 62
     7
 10
656.010900767984
 20
754.8338650771495
 42
0.07398282385211347
  0
VERTEX
  8
0
  6
CONTINUOUS
 62
     7
 10
656.4698505317538
 20
754.4068075723448
 42
0.07398282385211347
  0
VERTEX
  8
0
  6
CONTINUOUS
 62
     7
 10
657.0685264164238
 20
754.1023201354891
 42
0.07398282385211347
  0
VERTEX
  8
0
  6
CONTINUOUS
 62
     7
 10
657.7550684433846
 20
753.9467788280987
 42
0.07398282385211347
  0
VERTEX
  8
0
  6
CONTINUOUS
 62
     7
 10
658.4700052764021
 20
753.9536573328132
 42
0.07398282385211347
  0
VERTEX
  8
0
  6
CONTINUOUS
 62
     7
 10
659.1514058943395
 20
754.1223598028372
 42
0.07398282385211347
  0
VERTEX
  8
0
  6
CONTINUOUS
 62
     7
 10
659.7402443327723
 20
754.4382724768504
 42
0.07398282385211347
  0
VERTEX
  8
0
  6
CONTINUOUS
 62
     7
 10
660.1855127766144
 20
754.8740295882733
 42
0.07398282385211347
  0
VERTEX
  8
0
  6
CONTINUOUS
 62
     7
 10
660.4486400848458
 20
755.3918839101739
 42
0.07398282385211347
  0
VERTEX
  8
0
  6
CONTINUOUS
 62
     7
 10
660.5068329949919
 20
755.9469765886311
 42
0.07398282385211347
  0
VERTEX
  8
0
  6
CONTINUOUS
 62
     7
 10
660.3550505773064
 20
756.491223016985
 42
0.07398282385211347
  0
VERTEX
  8
0
  6
CONTINUOUS
 62
     7
 10
660.0064409026172
 20
756.9774781391959
 42
0.07398282385211347
  0
VERTEX
  8
0
  6
CONTINUOUS
 62
     7
 10
659.4912020977157
 20
757.3636203651305
 42
0.07398282385211347
  0
VERTEX
  8
0
  6
CONTINUOUS
 62
     7
 10
658.8539664487607
 20
757.6162003308009
 42
0.07398282385211347
  0
VERTEX
  8
0
  6
CONTINUOUS
 62
     7
 10
658.1499341533386
 20
757.7133384316462
 42
-1
  0
SEQEND
  8
0
  0
ENDSEC
  0
EOF
