  0
SECTION
  2
HEADER
  9
$EXTMAX
 10
108.92817
 20
144.14287
  9
$EXTMIN
 10
-311.07183
 20
-153.71428
  0
ENDSEC
  0
SECTION
  2
TABLES
  0
TABLE
  2
LTYPE
 70
    22
  0
LTYPE
  2
CONTINUOUS
 70
    64
  3
Solid line
 72
    65
 73
     0
 40
0.000000
  0
LTYPE
  2
DASHED
 70
    64
  3
__ __ __ __ __ __ __ __ __ __ __ __ __ __ __
 72
    65
 73
     2
 40
3.500000
 49
2.000000
 49
-1.500000
  0
LTYPE
  2
CENTER
 70
    64
  3
____ _ ____ _ ____ _ ____ _ ____ _ ____ _ ____
 72
    65
 73
     4
 40
17.500000
 49
13.000000
 49
-1.500000
 49
1.500000
 49
-1.500000
  0
LTYPE
  2
PHANTOM
 70
    64
  3
_____ _ _ _____ _ _ _____ _ _ _____ _ _ ____  
 72
    65
 73
     6
 40
15.500000
 49
8.000000
 49
-1.500000
 49
1.500000
 49
-1.500000
 49
1.500000
 49
-1.500000
  0
LTYPE
  2
DOT
 70
    64
  3
. . . . . . . . . . . . . . . . . . . . . . . .
 72
    65
 73
     2
 40
0.25
 49
0.0
 49
-0.25
  0
ENDTAB
  0
TABLE
  2
LAYER
 70
     2
  0
LAYER
  2
0
 70
     0
 62
     7
  6
CONTINUOUS
  0
LAYER
  2
1
 70
     0
 62
     7
  6
CONTINUOUS
  0
ENDTAB
  0
TABLE
  2
STYLE
 70
     1
  0
STYLE
  2
STANDARD
 70
     0
 40
0.000000
 41
1.000000
 50
0.000000
 71
     0
 42
0.200000
  3
txt
  4
BIGFONT
  0
ENDTAB
  0
TABLE
  2
VIEW
 70
     0
  0
ENDTAB
  0
ENDSEC
  0
SECTION
  2
BLOCKS
  0
ENDSEC
  0
SECTION
  2
ENTITIES
  0
POINT
  8
0
  6
CONTINUOUS
 62
     7
 10
-236.51137
 20
57.113636
  0
POINT
  8
0
  6
CONTINUOUS
 62
     7
 10
-147.5229
 20
56.234966
  0
POINT
  8
0
  6
CONTINUOUS
 62
     7
 10
-59.50507
 20
56.234966
  0
POINT
  8
0
  6
CONTINUOUS
 62
     7
 10
40.48951
 20
57.113636
  0
POINT
  8
0
  6
CONTINUOUS
 62
     7
 10
64.084496
 20
-74.985329
  0
POINT
  8
0
  6
CONTINUOUS
 62
     7
 10
-70.307739
 20
-72.349312
  0
POINT
  8
0
  6
CONTINUOUS
 62
     7
 10
-197.87468
 20
-72.349312
  0
LINE
  8
0
  6
CENTER
 62
     7
 10
-401.50162
 20
119.69923
 11
-401.50162
 21
80.453743
  0
LINE
  8
0
  6
CENTER
 62
     7
 10
-419.98352
 20
101.27591
 11
-383.7355
 21
101.27591
  0
LINE
  8
0
  6
CONTINUOUS
 62
     7
 10
-385.80695
 20
101.27591
 11
-390.40381
 21
112.37373
  0
LINE
  8
0
  6
CONTINUOUS
 62
     7
 10
-390.40378
 20
112.37373
 11
-401.50162
 21
116.9706
  0
LINE
  8
0
  6
CONTINUOUS
 62
     7
 10
-412.59943
 20
112.37373
 11
-401.50162
 21
116.97059
  0
LINE
  8
0
  6
CONTINUOUS
 62
     7
 10
-417.19629
 20
101.27592
 11
-412.59943
 21
112.37373
  0
LINE
  8
0
  6
CONTINUOUS
 62
     7
 10
-412.59946
 20
90.178085
 11
-417.19632
 21
101.2759
  0
LINE
  8
0
  6
CONTINUOUS
 62
     7
 10
-401.50162
 20
85.581223
 11
-412.59946
 21
90.178093
  0
LINE
  8
0
  6
CONTINUOUS
 62
     7
 10
-390.40381
 20
90.178085
 11
-401.50162
 21
85.581223
  0
LINE
  8
0
  6
CONTINUOUS
 62
     7
 10
-385.80692
 20
101.27591
 11
-390.40381
 21
90.178093
  0
LINE
  8
0
  6
CENTER
 62
     7
 10
-425.552
 20
56.199329
 11
-377.8042
 21
56.199329
  0
LINE
  8
0
  6
CONTINUOUS
 62
     7
 10
-383.10095
 20
56.199326
 11
-388.49039
 21
69.210556
  0
LINE
  8
0
  6
CONTINUOUS
 62
     7
 10
-388.49039
 20
69.210571
 11
-401.50162
 21
74.599998
  0
LINE
  8
0
  6
CONTINUOUS
 62
     7
 10
-414.51285
 20
69.210564
 11
-401.50165
 21
74.599991
  0
LINE
  8
0
  6
CONTINUOUS
 62
     7
 10
-419.90228
 20
56.199326
 11
-414.51285
 21
69.210564
  0
LINE
  8
0
  6
CONTINUOUS
 62
     7
 10
-414.51288
 20
43.188091
 11
-419.90228
 21
56.199318
  0
LINE
  8
0
  6
CONTINUOUS
 62
     7
 10
-401.50162
 20
37.798664
 11
-414.51285
 21
43.188091
  0
LINE
  8
0
  6
CONTINUOUS
 62
     7
 10
-388.49039
 20
43.188084
 11
-401.50162
 21
37.798656
  0
LINE
  8
0
  6
CONTINUOUS
 62
     7
 10
-383.10095
 20
56.199326
 11
-388.49039
 21
43.188091
  0
LINE
  8
0
  6
CENTER
 62
     7
 10
-401.50162
 20
78.522614
 11
-401.50162
 21
35.072231
  0
LINE
  8
0
  6
CENTER
 62
     7
 10
-430.80862
 20
5.3851457
 11
-372.54755
 21
5.3851457
  0
LINE
  8
0
  6
CONTINUOUS
 62
     7
 10
-378.23019
 20
5.3851414
 11
-385.04623
 21
21.840534
  0
LINE
  8
0
  6
CONTINUOUS
 62
     7
 10
-385.04623
 20
21.840532
 11
-401.50162
 21
28.656578
  0
LINE
  8
0
  6
CONTINUOUS
 62
     7
 10
-417.957
 20
21.840536
 11
-401.50162
 21
28.656582
  0
LINE
  8
0
  6
CONTINUOUS
 62
     7
 10
-424.77307
 20
5.3851485
 11
-417.957
 21
21.84054
  0
LINE
  8
0
  6
CONTINUOUS
 62
     7
 10
-417.957
 20
-11.070247
 11
-424.77307
 21
5.3851457
  0
LINE
  8
0
  6
CONTINUOUS
 62
     7
 10
-401.50162
 20
-17.886288
 11
-417.957
 21
-11.070242
  0
LINE
  8
0
  6
CONTINUOUS
 62
     7
 10
-385.04623
 20
-11.070237
 11
-401.50162
 21
-17.886284
  0
LINE
  8
0
  6
CONTINUOUS
 62
     7
 10
-378.23019
 20
5.3851528
 11
-385.04623
 21
-11.070239
  0
LINE
  8
0
  6
CENTER
 62
     7
 10
-401.50162
 20
31.209974
 11
-401.50162
 21
-20.447704
  0
LINE
  8
0
  6
CENTER
 62
     7
 10
-434.86905
 20
-50.685677
 11
-369.74557
 21
-50.685677
  0
LINE
  8
0
  6
CONTINUOUS
 62
     7
 10
-374.983
 20
-50.685677
 11
-382.75012
 21
-31.934185
  0
LINE
  8
0
  6
CONTINUOUS
 62
     7
 10
-382.75012
 20
-31.934193
 11
-401.50162
 21
-24.167067
  0
LINE
  8
0
  6
CONTINUOUS
 62
     7
 10
-420.25308
 20
-31.934187
 11
-401.50162
 21
-24.167074
  0
LINE
  8
0
  6
CONTINUOUS
 62
     7
 10
-428.02023
 20
-50.685665
 11
-420.25311
 21
-31.934177
  0
LINE
  8
0
  6
CONTINUOUS
 62
     7
 10
-420.25311
 20
-69.437164
 11
-428.02023
 21
-50.685673
  0
LINE
  8
0
  6
CONTINUOUS
 62
     7
 10
-401.50162
 20
-77.204292
 11
-420.25311
 21
-69.437164
  0
LINE
  8
0
  6
CONTINUOUS
 62
     7
 10
-382.75012
 20
-69.437172
 11
-401.50162
 21
-77.204285
  0
LINE
  8
0
  6
CONTINUOUS
 62
     7
 10
-374.98303
 20
-50.685665
 11
-382.75015
 21
-69.437149
  0
LINE
  8
0
  6
CENTER
 62
     7
 10
-401.50162
 20
-21.654659
 11
-401.50162
 21
-81.278244
  0
LINE
  8
0
  6
CENTER
 62
     7
 10
-437.92899
 20
-137.66437
 11
-365.00909
 21
-137.66437
  0
LINE
  8
0
  6
CONTINUOUS
 62
     7
 10
-369.57104
 20
-137.66437
 11
-378.92331
 21
-115.08604
  0
LINE
  8
0
  6
CONTINUOUS
 62
     7
 10
-378.92331
 20
-115.08604
 11
-401.50162
 21
-105.7338
  0
LINE
  8
0
  6
CONTINUOUS
 62
     7
 10
-424.07996
 20
-115.08604
 11
-401.50162
 21
-105.7338
  0
LINE
  8
0
  6
CONTINUOUS
 62
     7
 10
-433.43219
 20
-137.66437
 11
-424.07996
 21
-115.08604
  0
LINE
  8
0
  6
CONTINUOUS
 62
     7
 10
-424.07996
 20
-160.24269
 11
-433.43219
 21
-137.66437
  0
LINE
  8
0
  6
CONTINUOUS
 62
     7
 10
-401.50162
 20
-169.59494
 11
-424.07996
 21
-160.24269
  0
LINE
  8
0
  6
CONTINUOUS
 62
     7
 10
-378.92331
 20
-160.24269
 11
-401.50162
 21
-169.59494
  0
LINE
  8
0
  6
CONTINUOUS
 62
     7
 10
-369.57104
 20
-137.66437
 11
-378.92331
 21
-160.24269
  0
LINE
  8
0
  6
CENTER
 62
     7
 10
-401.50162
 20
-102.03787
 11
-401.50162
 21
-172.52405
  0
LINE
  8
0
  6
CENTER
 62
     7
 10
-448.31732
 20
-241.56189
 11
-358.51984
 21
-241.56189
  0
LINE
  8
0
  6
CONTINUOUS
 62
     7
 10
-364.70029
 20
-241.56189
 11
-375.47916
 21
-215.53941
  0
LINE
  8
0
  6
CONTINUOUS
 62
     7
 10
-375.47913
 20
-215.53943
 11
-401.50162
 21
-204.76056
  0
LINE
  8
0
  6
CONTINUOUS
 62
     7
 10
-427.52408
 20
-215.53941
 11
-401.50162
 21
-204.76056
  0
LINE
  8
0
  6
CONTINUOUS
 62
     7
 10
-438.30298
 20
-241.56189
 11
-427.52411
 21
-215.5394
  0
LINE
  8
0
  6
CONTINUOUS
 62
     7
 10
-427.52408
 20
-267.58435
 11
-438.30295
 21
-241.56189
  0
LINE
  8
0
  6
CONTINUOUS
 62
     7
 10
-401.50162
 20
-278.36322
 11
-427.52411
 21
-267.58438
  0
LINE
  8
0
  6
CONTINUOUS
 62
     7
 10
-375.47916
 20
-267.58435
 11
-401.50162
 21
-278.36322
  0
LINE
  8
0
  6
CONTINUOUS
 62
     7
 10
-364.70029
 20
-241.56187
 11
-375.47916
 21
-267.58435
  0
LINE
  8
0
  6
CENTER
 62
     7
 10
-401.50162
 20
-198.1115
 11
-401.50162
 21
-283.08115
  0
LINE
  8
0
  6
CENTER
 62
     7
 10
-450.48984
 20
-347.29117
 11
-351.5195
 21
-347.29117
  0
LINE
  8
0
  6
CONTINUOUS
 62
     7
 10
-357.12354
 20
-347.29117
 11
-370.12158
 21
-315.9111
  0
LINE
  8
0
  6
CONTINUOUS
 62
     7
 10
-370.12158
 20
-315.9111
 11
-401.50162
 21
-302.91306
  0
LINE
  8
0
  6
CONTINUOUS
 62
     7
 10
-432.88165
 20
-315.9111
 11
-401.50162
 21
-302.91309
  0
LINE
  8
0
  6
CONTINUOUS
 62
     7
 10
-445.8797
 20
-347.29114
 11
-432.88165
 21
-315.9111
  0
LINE
  8
0
  6
CONTINUOUS
 62
     7
 10
-432.88162
 20
-378.67117
 11
-445.87967
 21
-347.29114
  0
LINE
  8
0
  6
CONTINUOUS
 62
     7
 10
-401.50165
 20
-391.66925
 11
-432.88168
 21
-378.6712
  0
LINE
  8
0
  6
CONTINUOUS
 62
     7
 10
-370.12158
 20
-378.6712
 11
-401.50162
 21
-391.66925
  0
LINE
  8
0
  6
CONTINUOUS
 62
     7
 10
-357.12354
 20
-347.29114
 11
-370.12158
 21
-378.6712
  0
LINE
  8
0
  6
CENTER
 62
     7
 10
-401.50162
 20
-297.08182
 11
-401.50162
 21
-397.0177
  0
LINE
  8
0
  6
CONTINUOUS
 62
     7
 10
-262.03403
 20
46.229439
 11
-262.03403
 21
45.386131
  0
LINE
  8
0
  6
CENTER
 62
     7
 10
-277.33224
 20
57.113636
 11
-228.08989
 21
57.113636
  0
LINE
  8
0
  6
CONTINUOUS
 62
     7
 10
-264.51135
 20
49.163635
 11
-262.61136
 21
48.066673
  0
LINE
  8
0
  6
CONTINUOUS
 62
     7
 10
-262.61136
 20
57.113636
 11
-262.61136
 21
42.113632
  0
LINE
  8
0
  6
CONTINUOUS
 62
     7
 10
-251.98872
 20
57.113636
 11
-251.98872
 21
56.517323
  0
LINE
  8
0
  6
CONTINUOUS
 62
     7
 10
-251.41138
 20
57.113636
 11
-251.41138
 21
42.113628
  0
LINE
  8
0
  6
CONTINUOUS
 62
     7
 10
-272.51135
 20
49.163635
 11
-264.51135
 21
49.163635
  0
LINE
  8
0
  6
CONTINUOUS
 62
     7
 10
-262.61136
 20
42.113621
 11
-262.034
 21
41.113628
  0
LINE
  8
0
  6
CONTINUOUS
 62
     7
 10
-262.03403
 20
57.113636
 11
-262.03403
 21
56.517323
  0
LINE
  8
0
  6
CONTINUOUS
 62
     7
 10
-251.98872
 20
46.229439
 11
-251.98872
 21
45.386131
  0
LINE
  8
0
  6
CONTINUOUS
 62
     7
 10
-251.98872
 20
41.113636
 11
-251.41138
 21
42.113628
  0
LINE
  8
0
  6
CONTINUOUS
 62
     7
 10
-272.51135
 20
49.163635
 11
-272.51135
 21
57.113636
  0
LINE
  8
0
  6
CONTINUOUS
 62
     7
 10
-262.03403
 20
41.113632
 11
-251.98872
 21
41.113632
  0
LINE
  8
0
  6
CONTINUOUS
 62
     7
 10
-262.03403
 20
45.386131
 11
-251.98872
 21
45.386131
  0
LINE
  8
0
  6
CONTINUOUS
 62
     7
 10
-262.03403
 20
46.229439
 11
-251.98872
 21
46.229439
  0
LINE
  8
0
  6
CONTINUOUS
 62
     7
 10
-262.03403
 20
56.517323
 11
-251.98872
 21
56.517323
  0
LINE
  8
0
  6
CONTINUOUS
 62
     7
 10
-264.51135
 20
49.163635
 11
-264.51135
 21
57.113636
  0
LINE
  8
0
  6
CENTER
 62
     7
 10
-141.58661
 20
56.234966
 11
-188.91852
 21
56.234966
  0
LINE
  8
0
  6
CONTINUOUS
 62
     7
 10
-164.4229
 20
38.734974
 11
-164.4229
 21
56.234966
  0
LINE
  8
0
  6
CONTINUOUS
 62
     7
 10
-164.4229
 20
38.734962
 11
-165.00024
 21
37.734962
  0
LINE
  8
0
  6
CONTINUOUS
 62
     7
 10
-175.62289
 20
38.734966
 11
-175.62289
 21
56.234966
  0
LINE
  8
0
  6
CONTINUOUS
 62
     7
 10
-175.62291
 20
38.734955
 11
-175.03062
 21
37.734955
  0
LINE
  8
0
  6
CONTINUOUS
 62
     7
 10
-165.00026
 20
56.234966
 11
-165.00026
 21
55.08128
  0
LINE
  8
0
  6
CONTINUOUS
 62
     7
 10
-165.00026
 20
43.994724
 11
-165.00026
 21
42.363171
  0
LINE
  8
0
  6
CONTINUOUS
 62
     7
 10
-175.03062
 20
56.234966
 11
-175.03062
 21
55.08128
  0
LINE
  8
0
  6
CONTINUOUS
 62
     7
 10
-175.03062
 20
37.734962
 11
-165.00026
 21
37.734962
  0
LINE
  8
0
  6
CONTINUOUS
 62
     7
 10
-175.03062
 20
42.363171
 11
-165.00026
 21
42.363171
  0
LINE
  8
0
  6
CONTINUOUS
 62
     7
 10
-175.03062
 20
43.994724
 11
-165.00026
 21
43.994724
  0
LINE
  8
0
  6
CONTINUOUS
 62
     7
 10
-175.03062
 20
43.994724
 11
-175.03062
 21
42.363171
  0
LINE
  8
0
  6
CONTINUOUS
 62
     7
 10
-175.03062
 20
55.08128
 11
-165.00026
 21
55.08128
  0
LINE
  8
0
  6
CONTINUOUS
 62
     7
 10
-177.5229
 20
45.134964
 11
-177.5229
 21
56.234966
  0
LINE
  8
0
  6
CONTINUOUS
 62
     7
 10
-177.5229
 20
45.134964
 11
-185.5229
 21
45.134964
  0
LINE
  8
0
  6
CONTINUOUS
 62
     7
 10
-185.5229
 20
45.134964
 11
-185.5229
 21
56.234966
  0
LINE
  8
0
  6
CONTINUOUS
 62
     7
 10
-177.5229
 20
45.134968
 11
-175.62291
 21
44.038006
  0
LINE
  8
0
  6
CONTINUOUS
 62
     7
 10
-86.927719
 20
41.618355
 11
-86.927719
 21
38.476727
  0
LINE
  8
0
  6
CONTINUOUS
 62
     7
 10
-86.927719
 20
56.234966
 11
-86.927719
 21
54.0135
  0
LINE
  8
0
  6
CONTINUOUS
 62
     7
 10
-87.505051
 20
34.234959
 11
-86.927704
 21
33.234966
  0
LINE
  8
0
  6
CONTINUOUS
 62
     7
 10
-86.927719
 20
54.0135
 11
-78.08242
 21
54.0135
  0
LINE
  8
0
  6
CONTINUOUS
 62
     7
 10
-78.08242
 20
41.618355
 11
-78.08242
 21
38.476727
  0
LINE
  8
0
  6
CONTINUOUS
 62
     7
 10
-77.505074
 20
56.234966
 11
-77.505074
 21
34.234962
  0
LINE
  8
0
  6
CONTINUOUS
 62
     7
 10
-86.927719
 20
41.618355
 11
-78.08242
 21
41.618355
  0
LINE
  8
0
  6
CONTINUOUS
 62
     7
 10
-86.927719
 20
33.234962
 11
-78.08242
 21
33.234962
  0
LINE
  8
0
  6
CONTINUOUS
 62
     7
 10
-86.927719
 20
38.476727
 11
-78.08242
 21
38.476727
  0
LINE
  8
0
  6
CONTINUOUS
 62
     7
 10
-78.08242
 20
56.234966
 11
-78.08242
 21
54.0135
  0
LINE
  8
0
  6
CONTINUOUS
 62
     7
 10
-87.505066
 20
56.234966
 11
-87.505066
 21
34.234962
  0
LINE
  8
0
  6
CENTER
 62
     7
 10
-104.0268
 20
56.234966
 11
-50.121395
 21
56.234966
  0
LINE
  8
0
  6
CONTINUOUS
 62
     7
 10
-78.08242
 20
33.234966
 11
-77.505074
 21
34.234962
  0
LINE
  8
0
  6
CONTINUOUS
 62
     7
 10
-92.505066
 20
56.234966
 11
-92.505066
 21
41.934963
  0
LINE
  8
0
  6
CONTINUOUS
 62
     7
 10
-100.50507
 20
56.234966
 11
-100.50507
 21
41.934963
  0
LINE
  8
0
  6
CONTINUOUS
 62
     7
 10
-100.50507
 20
41.934963
 11
-92.505066
 21
41.934963
  0
LINE
  8
0
  6
CONTINUOUS
 62
     7
 10
-92.505058
 20
41.934967
 11
-87.505058
 21
39.048214
  0
LINE
  8
0
  6
CONTINUOUS
 62
     7
 10
7.9895101
 20
31.613632
 11
8.5668592
 21
30.613634
  0
LINE
  8
0
  6
CONTINUOUS
 62
     7
 10
8.5668602
 20
57.113636
 11
8.5668602
 21
54.017399
  0
LINE
  8
0
  6
CENTER
 62
     7
 10
-6.7483253
 20
57.113636
 11
46.571056
 21
57.113636
  0
LINE
  8
0
  6
CONTINUOUS
 62
     7
 10
20.412159
 20
40.693016
 11
20.412159
 21
36.314274
  0
LINE
  8
0
  6
CONTINUOUS
 62
     7
 10
7.9895096
 20
31.613632
 11
7.9895096
 21
57.113636
  0
LINE
  8
0
  6
CONTINUOUS
 62
     7
 10
20.412159
 20
54.017399
 11
14.48951
 21
54.017399
  0
LINE
  8
0
  6
CONTINUOUS
 62
     7
 10
20.412159
 20
40.693016
 11
14.48951
 21
40.693016
  0
LINE
  8
0
  6
CONTINUOUS
 62
     7
 10
8.5668602
 20
30.613632
 11
14.48951
 21
30.613632
  0
LINE
  8
0
  6
CONTINUOUS
 62
     7
 10
8.5668602
 20
36.314274
 11
14.48951
 21
36.314274
  0
LINE
  8
0
  6
CONTINUOUS
 62
     7
 10
8.5668602
 20
40.693016
 11
14.48951
 21
40.693016
  0
LINE
  8
0
  6
CONTINUOUS
 62
     7
 10
8.5668602
 20
54.017399
 11
14.48951
 21
54.017399
  0
LINE
  8
0
  6
CONTINUOUS
 62
     7
 10
20.412159
 20
36.314274
 11
14.48951
 21
36.314274
  0
LINE
  8
0
  6
CONTINUOUS
 62
     7
 10
20.412159
 20
30.613632
 11
14.48951
 21
30.613632
  0
LINE
  8
0
  6
CONTINUOUS
 62
     7
 10
20.98951
 20
31.613632
 11
20.98951
 21
57.113636
  0
LINE
  8
0
  6
CONTINUOUS
 62
     7
 10
20.412159
 20
57.113636
 11
20.412159
 21
54.017399
  0
LINE
  8
0
  6
CONTINUOUS
 62
     7
 10
20.989511
 20
31.613636
 11
20.412161
 21
30.613634
  0
LINE
  8
0
  6
CONTINUOUS
 62
     7
 10
8.5668602
 20
40.693016
 11
8.5668602
 21
36.314274
  0
LINE
  8
0
  6
CONTINUOUS
 62
     7
 10
-2.5104907
 20
40.113632
 11
5.4895096
 21
40.113632
  0
LINE
  8
0
  6
CONTINUOUS
 62
     7
 10
5.4895105
 20
40.113632
 11
7.9895091
 21
38.670258
  0
LINE
  8
0
  6
CONTINUOUS
 62
     7
 10
-2.5104907
 20
57.113636
 11
-2.5104907
 21
40.113632
  0
LINE
  8
0
  6
CONTINUOUS
 62
     7
 10
5.4895096
 20
57.113636
 11
5.4895096
 21
40.113632
  0
LINE
  8
0
  6
CONTINUOUS
 62
     7
 10
-231.57584
 20
-104.23296
 11
-225.87469
 21
-104.23296
  0
LINE
  8
0
  6
CONTINUOUS
 62
     7
 10
-220.17354
 20
-92.966583
 11
-220.17354
 21
-96.822327
  0
LINE
  8
0
  6
CENTER
 62
     7
 10
-247.40265
 20
-72.349312
 11
-195.69104
 21
-72.349312
  0
LINE
  8
0
  6
CONTINUOUS
 62
     7
 10
-232.37468
 20
-102.84932
 11
-232.37468
 21
-72.349312
  0
LINE
  8
0
  6
CONTINUOUS
 62
     7
 10
-232.37468
 20
-102.84932
 11
-231.57584
 21
-104.23296
  0
LINE
  8
0
  6
CONTINUOUS
 62
     7
 10
-231.57584
 20
-96.822327
 11
-225.87469
 21
-96.822327
  0
LINE
  8
0
  6
CONTINUOUS
 62
     7
 10
-220.17354
 20
-72.349312
 11
-220.17354
 21
-75.075737
  0
LINE
  8
0
  6
CONTINUOUS
 62
     7
 10
-220.17354
 20
-75.075737
 11
-225.87469
 21
-75.075737
  0
LINE
  8
0
  6
CONTINUOUS
 62
     7
 10
-220.17354
 20
-92.966583
 11
-225.87469
 21
-92.966583
  0
LINE
  8
0
  6
CONTINUOUS
 62
     7
 10
-231.57584
 20
-92.966583
 11
-225.87469
 21
-92.966583
  0
LINE
  8
0
  6
CONTINUOUS
 62
     7
 10
-244.87468
 20
-93.699318
 11
-234.87468
 21
-93.699318
  0
LINE
  8
0
  6
CONTINUOUS
 62
     7
 10
-234.87468
 20
-93.69931
 11
-232.37468
 21
-95.142685
  0
LINE
  8
0
  6
CONTINUOUS
 62
     7
 10
-244.87468
 20
-93.699318
 11
-244.87468
 21
-72.349312
  0
LINE
  8
0
  6
CONTINUOUS
 62
     7
 10
-231.57584
 20
-75.075737
 11
-225.87469
 21
-75.075737
  0
LINE
  8
0
  6
CONTINUOUS
 62
     7
 10
-231.57584
 20
-72.349312
 11
-231.57584
 21
-75.075737
  0
LINE
  8
0
  6
CONTINUOUS
 62
     7
 10
-220.17354
 20
-96.822327
 11
-225.87469
 21
-96.822327
  0
LINE
  8
0
  6
CONTINUOUS
 62
     7
 10
-231.57584
 20
-92.966583
 11
-231.57584
 21
-96.822327
  0
LINE
  8
0
  6
CONTINUOUS
 62
     7
 10
-220.17354
 20
-104.23296
 11
-225.87469
 21
-104.23296
  0
LINE
  8
0
  6
CONTINUOUS
 62
     7
 10
-219.37469
 20
-102.84932
 11
-219.37469
 21
-72.349312
  0
LINE
  8
0
  6
CONTINUOUS
 62
     7
 10
-219.37469
 20
-102.84932
 11
-220.17354
 21
-104.23296
  0
LINE
  8
0
  6
CONTINUOUS
 62
     7
 10
-234.87468
 20
-93.699318
 11
-234.87468
 21
-72.349312
  0
LINE
  8
0
  6
CONTINUOUS
 62
     7
 10
-94.307732
 20
-106.3493
 11
-95.173759
 21
-107.84931
  0
LINE
  8
0
  6
CENTER
 62
     7
 10
-68.13562
 20
-72.349312
 11
-122.91667
 21
-72.349312
  0
LINE
  8
0
  6
CONTINUOUS
 62
     7
 10
-95.173767
 20
-75.927475
 11
-101.30774
 21
-75.927475
  0
LINE
  8
0
  6
CONTINUOUS
 62
     7
 10
-95.173767
 20
-107.84931
 11
-101.30774
 21
-107.84931
  0
LINE
  8
0
  6
CONTINUOUS
 62
     7
 10
-107.4417
 20
-107.84931
 11
-101.30774
 21
-107.84931
  0
LINE
  8
0
  6
CONTINUOUS
 62
     7
 10
-108.30772
 20
-106.34931
 11
-107.4417
 21
-107.84931
  0
LINE
  8
0
  6
CONTINUOUS
 62
     7
 10
-95.173767
 20
-72.349312
 11
-95.173767
 21
-75.927475
  0
LINE
  8
0
  6
CONTINUOUS
 62
     7
 10
-107.4417
 20
-72.349312
 11
-107.4417
 21
-75.927475
  0
LINE
  8
0
  6
CONTINUOUS
 62
     7
 10
-95.173767
 20
-94.793625
 11
-101.30774
 21
-94.793625
  0
LINE
  8
0
  6
CONTINUOUS
 62
     7
 10
-95.173767
 20
-99.853912
 11
-101.30774
 21
-99.853912
  0
LINE
  8
0
  6
CONTINUOUS
 62
     7
 10
-95.173767
 20
-94.793625
 11
-95.173767
 21
-99.853912
  0
LINE
  8
0
  6
CONTINUOUS
 62
     7
 10
-108.30772
 20
-106.34931
 11
-108.30772
 21
-72.349312
  0
LINE
  8
0
  6
CONTINUOUS
 62
     7
 10
-107.4417
 20
-94.793625
 11
-107.4417
 21
-99.853912
  0
LINE
  8
0
  6
CONTINUOUS
 62
     7
 10
-107.4417
 20
-99.853912
 11
-101.30774
 21
-99.853912
  0
LINE
  8
0
  6
CONTINUOUS
 62
     7
 10
-107.4417
 20
-94.793625
 11
-101.30774
 21
-94.793625
  0
LINE
  8
0
  6
CONTINUOUS
 62
     7
 10
-94.307739
 20
-106.34931
 11
-94.307739
 21
-72.349312
  0
LINE
  8
0
  6
CONTINUOUS
 62
     7
 10
-107.4417
 20
-75.927475
 11
-101.30774
 21
-75.927475
  0
LINE
  8
0
  6
CONTINUOUS
 62
     7
 10
-110.30774
 20
-96.649315
 11
-108.30772
 21
-97.804024
  0
LINE
  8
0
  6
CONTINUOUS
 62
     7
 10
-110.30774
 20
-96.649315
 11
-120.30775
 21
-96.649315
  0
LINE
  8
0
  6
CONTINUOUS
 62
     7
 10
-120.30775
 20
-72.349312
 11
-120.30775
 21
-96.649315
  0
LINE
  8
0
  6
CONTINUOUS
 62
     7
 10
-110.30774
 20
-96.649315
 11
-110.30774
 21
-72.349312
  0
LINE
  8
0
  6
CONTINUOUS
 62
     7
 10
22.239185
 20
-102.65019
 11
29.084492
 21
-102.65019
  0
LINE
  8
0
  6
CONTINUOUS
 62
     7
 10
22.239185
 20
-102.65019
 11
22.239185
 21
-107.90424
  0
LINE
  8
0
  6
CONTINUOUS
 62
     7
 10
35.929783
 20
-78.7005
 11
29.084492
 21
-78.7005
  0
LINE
  8
0
  6
CENTER
 62
     7
 10
3.7262313
 20
-74.985329
 11
68.567383
 21
-74.985329
  0
LINE
  8
0
  6
CONTINUOUS
 62
     7
 10
21.084488
 20
-115.98533
 11
22.239189
 21
-117.98533
  0
LINE
  8
0
  6
CONTINUOUS
 62
     7
 10
35.929783
 20
-74.985329
 11
35.929783
 21
-78.7005
  0
LINE
  8
0
  6
CONTINUOUS
 62
     7
 10
22.239185
 20
-117.98533
 11
29.084492
 21
-117.98533
  0
LINE
  8
0
  6
CONTINUOUS
 62
     7
 10
35.929783
 20
-107.90424
 11
29.084492
 21
-107.90424
  0
LINE
  8
0
  6
CONTINUOUS
 62
     7
 10
37.084492
 20
-115.98533
 11
37.084492
 21
-74.985329
  0
LINE
  8
0
  6
CONTINUOUS
 62
     7
 10
21.084492
 20
-115.98533
 11
21.084492
 21
-74.985329
  0
LINE
  8
0
  6
CONTINUOUS
 62
     7
 10
35.929783
 20
-117.98533
 11
29.084492
 21
-117.98533
  0
LINE
  8
0
  6
CONTINUOUS
 62
     7
 10
22.239185
 20
-107.90424
 11
29.084492
 21
-107.90424
  0
LINE
  8
0
  6
CONTINUOUS
 62
     7
 10
37.084488
 20
-115.98532
 11
35.929787
 21
-117.98533
  0
LINE
  8
0
  6
CONTINUOUS
 62
     7
 10
22.239185
 20
-74.985329
 11
22.239185
 21
-78.7005
  0
LINE
  8
0
  6
CONTINUOUS
 62
     7
 10
35.929783
 20
-102.65019
 11
29.084492
 21
-102.65019
  0
LINE
  8
0
  6
CONTINUOUS
 62
     7
 10
22.239185
 20
-78.7005
 11
29.084492
 21
-78.7005
  0
LINE
  8
0
  6
CONTINUOUS
 62
     7
 10
35.929783
 20
-102.65019
 11
35.929783
 21
-107.90424
  0
LINE
  8
0
  6
CONTINUOUS
 62
     7
 10
7.0844922
 20
-105.23533
 11
17.084492
 21
-105.23533
  0
LINE
  8
0
  6
CONTINUOUS
 62
     7
 10
17.084492
 20
-105.23533
 11
21.084488
 21
-107.54473
  0
LINE
  8
0
  6
CONTINUOUS
 62
     7
 10
17.084492
 20
-105.23533
 11
17.084492
 21
-74.985329
  0
LINE
  8
0
  6
CONTINUOUS
 62
     7
 10
7.0844922
 20
-105.23533
 11
7.0844922
 21
-74.985329
  0
LINE
  8
0
  6
CONTINUOUS
 62
     7
 10
-236.51137
 20
57.113636
 11
-236.51137
 21
46.613632
  0
LINE
  8
0
  6
CONTINUOUS
 62
     7
 10
-247.51137
 20
43.492313
 11
-247.51137
 21
42.613632
  0
LINE
  8
0
  6
CONTINUOUS
 62
     7
 10
-247.51137
 20
42.613632
 11
-240.51137
 21
42.613632
  0
LINE
  8
0
  6
CONTINUOUS
 62
     7
 10
-248.01137
 20
43.113628
 11
-247.51137
 21
42.61364
  0
LINE
  8
0
  6
CONTINUOUS
 62
     7
 10
-247.51137
 20
52.350178
 11
-247.51137
 21
50.228291
  0
LINE
  8
0
  6
CONTINUOUS
 62
     7
 10
-247.51137
 20
43.492313
 11
-240.51137
 21
43.492313
  0
LINE
  8
0
  6
CONTINUOUS
 62
     7
 10
-247.51137
 20
52.350178
 11
-240.51137
 21
52.350178
  0
LINE
  8
0
  6
CONTINUOUS
 62
     7
 10
-247.51137
 20
50.228291
 11
-240.51137
 21
50.228291
  0
LINE
  8
0
  6
CONTINUOUS
 62
     7
 10
-240.51137
 20
57.113636
 11
-240.51137
 21
42.613632
  0
LINE
  8
0
  6
CONTINUOUS
 62
     7
 10
-248.01137
 20
57.113636
 11
-248.01137
 21
43.113632
  0
LINE
  8
0
  6
CONTINUOUS
 62
     7
 10
-147.5229
 20
56.234966
 11
-147.5229
 21
44.234962
  0
LINE
  8
0
  6
CONTINUOUS
 62
     7
 10
-152.5229
 20
56.234966
 11
-152.5229
 21
39.234962
  0
LINE
  8
0
  6
CONTINUOUS
 62
     7
 10
-160.5229
 20
50.435974
 11
-152.5229
 21
50.435974
  0
LINE
  8
0
  6
CONTINUOUS
 62
     7
 10
-160.5229
 20
50.435974
 11
-160.5229
 21
48.314655
  0
LINE
  8
0
  6
CONTINUOUS
 62
     7
 10
-160.5229
 20
40.113644
 11
-160.5229
 21
39.234962
  0
LINE
  8
0
  6
CONTINUOUS
 62
     7
 10
-160.5229
 20
40.113644
 11
-152.5229
 21
40.113644
  0
LINE
  8
0
  6
CONTINUOUS
 62
     7
 10
-160.5229
 20
39.234962
 11
-152.5229
 21
39.234962
  0
LINE
  8
0
  6
CONTINUOUS
 62
     7
 10
-160.5229
 20
39.234966
 11
-161.0229
 21
39.734966
  0
LINE
  8
0
  6
CONTINUOUS
 62
     7
 10
-160.5229
 20
48.314655
 11
-152.5229
 21
48.314655
  0
LINE
  8
0
  6
CONTINUOUS
 62
     7
 10
-161.0229
 20
56.234966
 11
-161.0229
 21
39.734962
  0
LINE
  8
0
  6
CONTINUOUS
 62
     7
 10
-73.505074
 20
36.341751
 11
-64.505074
 21
36.341751
  0
LINE
  8
0
  6
CONTINUOUS
 62
     7
 10
-74.005066
 20
35.234959
 11
-73.505066
 21
34.734962
  0
LINE
  8
0
  6
CONTINUOUS
 62
     7
 10
-73.505074
 20
36.341751
 11
-73.505074
 21
34.734966
  0
LINE
  8
0
  6
CONTINUOUS
 62
     7
 10
-73.505074
 20
49.601715
 11
-73.505074
 21
45.722584
  0
LINE
  8
0
  6
CONTINUOUS
 62
     7
 10
-73.505074
 20
34.734966
 11
-64.505074
 21
34.734966
  0
LINE
  8
0
  6
CONTINUOUS
 62
     7
 10
-59.50507
 20
56.234966
 11
-59.50507
 21
39.734966
  0
LINE
  8
0
  6
CONTINUOUS
 62
     7
 10
-64.505074
 20
56.234966
 11
-64.505074
 21
34.734966
  0
LINE
  8
0
  6
CONTINUOUS
 62
     7
 10
-73.505074
 20
45.722584
 11
-64.505074
 21
45.722584
  0
LINE
  8
0
  6
CONTINUOUS
 62
     7
 10
-73.505074
 20
49.601715
 11
-64.505074
 21
49.601715
  0
LINE
  8
0
  6
CONTINUOUS
 62
     7
 10
-74.005074
 20
56.234966
 11
-74.005074
 21
35.234966
  0
LINE
  8
0
  6
CONTINUOUS
 62
     7
 10
25.089508
 20
33.63525
 11
25.089508
 21
32.613636
  0
LINE
  8
0
  6
CONTINUOUS
 62
     7
 10
25.089508
 20
33.63525
 11
35.48951
 21
33.63525
  0
LINE
  8
0
  6
CONTINUOUS
 62
     7
 10
25.089508
 20
48.410187
 11
35.48951
 21
48.410187
  0
LINE
  8
0
  6
CONTINUOUS
 62
     7
 10
25.089508
 20
48.410187
 11
25.089508
 21
45.943783
  0
LINE
  8
0
  6
CONTINUOUS
 62
     7
 10
40.48951
 20
57.113636
 11
40.48951
 21
37.613636
  0
LINE
  8
0
  6
CONTINUOUS
 62
     7
 10
24.58951
 20
33.113632
 11
25.08951
 21
32.613632
  0
LINE
  8
0
  6
CONTINUOUS
 62
     7
 10
25.089508
 20
32.613636
 11
35.48951
 21
32.613636
  0
LINE
  8
0
  6
CONTINUOUS
 62
     7
 10
35.48951
 20
57.113636
 11
35.48951
 21
32.613636
  0
LINE
  8
0
  6
CONTINUOUS
 62
     7
 10
25.089508
 20
45.943783
 11
35.48951
 21
45.943783
  0
LINE
  8
0
  6
CONTINUOUS
 62
     7
 10
24.589508
 20
57.113636
 11
24.589508
 21
33.113636
  0
LINE
  8
0
  6
CONTINUOUS
 62
     7
 10
-215.27469
 20
-81.875595
 11
-203.87468
 21
-81.875595
  0
LINE
  8
0
  6
CONTINUOUS
 62
     7
 10
-203.87468
 20
-72.349312
 11
-203.87468
 21
-101.84931
  0
LINE
  8
0
  6
CONTINUOUS
 62
     7
 10
-215.77469
 20
-101.34931
 11
-215.27469
 21
-101.84931
  0
LINE
  8
0
  6
CONTINUOUS
 62
     7
 10
-215.27469
 20
-99.945061
 11
-203.87468
 21
-99.945061
  0
LINE
  8
0
  6
CONTINUOUS
 62
     7
 10
-215.27469
 20
-86.47287
 11
-203.87468
 21
-86.47287
  0
LINE
  8
0
  6
CONTINUOUS
 62
     7
 10
-215.27469
 20
-101.84931
 11
-203.87468
 21
-101.84931
  0
LINE
  8
0
  6
CONTINUOUS
 62
     7
 10
-197.87468
 20
-72.349312
 11
-197.87468
 21
-95.849312
  0
LINE
  8
0
  6
CONTINUOUS
 62
     7
 10
-215.27469
 20
-81.875595
 11
-215.27469
 21
-86.47287
  0
LINE
  8
0
  6
CONTINUOUS
 62
     7
 10
-215.27469
 20
-99.945061
 11
-215.27469
 21
-101.84931
  0
LINE
  8
0
  6
CONTINUOUS
 62
     7
 10
-215.77469
 20
-72.349312
 11
-215.77469
 21
-101.34932
  0
LINE
  8
0
  6
CONTINUOUS
 62
     7
 10
-89.807755
 20
-106.34932
 11
-90.307747
 21
-105.84933
  0
LINE
  8
0
  6
CONTINUOUS
 62
     7
 10
-89.807739
 20
-103.61071
 11
-89.807739
 21
-106.34931
  0
LINE
  8
0
  6
CONTINUOUS
 62
     7
 10
-89.807739
 20
-106.34931
 11
-78.307739
 21
-106.34931
  0
LINE
  8
0
  6
CONTINUOUS
 62
     7
 10
-89.807739
 20
-103.61071
 11
-78.307739
 21
-103.61071
  0
LINE
  8
0
  6
CONTINUOUS
 62
     7
 10
-70.307739
 20
-72.349312
 11
-70.307739
 21
-98.349312
  0
LINE
  8
0
  6
CONTINUOUS
 62
     7
 10
-89.807739
 20
-82.559601
 11
-89.807739
 21
-89.171181
  0
LINE
  8
0
  6
CONTINUOUS
 62
     7
 10
-89.807739
 20
-89.171181
 11
-78.307739
 21
-89.171181
  0
LINE
  8
0
  6
CONTINUOUS
 62
     7
 10
-78.307739
 20
-72.349312
 11
-78.307739
 21
-106.34931
  0
LINE
  8
0
  6
CONTINUOUS
 62
     7
 10
-89.807739
 20
-82.559601
 11
-78.307739
 21
-82.559601
  0
LINE
  8
0
  6
CONTINUOUS
 62
     7
 10
-90.307739
 20
-72.349312
 11
-90.307739
 21
-105.84931
  0
LINE
  8
0
  6
CONTINUOUS
 62
     7
 10
41.084492
 20
-115.98533
 11
56.084492
 21
-115.98533
  0
LINE
  8
0
  6
CONTINUOUS
 62
     7
 10
41.084488
 20
-115.98534
 11
40.584488
 21
-115.48534
  0
LINE
  8
0
  6
CONTINUOUS
 62
     7
 10
41.084492
 20
-113.14185
 11
41.084492
 21
-115.98533
  0
LINE
  8
0
  6
CONTINUOUS
 62
     7
 10
64.084496
 20
-74.985329
 11
64.084496
 21
-107.98533
  0
LINE
  8
0
  6
CONTINUOUS
 62
     7
 10
41.084492
 20
-113.14185
 11
56.084492
 21
-113.14185
  0
LINE
  8
0
  6
CONTINUOUS
 62
     7
 10
41.084492
 20
-87.946808
 11
56.084492
 21
-87.946808
  0
LINE
  8
0
  6
CONTINUOUS
 62
     7
 10
56.084492
 20
-74.985329
 11
56.084492
 21
-115.98533
  0
LINE
  8
0
  6
CONTINUOUS
 62
     7
 10
41.084492
 20
-94.811554
 11
56.084492
 21
-94.811554
  0
LINE
  8
0
  6
CONTINUOUS
 62
     7
 10
41.084492
 20
-87.946808
 11
41.084492
 21
-94.811554
  0
LINE
  8
0
  6
CONTINUOUS
 62
     7
 10
40.584492
 20
-74.985329
 11
40.584492
 21
-115.48533
  0
LINE
  8
0
  6
CONTINUOUS
 62
     7
 10
-251.41138
 20
43.25573
 11
-248.01137
 21
43.25573
  0
LINE
  8
0
  6
CONTINUOUS
 62
     7
 10
-262.03403
 20
67.997833
 11
-262.03403
 21
68.841141
  0
LINE
  8
0
  6
CONTINUOUS
 62
     7
 10
-264.51135
 20
65.063629
 11
-262.61136
 21
66.160591
  0
LINE
  8
0
  6
CONTINUOUS
 62
     7
 10
-262.61136
 20
57.113636
 11
-262.61136
 21
72.113647
  0
LINE
  8
0
  6
CONTINUOUS
 62
     7
 10
-251.98872
 20
57.113636
 11
-251.98872
 21
57.709949
  0
LINE
  8
0
  6
CONTINUOUS
 62
     7
 10
-251.41138
 20
57.113636
 11
-251.41138
 21
72.113647
  0
LINE
  8
0
  6
CONTINUOUS
 62
     7
 10
-272.51135
 20
65.063644
 11
-264.51135
 21
65.063644
  0
LINE
  8
0
  6
CONTINUOUS
 62
     7
 10
-262.61136
 20
72.11364
 11
-262.034
 21
73.11364
  0
LINE
  8
0
  6
CONTINUOUS
 62
     7
 10
-262.03403
 20
57.113636
 11
-262.03403
 21
57.709949
  0
LINE
  8
0
  6
CONTINUOUS
 62
     7
 10
-251.98872
 20
67.997833
 11
-251.98872
 21
68.841141
  0
LINE
  8
0
  6
CONTINUOUS
 62
     7
 10
-251.98871
 20
73.11364
 11
-251.41136
 21
72.113647
  0
LINE
  8
0
  6
CONTINUOUS
 62
     7
 10
-272.51135
 20
65.063644
 11
-272.51135
 21
57.113636
  0
LINE
  8
0
  6
CONTINUOUS
 62
     7
 10
-262.03403
 20
73.113647
 11
-251.98872
 21
73.113647
  0
LINE
  8
0
  6
CONTINUOUS
 62
     7
 10
-262.03403
 20
68.841141
 11
-251.98872
 21
68.841141
  0
LINE
  8
0
  6
CONTINUOUS
 62
     7
 10
-262.03403
 20
67.997833
 11
-251.98872
 21
67.997833
  0
LINE
  8
0
  6
CONTINUOUS
 62
     7
 10
-262.03403
 20
57.709949
 11
-251.98872
 21
57.709949
  0
LINE
  8
0
  6
CONTINUOUS
 62
     7
 10
-264.51135
 20
65.063644
 11
-264.51135
 21
57.113636
  0
LINE
  8
0
  6
CONTINUOUS
 62
     7
 10
-236.51137
 20
57.113636
 11
-236.51137
 21
67.613647
  0
LINE
  8
0
  6
CONTINUOUS
 62
     7
 10
-247.51137
 20
70.734962
 11
-247.51137
 21
71.613647
  0
LINE
  8
0
  6
CONTINUOUS
 62
     7
 10
-247.51137
 20
71.613647
 11
-240.51137
 21
71.613647
  0
LINE
  8
0
  6
CONTINUOUS
 62
     7
 10
-248.01135
 20
71.11364
 11
-247.51137
 21
71.613625
  0
LINE
  8
0
  6
CONTINUOUS
 62
     7
 10
-247.51137
 20
61.877094
 11
-247.51137
 21
63.998981
  0
LINE
  8
0
  6
CONTINUOUS
 62
     7
 10
-247.51137
 20
70.734962
 11
-240.51137
 21
70.734962
  0
LINE
  8
0
  6
CONTINUOUS
 62
     7
 10
-247.51137
 20
61.877094
 11
-240.51137
 21
61.877094
  0
LINE
  8
0
  6
CONTINUOUS
 62
     7
 10
-247.51137
 20
63.998981
 11
-240.51137
 21
63.998981
  0
LINE
  8
0
  6
CONTINUOUS
 62
     7
 10
-240.51137
 20
57.113636
 11
-240.51137
 21
71.613647
  0
LINE
  8
0
  6
CONTINUOUS
 62
     7
 10
-248.01137
 20
57.113636
 11
-248.01137
 21
71.113647
  0
LINE
  8
0
  6
CONTINUOUS
 62
     7
 10
-251.41138
 20
70.971542
 11
-248.01137
 21
70.971542
  0
LINE
  8
0
  6
CONTINUOUS
 62
     7
 10
-164.4229
 20
39.910015
 11
-161.0229
 21
39.910015
  0
LINE
  8
0
  6
CONTINUOUS
 62
     7
 10
-164.4229
 20
73.734955
 11
-164.4229
 21
56.234966
  0
LINE
  8
0
  6
CONTINUOUS
 62
     7
 10
-164.4229
 20
73.734978
 11
-165.00024
 21
74.73497
  0
LINE
  8
0
  6
CONTINUOUS
 62
     7
 10
-175.62289
 20
73.734962
 11
-175.62289
 21
56.234966
  0
LINE
  8
0
  6
CONTINUOUS
 62
     7
 10
-175.62289
 20
73.73497
 11
-175.03062
 21
74.73497
  0
LINE
  8
0
  6
CONTINUOUS
 62
     7
 10
-165.00026
 20
56.234966
 11
-165.00026
 21
57.388653
  0
LINE
  8
0
  6
CONTINUOUS
 62
     7
 10
-165.00026
 20
68.475204
 11
-165.00026
 21
70.106758
  0
LINE
  8
0
  6
CONTINUOUS
 62
     7
 10
-175.03062
 20
56.234966
 11
-175.03062
 21
57.388653
  0
LINE
  8
0
  6
CONTINUOUS
 62
     7
 10
-175.03062
 20
74.73497
 11
-165.00026
 21
74.73497
  0
LINE
  8
0
  6
CONTINUOUS
 62
     7
 10
-175.03062
 20
70.106758
 11
-165.00026
 21
70.106758
  0
LINE
  8
0
  6
CONTINUOUS
 62
     7
 10
-175.03062
 20
68.475204
 11
-165.00026
 21
68.475204
  0
LINE
  8
0
  6
CONTINUOUS
 62
     7
 10
-175.03062
 20
68.475204
 11
-175.03062
 21
70.106758
  0
LINE
  8
0
  6
CONTINUOUS
 62
     7
 10
-175.03062
 20
57.388653
 11
-165.00026
 21
57.388653
  0
LINE
  8
0
  6
CONTINUOUS
 62
     7
 10
-177.5229
 20
67.334969
 11
-177.5229
 21
56.234966
  0
LINE
  8
0
  6
CONTINUOUS
 62
     7
 10
-177.5229
 20
67.334969
 11
-185.5229
 21
67.334969
  0
LINE
  8
0
  6
CONTINUOUS
 62
     7
 10
-185.5229
 20
67.334969
 11
-185.5229
 21
56.234966
  0
LINE
  8
0
  6
CONTINUOUS
 62
     7
 10
-177.5229
 20
67.334969
 11
-175.62291
 21
68.431931
  0
LINE
  8
0
  6
CONTINUOUS
 62
     7
 10
-147.5229
 20
56.234966
 11
-147.5229
 21
68.23497
  0
LINE
  8
0
  6
CONTINUOUS
 62
     7
 10
-152.5229
 20
56.234966
 11
-152.5229
 21
73.23497
  0
LINE
  8
0
  6
CONTINUOUS
 62
     7
 10
-160.5229
 20
62.033958
 11
-152.5229
 21
62.033958
  0
LINE
  8
0
  6
CONTINUOUS
 62
     7
 10
-160.5229
 20
62.033958
 11
-160.5229
 21
64.155273
  0
LINE
  8
0
  6
CONTINUOUS
 62
     7
 10
-160.5229
 20
72.356285
 11
-160.5229
 21
73.23497
  0
LINE
  8
0
  6
CONTINUOUS
 62
     7
 10
-160.5229
 20
72.356285
 11
-152.5229
 21
72.356285
  0
LINE
  8
0
  6
CONTINUOUS
 62
     7
 10
-160.5229
 20
73.23497
 11
-152.5229
 21
73.23497
  0
LINE
  8
0
  6
CONTINUOUS
 62
     7
 10
-160.5229
 20
73.23497
 11
-161.0229
 21
72.73497
  0
LINE
  8
0
  6
CONTINUOUS
 62
     7
 10
-160.5229
 20
64.155273
 11
-152.5229
 21
64.155273
  0
LINE
  8
0
  6
CONTINUOUS
 62
     7
 10
-161.0229
 20
56.234966
 11
-161.0229
 21
72.73497
  0
LINE
  8
0
  6
CONTINUOUS
 62
     7
 10
-164.4229
 20
72.559914
 11
-161.0229
 21
72.559914
  0
LINE
  8
0
  6
CONTINUOUS
 62
     7
 10
-77.505074
 20
35.4538
 11
-74.005074
 21
35.4538
  0
LINE
  8
0
  6
CONTINUOUS
 62
     7
 10
-86.927719
 20
70.851578
 11
-86.927719
 21
73.993202
  0
LINE
  8
0
  6
CONTINUOUS
 62
     7
 10
-86.927719
 20
56.234966
 11
-86.927719
 21
58.456432
  0
LINE
  8
0
  6
CONTINUOUS
 62
     7
 10
-87.505051
 20
78.23497
 11
-86.927704
 21
79.23497
  0
LINE
  8
0
  6
CONTINUOUS
 62
     7
 10
-86.927719
 20
58.456432
 11
-78.08242
 21
58.456432
  0
LINE
  8
0
  6
CONTINUOUS
 62
     7
 10
-78.08242
 20
70.851578
 11
-78.08242
 21
73.993202
  0
LINE
  8
0
  6
CONTINUOUS
 62
     7
 10
-77.505074
 20
56.234966
 11
-77.505074
 21
78.23497
  0
LINE
  8
0
  6
CONTINUOUS
 62
     7
 10
-86.927719
 20
70.851578
 11
-78.08242
 21
70.851578
  0
LINE
  8
0
  6
CONTINUOUS
 62
     7
 10
-86.927719
 20
79.23497
 11
-78.08242
 21
79.23497
  0
LINE
  8
0
  6
CONTINUOUS
 62
     7
 10
-86.927719
 20
73.993202
 11
-78.08242
 21
73.993202
  0
LINE
  8
0
  6
CONTINUOUS
 62
     7
 10
-78.08242
 20
56.234966
 11
-78.08242
 21
58.456432
  0
LINE
  8
0
  6
CONTINUOUS
 62
     7
 10
-87.505066
 20
56.234966
 11
-87.505066
 21
78.23497
  0
LINE
  8
0
  6
CONTINUOUS
 62
     7
 10
-78.08242
 20
79.23497
 11
-77.505074
 21
78.23497
  0
LINE
  8
0
  6
CONTINUOUS
 62
     7
 10
-92.505066
 20
56.234966
 11
-92.505066
 21
70.534966
  0
LINE
  8
0
  6
CONTINUOUS
 62
     7
 10
-100.50507
 20
56.234966
 11
-100.50507
 21
70.534966
  0
LINE
  8
0
  6
CONTINUOUS
 62
     7
 10
-100.50507
 20
70.534966
 11
-92.505066
 21
70.534966
  0
LINE
  8
0
  6
CONTINUOUS
 62
     7
 10
-92.505058
 20
70.534966
 11
-87.505051
 21
73.421715
  0
LINE
  8
0
  6
CONTINUOUS
 62
     7
 10
-73.505074
 20
76.128181
 11
-64.505074
 21
76.128181
  0
LINE
  8
0
  6
CONTINUOUS
 62
     7
 10
-74.005066
 20
77.23497
 11
-73.505074
 21
77.734962
  0
LINE
  8
0
  6
CONTINUOUS
 62
     7
 10
-73.505074
 20
76.128181
 11
-73.505074
 21
77.734962
  0
LINE
  8
0
  6
CONTINUOUS
 62
     7
 10
-73.505074
 20
62.868217
 11
-73.505074
 21
66.747345
  0
LINE
  8
0
  6
CONTINUOUS
 62
     7
 10
-73.505074
 20
77.734962
 11
-64.505074
 21
77.734962
  0
LINE
  8
0
  6
CONTINUOUS
 62
     7
 10
-59.50507
 20
56.234966
 11
-59.50507
 21
72.734962
  0
LINE
  8
0
  6
CONTINUOUS
 62
     7
 10
-64.505074
 20
56.234966
 11
-64.505074
 21
77.734962
  0
LINE
  8
0
  6
CONTINUOUS
 62
     7
 10
-73.505074
 20
66.747345
 11
-64.505074
 21
66.747345
  0
LINE
  8
0
  6
CONTINUOUS
 62
     7
 10
-73.505074
 20
62.868217
 11
-64.505074
 21
62.868217
  0
LINE
  8
0
  6
CONTINUOUS
 62
     7
 10
-74.005074
 20
56.234966
 11
-74.005074
 21
77.234962
  0
LINE
  8
0
  6
CONTINUOUS
 62
     7
 10
-77.505074
 20
77.016129
 11
-74.005074
 21
77.016129
  0
LINE
  8
0
  6
CONTINUOUS
 62
     7
 10
20.98951
 20
33.293324
 11
24.589508
 21
33.293324
  0
LINE
  8
0
  6
CONTINUOUS
 62
     7
 10
7.9895101
 20
82.61364
 11
8.5668573
 21
83.61364
  0
LINE
  8
0
  6
CONTINUOUS
 62
     7
 10
8.5668602
 20
57.113636
 11
8.5668602
 21
60.209873
  0
LINE
  8
0
  6
CONTINUOUS
 62
     7
 10
20.412159
 20
73.534256
 11
20.412159
 21
77.913002
  0
LINE
  8
0
  6
CONTINUOUS
 62
     7
 10
7.9895096
 20
82.61364
 11
7.9895096
 21
57.113636
  0
LINE
  8
0
  6
CONTINUOUS
 62
     7
 10
20.412159
 20
60.209873
 11
14.48951
 21
60.209873
  0
LINE
  8
0
  6
CONTINUOUS
 62
     7
 10
20.412159
 20
73.534256
 11
14.48951
 21
73.534256
  0
LINE
  8
0
  6
CONTINUOUS
 62
     7
 10
8.5668602
 20
83.61364
 11
14.48951
 21
83.61364
  0
LINE
  8
0
  6
CONTINUOUS
 62
     7
 10
8.5668602
 20
77.913002
 11
14.48951
 21
77.913002
  0
LINE
  8
0
  6
CONTINUOUS
 62
     7
 10
8.5668602
 20
73.534256
 11
14.48951
 21
73.534256
  0
LINE
  8
0
  6
CONTINUOUS
 62
     7
 10
8.5668602
 20
60.209873
 11
14.48951
 21
60.209873
  0
LINE
  8
0
  6
CONTINUOUS
 62
     7
 10
20.412159
 20
77.913002
 11
14.48951
 21
77.913002
  0
LINE
  8
0
  6
CONTINUOUS
 62
     7
 10
20.412159
 20
83.61364
 11
14.48951
 21
83.61364
  0
LINE
  8
0
  6
CONTINUOUS
 62
     7
 10
20.98951
 20
82.61364
 11
20.98951
 21
57.113636
  0
LINE
  8
0
  6
CONTINUOUS
 62
     7
 10
20.412159
 20
57.113636
 11
20.412159
 21
60.209873
  0
LINE
  8
0
  6
CONTINUOUS
 62
     7
 10
20.98951
 20
82.61364
 11
20.412159
 21
83.61364
  0
LINE
  8
0
  6
CONTINUOUS
 62
     7
 10
8.5668602
 20
73.534256
 11
8.5668602
 21
77.913002
  0
LINE
  8
0
  6
CONTINUOUS
 62
     7
 10
-2.5104907
 20
74.11364
 11
5.4895096
 21
74.11364
  0
LINE
  8
0
  6
CONTINUOUS
 62
     7
 10
5.4895105
 20
74.11364
 11
7.9895091
 21
75.557014
  0
LINE
  8
0
  6
CONTINUOUS
 62
     7
 10
-2.5104907
 20
57.113636
 11
-2.5104907
 21
74.11364
  0
LINE
  8
0
  6
CONTINUOUS
 62
     7
 10
5.4895096
 20
57.113636
 11
5.4895096
 21
74.11364
  0
LINE
  8
0
  6
CONTINUOUS
 62
     7
 10
25.089508
 20
80.592026
 11
25.089508
 21
81.61364
  0
LINE
  8
0
  6
CONTINUOUS
 62
     7
 10
25.089508
 20
80.592026
 11
35.48951
 21
80.592026
  0
LINE
  8
0
  6
CONTINUOUS
 62
     7
 10
25.089508
 20
65.817085
 11
35.48951
 21
65.817085
  0
LINE
  8
0
  6
CONTINUOUS
 62
     7
 10
25.089508
 20
65.817085
 11
25.089508
 21
68.283493
  0
LINE
  8
0
  6
CONTINUOUS
 62
     7
 10
40.48951
 20
57.113636
 11
40.48951
 21
76.61364
  0
LINE
  8
0
  6
CONTINUOUS
 62
     7
 10
24.589508
 20
81.11364
 11
25.089508
 21
81.61364
  0
LINE
  8
0
  6
CONTINUOUS
 62
     7
 10
25.089508
 20
81.61364
 11
35.48951
 21
81.61364
  0
LINE
  8
0
  6
CONTINUOUS
 62
     7
 10
35.48951
 20
57.113636
 11
35.48951
 21
81.61364
  0
LINE
  8
0
  6
CONTINUOUS
 62
     7
 10
25.089508
 20
68.283493
 11
35.48951
 21
68.283493
  0
LINE
  8
0
  6
CONTINUOUS
 62
     7
 10
24.589508
 20
57.113636
 11
24.589508
 21
81.11364
  0
LINE
  8
0
  6
CONTINUOUS
 62
     7
 10
20.98951
 20
80.933952
 11
24.589508
 21
80.933952
  0
LINE
  8
0
  6
CONTINUOUS
 62
     7
 10
-219.37469
 20
-101.09016
 11
-215.77469
 21
-101.09016
  0
LINE
  8
0
  6
CONTINUOUS
 62
     7
 10
-231.57584
 20
-40.465668
 11
-225.87469
 21
-40.465668
  0
LINE
  8
0
  6
CONTINUOUS
 62
     7
 10
-220.17354
 20
-51.73204
 11
-220.17354
 21
-47.876301
  0
LINE
  8
0
  6
CONTINUOUS
 62
     7
 10
-232.37468
 20
-41.849308
 11
-232.37468
 21
-72.349312
  0
LINE
  8
0
  6
CONTINUOUS
 62
     7
 10
-232.37468
 20
-41.849319
 11
-231.57584
 21
-40.465668
  0
LINE
  8
0
  6
CONTINUOUS
 62
     7
 10
-231.57584
 20
-47.876301
 11
-225.87469
 21
-47.876301
  0
LINE
  8
0
  6
CONTINUOUS
 62
     7
 10
-220.17354
 20
-72.349312
 11
-220.17354
 21
-69.622887
  0
LINE
  8
0
  6
CONTINUOUS
 62
     7
 10
-220.17354
 20
-69.622887
 11
-225.87469
 21
-69.622887
  0
LINE
  8
0
  6
CONTINUOUS
 62
     7
 10
-220.17354
 20
-51.73204
 11
-225.87469
 21
-51.73204
  0
LINE
  8
0
  6
CONTINUOUS
 62
     7
 10
-231.57584
 20
-51.73204
 11
-225.87469
 21
-51.73204
  0
LINE
  8
0
  6
CONTINUOUS
 62
     7
 10
-244.87468
 20
-50.99931
 11
-234.87468
 21
-50.99931
  0
LINE
  8
0
  6
CONTINUOUS
 62
     7
 10
-234.87469
 20
-50.999313
 11
-232.37468
 21
-49.555931
  0
LINE
  8
0
  6
CONTINUOUS
 62
     7
 10
-244.87468
 20
-50.99931
 11
-244.87468
 21
-72.349312
  0
LINE
  8
0
  6
CONTINUOUS
 62
     7
 10
-231.57584
 20
-69.622887
 11
-225.87469
 21
-69.622887
  0
LINE
  8
0
  6
CONTINUOUS
 62
     7
 10
-231.57584
 20
-72.349312
 11
-231.57584
 21
-69.622887
  0
LINE
  8
0
  6
CONTINUOUS
 62
     7
 10
-220.17354
 20
-47.876301
 11
-225.87469
 21
-47.876301
  0
LINE
  8
0
  6
CONTINUOUS
 62
     7
 10
-231.57584
 20
-51.73204
 11
-231.57584
 21
-47.876301
  0
LINE
  8
0
  6
CONTINUOUS
 62
     7
 10
-220.17354
 20
-40.465668
 11
-225.87469
 21
-40.465668
  0
LINE
  8
0
  6
CONTINUOUS
 62
     7
 10
-219.37469
 20
-41.849308
 11
-219.37469
 21
-72.349312
  0
LINE
  8
0
  6
CONTINUOUS
 62
     7
 10
-219.37471
 20
-41.849312
 11
-220.17355
 21
-40.465668
  0
LINE
  8
0
  6
CONTINUOUS
 62
     7
 10
-234.87468
 20
-50.99931
 11
-234.87468
 21
-72.349312
  0
LINE
  8
0
  6
CONTINUOUS
 62
     7
 10
-215.27469
 20
-62.823029
 11
-203.87468
 21
-62.823029
  0
LINE
  8
0
  6
CONTINUOUS
 62
     7
 10
-203.87468
 20
-72.349312
 11
-203.87468
 21
-42.849312
  0
LINE
  8
0
  6
CONTINUOUS
 62
     7
 10
-215.77467
 20
-43.349308
 11
-215.27467
 21
-42.849308
  0
LINE
  8
0
  6
CONTINUOUS
 62
     7
 10
-215.27469
 20
-44.753563
 11
-203.87468
 21
-44.753563
  0
LINE
  8
0
  6
CONTINUOUS
 62
     7
 10
-215.27469
 20
-58.225758
 11
-203.87468
 21
-58.225758
  0
LINE
  8
0
  6
CONTINUOUS
 62
     7
 10
-215.27469
 20
-42.849312
 11
-203.87468
 21
-42.849312
  0
LINE
  8
0
  6
CONTINUOUS
 62
     7
 10
-197.87468
 20
-72.349312
 11
-197.87468
 21
-48.849312
  0
LINE
  8
0
  6
CONTINUOUS
 62
     7
 10
-215.27469
 20
-62.823029
 11
-215.27469
 21
-58.225758
  0
LINE
  8
0
  6
CONTINUOUS
 62
     7
 10
-215.27469
 20
-44.753563
 11
-215.27469
 21
-42.849312
  0
LINE
  8
0
  6
CONTINUOUS
 62
     7
 10
-215.77469
 20
-72.349312
 11
-215.77469
 21
-43.349308
  0
LINE
  8
0
  6
CONTINUOUS
 62
     7
 10
-219.37469
 20
-43.608471
 11
-215.77469
 21
-43.608471
  0
LINE
  8
0
  6
CONTINUOUS
 62
     7
 10
-94.307739
 20
-105.51968
 11
-90.307739
 21
-105.51968
  0
LINE
  8
0
  6
CONTINUOUS
 62
     7
 10
37.084492
 20
-115.26794
 11
40.584492
 21
-115.26794
  0
LINE
  8
0
  6
CONTINUOUS
 62
     7
 10
22.239185
 20
-47.320461
 11
29.084492
 21
-47.320461
  0
LINE
  8
0
  6
CONTINUOUS
 62
     7
 10
22.239185
 20
-47.320461
 11
22.239185
 21
-42.066414
  0
LINE
  8
0
  6
CONTINUOUS
 62
     7
 10
35.929783
 20
-71.270157
 11
29.084492
 21
-71.270157
  0
LINE
  8
0
  6
CONTINUOUS
 62
     7
 10
21.084488
 20
-33.985325
 11
22.239189
 21
-31.985325
  0
LINE
  8
0
  6
CONTINUOUS
 62
     7
 10
35.929783
 20
-74.985329
 11
35.929783
 21
-71.270157
  0
LINE
  8
0
  6
CONTINUOUS
 62
     7
 10
22.239185
 20
-31.985327
 11
29.084492
 21
-31.985327
  0
LINE
  8
0
  6
CONTINUOUS
 62
     7
 10
35.929783
 20
-42.066414
 11
29.084492
 21
-42.066414
  0
LINE
  8
0
  6
CONTINUOUS
 62
     7
 10
37.084492
 20
-33.985329
 11
37.084492
 21
-74.985329
  0
LINE
  8
0
  6
CONTINUOUS
 62
     7
 10
21.084492
 20
-33.985329
 11
21.084492
 21
-74.985329
  0
LINE
  8
0
  6
CONTINUOUS
 62
     7
 10
35.929783
 20
-31.985327
 11
29.084492
 21
-31.985327
  0
LINE
  8
0
  6
CONTINUOUS
 62
     7
 10
22.239185
 20
-42.066414
 11
29.084492
 21
-42.066414
  0
LINE
  8
0
  6
CONTINUOUS
 62
     7
 10
37.084488
 20
-33.985329
 11
35.929787
 21
-31.985329
  0
LINE
  8
0
  6
CONTINUOUS
 62
     7
 10
22.239185
 20
-74.985329
 11
22.239185
 21
-71.270157
  0
LINE
  8
0
  6
CONTINUOUS
 62
     7
 10
35.929783
 20
-47.320461
 11
29.084492
 21
-47.320461
  0
LINE
  8
0
  6
CONTINUOUS
 62
     7
 10
22.239185
 20
-71.270157
 11
29.084492
 21
-71.270157
  0
LINE
  8
0
  6
CONTINUOUS
 62
     7
 10
35.929783
 20
-47.320461
 11
35.929783
 21
-42.066414
  0
LINE
  8
0
  6
CONTINUOUS
 62
     7
 10
7.0844922
 20
-44.735329
 11
17.084492
 21
-44.735329
  0
LINE
  8
0
  6
CONTINUOUS
 62
     7
 10
17.08449
 20
-44.735325
 11
21.084486
 21
-42.425926
  0
LINE
  8
0
  6
CONTINUOUS
 62
     7
 10
17.084492
 20
-44.735329
 11
17.084492
 21
-74.985329
  0
LINE
  8
0
  6
CONTINUOUS
 62
     7
 10
7.0844922
 20
-44.735329
 11
7.0844922
 21
-74.985329
  0
LINE
  8
0
  6
CONTINUOUS
 62
     7
 10
41.084492
 20
-33.985329
 11
56.084492
 21
-33.985329
  0
LINE
  8
0
  6
CONTINUOUS
 62
     7
 10
41.084488
 20
-33.985321
 11
40.584484
 21
-34.485321
  0
LINE
  8
0
  6
CONTINUOUS
 62
     7
 10
41.084492
 20
-36.828804
 11
41.084492
 21
-33.985329
  0
LINE
  8
0
  6
CONTINUOUS
 62
     7
 10
64.084496
 20
-74.985329
 11
64.084496
 21
-41.985329
  0
LINE
  8
0
  6
CONTINUOUS
 62
     7
 10
41.084492
 20
-36.828804
 11
56.084492
 21
-36.828804
  0
LINE
  8
0
  6
CONTINUOUS
 62
     7
 10
41.084492
 20
-62.023849
 11
56.084492
 21
-62.023849
  0
LINE
  8
0
  6
CONTINUOUS
 62
     7
 10
56.084492
 20
-74.985329
 11
56.084492
 21
-33.985329
  0
LINE
  8
0
  6
CONTINUOUS
 62
     7
 10
41.084492
 20
-55.159103
 11
56.084492
 21
-55.159103
  0
LINE
  8
0
  6
CONTINUOUS
 62
     7
 10
41.084492
 20
-62.023849
 11
41.084492
 21
-55.159103
  0
LINE
  8
0
  6
CONTINUOUS
 62
     7
 10
40.584492
 20
-74.985329
 11
40.584492
 21
-34.485329
  0
LINE
  8
0
  6
CONTINUOUS
 62
     7
 10
37.084492
 20
-34.702709
 11
40.584492
 21
-34.702709
  0
LINE
  8
0
  6
CONTINUOUS
 62
     7
 10
-94.307732
 20
-38.349316
 11
-95.173759
 21
-36.849312
  0
LINE
  8
0
  6
CONTINUOUS
 62
     7
 10
-95.173767
 20
-68.771156
 11
-101.30774
 21
-68.771156
  0
LINE
  8
0
  6
CONTINUOUS
 62
     7
 10
-95.173767
 20
-36.849316
 11
-101.30774
 21
-36.849316
  0
LINE
  8
0
  6
CONTINUOUS
 62
     7
 10
-107.4417
 20
-36.849316
 11
-101.30774
 21
-36.849316
  0
LINE
  8
0
  6
CONTINUOUS
 62
     7
 10
-108.30773
 20
-38.349308
 11
-107.4417
 21
-36.849304
  0
LINE
  8
0
  6
CONTINUOUS
 62
     7
 10
-95.173767
 20
-72.349312
 11
-95.173767
 21
-68.771156
  0
LINE
  8
0
  6
CONTINUOUS
 62
     7
 10
-107.4417
 20
-72.349312
 11
-107.4417
 21
-68.771156
  0
LINE
  8
0
  6
CONTINUOUS
 62
     7
 10
-95.173767
 20
-49.904999
 11
-101.30774
 21
-49.904999
  0
LINE
  8
0
  6
CONTINUOUS
 62
     7
 10
-95.173767
 20
-44.844715
 11
-101.30774
 21
-44.844715
  0
LINE
  8
0
  6
CONTINUOUS
 62
     7
 10
-95.173767
 20
-49.904999
 11
-95.173767
 21
-44.844715
  0
LINE
  8
0
  6
CONTINUOUS
 62
     7
 10
-108.30772
 20
-38.349316
 11
-108.30772
 21
-72.349312
  0
LINE
  8
0
  6
CONTINUOUS
 62
     7
 10
-107.4417
 20
-49.904999
 11
-107.4417
 21
-44.844715
  0
LINE
  8
0
  6
CONTINUOUS
 62
     7
 10
-107.4417
 20
-44.844715
 11
-101.30774
 21
-44.844715
  0
LINE
  8
0
  6
CONTINUOUS
 62
     7
 10
-107.4417
 20
-49.904999
 11
-101.30774
 21
-49.904999
  0
LINE
  8
0
  6
CONTINUOUS
 62
     7
 10
-94.307739
 20
-38.349316
 11
-94.307739
 21
-72.349312
  0
LINE
  8
0
  6
CONTINUOUS
 62
     7
 10
-107.4417
 20
-68.771156
 11
-101.30774
 21
-68.771156
  0
LINE
  8
0
  6
CONTINUOUS
 62
     7
 10
-110.30774
 20
-48.049305
 11
-108.30772
 21
-46.894596
  0
LINE
  8
0
  6
CONTINUOUS
 62
     7
 10
-110.30774
 20
-48.049313
 11
-120.30775
 21
-48.049313
  0
LINE
  8
0
  6
CONTINUOUS
 62
     7
 10
-120.30775
 20
-72.349312
 11
-120.30775
 21
-48.049313
  0
LINE
  8
0
  6
CONTINUOUS
 62
     7
 10
-110.30774
 20
-48.049313
 11
-110.30774
 21
-72.349312
  0
LINE
  8
0
  6
CONTINUOUS
 62
     7
 10
-89.807747
 20
-38.349316
 11
-90.307747
 21
-38.849308
  0
LINE
  8
0
  6
CONTINUOUS
 62
     7
 10
-89.807739
 20
-41.087917
 11
-89.807739
 21
-38.349316
  0
LINE
  8
0
  6
CONTINUOUS
 62
     7
 10
-89.807739
 20
-38.349316
 11
-78.307739
 21
-38.349316
  0
LINE
  8
0
  6
CONTINUOUS
 62
     7
 10
-89.807739
 20
-41.087917
 11
-78.307739
 21
-41.087917
  0
LINE
  8
0
  6
CONTINUOUS
 62
     7
 10
-70.307739
 20
-72.349312
 11
-70.307739
 21
-46.349312
  0
LINE
  8
0
  6
CONTINUOUS
 62
     7
 10
-89.807739
 20
-62.139023
 11
-89.807739
 21
-55.527447
  0
LINE
  8
0
  6
CONTINUOUS
 62
     7
 10
-89.807739
 20
-55.527447
 11
-78.307739
 21
-55.527447
  0
LINE
  8
0
  6
CONTINUOUS
 62
     7
 10
-78.307739
 20
-72.349312
 11
-78.307739
 21
-38.349316
  0
LINE
  8
0
  6
CONTINUOUS
 62
     7
 10
-89.807739
 20
-62.139023
 11
-78.307739
 21
-62.139023
  0
LINE
  8
0
  6
CONTINUOUS
 62
     7
 10
-90.307739
 20
-72.349312
 11
-90.307739
 21
-38.849316
  0
LINE
  8
0
  6
CONTINUOUS
 62
     7
 10
-94.307739
 20
-39.178944
 11
-90.307739
 21
-39.178944
  0
CIRCLE
  8
0
  6
CONTINUOUS
 62
     7
 10
-401.50162
 20
101.27591
 40
14.5
  0
CIRCLE
  8
0
  6
CONTINUOUS
 62
     7
 10
-401.50162
 20
101.27591
 40
8.0500002
  0
CIRCLE
  8
0
  6
CONTINUOUS
 62
     7
 10
-401.50162
 20
56.199329
 40
17
  0
CIRCLE
  8
0
  6
CONTINUOUS
 62
     7
 10
-401.50162
 20
56.199329
 40
11.25
  0
CIRCLE
  8
0
  6
CONTINUOUS
 62
     7
 10
-401.50162
 20
5.3851457
 40
21.5
  0
CIRCLE
  8
0
  6
CONTINUOUS
 62
     7
 10
-401.50162
 20
5.3851457
 40
14.4
  0
CIRCLE
  8
0
  6
CONTINUOUS
 62
     7
 10
-401.50162
 20
-50.685677
 40
24.5
  0
CIRCLE
  8
0
  6
CONTINUOUS
 62
     7
 10
-401.50162
 20
-50.685677
 40
17.25
  0
CIRCLE
  8
0
  6
CONTINUOUS
 62
     7
 10
-401.50162
 20
-137.66437
 40
29.5
  0
CIRCLE
  8
0
  6
CONTINUOUS
 62
     7
 10
-401.50162
 20
-137.66437
 40
21.65
  0
CIRCLE
  8
0
  6
CONTINUOUS
 62
     7
 10
-401.50162
 20
-241.56189
 40
34
  0
CIRCLE
  8
0
  6
CONTINUOUS
 62
     7
 10
-401.50162
 20
-241.56189
 40
24.65
  0
CIRCLE
  8
0
  6
CONTINUOUS
 62
     7
 10
-401.50162
 20
-347.29117
 40
41
  0
CIRCLE
  8
0
  6
CONTINUOUS
 62
     7
 10
-401.50162
 20
-347.29117
 40
30.65
  0
ARC
  8
0
  6
CONTINUOUS
 62
     7
 10
-274.61523
 20
51.373379
 40
23.203888
 50
347.19201
 51
12.80799
  0
ARC
  8
0
  6
CONTINUOUS
 62
     7
 10
-255.65221
 20
43.249882
 40
4.2408442
 50
329.75278
 51
30.247216
  0
ARC
  8
0
  6
CONTINUOUS
 62
     7
 10
-239.40749
 20
51.373379
 40
23.203888
 50
167.19201
 51
192.80799
  0
ARC
  8
0
  6
CONTINUOUS
 62
     7
 10
-258.37051
 20
43.249882
 40
4.2408442
 50
149.75279
 51
210.24721
  0
ARC
  8
0
  6
CONTINUOUS
 62
     7
 10
-191.32249
 20
49.538002
 40
26.899603
 50
348.10769
 51
11.892309
  0
ARC
  8
0
  6
CONTINUOUS
 62
     7
 10
-148.7233
 20
49.538002
 40
26.899603
 50
168.10769
 51
191.89231
  0
ARC
  8
0
  6
CONTINUOUS
 62
     7
 10
-169.34917
 20
40.049068
 40
4.926271
 50
331.98208
 51
28.017919
  0
ARC
  8
0
  6
CONTINUOUS
 62
     7
 10
-170.69662
 20
40.049068
 40
4.926271
 50
151.98208
 51
208.01792
  0
ARC
  8
0
  6
CONTINUOUS
 62
     7
 10
-81.267616
 20
35.855846
 40
6.2374468
 50
155.15372
 51
204.84628
  0
ARC
  8
0
  6
CONTINUOUS
 62
     7
 10
-53.952335
 20
47.815926
 40
33.552727
 50
169.3557
 51
190.64431
  0
ARC
  8
0
  6
CONTINUOUS
 62
     7
 10
-111.05779
 20
47.815926
 40
33.552727
 50
349.35569
 51
10.644305
  0
ARC
  8
0
  6
CONTINUOUS
 62
     7
 10
-83.742523
 20
35.855846
 40
6.2374468
 50
335.15372
 51
24.846276
  0
ARC
  8
0
  6
CONTINUOUS
 62
     7
 10
-17.737511
 20
47.355206
 40
38.72702
 50
350.09416
 51
9.9058404
  0
ARC
  8
0
  6
CONTINUOUS
 62
     7
 10
13.672092
 20
33.463955
 40
7.3179798
 50
337.07688
 51
22.923115
  0
ARC
  8
0
  6
CONTINUOUS
 62
     7
 10
15.306927
 20
33.463955
 40
7.3179798
 50
157.07688
 51
202.92312
  0
ARC
  8
0
  6
CONTINUOUS
 62
     7
 10
46.71653
 20
47.355206
 40
38.72702
 50
170.09415
 51
189.90584
  0
ARC
  8
0
  6
CONTINUOUS
 62
     7
 10
-269.85925
 20
-84.021164
 40
50.484554
 50
349.7938
 51
10.206205
  0
ARC
  8
0
  6
CONTINUOUS
 62
     7
 10
-228.36737
 20
-100.52764
 40
8.9926729
 50
335.66712
 51
24.332877
  0
ARC
  8
0
  6
CONTINUOUS
 62
     7
 10
-223.382
 20
-100.52764
 40
8.9926729
 50
155.66713
 51
204.33288
  0
ARC
  8
0
  6
CONTINUOUS
 62
     7
 10
-181.89014
 20
-84.021164
 40
50.484554
 50
169.79379
 51
190.20621
  0
ARC
  8
0
  6
CONTINUOUS
 62
     7
 10
-56.500397
 20
-85.36055
 40
51.807339
 50
169.50907
 51
190.49093
  0
ARC
  8
0
  6
CONTINUOUS
 62
     7
 10
-103.96303
 20
-103.85161
 40
9.6557121
 50
335.5421
 51
24.457903
  0
ARC
  8
0
  6
CONTINUOUS
 62
     7
 10
-98.652435
 20
-103.85161
 40
9.6557121
 50
155.54209
 51
204.4579
  0
ARC
  8
0
  6
CONTINUOUS
 62
     7
 10
-146.11507
 20
-85.36055
 40
51.807339
 50
349.50907
 51
10.490934
  0
ARC
  8
0
  6
CONTINUOUS
 62
     7
 10
32.660618
 20
-112.94479
 40
11.57641
 50
154.1883
 51
205.8117
  0
ARC
  8
0
  6
CONTINUOUS
 62
     7
 10
-25.585567
 20
-90.675346
 40
62.670059
 50
348.98432
 51
11.015681
  0
ARC
  8
0
  6
CONTINUOUS
 62
     7
 10
25.50835
 20
-112.94479
 40
11.57641
 50
334.1883
 51
25.811698
  0
ARC
  8
0
  6
CONTINUOUS
 62
     7
 10
83.754555
 20
-90.675346
 40
62.670059
 50
168.98432
 51
191.01568
  0
ARC
  8
0
  6
CONTINUOUS
 62
     7
 10
-240.51137
 20
46.613632
 40
4
 50
270
 51
0
  0
ARC
  8
0
  6
CONTINUOUS
 62
     7
 10
-236.418
 20
46.860302
 40
11.59337
 50
163.11152
 51
196.88848
  0
ARC
  8
0
  6
CONTINUOUS
 62
     7
 10
-225.07082
 20
57.113636
 40
22.940548
 50
179.99999
 51
191.9843
  0
ARC
  8
0
  6
CONTINUOUS
 62
     7
 10
-143.95866
 20
44.214149
 40
17.064236
 50
166.09586
 51
193.90414
  0
ARC
  8
0
  6
CONTINUOUS
 62
     7
 10
-127.14442
 20
56.234966
 40
33.878471
 50
180.00001
 51
189.85588
  0
ARC
  8
0
  6
CONTINUOUS
 62
     7
 10
-152.5229
 20
44.234962
 40
5
 50
270
 51
0
  0
ARC
  8
0
  6
CONTINUOUS
 62
     7
 10
-51.75507
 20
41.032169
 40
22.249998
 50
167.83045
 51
192.16954
  0
ARC
  8
0
  6
CONTINUOUS
 62
     7
 10
-29.755077
 20
56.234966
 40
44.249989
 50
180.00001
 51
188.62136
  0
ARC
  8
0
  6
CONTINUOUS
 62
     7
 10
-64.505074
 20
39.734966
 40
5
 50
270
 51
0
  0
ARC
  8
0
  6
CONTINUOUS
 62
     7
 10
62.714527
 20
39.789516
 40
38.125019
 50
170.71048
 51
189.28953
  0
ARC
  8
0
  6
CONTINUOUS
 62
     7
 10
35.48951
 20
37.613636
 40
5
 50
270
 51
0
  0
ARC
  8
0
  6
CONTINUOUS
 62
     7
 10
100.58952
 20
57.113636
 40
76.000023
 50
180.00001
 51
186.57588
  0
ARC
  8
0
  6
CONTINUOUS
 62
     7
 10
-170.14948
 20
-93.208969
 40
45.625206
 50
171.50982
 51
188.49018
  0
ARC
  8
0
  6
CONTINUOUS
 62
     7
 10
-124.77429
 20
-72.349312
 40
91.000397
 50
180.00001
 51
186.00896
  0
ARC
  8
0
  6
CONTINUOUS
 62
     7
 10
-203.87468
 20
-95.849312
 40
6
 50
270
 51
0
  0
ARC
  8
0
  6
CONTINUOUS
 62
     7
 10
-78.307739
 20
-98.349312
 40
8
 50
270
 51
0
  0
ARC
  8
0
  6
CONTINUOUS
 62
     7
 10
-37.932739
 20
-96.390945
 40
52.375008
 50
172.07669
 51
187.92331
  0
ARC
  8
0
  6
CONTINUOUS
 62
     7
 10
14.192277
 20
-72.349312
 40
104.50002
 50
180.00001
 51
185.6071
  0
ARC
  8
0
  6
CONTINUOUS
 62
     7
 10
56.084492
 20
-107.98533
 40
8
 50
270
 51
0
  0
ARC
  8
0
  6
CONTINUOUS
 62
     7
 10
208.83411
 20
-74.985329
 40
168.24962
 50
179.99999
 51
184.41828
  0
ARC
  8
0
  6
CONTINUOUS
 62
     7
 10
124.8343
 20
-103.97671
 40
84.249809
 50
173.7547
 51
186.24531
  0
ARC
  8
0
  6
CONTINUOUS
 62
     7
 10
-274.61523
 20
62.853893
 40
23.203888
 50
347.19201
 51
12.80799
  0
ARC
  8
0
  6
CONTINUOUS
 62
     7
 10
-255.65221
 20
70.977394
 40
4.2408442
 50
329.75278
 51
30.247216
  0
ARC
  8
0
  6
CONTINUOUS
 62
     7
 10
-239.40749
 20
62.853893
 40
23.203888
 50
167.19201
 51
192.80799
  0
ARC
  8
0
  6
CONTINUOUS
 62
     7
 10
-258.37051
 20
70.977394
 40
4.2408442
 50
149.75279
 51
210.24721
  0
ARC
  8
0
  6
CONTINUOUS
 62
     7
 10
-240.51137
 20
67.613647
 40
4
 50
0
 51
90.000003
  0
ARC
  8
0
  6
CONTINUOUS
 62
     7
 10
-236.418
 20
67.366974
 40
11.59337
 50
163.11152
 51
196.88848
  0
ARC
  8
0
  6
CONTINUOUS
 62
     7
 10
-225.07082
 20
57.113636
 40
22.940548
 50
168.0157
 51
180.00001
  0
ARC
  8
0
  6
CONTINUOUS
 62
     7
 10
-191.32249
 20
62.931931
 40
26.899603
 50
348.10769
 51
11.892309
  0
ARC
  8
0
  6
CONTINUOUS
 62
     7
 10
-148.7233
 20
62.931931
 40
26.899603
 50
168.10769
 51
191.89231
  0
ARC
  8
0
  6
CONTINUOUS
 62
     7
 10
-169.34917
 20
72.42086
 40
4.926271
 50
331.98208
 51
28.017919
  0
ARC
  8
0
  6
CONTINUOUS
 62
     7
 10
-170.69662
 20
72.42086
 40
4.926271
 50
151.98208
 51
208.01792
  0
ARC
  8
0
  6
CONTINUOUS
 62
     7
 10
-143.95866
 20
68.255783
 40
17.064236
 50
166.09586
 51
193.90414
  0
ARC
  8
0
  6
CONTINUOUS
 62
     7
 10
-127.14442
 20
56.234966
 40
33.878471
 50
170.14412
 51
179.99999
  0
ARC
  8
0
  6
CONTINUOUS
 62
     7
 10
-152.5229
 20
68.23497
 40
5
 50
0
 51
90.000003
  0
ARC
  8
0
  6
CONTINUOUS
 62
     7
 10
-81.267616
 20
76.614082
 40
6.2374468
 50
155.15372
 51
204.84628
  0
ARC
  8
0
  6
CONTINUOUS
 62
     7
 10
-53.952335
 20
64.654007
 40
33.552727
 50
169.35569
 51
190.64429
  0
ARC
  8
0
  6
CONTINUOUS
 62
     7
 10
-111.05779
 20
64.654007
 40
33.552727
 50
349.35569
 51
10.644305
  0
ARC
  8
0
  6
CONTINUOUS
 62
     7
 10
-83.742523
 20
76.614082
 40
6.2374468
 50
335.15372
 51
24.846276
  0
ARC
  8
0
  6
CONTINUOUS
 62
     7
 10
-51.75507
 20
71.437759
 40
22.249998
 50
167.83045
 51
192.16954
  0
ARC
  8
0
  6
CONTINUOUS
 62
     7
 10
-29.755077
 20
56.234966
 40
44.249989
 50
171.37864
 51
179.99999
  0
ARC
  8
0
  6
CONTINUOUS
 62
     7
 10
-64.505074
 20
72.734962
 40
5
 50
0
 51
90.000003
  0
ARC
  8
0
  6
CONTINUOUS
 62
     7
 10
-17.737511
 20
66.87207
 40
38.72702
 50
350.09416
 51
9.9058404
  0
ARC
  8
0
  6
CONTINUOUS
 62
     7
 10
13.672092
 20
80.763321
 40
7.3179798
 50
337.07688
 51
22.923115
  0
ARC
  8
0
  6
CONTINUOUS
 62
     7
 10
15.306927
 20
80.763321
 40
7.3179798
 50
157.07688
 51
202.92312
  0
ARC
  8
0
  6
CONTINUOUS
 62
     7
 10
46.71653
 20
66.87207
 40
38.72702
 50
170.09415
 51
189.90584
  0
ARC
  8
0
  6
CONTINUOUS
 62
     7
 10
62.714527
 20
74.437759
 40
38.125019
 50
170.71047
 51
189.28951
  0
ARC
  8
0
  6
CONTINUOUS
 62
     7
 10
35.48951
 20
76.61364
 40
5
 50
0
 51
90.000003
  0
ARC
  8
0
  6
CONTINUOUS
 62
     7
 10
100.58952
 20
57.113636
 40
76.000023
 50
173.42412
 51
179.99999
  0
ARC
  8
0
  6
CONTINUOUS
 62
     7
 10
-269.85925
 20
-60.677464
 40
50.484554
 50
349.7938
 51
10.206205
  0
ARC
  8
0
  6
CONTINUOUS
 62
     7
 10
-228.36737
 20
-44.170982
 40
8.9926729
 50
335.66712
 51
24.332877
  0
ARC
  8
0
  6
CONTINUOUS
 62
     7
 10
-223.382
 20
-44.170982
 40
8.9926729
 50
155.66711
 51
204.33287
  0
ARC
  8
0
  6
CONTINUOUS
 62
     7
 10
-181.89014
 20
-60.677464
 40
50.484554
 50
169.79379
 51
190.20621
  0
ARC
  8
0
  6
CONTINUOUS
 62
     7
 10
-170.14948
 20
-51.489658
 40
45.625206
 50
171.50982
 51
188.49018
  0
ARC
  8
0
  6
CONTINUOUS
 62
     7
 10
-124.77429
 20
-72.349312
 40
91.000397
 50
173.99104
 51
179.99999
  0
ARC
  8
0
  6
CONTINUOUS
 62
     7
 10
-203.87468
 20
-48.849312
 40
6
 50
0
 51
90.000003
  0
ARC
  8
0
  6
CONTINUOUS
 62
     7
 10
32.660618
 20
-37.025871
 40
11.57641
 50
154.1883
 51
205.8117
  0
ARC
  8
0
  6
CONTINUOUS
 62
     7
 10
-25.585567
 20
-59.295307
 40
62.670059
 50
348.98432
 51
11.015681
  0
ARC
  8
0
  6
CONTINUOUS
 62
     7
 10
25.50835
 20
-37.025871
 40
11.57641
 50
334.1883
 51
25.811698
  0
ARC
  8
0
  6
CONTINUOUS
 62
     7
 10
83.754555
 20
-59.295307
 40
62.670059
 50
168.98432
 51
191.01568
  0
ARC
  8
0
  6
CONTINUOUS
 62
     7
 10
56.084492
 20
-41.985329
 40
8
 50
0
 51
90.000003
  0
ARC
  8
0
  6
CONTINUOUS
 62
     7
 10
208.83411
 20
-74.985329
 40
168.24962
 50
175.58172
 51
180.00001
  0
ARC
  8
0
  6
CONTINUOUS
 62
     7
 10
124.8343
 20
-45.99395
 40
84.249809
 50
173.75468
 51
186.2453
  0
ARC
  8
0
  6
CONTINUOUS
 62
     7
 10
-56.500397
 20
-59.338078
 40
51.807339
 50
169.50907
 51
190.49093
  0
ARC
  8
0
  6
CONTINUOUS
 62
     7
 10
-103.96303
 20
-40.847015
 40
9.6557121
 50
335.5421
 51
24.457903
  0
ARC
  8
0
  6
CONTINUOUS
 62
     7
 10
-98.652435
 20
-40.847015
 40
9.6557121
 50
155.54209
 51
204.4579
  0
ARC
  8
0
  6
CONTINUOUS
 62
     7
 10
-146.11507
 20
-59.338078
 40
51.807339
 50
349.50907
 51
10.490934
  0
ARC
  8
0
  6
CONTINUOUS
 62
     7
 10
-78.307739
 20
-46.349312
 40
8
 50
0
 51
90.000003
  0
ARC
  8
0
  6
CONTINUOUS
 62
     7
 10
-37.932739
 20
-48.307682
 40
52.375008
 50
172.07669
 51
187.92331
  0
ARC
  8
0
  6
CONTINUOUS
 62
     7
 10
14.192277
 20
-72.349312
 40
104.50002
 50
174.3929
 51
179.99999
  0
TEXT
  8
0
  6
CONTINUOUS
 62
     7
 10
-448.18668
 20
100.9722
 40
3.2
 41
1.0285716
  1
13
  0
TEXT
  8
0
  6
CONTINUOUS
 62
     7
 10
-449.74558
 20
58.88214
 40
3.2
 41
1.0285716
  1
20
  0
TEXT
  8
0
  6
CONTINUOUS
 62
     7
 10
-452.86335
 20
7.4387392
 40
3.2
 41
1.0285716
  1
25
  0
TEXT
  8
0
  6
CONTINUOUS
 62
     7
 10
-450.52503
 20
-56.47579
 40
3.2
 41
1.0285716
  1
30
  0
TEXT
  8
0
  6
CONTINUOUS
 62
     7
 10
-450.18433
 20
-132.60479
 40
3.2
 41
1.0285716
  1
40
  0
TEXT
  8
0
  6
CONTINUOUS
 62
     7
 10
-443.42539
 20
-210.33271
 40
3.2
 41
1.0285716
  1
50
  0
TEXT
  8
0
  6
CONTINUOUS
 62
     7
 10
-450.54114
 20
-310.81277
 40
3.2
 41
1.0285716
  1
60
  0
TEXT
  8
0
  6
CONTINUOUS
 62
     7
 10
-282.77682
 20
118.76988
 40
8
 41
0.84260121
  1
コマサスフィット継手　溶接アダプタ－
  0
TEXT
  8
0
  6
CONTINUOUS
 62
     7
 10
-259.67174
 20
85.601524
 40
8
 41
1.028625
  1
13
  0
TEXT
  8
0
  6
CONTINUOUS
 62
     7
 10
-175.28284
 20
87.25621
 40
8
 41
1.028625
  1
20
  0
TEXT
  8
0
  6
CONTINUOUS
 62
     7
 10
-83.447847
 20
89.738235
 40
8
 41
1.028625
  1
25
  0
TEXT
  8
0
  6
CONTINUOUS
 62
     7
 10
11.6965
 20
95.529633
 40
8
 41
1.028625
  1
30
  0
TEXT
  8
0
  6
CONTINUOUS
 62
     7
 10
-232.36945
 20
-31.053719
 40
8
 41
1.028625
  1
40
  0
TEXT
  8
0
  6
CONTINUOUS
 62
     7
 10
-104.1314
 20
-21.952955
 40
8
 41
1.028625
  1
50
  0
TEXT
  8
0
  6
CONTINUOUS
 62
     7
 10
26.588659
 20
-17.816244
 40
8
 41
1.028625
  1
60
  0
POINT
  8
1
  6
CONTINUOUS
 62
     7
 10
-311.3107
 20
-470.71918
  0
POINT
  8
1
  6
CONTINUOUS
 62
     7
 10
-311.3107
 20
-153.71919
  0
POINT
  8
1
  6
CONTINUOUS
 62
     7
 10
-311.3107
 20
-767.71918
  0
POINT
  8
1
  6
CONTINUOUS
 62
     7
 10
108.68929
 20
-153.71919
  0
POINT
  8
1
  6
CONTINUOUS
 62
     7
 10
-311.3107
 20
-777.71918
  0
POINT
  8
1
  6
CONTINUOUS
 62
     7
 10
-311.3107
 20
143.28081
  0
POINT
  8
1
  6
CONTINUOUS
 62
     7
 10
-311.3107
 20
-153.71919
  0
POINT
  8
1
  6
CONTINUOUS
 62
     7
 10
-311.3107
 20
-163.71919
  0
POINT
  8
1
  6
CONTINUOUS
 62
     7
 10
-311.3107
 20
-163.71919
  0
POINT
  8
1
  6
CONTINUOUS
 62
     7
 10
-311.3107
 20
-460.71918
  0
POINT
  8
1
  6
CONTINUOUS
 62
     7
 10
-311.3107
 20
-470.71918
  0
LINE
  8
1
  6
CONTINUOUS
 62
     7
 10
108.68929
 20
143.28081
 11
108.68929
 21
-33.714287
  0
LINE
  8
1
  6
CONTINUOUS
 62
     2
 10
-311.3107
 20
-470.71918
 11
108.68929
 21
-470.71918
  0
LINE
  8
1
  6
CONTINUOUS
 62
     2
 10
-311.3107
 20
-470.71918
 11
-311.3107
 21
-767.71918
  0
LINE
  8
1
  6
CONTINUOUS
 62
     2
 10
-311.3107
 20
-767.71918
 11
108.68929
 21
-767.71918
  0
LINE
  8
1
  6
CONTINUOUS
 62
     2
 10
108.68929
 20
-470.71918
 11
108.68929
 21
-767.71918
  0
LINE
  8
1
  6
CONTINUOUS
 62
     2
 10
-311.3107
 20
143.28081
 11
-311.3107
 21
-153.71919
  0
LINE
  8
1
  6
CONTINUOUS
 62
     2
 10
-311.3107
 20
-153.71919
 11
108.68929
 21
-153.71919
  0
LINE
  8
1
  6
CONTINUOUS
 62
     2
 10
108.68929
 20
143.28081
 11
108.68929
 21
-153.71919
  0
LINE
  8
1
  6
CONTINUOUS
 62
     2
 10
-311.3107
 20
143.28081
 11
108.68929
 21
143.28081
  0
LINE
  8
1
  6
CONTINUOUS
 62
     2
 10
-311.3107
 20
-163.71919
 11
-311.3107
 21
-460.71918
  0
LINE
  8
1
  6
CONTINUOUS
 62
     2
 10
-311.3107
 20
-460.71918
 11
108.68929
 21
-460.71918
  0
LINE
  8
1
  6
CONTINUOUS
 62
     2
 10
108.68929
 20
-163.71919
 11
108.68929
 21
-460.71918
  0
LINE
  8
1
  6
CONTINUOUS
 62
     2
 10
-311.3107
 20
-163.71919
 11
108.68929
 21
-163.71919
  0
ENDSEC
  0
EOF
