  0
SECTION
  2
HEADER
  9
$EXTMAX
 10
108.92817
 20
144.14287
  9
$EXTMIN
 10
-311.07183
 20
-153.71428
  0
ENDSEC
  0
SECTION
  2
TABLES
  0
TABLE
  2
LTYPE
 70
    22
  0
LTYPE
  2
CONTINUOUS
 70
    64
  3
Solid line
 72
    65
 73
     0
 40
0.000000
  0
LTYPE
  2
DASHED
 70
    64
  3
__ __ __ __ __ __ __ __ __ __ __ __ __ __ __
 72
    65
 73
     2
 40
3.500000
 49
2.000000
 49
-1.500000
  0
LTYPE
  2
CENTER
 70
    64
  3
____ _ ____ _ ____ _ ____ _ ____ _ ____ _ ____
 72
    65
 73
     4
 40
17.500000
 49
13.000000
 49
-1.500000
 49
1.500000
 49
-1.500000
  0
LTYPE
  2
PHANTOM
 70
    64
  3
_____ _ _ _____ _ _ _____ _ _ _____ _ _ ____  
 72
    65
 73
     6
 40
15.500000
 49
8.000000
 49
-1.500000
 49
1.500000
 49
-1.500000
 49
1.500000
 49
-1.500000
  0
LTYPE
  2
DOT
 70
    64
  3
. . . . . . . . . . . . . . . . . . . . . . . .
 72
    65
 73
     2
 40
0.25
 49
0.0
 49
-0.25
  0
ENDTAB
  0
TABLE
  2
LAYER
 70
     2
  0
LAYER
  2
0
 70
     0
 62
     7
  6
CONTINUOUS
  0
LAYER
  2
1
 70
     0
 62
     7
  6
CONTINUOUS
  0
ENDTAB
  0
TABLE
  2
STYLE
 70
     1
  0
STYLE
  2
STANDARD
 70
     0
 40
0.000000
 41
1.000000
 50
0.000000
 71
     0
 42
0.200000
  3
txt
  4
BIGFONT
  0
ENDTAB
  0
TABLE
  2
VIEW
 70
     0
  0
ENDTAB
  0
ENDSEC
  0
SECTION
  2
BLOCKS
  0
ENDSEC
  0
SECTION
  2
ENTITIES
  0
POINT
  8
0
  6
CONTINUOUS
 62
     7
 10
-401.50162
 20
101.27591
  0
POINT
  8
0
  6
CONTINUOUS
 62
     7
 10
-401.50162
 20
56.199329
  0
POINT
  8
0
  6
CONTINUOUS
 62
     7
 10
-401.50162
 20
5.3851457
  0
POINT
  8
0
  6
CONTINUOUS
 62
     7
 10
-401.50162
 20
-50.685677
  0
POINT
  8
0
  6
CONTINUOUS
 62
     7
 10
-401.50162
 20
-137.66437
  0
POINT
  8
0
  6
CONTINUOUS
 62
     7
 10
-401.50162
 20
-241.56189
  0
POINT
  8
0
  6
CONTINUOUS
 62
     7
 10
-401.50162
 20
-347.29117
  0
POINT
  8
0
  6
CONTINUOUS
 62
     7
 10
-187.98717
 20
31.596199
  0
POINT
  8
0
  6
CONTINUOUS
 62
     7
 10
-95.612007
 20
31.596199
  0
POINT
  8
0
  6
CONTINUOUS
 62
     7
 10
-95.612007
 20
31.596199
  0
POINT
  8
0
  6
CONTINUOUS
 62
     7
 10
-10.250321
 20
31.596199
  0
POINT
  8
0
  6
CONTINUOUS
 62
     7
 10
-10.250321
 20
31.596199
  0
POINT
  8
0
  6
CONTINUOUS
 62
     7
 10
-267.83289
 20
31.596199
  0
POINT
  8
0
  6
CONTINUOUS
 62
     7
 10
-95.612007
 20
31.596199
  0
LINE
  8
0
  6
CENTER
 62
     7
 10
-401.50162
 20
119.69923
 11
-401.50162
 21
80.453743
  0
LINE
  8
0
  6
CENTER
 62
     7
 10
-419.98352
 20
101.27591
 11
-383.7355
 21
101.27591
  0
LINE
  8
0
  6
CONTINUOUS
 62
     7
 10
-385.80695
 20
101.27591
 11
-390.40381
 21
112.37373
  0
LINE
  8
0
  6
CONTINUOUS
 62
     7
 10
-390.40378
 20
112.37373
 11
-401.50162
 21
116.9706
  0
LINE
  8
0
  6
CONTINUOUS
 62
     7
 10
-412.59943
 20
112.37373
 11
-401.50162
 21
116.97059
  0
LINE
  8
0
  6
CONTINUOUS
 62
     7
 10
-417.19629
 20
101.27592
 11
-412.59943
 21
112.37373
  0
LINE
  8
0
  6
CONTINUOUS
 62
     7
 10
-412.59946
 20
90.178085
 11
-417.19632
 21
101.2759
  0
LINE
  8
0
  6
CONTINUOUS
 62
     7
 10
-401.50162
 20
85.581223
 11
-412.59946
 21
90.178093
  0
LINE
  8
0
  6
CONTINUOUS
 62
     7
 10
-390.40381
 20
90.178085
 11
-401.50162
 21
85.581223
  0
LINE
  8
0
  6
CONTINUOUS
 62
     7
 10
-385.80692
 20
101.27591
 11
-390.40381
 21
90.178093
  0
LINE
  8
0
  6
CENTER
 62
     7
 10
-425.552
 20
56.199329
 11
-377.8042
 21
56.199329
  0
LINE
  8
0
  6
CONTINUOUS
 62
     7
 10
-383.10095
 20
56.199326
 11
-388.49039
 21
69.210556
  0
LINE
  8
0
  6
CONTINUOUS
 62
     7
 10
-388.49039
 20
69.210571
 11
-401.50162
 21
74.599998
  0
LINE
  8
0
  6
CONTINUOUS
 62
     7
 10
-414.51285
 20
69.210564
 11
-401.50165
 21
74.599991
  0
LINE
  8
0
  6
CONTINUOUS
 62
     7
 10
-419.90228
 20
56.199326
 11
-414.51285
 21
69.210564
  0
LINE
  8
0
  6
CONTINUOUS
 62
     7
 10
-414.51288
 20
43.188091
 11
-419.90228
 21
56.199318
  0
LINE
  8
0
  6
CONTINUOUS
 62
     7
 10
-401.50162
 20
37.798664
 11
-414.51285
 21
43.188091
  0
LINE
  8
0
  6
CONTINUOUS
 62
     7
 10
-388.49039
 20
43.188084
 11
-401.50162
 21
37.798656
  0
LINE
  8
0
  6
CONTINUOUS
 62
     7
 10
-383.10095
 20
56.199326
 11
-388.49039
 21
43.188091
  0
LINE
  8
0
  6
CENTER
 62
     7
 10
-401.50162
 20
78.522614
 11
-401.50162
 21
35.072231
  0
LINE
  8
0
  6
CENTER
 62
     7
 10
-430.80862
 20
5.3851457
 11
-372.54755
 21
5.3851457
  0
LINE
  8
0
  6
CONTINUOUS
 62
     7
 10
-378.23019
 20
5.3851414
 11
-385.04623
 21
21.840534
  0
LINE
  8
0
  6
CONTINUOUS
 62
     7
 10
-385.04623
 20
21.840532
 11
-401.50162
 21
28.656578
  0
LINE
  8
0
  6
CONTINUOUS
 62
     7
 10
-417.957
 20
21.840536
 11
-401.50162
 21
28.656582
  0
LINE
  8
0
  6
CONTINUOUS
 62
     7
 10
-424.77307
 20
5.3851485
 11
-417.957
 21
21.84054
  0
LINE
  8
0
  6
CONTINUOUS
 62
     7
 10
-417.957
 20
-11.070247
 11
-424.77307
 21
5.3851457
  0
LINE
  8
0
  6
CONTINUOUS
 62
     7
 10
-401.50162
 20
-17.886288
 11
-417.957
 21
-11.070242
  0
LINE
  8
0
  6
CONTINUOUS
 62
     7
 10
-385.04623
 20
-11.070237
 11
-401.50162
 21
-17.886284
  0
LINE
  8
0
  6
CONTINUOUS
 62
     7
 10
-378.23019
 20
5.3851528
 11
-385.04623
 21
-11.070239
  0
LINE
  8
0
  6
CENTER
 62
     7
 10
-401.50162
 20
31.209974
 11
-401.50162
 21
-20.447704
  0
LINE
  8
0
  6
CENTER
 62
     7
 10
-434.86905
 20
-50.685677
 11
-369.74557
 21
-50.685677
  0
LINE
  8
0
  6
CONTINUOUS
 62
     7
 10
-374.983
 20
-50.685677
 11
-382.75012
 21
-31.934185
  0
LINE
  8
0
  6
CONTINUOUS
 62
     7
 10
-382.75012
 20
-31.934193
 11
-401.50162
 21
-24.167067
  0
LINE
  8
0
  6
CONTINUOUS
 62
     7
 10
-420.25308
 20
-31.934187
 11
-401.50162
 21
-24.167074
  0
LINE
  8
0
  6
CONTINUOUS
 62
     7
 10
-428.02023
 20
-50.685665
 11
-420.25311
 21
-31.934177
  0
LINE
  8
0
  6
CONTINUOUS
 62
     7
 10
-420.25311
 20
-69.437164
 11
-428.02023
 21
-50.685673
  0
LINE
  8
0
  6
CONTINUOUS
 62
     7
 10
-401.50162
 20
-77.204292
 11
-420.25311
 21
-69.437164
  0
LINE
  8
0
  6
CONTINUOUS
 62
     7
 10
-382.75012
 20
-69.437172
 11
-401.50162
 21
-77.204285
  0
LINE
  8
0
  6
CONTINUOUS
 62
     7
 10
-374.98303
 20
-50.685665
 11
-382.75015
 21
-69.437149
  0
LINE
  8
0
  6
CENTER
 62
     7
 10
-401.50162
 20
-21.654659
 11
-401.50162
 21
-81.278244
  0
LINE
  8
0
  6
CENTER
 62
     7
 10
-437.92899
 20
-137.66437
 11
-365.00909
 21
-137.66437
  0
LINE
  8
0
  6
CONTINUOUS
 62
     7
 10
-369.57104
 20
-137.66437
 11
-378.92331
 21
-115.08604
  0
LINE
  8
0
  6
CONTINUOUS
 62
     7
 10
-378.92331
 20
-115.08604
 11
-401.50162
 21
-105.7338
  0
LINE
  8
0
  6
CONTINUOUS
 62
     7
 10
-424.07996
 20
-115.08604
 11
-401.50162
 21
-105.7338
  0
LINE
  8
0
  6
CONTINUOUS
 62
     7
 10
-433.43219
 20
-137.66437
 11
-424.07996
 21
-115.08604
  0
LINE
  8
0
  6
CONTINUOUS
 62
     7
 10
-424.07996
 20
-160.24269
 11
-433.43219
 21
-137.66437
  0
LINE
  8
0
  6
CONTINUOUS
 62
     7
 10
-401.50162
 20
-169.59494
 11
-424.07996
 21
-160.24269
  0
LINE
  8
0
  6
CONTINUOUS
 62
     7
 10
-378.92331
 20
-160.24269
 11
-401.50162
 21
-169.59494
  0
LINE
  8
0
  6
CONTINUOUS
 62
     7
 10
-369.57104
 20
-137.66437
 11
-378.92331
 21
-160.24269
  0
LINE
  8
0
  6
CENTER
 62
     7
 10
-401.50162
 20
-102.03787
 11
-401.50162
 21
-172.52405
  0
LINE
  8
0
  6
CENTER
 62
     7
 10
-448.31732
 20
-241.56189
 11
-358.51984
 21
-241.56189
  0
LINE
  8
0
  6
CONTINUOUS
 62
     7
 10
-364.70029
 20
-241.56189
 11
-375.47916
 21
-215.53941
  0
LINE
  8
0
  6
CONTINUOUS
 62
     7
 10
-375.47913
 20
-215.53943
 11
-401.50162
 21
-204.76056
  0
LINE
  8
0
  6
CONTINUOUS
 62
     7
 10
-427.52408
 20
-215.53941
 11
-401.50162
 21
-204.76056
  0
LINE
  8
0
  6
CONTINUOUS
 62
     7
 10
-438.30298
 20
-241.56189
 11
-427.52411
 21
-215.5394
  0
LINE
  8
0
  6
CONTINUOUS
 62
     7
 10
-427.52408
 20
-267.58435
 11
-438.30295
 21
-241.56189
  0
LINE
  8
0
  6
CONTINUOUS
 62
     7
 10
-401.50162
 20
-278.36322
 11
-427.52411
 21
-267.58438
  0
LINE
  8
0
  6
CONTINUOUS
 62
     7
 10
-375.47916
 20
-267.58435
 11
-401.50162
 21
-278.36322
  0
LINE
  8
0
  6
CONTINUOUS
 62
     7
 10
-364.70029
 20
-241.56187
 11
-375.47916
 21
-267.58435
  0
LINE
  8
0
  6
CENTER
 62
     7
 10
-401.50162
 20
-198.1115
 11
-401.50162
 21
-283.08115
  0
LINE
  8
0
  6
CENTER
 62
     7
 10
-450.48984
 20
-347.29117
 11
-351.5195
 21
-347.29117
  0
LINE
  8
0
  6
CONTINUOUS
 62
     7
 10
-357.12354
 20
-347.29117
 11
-370.12158
 21
-315.9111
  0
LINE
  8
0
  6
CONTINUOUS
 62
     7
 10
-370.12158
 20
-315.9111
 11
-401.50162
 21
-302.91306
  0
LINE
  8
0
  6
CONTINUOUS
 62
     7
 10
-432.88165
 20
-315.9111
 11
-401.50162
 21
-302.91309
  0
LINE
  8
0
  6
CONTINUOUS
 62
     7
 10
-445.8797
 20
-347.29114
 11
-432.88165
 21
-315.9111
  0
LINE
  8
0
  6
CONTINUOUS
 62
     7
 10
-432.88162
 20
-378.67117
 11
-445.87967
 21
-347.29114
  0
LINE
  8
0
  6
CONTINUOUS
 62
     7
 10
-401.50165
 20
-391.66925
 11
-432.88168
 21
-378.6712
  0
LINE
  8
0
  6
CONTINUOUS
 62
     7
 10
-370.12158
 20
-378.6712
 11
-401.50162
 21
-391.66925
  0
LINE
  8
0
  6
CONTINUOUS
 62
     7
 10
-357.12354
 20
-347.29114
 11
-370.12158
 21
-378.6712
  0
LINE
  8
0
  6
CENTER
 62
     7
 10
-401.50162
 20
-297.08182
 11
-401.50162
 21
-397.0177
  0
LINE
  8
0
  6
CENTER
 62
     7
 10
-267.83289
 20
36.982559
 11
-267.83289
 21
-9.5593529
  0
LINE
  8
0
  6
CENTER
 62
     7
 10
-272.78857
 20
31.596199
 11
-231.17722
 21
31.596199
  0
LINE
  8
0
  6
CONTINUOUS
 62
     7
 10
-245.69893
 20
45.096207
 11
-244.8329
 21
46.596207
  0
LINE
  8
0
  6
CONTINUOUS
 62
     7
 10
-238.8329
 20
47.596199
 11
-238.8329
 21
47.596199
  0
LINE
  8
0
  6
CONTINUOUS
 62
     7
 10
-238.8329
 20
15.596199
 11
-238.8329
 21
15.596199
  0
LINE
  8
0
  6
CONTINUOUS
 62
     7
 10
-253.10085
 20
45.096199
 11
-245.69893
 21
45.096199
  0
LINE
  8
0
  6
CONTINUOUS
 62
     7
 10
-238.8329
 20
47.596199
 11
-236.8329
 21
47.596199
  0
LINE
  8
0
  6
CONTINUOUS
 62
     7
 10
-236.8329
 20
47.596199
 11
-236.8329
 21
31.596199
  0
LINE
  8
0
  6
CONTINUOUS
 62
     7
 10
-282.83289
 20
12.496201
 11
-282.83289
 21
10.996201
  0
LINE
  8
0
  6
CONTINUOUS
 62
     7
 10
-256.72473
 20
41.819435
 11
-255.69893
 21
43.596203
  0
LINE
  8
0
  6
CONTINUOUS
 62
     7
 10
-244.8329
 20
46.596199
 11
-239.8329
 21
46.596199
  0
LINE
  8
0
  6
CONTINUOUS
 62
     7
 10
-282.83289
 20
10.996202
 11
-282.33289
 21
10.496202
  0
LINE
  8
0
  6
CONTINUOUS
 62
     7
 10
-236.8329
 20
31.596199
 11
-236.8329
 21
15.596199
  0
LINE
  8
0
  6
CONTINUOUS
 62
     7
 10
-238.8329
 20
15.596199
 11
-236.8329
 21
15.596199
  0
LINE
  8
0
  6
CONTINUOUS
 62
     7
 10
-245.67337
 20
18.051922
 11
-244.8329
 21
16.596201
  0
LINE
  8
0
  6
CONTINUOUS
 62
     7
 10
-244.8329
 20
16.596199
 11
-239.8329
 21
16.596199
  0
LINE
  8
0
  6
CONTINUOUS
 62
     7
 10
-238.8329
 20
31.596199
 11
-238.8329
 21
15.596199
  0
LINE
  8
0
  6
CONTINUOUS
 62
     7
 10
-244.8329
 20
25.057854
 11
-238.8329
 21
25.057854
  0
LINE
  8
0
  6
CONTINUOUS
 62
     7
 10
-244.8329
 20
23.174034
 11
-238.8329
 21
23.174034
  0
LINE
  8
0
  6
CONTINUOUS
 62
     7
 10
-245.69893
 20
18.096199
 11
-245.69893
 21
31.596199
  0
LINE
  8
0
  6
CONTINUOUS
 62
     7
 10
-244.8329
 20
23.174034
 11
-244.8329
 21
25.057854
  0
LINE
  8
0
  6
CONTINUOUS
 62
     7
 10
-253.10085
 20
18.096199
 11
-245.69893
 21
18.096199
  0
LINE
  8
0
  6
CONTINUOUS
 62
     7
 10
-254.8329
 20
42.342545
 11
-254.8329
 21
19.926296
  0
LINE
  8
0
  6
CONTINUOUS
 62
     7
 10
-267.83289
 20
10.496201
 11
-252.82289
 21
10.496201
  0
LINE
  8
0
  6
CONTINUOUS
 62
     7
 10
-282.83289
 20
12.496201
 11
-252.46442
 21
12.496201
  0
LINE
  8
0
  6
CENTER
 62
     7
 10
-187.98717
 20
44.345703
 11
-187.98717
 21
-12.943676
  0
LINE
  8
0
  6
CENTER
 62
     7
 10
-143.16423
 20
31.596199
 11
-201.62749
 21
31.596199
  0
LINE
  8
0
  6
CONTINUOUS
 62
     7
 10
-149.98715
 20
47.596199
 11
-149.98715
 21
31.596199
  0
LINE
  8
0
  6
CONTINUOUS
 62
     7
 10
-159.98717
 20
45.096199
 11
-159.12114
 21
46.596203
  0
LINE
  8
0
  6
CONTINUOUS
 62
     7
 10
-205.48717
 20
11.496201
 11
-205.48717
 21
9.9962006
  0
LINE
  8
0
  6
CONTINUOUS
 62
     7
 10
-159.98715
 20
45.096199
 11
-169.98715
 21
45.096199
  0
LINE
  8
0
  6
CONTINUOUS
 62
     7
 10
-149.98715
 20
47.596199
 11
-152.48715
 21
47.596199
  0
LINE
  8
0
  6
CONTINUOUS
 62
     7
 10
-152.48715
 20
47.596199
 11
-152.48715
 21
47.596199
  0
LINE
  8
0
  6
CONTINUOUS
 62
     7
 10
-153.48715
 20
46.596199
 11
-159.12112
 21
46.596199
  0
LINE
  8
0
  6
CONTINUOUS
 62
     7
 10
-205.48715
 20
9.9962044
 11
-204.98715
 21
9.4962034
  0
LINE
  8
0
  6
CONTINUOUS
 62
     7
 10
-158.78139
 20
23.174026
 11
-158.78139
 21
25.057854
  0
LINE
  8
0
  6
CONTINUOUS
 62
     7
 10
-158.78139
 20
23.174026
 11
-152.48717
 21
23.174026
  0
LINE
  8
0
  6
CONTINUOUS
 62
     7
 10
-158.78139
 20
25.057854
 11
-152.48717
 21
25.057854
  0
LINE
  8
0
  6
CONTINUOUS
 62
     7
 10
-159.98717
 20
18.096199
 11
-169.17088
 21
18.096199
  0
LINE
  8
0
  6
CONTINUOUS
 62
     7
 10
-149.98717
 20
15.596199
 11
-152.48717
 21
15.596199
  0
LINE
  8
0
  6
CONTINUOUS
 62
     7
 10
-159.98717
 20
31.596199
 11
-159.98717
 21
18.096199
  0
LINE
  8
0
  6
CONTINUOUS
 62
     7
 10
-170.48717
 20
9.4962006
 11
-204.98715
 21
9.4962006
  0
LINE
  8
0
  6
CONTINUOUS
 62
     7
 10
-170.48717
 20
12.096199
 11
-170.48717
 21
9.4962006
  0
LINE
  8
0
  6
CONTINUOUS
 62
     7
 10
-149.98717
 20
31.596199
 11
-149.98717
 21
15.596199
  0
LINE
  8
0
  6
CONTINUOUS
 62
     7
 10
-159.98715
 20
18.096205
 11
-158.78139
 21
16.007746
  0
LINE
  8
0
  6
CONTINUOUS
 62
     7
 10
-158.78139
 20
16.007744
 11
-152.48717
 21
16.007744
  0
LINE
  8
0
  6
CONTINUOUS
 62
     7
 10
-152.48717
 20
31.596199
 11
-152.48717
 21
15.596199
  0
LINE
  8
0
  6
CONTINUOUS
 62
     7
 10
-170.48717
 20
11.496208
 11
-205.48717
 21
11.496208
  0
LINE
  8
0
  6
CENTER
 62
     7
 10
-95.612007
 20
47.296364
 11
-95.612007
 21
-15.031281
  0
LINE
  8
0
  6
CENTER
 62
     7
 10
-56.269836
 20
31.596199
 11
-109.25233
 21
31.596199
  0
LINE
  8
0
  6
CONTINUOUS
 62
     7
 10
-57.612007
 20
52.096191
 11
-60.112007
 21
52.096191
  0
LINE
  8
0
  6
CONTINUOUS
 62
     7
 10
-57.612007
 20
52.096191
 11
-57.612007
 21
31.596199
  0
LINE
  8
0
  6
CONTINUOUS
 62
     7
 10
-61.112007
 20
49.096199
 11
-66.745987
 21
49.096199
  0
LINE
  8
0
  6
CONTINUOUS
 62
     7
 10
-60.112007
 20
52.096191
 11
-60.112007
 21
50.096199
  0
LINE
  8
0
  6
CONTINUOUS
 62
     7
 10
-67.612007
 20
47.596199
 11
-75.009254
 21
47.596199
  0
LINE
  8
0
  6
CONTINUOUS
 62
     7
 10
-67.612007
 20
47.596195
 11
-66.745979
 21
49.096199
  0
LINE
  8
0
  6
CONTINUOUS
 62
     7
 10
-113.11201
 20
9.9962025
 11
-112.21201
 21
9.0962
  0
LINE
  8
0
  6
CONTINUOUS
 62
     7
 10
-57.612015
 20
11.096191
 11
-60.112015
 21
11.096191
  0
LINE
  8
0
  6
CONTINUOUS
 62
     7
 10
-57.612015
 20
31.596199
 11
-57.612015
 21
11.096191
  0
LINE
  8
0
  6
CONTINUOUS
 62
     7
 10
-66.745987
 20
24.507477
 11
-66.745987
 21
21.284157
  0
LINE
  8
0
  6
CONTINUOUS
 62
     7
 10
-67.612015
 20
47.596199
 11
-67.612015
 21
15.596199
  0
LINE
  8
0
  6
CONTINUOUS
 62
     7
 10
-60.112015
 20
31.596199
 11
-60.112015
 21
11.096191
  0
LINE
  8
0
  6
CONTINUOUS
 62
     7
 10
-78.112022
 20
9.096199
 11
-112.21201
 21
9.096199
  0
LINE
  8
0
  6
CONTINUOUS
 62
     7
 10
-67.612015
 20
15.5962
 11
-66.745995
 21
14.096202
  0
LINE
  8
0
  6
CONTINUOUS
 62
     7
 10
-66.745987
 20
24.507477
 11
-60.112015
 21
24.507477
  0
LINE
  8
0
  6
CONTINUOUS
 62
     7
 10
-78.112022
 20
11.596199
 11
-113.11201
 21
11.596199
  0
LINE
  8
0
  6
CONTINUOUS
 62
     7
 10
-66.745987
 20
21.284157
 11
-60.112015
 21
21.284157
  0
LINE
  8
0
  6
CONTINUOUS
 62
     7
 10
-78.112022
 20
11.596199
 11
-78.112022
 21
9.096199
  0
LINE
  8
0
  6
CONTINUOUS
 62
     7
 10
-66.745987
 20
14.096199
 11
-61.112015
 21
14.096199
  0
LINE
  8
0
  6
CONTINUOUS
 62
     7
 10
-75.091515
 20
15.596199
 11
-67.612015
 21
15.596199
  0
LINE
  8
0
  6
CONTINUOUS
 62
     7
 10
-113.11201
 20
11.496201
 11
-113.11201
 21
9.9962006
  0
LINE
  8
0
  6
CONTINUOUS
 62
     7
 10
7.7496705
 20
49.317818
 11
7.7496705
 21
49.096199
  0
LINE
  8
0
  6
CENTER
 62
     7
 10
-10.250321
 20
46.530617
 11
-10.250321
 21
-23.402142
  0
LINE
  8
0
  6
CENTER
 62
     7
 10
-22.512499
 20
31.596199
 11
36.754128
 21
31.596199
  0
LINE
  8
0
  6
CONTINUOUS
 62
     7
 10
-32.25032
 20
4.596199
 11
-32.25032
 21
3.096195
  0
LINE
  8
0
  6
CONTINUOUS
 62
     7
 10
28.74967
 20
56.096199
 11
28.74967
 21
55.096199
  0
LINE
  8
0
  6
CONTINUOUS
 62
     7
 10
28.74967
 20
56.096199
 11
32.749672
 21
56.096199
  0
LINE
  8
0
  6
CONTINUOUS
 62
     7
 10
32.749672
 20
56.096199
 11
32.749672
 21
31.596199
  0
LINE
  8
0
  6
CONTINUOUS
 62
     7
 10
18.749683
 20
52.096191
 11
19.904385
 21
54.096191
  0
LINE
  8
0
  6
CONTINUOUS
 62
     7
 10
10.749671
 20
52.096199
 11
18.74967
 21
52.096199
  0
LINE
  8
0
  6
CONTINUOUS
 62
     7
 10
19.904379
 20
54.096199
 11
27.74967
 21
54.096199
  0
LINE
  8
0
  6
CONTINUOUS
 62
     7
 10
-32.250324
 20
3.0961938
 11
-31.750324
 21
2.5961947
  0
LINE
  8
0
  6
CONTINUOUS
 62
     7
 10
19.904379
 20
9.096199
 11
27.749685
 21
9.096199
  0
LINE
  8
0
  6
CONTINUOUS
 62
     7
 10
29.249685
 20
7.096199
 11
32.749672
 21
7.096199
  0
LINE
  8
0
  6
CONTINUOUS
 62
     7
 10
28.749685
 20
31.596199
 11
28.749685
 21
7.596199
  0
LINE
  8
0
  6
CONTINUOUS
 62
     7
 10
-31.750324
 20
2.596195
 11
11.749671
 21
2.596195
  0
LINE
  8
0
  6
CONTINUOUS
 62
     7
 10
11.749671
 20
5.096199
 11
11.749671
 21
2.596195
  0
LINE
  8
0
  6
CONTINUOUS
 62
     7
 10
19.904379
 20
22.322586
 11
28.749685
 21
22.322586
  0
LINE
  8
0
  6
CONTINUOUS
 62
     7
 10
19.904379
 20
22.322586
 11
19.904379
 21
18.479492
  0
LINE
  8
0
  6
CONTINUOUS
 62
     7
 10
18.749685
 20
31.596199
 11
18.749685
 21
11.096199
  0
LINE
  8
0
  6
CONTINUOUS
 62
     7
 10
17.74967
 20
11.096199
 11
18.749685
 21
11.096199
  0
LINE
  8
0
  6
CONTINUOUS
 62
     7
 10
19.904379
 20
18.479492
 11
28.749685
 21
18.479492
  0
LINE
  8
0
  6
CONTINUOUS
 62
     7
 10
32.749672
 20
31.596199
 11
32.749672
 21
7.096199
  0
LINE
  8
0
  6
CONTINUOUS
 62
     7
 10
18.749676
 20
11.096198
 11
19.904377
 21
9.0961981
  0
LINE
  8
0
  6
CONTINUOUS
 62
     7
 10
-32.25032
 20
4.596199
 11
11.749671
 21
4.596199
  0
LINE
  8
0
  6
CONTINUOUS
 62
     7
 10
10.749671
 20
11.096199
 11
16.746771
 21
11.096199
  0
LINE
  8
0
  6
CONTINUOUS
 62
     7
 10
-267.83289
 20
-4.403801
 11
-257.33289
 21
-4.403801
  0
LINE
  8
0
  6
CONTINUOUS
 62
     7
 10
-254.21158
 20
6.596199
 11
-253.3329
 21
6.596199
  0
LINE
  8
0
  6
CONTINUOUS
 62
     7
 10
-253.3329
 20
6.596199
 11
-253.3329
 21
-0.40380117
  0
LINE
  8
0
  6
CONTINUOUS
 62
     7
 10
-253.8329
 20
7.0962076
 11
-253.3329
 21
6.5962071
  0
LINE
  8
0
  6
CONTINUOUS
 62
     7
 10
-263.06943
 20
6.596199
 11
-260.94754
 21
6.596199
  0
LINE
  8
0
  6
CONTINUOUS
 62
     7
 10
-254.21158
 20
6.596199
 11
-254.21158
 21
-0.40380117
  0
LINE
  8
0
  6
CONTINUOUS
 62
     7
 10
-263.06943
 20
6.596199
 11
-263.06943
 21
-0.40380117
  0
LINE
  8
0
  6
CONTINUOUS
 62
     7
 10
-260.94754
 20
6.596199
 11
-260.94754
 21
-0.40380117
  0
LINE
  8
0
  6
CONTINUOUS
 62
     7
 10
-267.83289
 20
-0.40380117
 11
-253.3329
 21
-0.40380117
  0
LINE
  8
0
  6
CONTINUOUS
 62
     7
 10
-267.83289
 20
7.096199
 11
-253.8329
 21
7.096199
  0
LINE
  8
0
  6
CONTINUOUS
 62
     7
 10
-187.98717
 20
-7.4037971
 11
-175.98717
 21
-7.4037971
  0
LINE
  8
0
  6
CONTINUOUS
 62
     7
 10
-187.98717
 20
-2.4037974
 11
-170.98717
 21
-2.4037974
  0
LINE
  8
0
  6
CONTINUOUS
 62
     7
 10
-182.18817
 20
5.5962067
 11
-182.18817
 21
-2.4037974
  0
LINE
  8
0
  6
CONTINUOUS
 62
     7
 10
-182.18817
 20
5.5962067
 11
-180.06685
 21
5.5962067
  0
LINE
  8
0
  6
CONTINUOUS
 62
     7
 10
-171.86584
 20
5.5962067
 11
-170.98717
 21
5.5962067
  0
LINE
  8
0
  6
CONTINUOUS
 62
     7
 10
-171.86584
 20
5.5962067
 11
-171.86584
 21
-2.4037974
  0
LINE
  8
0
  6
CONTINUOUS
 62
     7
 10
-170.98717
 20
5.596199
 11
-170.98717
 21
-2.4037974
  0
LINE
  8
0
  6
CONTINUOUS
 62
     7
 10
-170.98717
 20
5.5962043
 11
-171.48717
 21
6.0962048
  0
LINE
  8
0
  6
CONTINUOUS
 62
     7
 10
-180.06685
 20
5.5962067
 11
-180.06685
 21
-2.4037974
  0
LINE
  8
0
  6
CONTINUOUS
 62
     7
 10
-95.612007
 20
-7.4037971
 11
-83.612007
 21
-7.4037971
  0
LINE
  8
0
  6
CONTINUOUS
 62
     7
 10
-95.612007
 20
-2.4037974
 11
-78.612007
 21
-2.4037974
  0
LINE
  8
0
  6
CONTINUOUS
 62
     7
 10
-89.813019
 20
5.5962067
 11
-89.813019
 21
-2.4037974
  0
LINE
  8
0
  6
CONTINUOUS
 62
     7
 10
-89.813019
 20
5.5962067
 11
-87.691704
 21
5.5962067
  0
LINE
  8
0
  6
CONTINUOUS
 62
     7
 10
-79.490692
 20
5.5962067
 11
-78.612007
 21
5.5962067
  0
LINE
  8
0
  6
CONTINUOUS
 62
     7
 10
-79.490692
 20
5.5962067
 11
-79.490692
 21
-2.4037974
  0
LINE
  8
0
  6
CONTINUOUS
 62
     7
 10
-78.612007
 20
5.596199
 11
-78.612007
 21
-2.4037974
  0
LINE
  8
0
  6
CONTINUOUS
 62
     7
 10
-78.612007
 20
5.5962052
 11
-79.112007
 21
6.0962057
  0
LINE
  8
0
  6
CONTINUOUS
 62
     7
 10
-87.691704
 20
5.5962067
 11
-87.691704
 21
-2.4037974
  0
LINE
  8
0
  6
CONTINUOUS
 62
     7
 10
-187.98717
 20
6.096199
 11
-171.48717
 21
6.096199
  0
LINE
  8
0
  6
CONTINUOUS
 62
     7
 10
-95.612007
 20
6.096199
 11
-79.112007
 21
6.096199
  0
LINE
  8
0
  6
CONTINUOUS
 62
     7
 10
9.64289
 20
-1.403805
 11
9.64289
 21
-10.403805
  0
LINE
  8
0
  6
CONTINUOUS
 62
     7
 10
10.74968
 20
-0.90380353
 11
11.249677
 21
-1.4038014
  0
LINE
  8
0
  6
CONTINUOUS
 62
     7
 10
9.64289
 20
-1.403805
 11
11.249671
 21
-1.403805
  0
LINE
  8
0
  6
CONTINUOUS
 62
     7
 10
-3.6170745
 20
-1.403805
 11
0.2620607
 21
-1.403805
  0
LINE
  8
0
  6
CONTINUOUS
 62
     7
 10
11.249671
 20
-1.403805
 11
11.249671
 21
-10.403805
  0
LINE
  8
0
  6
CONTINUOUS
 62
     7
 10
-10.250321
 20
-15.403805
 11
6.2496705
 21
-15.403805
  0
LINE
  8
0
  6
CONTINUOUS
 62
     7
 10
-10.250321
 20
-10.403805
 11
11.249671
 21
-10.403805
  0
LINE
  8
0
  6
CONTINUOUS
 62
     7
 10
0.2620607
 20
-1.403805
 11
0.2620607
 21
-10.403805
  0
LINE
  8
0
  6
CONTINUOUS
 62
     7
 10
-3.6170745
 20
-1.403805
 11
-3.6170745
 21
-10.403805
  0
LINE
  8
0
  6
CONTINUOUS
 62
     7
 10
-10.250321
 20
-0.90380496
 11
10.749671
 21
-0.90380496
  0
LINE
  8
0
  6
CONTINUOUS
 62
     7
 10
-254.11882
 20
10.496201
 11
-254.11882
 21
7.096199
  0
LINE
  8
0
  6
CONTINUOUS
 62
     7
 10
-267.83289
 20
-4.403801
 11
-278.33289
 21
-4.403801
  0
LINE
  8
0
  6
CONTINUOUS
 62
     7
 10
-281.45422
 20
6.596199
 11
-282.33289
 21
6.596199
  0
LINE
  8
0
  6
CONTINUOUS
 62
     7
 10
-282.33289
 20
6.596199
 11
-282.33289
 21
-0.40380117
  0
LINE
  8
0
  6
CONTINUOUS
 62
     7
 10
-281.83289
 20
7.0961957
 11
-282.33289
 21
6.5961952
  0
LINE
  8
0
  6
CONTINUOUS
 62
     7
 10
-272.59634
 20
6.596199
 11
-274.71823
 21
6.596199
  0
LINE
  8
0
  6
CONTINUOUS
 62
     7
 10
-281.45422
 20
6.596199
 11
-281.45422
 21
-0.40380117
  0
LINE
  8
0
  6
CONTINUOUS
 62
     7
 10
-272.59634
 20
6.596199
 11
-272.59634
 21
-0.40380117
  0
LINE
  8
0
  6
CONTINUOUS
 62
     7
 10
-274.71823
 20
6.596199
 11
-274.71823
 21
-0.40380117
  0
LINE
  8
0
  6
CONTINUOUS
 62
     7
 10
-267.83289
 20
-0.40380117
 11
-282.33289
 21
-0.40380117
  0
LINE
  8
0
  6
CONTINUOUS
 62
     7
 10
-267.83289
 20
7.096199
 11
-281.83289
 21
7.096199
  0
LINE
  8
0
  6
CONTINUOUS
 62
     7
 10
-281.54697
 20
10.496201
 11
-281.54697
 21
7.096199
  0
LINE
  8
0
  6
CONTINUOUS
 62
     7
 10
-267.83289
 20
10.496201
 11
-282.33292
 21
10.496201
  0
LINE
  8
0
  6
CONTINUOUS
 62
     7
 10
-245.69893
 20
45.096199
 11
-245.69893
 21
31.596199
  0
LINE
  8
0
  6
CONTINUOUS
 62
     7
 10
-244.8329
 20
40.018364
 11
-244.8329
 21
38.134544
  0
LINE
  8
0
  6
CONTINUOUS
 62
     7
 10
-244.8329
 20
38.134544
 11
-238.8329
 21
38.134544
  0
LINE
  8
0
  6
CONTINUOUS
 62
     7
 10
-238.8329
 20
31.596199
 11
-238.8329
 21
47.596199
  0
LINE
  8
0
  6
CONTINUOUS
 62
     7
 10
-244.8329
 20
40.018364
 11
-238.8329
 21
40.018364
  0
LINE
  8
0
  6
CONTINUOUS
 62
     7
 10
-171.60687
 20
9.4962006
 11
-171.60687
 21
6.096199
  0
LINE
  8
0
  6
CONTINUOUS
 62
     7
 10
-187.98717
 20
-7.4037971
 11
-199.98717
 21
-7.4037971
  0
LINE
  8
0
  6
CONTINUOUS
 62
     7
 10
-187.98717
 20
-2.4037974
 11
-204.98717
 21
-2.4037974
  0
LINE
  8
0
  6
CONTINUOUS
 62
     7
 10
-193.78616
 20
5.5962067
 11
-193.78616
 21
-2.4037974
  0
LINE
  8
0
  6
CONTINUOUS
 62
     7
 10
-193.78616
 20
5.5962067
 11
-195.90747
 21
5.5962067
  0
LINE
  8
0
  6
CONTINUOUS
 62
     7
 10
-204.10849
 20
5.5962067
 11
-204.98717
 21
5.5962067
  0
LINE
  8
0
  6
CONTINUOUS
 62
     7
 10
-204.10849
 20
5.5962067
 11
-204.10849
 21
-2.4037974
  0
LINE
  8
0
  6
CONTINUOUS
 62
     7
 10
-204.98717
 20
5.596199
 11
-204.98717
 21
-2.4037974
  0
LINE
  8
0
  6
CONTINUOUS
 62
     7
 10
-204.98717
 20
5.5962038
 11
-204.48717
 21
6.0962043
  0
LINE
  8
0
  6
CONTINUOUS
 62
     7
 10
-195.90747
 20
5.5962067
 11
-195.90747
 21
-2.4037974
  0
LINE
  8
0
  6
CONTINUOUS
 62
     7
 10
-187.98717
 20
6.096199
 11
-204.48717
 21
6.096199
  0
LINE
  8
0
  6
CONTINUOUS
 62
     7
 10
-204.36746
 20
9.4962006
 11
-204.36746
 21
6.096199
  0
LINE
  8
0
  6
CONTINUOUS
 62
     7
 10
-158.78139
 20
40.018372
 11
-158.78139
 21
38.134544
  0
LINE
  8
0
  6
CONTINUOUS
 62
     7
 10
-159.98717
 20
31.596199
 11
-159.98717
 21
45.096199
  0
LINE
  8
0
  6
CONTINUOUS
 62
     7
 10
-158.78139
 20
40.018372
 11
-152.48717
 21
40.018372
  0
LINE
  8
0
  6
CONTINUOUS
 62
     7
 10
-158.78139
 20
38.134544
 11
-152.48717
 21
38.134544
  0
LINE
  8
0
  6
CONTINUOUS
 62
     7
 10
-152.48717
 20
31.596199
 11
-152.48717
 21
47.596199
  0
LINE
  8
0
  6
CONTINUOUS
 62
     7
 10
-79.224281
 20
9.096199
 11
-79.224281
 21
6.096199
  0
LINE
  8
0
  6
CONTINUOUS
 62
     7
 10
-95.612007
 20
-7.4037971
 11
-107.61201
 21
-7.4037971
  0
LINE
  8
0
  6
CONTINUOUS
 62
     7
 10
-95.612007
 20
-2.4037974
 11
-112.61201
 21
-2.4037974
  0
LINE
  8
0
  6
CONTINUOUS
 62
     7
 10
-101.411
 20
5.5962067
 11
-101.411
 21
-2.4037974
  0
LINE
  8
0
  6
CONTINUOUS
 62
     7
 10
-101.411
 20
5.5962067
 11
-103.53232
 21
5.5962067
  0
LINE
  8
0
  6
CONTINUOUS
 62
     7
 10
-111.73333
 20
5.5962067
 11
-112.61201
 21
5.5962067
  0
LINE
  8
0
  6
CONTINUOUS
 62
     7
 10
-111.73333
 20
5.5962067
 11
-111.73333
 21
-2.4037974
  0
LINE
  8
0
  6
CONTINUOUS
 62
     7
 10
-112.61201
 20
5.596199
 11
-112.61201
 21
-2.4037974
  0
LINE
  8
0
  6
CONTINUOUS
 62
     7
 10
-112.61201
 20
5.5962105
 11
-112.11201
 21
6.0962114
  0
LINE
  8
0
  6
CONTINUOUS
 62
     7
 10
-103.53232
 20
5.5962067
 11
-103.53232
 21
-2.4037974
  0
LINE
  8
0
  6
CONTINUOUS
 62
     7
 10
-95.612007
 20
6.096199
 11
-112.11201
 21
6.096199
  0
LINE
  8
0
  6
CONTINUOUS
 62
     7
 10
-111.99973
 20
9.096199
 11
-111.99973
 21
6.096199
  0
LINE
  8
0
  6
CONTINUOUS
 62
     7
 10
-66.745987
 20
41.908241
 11
-60.112015
 21
41.908241
  0
LINE
  8
0
  6
CONTINUOUS
 62
     7
 10
-66.745987
 20
38.684921
 11
-60.112015
 21
38.684921
  0
LINE
  8
0
  6
CONTINUOUS
 62
     7
 10
-66.745987
 20
38.684921
 11
-66.745987
 21
41.908241
  0
LINE
  8
0
  6
CONTINUOUS
 62
     7
 10
-60.112015
 20
31.596199
 11
-60.112015
 21
52.096207
  0
LINE
  8
0
  6
CONTINUOUS
 62
     7
 10
-76.44323
 20
44.505447
 11
-76.44323
 21
18.440493
  0
LINE
  8
0
  6
CONTINUOUS
 62
     7
 10
10.479705
 20
2.596195
 11
10.479705
 21
-0.90380496
  0
LINE
  8
0
  6
CONTINUOUS
 62
     7
 10
-30.143534
 20
-1.403805
 11
-30.143534
 21
-10.403805
  0
LINE
  8
0
  6
CONTINUOUS
 62
     7
 10
-31.250324
 20
-0.90380371
 11
-31.750322
 21
-1.4038016
  0
LINE
  8
0
  6
CONTINUOUS
 62
     7
 10
-30.143534
 20
-1.403805
 11
-31.750315
 21
-1.403805
  0
LINE
  8
0
  6
CONTINUOUS
 62
     7
 10
-16.88357
 20
-1.403805
 11
-20.762705
 21
-1.403805
  0
LINE
  8
0
  6
CONTINUOUS
 62
     7
 10
-31.750315
 20
-1.403805
 11
-31.750315
 21
-10.403805
  0
LINE
  8
0
  6
CONTINUOUS
 62
     7
 10
-10.250321
 20
-15.403805
 11
-26.750315
 21
-15.403805
  0
LINE
  8
0
  6
CONTINUOUS
 62
     7
 10
-10.250321
 20
-10.403805
 11
-31.750315
 21
-10.403805
  0
LINE
  8
0
  6
CONTINUOUS
 62
     7
 10
-20.762705
 20
-1.403805
 11
-20.762705
 21
-10.403805
  0
LINE
  8
0
  6
CONTINUOUS
 62
     7
 10
-16.88357
 20
-1.403805
 11
-16.88357
 21
-10.403805
  0
LINE
  8
0
  6
CONTINUOUS
 62
     7
 10
-10.250321
 20
-0.90380496
 11
-31.250315
 21
-0.90380496
  0
LINE
  8
0
  6
CONTINUOUS
 62
     7
 10
-30.980349
 20
2.596195
 11
-30.980349
 21
-0.90380496
  0
LINE
  8
0
  6
CONTINUOUS
 62
     7
 10
18.749685
 20
31.596199
 11
18.749685
 21
52.096199
  0
LINE
  8
0
  6
CONTINUOUS
 62
     7
 10
19.904379
 20
40.869812
 11
28.749685
 21
40.869812
  0
LINE
  8
0
  6
CONTINUOUS
 62
     7
 10
19.904379
 20
40.869812
 11
19.904379
 21
44.712906
  0
LINE
  8
0
  6
CONTINUOUS
 62
     7
 10
19.904379
 20
44.712906
 11
28.749685
 21
44.712906
  0
LINE
  8
0
  6
CONTINUOUS
 62
     7
 10
28.749685
 20
31.596199
 11
28.749685
 21
55.596199
  0
LINE
  8
0
  6
CONTINUOUS
 62
     7
 10
9.4302578
 20
48.576939
 11
9.4302578
 21
14.406583
  0
CIRCLE
  8
0
  6
CONTINUOUS
 62
     7
 10
-401.50162
 20
101.27591
 40
14.5
  0
CIRCLE
  8
0
  6
CONTINUOUS
 62
     7
 10
-401.50162
 20
101.27591
 40
8.0500002
  0
CIRCLE
  8
0
  6
CONTINUOUS
 62
     7
 10
-401.50162
 20
56.199329
 40
17
  0
CIRCLE
  8
0
  6
CONTINUOUS
 62
     7
 10
-401.50162
 20
56.199329
 40
11.25
  0
CIRCLE
  8
0
  6
CONTINUOUS
 62
     7
 10
-401.50162
 20
5.3851457
 40
21.5
  0
CIRCLE
  8
0
  6
CONTINUOUS
 62
     7
 10
-401.50162
 20
5.3851457
 40
14.4
  0
CIRCLE
  8
0
  6
CONTINUOUS
 62
     7
 10
-401.50162
 20
-50.685677
 40
24.5
  0
CIRCLE
  8
0
  6
CONTINUOUS
 62
     7
 10
-401.50162
 20
-50.685677
 40
17.25
  0
CIRCLE
  8
0
  6
CONTINUOUS
 62
     7
 10
-401.50162
 20
-137.66437
 40
29.5
  0
CIRCLE
  8
0
  6
CONTINUOUS
 62
     7
 10
-401.50162
 20
-137.66437
 40
21.65
  0
CIRCLE
  8
0
  6
CONTINUOUS
 62
     7
 10
-401.50162
 20
-241.56189
 40
34
  0
CIRCLE
  8
0
  6
CONTINUOUS
 62
     7
 10
-401.50162
 20
-241.56189
 40
24.65
  0
CIRCLE
  8
0
  6
CONTINUOUS
 62
     7
 10
-401.50162
 20
-347.29117
 40
41
  0
CIRCLE
  8
0
  6
CONTINUOUS
 62
     7
 10
-401.50162
 20
-347.29117
 40
30.65
  0
ARC
  8
0
  6
CONTINUOUS
 62
     7
 10
-239.8329
 20
47.596199
 40
1
 50
270
 51
0
  0
ARC
  8
0
  6
CONTINUOUS
 62
     7
 10
-259.32281
 20
43.319427
 40
3
 50
283.65041
 51
330
  0
ARC
  8
0
  6
CONTINUOUS
 62
     7
 10
-252.8329
 20
16.596199
 40
24.5
 50
103.65042
 51
176.4591
  0
ARC
  8
0
  6
CONTINUOUS
 62
     7
 10
-253.10085
 20
42.096199
 40
3
 50
90.000003
 51
150
  0
ARC
  8
0
  6
CENTER
 62
     7
 10
-252.8329
 20
16.596199
 40
15
 50
90.000003
 51
180.00001
  0
ARC
  8
0
  6
CONTINUOUS
 62
     7
 10
-283.27466
 20
18.479912
 40
6
 50
274.22245
 51
356.4591
  0
ARC
  8
0
  6
CONTINUOUS
 62
     7
 10
-239.8329
 20
15.596199
 40
1
 50
0
 51
90.000003
  0
ARC
  8
0
  6
CONTINUOUS
 62
     7
 10
-244.8329
 20
10.096199
 40
8
 50
96.03052
 51
177.13403
  0
ARC
  8
0
  6
CONTINUOUS
 62
     7
 10
-239.02071
 20
19.885117
 40
6.678225
 50
150.49603
 51
209.50396
  0
ARC
  8
0
  6
CONTINUOUS
 62
     7
 10
-220.58408
 20
31.596199
 40
25.114845
 50
179.99999
 51
195.09012
  0
ARC
  8
0
  6
CONTINUOUS
 62
     7
 10
-252.8329
 20
16.596199
 40
5.5
 50
146.13279
 51
166.82863
  0
ARC
  8
0
  6
CONTINUOUS
 62
     7
 10
-256.5694
 20
19.103912
 40
1
 50
29.872413
 51
146.13279
  0
ARC
  8
0
  6
CONTINUOUS
 62
     7
 10
-253.10085
 20
21.096199
 40
3
 50
209.87241
 51
270
  0
ARC
  8
0
  6
CONTINUOUS
 62
     7
 10
-252.39113
 20
18.479912
 40
6
 50
195.75631
 51
265.77755
  0
ARC
  8
0
  6
CONTINUOUS
 62
     7
 10
-256.24081
 20
17.393723
 40
2
 50
166.82863
 51
195.75631
  0
ARC
  8
0
  6
CONTINUOUS
 62
     7
 10
-168.98717
 20
13.596199
 40
31.5
 50
90.000003
 51
174.1132
  0
ARC
  8
0
  6
CONTINUOUS
 62
     7
 10
-153.48715
 20
47.596199
 40
1
 50
270
 51
0
  0
ARC
  8
0
  6
CONTINUOUS
 62
     7
 10
-206.28941
 20
17.442329
 40
6
 50
277.68385
 51
354.11321
  0
ARC
  8
0
  6
CONTINUOUS
 62
     7
 10
-154.06033
 20
19.590889
 40
5.9268317
 50
142.80258
 51
217.19742
  0
ARC
  8
0
  6
CONTINUOUS
 62
     7
 10
-141.65703
 20
31.596199
 40
18.330128
 50
179.99999
 51
200.89764
  0
ARC
  8
0
  6
CONTINUOUS
 62
     7
 10
-164.48717
 20
12.096199
 40
6
 50
93.400897
 51
180.00001
  0
ARC
  8
0
  6
CONTINUOUS
 62
     7
 10
-169.2372
 20
12.84623
 40
6.5
 50
107.58532
 51
134.12565
  0
ARC
  8
0
  6
PHANTOM
 62
     7
 10
-169.48717
 20
18.596199
 40
0.5
 50
193.09796
 51
199.75479
  0
ARC
  8
0
  6
CONTINUOUS
 62
     7
 10
-170.89888
 20
18.089203
 40
1
 50
30.231599
 51
107.58532
  0
ARC
  8
0
  6
CONTINUOUS
 62
     7
 10
-169.17088
 20
19.096199
 40
1
 50
210.2316
 51
270
  0
ARC
  8
0
  6
CONTINUOUS
 62
     7
 10
-169.48717
 20
17.412285
 40
6
 50
223.2016
 51
260.40588
  0
ARC
  8
0
  6
CONTINUOUS
 62
     7
 10
-171.67401
 20
15.358582
 40
3
 50
134.12565
 51
223.20161
  0
ARC
  8
0
  6
CONTINUOUS
 62
     7
 10
-75.009254
 20
44.596199
 40
3
 50
90.000003
 51
157.73719
  0
ARC
  8
0
  6
CONTINUOUS
 62
     7
 10
-61.112007
 20
50.096199
 40
1
 50
270
 51
0
  0
ARC
  8
0
  6
CONTINUOUS
 62
     7
 10
-76.612007
 20
12.596199
 40
31.5
 50
96.574333
 51
172.55208
  0
ARC
  8
0
  6
CONTINUOUS
 62
     7
 10
-80.561989
 20
46.869331
 40
3
 50
276.57433
 51
337.73719
  0
ARC
  8
0
  6
CONTINUOUS
 62
     7
 10
-113.79562
 20
17.45713
 40
6
 50
276.54225
 51
352.5521
  0
ARC
  8
0
  6
CONTINUOUS
 62
     7
 10
-59.721558
 20
17.690178
 40
7.8904586
 50
152.90392
 51
207.09608
  0
ARC
  8
0
  6
CONTINUOUS
 62
     7
 10
-74.112022
 20
11.596199
 40
4
 50
90.000003
 51
180.00001
  0
ARC
  8
0
  6
CONTINUOUS
 62
     7
 10
-38.167152
 20
31.596199
 40
29.444864
 50
179.99999
 51
193.93054
  0
ARC
  8
0
  6
CONTINUOUS
 62
     7
 10
-76.703682
 20
17.428581
 40
6
 50
205.23162
 51
256.4247
  0
ARC
  8
0
  6
CONTINUOUS
 62
     7
 10
-76.862053
 20
12.84623
 40
6.5
 50
127.38092
 51
140.25408
  0
ARC
  8
0
  6
CONTINUOUS
 62
     7
 10
-79.594055
 20
16.422012
 40
2
 50
25.774945
 51
127.38092
  0
ARC
  8
0
  6
CONTINUOUS
 62
     7
 10
-80.322044
 20
15.723465
 40
2
 50
140.25408
 51
205.23161
  0
ARC
  8
0
  6
CONTINUOUS
 62
     7
 10
-75.091515
 20
18.596199
 40
3
 50
205.77494
 51
270
  0
ARC
  8
0
  6
CONTINUOUS
 62
     7
 10
-61.112015
 20
13.096199
 40
1
 50
0
 51
90.000003
  0
ARC
  8
0
  6
CENTER
 62
     7
 10
12.749671
 20
8.596199
 40
23
 50
90.000003
 51
180.00001
  0
ARC
  8
0
  6
CONTINUOUS
 62
     7
 10
12.749671
 20
8.596199
 40
38.5
 50
101.11454
 51
176.23408
  0
ARC
  8
0
  6
CONTINUOUS
 62
     7
 10
4.7496705
 20
49.317818
 40
3
 50
281.11455
 51
0
  0
ARC
  8
0
  6
CONTINUOUS
 62
     7
 10
10.749671
 20
49.096199
 40
3
 50
90.000003
 51
180.00001
  0
ARC
  8
0
  6
CONTINUOUS
 62
     7
 10
27.74967
 20
55.096199
 40
1
 50
270
 51
0
  0
ARC
  8
0
  6
CONTINUOUS
 62
     7
 10
-32.652069
 20
11.584656
 40
7
 50
273.29018
 51
356.23409
  0
ARC
  8
0
  6
CONTINUOUS
 62
     7
 10
27.749685
 20
8.096199
 40
1
 50
0
 51
90.000003
  0
ARC
  8
0
  6
CONTINUOUS
 62
     7
 10
28.858328
 20
13.787842
 40
10.10864
 50
152.34656
 51
207.65342
  0
ARC
  8
0
  6
CONTINUOUS
 62
     7
 10
29.249685
 20
7.596199
 40
0.5
 50
179.99999
 51
270
  0
ARC
  8
0
  6
CONTINUOUS
 62
     7
 10
17.74967
 20
5.096199
 40
6
 50
90.000003
 51
180.00001
  0
ARC
  8
0
  6
CONTINUOUS
 62
     7
 10
56.566185
 20
31.596199
 40
37.816494
 50
179.99999
 51
194.19524
  0
ARC
  8
0
  6
CONTINUOUS
 62
     7
 10
12.15142
 20
11.584656
 40
7
 50
198.93531
 51
266.70981
  0
ARC
  8
0
  6
CONTINUOUS
 62
     7
 10
10.749671
 20
14.096199
 40
3
 50
229.68764
 51
270
  0
ARC
  8
0
  6
CONTINUOUS
 62
     7
 10
7.5148988
 20
10.283554
 40
2
 50
49.687639
 51
162.13401
  0
ARC
  8
0
  6
CONTINUOUS
 62
     7
 10
12.749671
 20
8.596199
 40
7.5
 50
162.13401
 51
165.61977
  0
ARC
  8
0
  6
CONTINUOUS
 62
     7
 10
7.421988
 20
9.9621506
 40
2
 50
165.61977
 51
198.93531
  0
ARC
  8
0
  6
CONTINUOUS
 62
     7
 10
-257.33289
 20
-0.40380117
 40
4
 50
270
 51
2.5044781E-006
  0
ARC
  8
0
  6
CONTINUOUS
 62
     7
 10
-257.57956
 20
-4.4971733
 40
11.59337
 50
73.11152
 51
106.88849
  0
ARC
  8
0
  6
CONTINUOUS
 62
     7
 10
-267.83289
 20
-15.844349
 40
22.940548
 50
78.015705
 51
90.000009
  0
ARC
  8
0
  6
CONTINUOUS
 62
     7
 10
-175.96635
 20
-10.968033
 40
17.064236
 50
76.095862
 51
103.90414
  0
ARC
  8
0
  6
CONTINUOUS
 62
     7
 10
-187.98717
 20
-27.782269
 40
33.878471
 50
80.144121
 51
89.999989
  0
ARC
  8
0
  6
CONTINUOUS
 62
     7
 10
-175.98717
 20
-2.4037974
 40
5
 50
270
 51
2.5044781E-006
  0
ARC
  8
0
  6
CONTINUOUS
 62
     7
 10
-83.591194
 20
-10.968033
 40
17.064236
 50
76.095862
 51
103.90414
  0
ARC
  8
0
  6
CONTINUOUS
 62
     7
 10
-95.612007
 20
-27.782269
 40
33.878471
 50
80.144121
 51
89.999989
  0
ARC
  8
0
  6
CONTINUOUS
 62
     7
 10
-83.612007
 20
-2.4037974
 40
5
 50
270
 51
2.5044781E-006
  0
ARC
  8
0
  6
CENTER
 62
     7
 10
-76.612007
 20
12.596199
 40
19
 50
90.000003
 51
180.00001
  0
ARC
  8
0
  6
CONTINUOUS
 62
     7
 10
4.9524751
 20
-23.153801
 40
22.249998
 50
77.830456
 51
102.16955
  0
ARC
  8
0
  6
CONTINUOUS
 62
     7
 10
-10.250321
 20
-45.153793
 40
44.249989
 50
81.378644
 51
89.999996
  0
ARC
  8
0
  6
CONTINUOUS
 62
     7
 10
6.2496705
 20
-10.403805
 40
5
 50
270
 51
2.504478E-006
  0
ARC
  8
0
  6
CONTINUOUS
 62
     7
 10
-278.33289
 20
-0.40380117
 40
4
 50
179.99999
 51
270
  0
ARC
  8
0
  6
CONTINUOUS
 62
     7
 10
-278.08621
 20
-4.4971733
 40
11.59337
 50
73.111513
 51
106.88848
  0
ARC
  8
0
  6
CONTINUOUS
 62
     7
 10
-267.83289
 20
-15.844349
 40
22.940548
 50
89.999989
 51
101.98429
  0
ARC
  8
0
  6
CONTINUOUS
 62
     7
 10
-220.58408
 20
31.596199
 40
25.114845
 50
164.90988
 51
180.00001
  0
ARC
  8
0
  6
CONTINUOUS
 62
     7
 10
-239.02071
 20
43.307281
 40
6.678225
 50
150.49603
 51
209.50396
  0
ARC
  8
0
  6
CONTINUOUS
 62
     7
 10
-199.98717
 20
-2.4037974
 40
5
 50
179.99999
 51
270
  0
ARC
  8
0
  6
CONTINUOUS
 62
     7
 10
-187.98717
 20
-27.782269
 40
33.878471
 50
90.000009
 51
99.855877
  0
ARC
  8
0
  6
CONTINUOUS
 62
     7
 10
-200.00798
 20
-10.968033
 40
17.064236
 50
76.095855
 51
103.90414
  0
ARC
  8
0
  6
CONTINUOUS
 62
     7
 10
-141.65703
 20
31.596199
 40
18.330128
 50
159.10236
 51
180.00001
  0
ARC
  8
0
  6
CONTINUOUS
 62
     7
 10
-154.06033
 20
43.601509
 40
5.9268317
 50
142.80258
 51
217.19742
  0
ARC
  8
0
  6
CONTINUOUS
 62
     7
 10
-107.61201
 20
-2.4037974
 40
5
 50
179.99999
 51
270
  0
ARC
  8
0
  6
CONTINUOUS
 62
     7
 10
-95.612007
 20
-27.782269
 40
33.878471
 50
90.000009
 51
99.855877
  0
ARC
  8
0
  6
CONTINUOUS
 62
     7
 10
-107.63282
 20
-10.968033
 40
17.064236
 50
76.095855
 51
103.90414
  0
ARC
  8
0
  6
CONTINUOUS
 62
     7
 10
-59.721558
 20
45.50222
 40
7.8904586
 50
152.90392
 51
207.09608
  0
ARC
  8
0
  6
CONTINUOUS
 62
     7
 10
-38.167152
 20
31.596199
 40
29.444864
 50
166.06945
 51
180.00001
  0
ARC
  8
0
  6
CONTINUOUS
 62
     7
 10
-10.250321
 20
-45.153793
 40
44.249989
 50
90.000003
 51
98.621354
  0
ARC
  8
0
  6
CONTINUOUS
 62
     7
 10
-26.750315
 20
-10.403805
 40
5
 50
179.99999
 51
270
  0
ARC
  8
0
  6
CONTINUOUS
 62
     7
 10
-25.453119
 20
-23.153801
 40
22.249998
 50
77.83045
 51
102.16954
  0
ARC
  8
0
  6
CONTINUOUS
 62
     7
 10
28.858328
 20
49.404556
 40
10.10864
 50
152.34658
 51
207.65343
  0
ARC
  8
0
  6
CONTINUOUS
 62
     7
 10
56.566185
 20
31.596199
 40
37.816494
 50
165.80475
 51
180.00001
  0
TEXT
  8
0
  6
CONTINUOUS
 62
     7
 10
-448.18668
 20
100.9722
 40
3.2
 41
1.0285716
  1
13
  0
TEXT
  8
0
  6
CONTINUOUS
 62
     7
 10
-449.74558
 20
58.88214
 40
3.2
 41
1.0285716
  1
20
  0
TEXT
  8
0
  6
CONTINUOUS
 62
     7
 10
-452.86335
 20
7.4387392
 40
3.2
 41
1.0285716
  1
25
  0
TEXT
  8
0
  6
CONTINUOUS
 62
     7
 10
-450.52503
 20
-56.47579
 40
3.2
 41
1.0285716
  1
30
  0
TEXT
  8
0
  6
CONTINUOUS
 62
     7
 10
-450.18433
 20
-132.60479
 40
3.2
 41
1.0285716
  1
40
  0
TEXT
  8
0
  6
CONTINUOUS
 62
     7
 10
-443.42539
 20
-210.33271
 40
3.2
 41
1.0285716
  1
50
  0
TEXT
  8
0
  6
CONTINUOUS
 62
     7
 10
-450.54114
 20
-310.81277
 40
3.2
 41
1.0285716
  1
60
  0
TEXT
  8
0
  6
CONTINUOUS
 62
     7
 10
-282.77682
 20
118.76988
 40
8
 41
0.84260121
  1
コマサスフィット継手　給水栓用エルボ
  0
TEXT
  8
0
  6
CONTINUOUS
 62
     7
 10
-286.36464
 20
71.326675
 40
8
 41
0.84741103
  1
１３×１／２
  0
TEXT
  8
0
  6
CONTINUOUS
 62
     7
 10
-202.94335
 20
72.136589
 40
8
 41
0.84741103
  1
２０×１／２
  0
TEXT
  8
0
  6
CONTINUOUS
 62
     7
 10
-116.2824
 20
73.756416
 40
8
 41
0.84741103
  1
２０×３／４
  0
TEXT
  8
0
  6
CONTINUOUS
 62
     7
 10
-14.233059
 20
77.805992
 40
8
 41
0.85127006
  1
２５×１
  0
POINT
  8
1
  6
CONTINUOUS
 62
     7
 10
-311.3107
 20
-470.71918
  0
POINT
  8
1
  6
CONTINUOUS
 62
     7
 10
-311.3107
 20
-153.71919
  0
POINT
  8
1
  6
CONTINUOUS
 62
     7
 10
-311.3107
 20
-767.71918
  0
POINT
  8
1
  6
CONTINUOUS
 62
     7
 10
108.68929
 20
-153.71919
  0
POINT
  8
1
  6
CONTINUOUS
 62
     7
 10
-311.3107
 20
-777.71918
  0
POINT
  8
1
  6
CONTINUOUS
 62
     7
 10
-311.3107
 20
143.28081
  0
POINT
  8
1
  6
CONTINUOUS
 62
     7
 10
-311.3107
 20
-153.71919
  0
POINT
  8
1
  6
CONTINUOUS
 62
     7
 10
-311.3107
 20
-163.71919
  0
POINT
  8
1
  6
CONTINUOUS
 62
     7
 10
-311.3107
 20
-163.71919
  0
POINT
  8
1
  6
CONTINUOUS
 62
     7
 10
-311.3107
 20
-460.71918
  0
POINT
  8
1
  6
CONTINUOUS
 62
     7
 10
-311.3107
 20
-470.71918
  0
LINE
  8
1
  6
CONTINUOUS
 62
     7
 10
108.68929
 20
143.28081
 11
108.68929
 21
-33.714287
  0
LINE
  8
1
  6
CONTINUOUS
 62
     2
 10
-311.3107
 20
-470.71918
 11
108.68929
 21
-470.71918
  0
LINE
  8
1
  6
CONTINUOUS
 62
     2
 10
-311.3107
 20
-470.71918
 11
-311.3107
 21
-767.71918
  0
LINE
  8
1
  6
CONTINUOUS
 62
     2
 10
-311.3107
 20
-767.71918
 11
108.68929
 21
-767.71918
  0
LINE
  8
1
  6
CONTINUOUS
 62
     2
 10
108.68929
 20
-470.71918
 11
108.68929
 21
-767.71918
  0
LINE
  8
1
  6
CONTINUOUS
 62
     2
 10
-311.3107
 20
143.28081
 11
-311.3107
 21
-153.71919
  0
LINE
  8
1
  6
CONTINUOUS
 62
     2
 10
-311.3107
 20
-153.71919
 11
108.68929
 21
-153.71919
  0
LINE
  8
1
  6
CONTINUOUS
 62
     2
 10
108.68929
 20
143.28081
 11
108.68929
 21
-153.71919
  0
LINE
  8
1
  6
CONTINUOUS
 62
     2
 10
-311.3107
 20
143.28081
 11
108.68929
 21
143.28081
  0
LINE
  8
1
  6
CONTINUOUS
 62
     2
 10
-311.3107
 20
-163.71919
 11
-311.3107
 21
-460.71918
  0
LINE
  8
1
  6
CONTINUOUS
 62
     2
 10
-311.3107
 20
-460.71918
 11
108.68929
 21
-460.71918
  0
LINE
  8
1
  6
CONTINUOUS
 62
     2
 10
108.68929
 20
-163.71919
 11
108.68929
 21
-460.71918
  0
LINE
  8
1
  6
CONTINUOUS
 62
     2
 10
-311.3107
 20
-163.71919
 11
108.68929
 21
-163.71919
  0
ENDSEC
  0
EOF
