  0
SECTION
  2
HEADER
  9
$EXTMAX
 10
108.92817
 20
144.14287
  9
$EXTMIN
 10
-311.07183
 20
-153.71428
  0
ENDSEC
  0
SECTION
  2
TABLES
  0
TABLE
  2
LTYPE
 70
    22
  0
LTYPE
  2
CONTINUOUS
 70
    64
  3
Solid line
 72
    65
 73
     0
 40
0.000000
  0
LTYPE
  2
DASHED
 70
    64
  3
__ __ __ __ __ __ __ __ __ __ __ __ __ __ __
 72
    65
 73
     2
 40
3.500000
 49
2.000000
 49
-1.500000
  0
LTYPE
  2
CENTER
 70
    64
  3
____ _ ____ _ ____ _ ____ _ ____ _ ____ _ ____
 72
    65
 73
     4
 40
17.500000
 49
13.000000
 49
-1.500000
 49
1.500000
 49
-1.500000
  0
LTYPE
  2
PHANTOM
 70
    64
  3
_____ _ _ _____ _ _ _____ _ _ _____ _ _ ____  
 72
    65
 73
     6
 40
15.500000
 49
8.000000
 49
-1.500000
 49
1.500000
 49
-1.500000
 49
1.500000
 49
-1.500000
  0
LTYPE
  2
DOT
 70
    64
  3
. . . . . . . . . . . . . . . . . . . . . . . .
 72
    65
 73
     2
 40
0.25
 49
0.0
 49
-0.25
  0
ENDTAB
  0
TABLE
  2
LAYER
 70
     2
  0
LAYER
  2
0
 70
     0
 62
     7
  6
CONTINUOUS
  0
LAYER
  2
1
 70
     0
 62
     7
  6
CONTINUOUS
  0
ENDTAB
  0
TABLE
  2
STYLE
 70
     1
  0
STYLE
  2
STANDARD
 70
     0
 40
0.000000
 41
1.000000
 50
0.000000
 71
     0
 42
0.200000
  3
txt
  4
BIGFONT
  0
ENDTAB
  0
TABLE
  2
VIEW
 70
     0
  0
ENDTAB
  0
ENDSEC
  0
SECTION
  2
BLOCKS
  0
ENDSEC
  0
SECTION
  2
ENTITIES
  0
POINT
  8
0
  6
CONTINUOUS
 62
     7
 10
-171.01363
 20
-98.394379
  0
POINT
  8
0
  6
CONTINUOUS
 62
     7
 10
-35.232334
 20
-98.394379
  0
POINT
  8
0
  6
CONTINUOUS
 62
     7
 10
-209.88297
 20
-289.17209
  0
POINT
  8
0
  6
CONTINUOUS
 62
     7
 10
-16.390835
 20
-289.17209
  0
POINT
  8
0
  6
CONTINUOUS
 62
     7
 10
-208.2282
 20
21.853439
  0
POINT
  8
0
  6
CONTINUOUS
 62
     7
 10
-112.45571
 20
21.853439
  0
POINT
  8
0
  6
CONTINUOUS
 62
     7
 10
-4.0512333
 20
21.853439
  0
POINT
  8
0
  6
CONTINUOUS
 62
     7
 10
-387.97409
 20
100.27163
  0
POINT
  8
0
  6
CONTINUOUS
 62
     7
 10
-387.97409
 20
55.195049
  0
POINT
  8
0
  6
CONTINUOUS
 62
     7
 10
-387.97409
 20
4.380867
  0
POINT
  8
0
  6
CONTINUOUS
 62
     7
 10
-387.97409
 20
-51.689957
  0
POINT
  8
0
  6
CONTINUOUS
 62
     7
 10
-387.97409
 20
-138.66864
  0
POINT
  8
0
  6
CONTINUOUS
 62
     7
 10
-387.97409
 20
-242.56616
  0
POINT
  8
0
  6
CONTINUOUS
 62
     7
 10
-387.97409
 20
-348.29544
  0
LINE
  8
0
  6
CONTINUOUS
 62
     7
 10
108.68929
 20
143.28081
 11
108.68929
 21
-33.714287
  0
LINE
  8
0
  6
CONTINUOUS
 62
     7
 10
-187.12819
 20
36.353443
 11
-187.12819
 21
21.853439
  0
LINE
  8
0
  6
CONTINUOUS
 62
     7
 10
-187.62819
 20
6.8534431
 11
-189.12819
 21
6.8534431
  0
LINE
  8
0
  6
CONTINUOUS
 62
     7
 10
-195.10732
 20
12.353439
 11
-208.2282
 21
12.353439
  0
LINE
  8
0
  6
CENTER
 62
     7
 10
-170.09569
 20
21.853439
 11
-244.83168
 21
21.853439
  0
LINE
  8
0
  6
CONTINUOUS
 62
     7
 10
-193.7282
 20
42.953442
 11
-208.2282
 21
42.953442
  0
LINE
  8
0
  6
CENTER
 62
     7
 10
-208.2282
 20
62.114071
 11
-208.2282
 21
-1.8999671
  0
LINE
  8
0
  6
CONTINUOUS
 62
     7
 10
-187.12819
 20
21.853439
 11
-187.12819
 21
7.3534393
  0
LINE
  8
0
  6
CONTINUOUS
 62
     7
 10
-191.2282
 20
36.853443
 11
-187.62819
 21
36.853443
  0
LINE
  8
0
  6
CONTINUOUS
 62
     7
 10
-193.2282
 20
42.453442
 11
-193.2282
 21
38.853443
  0
LINE
  8
0
  6
CONTINUOUS
 62
     7
 10
-193.72818
 20
42.953438
 11
-193.22818
 21
42.453438
  0
LINE
  8
0
  6
CONTINUOUS
 62
     7
 10
-187.62819
 20
6.8534446
 11
-187.12819
 21
7.3534451
  0
LINE
  8
0
  6
CONTINUOUS
 62
     7
 10
-187.62817
 20
36.853439
 11
-187.12817
 21
36.353439
  0
LINE
  8
0
  6
CENTER
 62
     7
 10
-74.323204
 20
21.853439
 11
-151.90588
 21
21.853439
  0
LINE
  8
0
  6
CONTINUOUS
 62
     7
 10
-98.314735
 20
9.6534386
 11
-112.45571
 21
9.6534386
  0
LINE
  8
0
  6
CONTINUOUS
 62
     7
 10
-90.855705
 20
4.3534393
 11
-92.355705
 21
4.3534393
  0
LINE
  8
0
  6
CONTINUOUS
 62
     7
 10
-90.355705
 20
4.8534393
 11
-90.355705
 21
21.853439
  0
LINE
  8
0
  6
CENTER
 62
     7
 10
-112.45571
 20
59.813435
 11
-112.45571
 21
-1.8999671
  0
LINE
  8
0
  6
CONTINUOUS
 62
     7
 10
-95.455704
 20
43.953445
 11
-94.955704
 21
43.453445
  0
LINE
  8
0
  6
CONTINUOUS
 62
     7
 10
-90.855705
 20
39.353443
 11
-92.955711
 21
39.353443
  0
LINE
  8
0
  6
CONTINUOUS
 62
     7
 10
-95.455704
 20
43.953442
 11
-112.45571
 21
43.953442
  0
LINE
  8
0
  6
CONTINUOUS
 62
     7
 10
-90.355705
 20
38.853436
 11
-90.355705
 21
21.853439
  0
LINE
  8
0
  6
CONTINUOUS
 62
     7
 10
-94.955711
 20
43.453442
 11
-94.955711
 21
41.353443
  0
LINE
  8
0
  6
CONTINUOUS
 62
     7
 10
-90.855705
 20
39.353443
 11
-90.355705
 21
38.853443
  0
LINE
  8
0
  6
CONTINUOUS
 62
     7
 10
-90.355698
 20
4.8534431
 11
-90.855698
 21
4.3534427
  0
LINE
  8
0
  6
CONTINUOUS
 62
     7
 10
20.948765
 20
43.853443
 11
24.448767
 21
43.853443
  0
LINE
  8
0
  6
CONTINUOUS
 62
     7
 10
24.448767
 20
-0.14655668
 11
22.948767
 21
-0.14655668
  0
LINE
  8
0
  6
CENTER
 62
     7
 10
48.395775
 20
21.853439
 11
-52.800926
 21
21.853439
  0
LINE
  8
0
  6
CONTINUOUS
 62
     7
 10
24.448772
 20
-0.14655536
 11
24.948761
 21
0.35343441
  0
LINE
  8
0
  6
CONTINUOUS
 62
     7
 10
24.948767
 20
43.353451
 11
24.948767
 21
21.853439
  0
LINE
  8
0
  6
CONTINUOUS
 62
     7
 10
24.948767
 20
21.853439
 11
24.948767
 21
0.35343951
  0
LINE
  8
0
  6
CONTINUOUS
 62
     7
 10
-4.0512333
 20
50.853443
 11
17.448776
 21
50.853443
  0
LINE
  8
0
  6
CENTER
 62
     7
 10
-4.0512333
 20
68.810707
 11
-4.0512333
 21
-1.8999671
  0
LINE
  8
0
  6
CONTINUOUS
 62
     7
 10
17.948765
 20
50.353443
 11
17.948765
 21
46.853443
  0
LINE
  8
0
  6
CONTINUOUS
 62
     7
 10
24.448767
 20
43.853455
 11
24.948769
 21
43.353451
  0
LINE
  8
0
  6
CONTINUOUS
 62
     7
 10
17.448771
 20
50.853451
 11
17.948771
 21
50.353451
  0
LINE
  8
0
  6
CONTINUOUS
 62
     7
 10
15.951624
 20
6.6534424
 11
-4.0512333
 21
6.6534424
  0
LINE
  8
0
  6
CENTER
 62
     7
 10
-108.4212
 20
-98.394379
 11
-234.46758
 21
-98.394379
  0
LINE
  8
0
  6
CENTER
 62
     7
 10
-171.01363
 20
-41.056366
 11
-171.01363
 21
-122.14779
  0
LINE
  8
0
  6
CONTINUOUS
 62
     7
 10
-140.51363
 20
-72.894379
 11
-138.01363
 21
-72.894379
  0
LINE
  8
0
  6
CONTINUOUS
 62
     7
 10
-138.01361
 20
-72.894379
 11
-137.51361
 21
-73.394379
  0
LINE
  8
0
  6
CONTINUOUS
 62
     7
 10
-137.51363
 20
-73.394379
 11
-137.51363
 21
-98.394379
  0
LINE
  8
0
  6
CONTINUOUS
 62
     7
 10
-137.51363
 20
-123.39439
 11
-137.51363
 21
-98.394379
  0
LINE
  8
0
  6
CONTINUOUS
 62
     7
 10
-138.01363
 20
-123.89439
 11
-137.51363
 21
-123.39439
  0
LINE
  8
0
  6
CONTINUOUS
 62
     7
 10
-140.01363
 20
-123.89438
 11
-138.01363
 21
-123.89438
  0
LINE
  8
0
  6
CONTINUOUS
 62
     7
 10
-145.51363
 20
-67.894379
 11
-145.51363
 21
-65.394386
  0
LINE
  8
0
  6
CONTINUOUS
 62
     7
 10
-146.01363
 20
-64.894386
 11
-171.01363
 21
-64.894386
  0
LINE
  8
0
  6
CONTINUOUS
 62
     7
 10
-145.51363
 20
-65.394379
 11
-146.01363
 21
-64.894379
  0
LINE
  8
0
  6
CONTINUOUS
 62
     7
 10
-146.99574
 20
-117.39438
 11
-171.01363
 21
-117.39438
  0
LINE
  8
0
  6
CENTER
 62
     7
 10
-35.232334
 20
-128.10857
 11
-35.232334
 21
-33.021469
  0
LINE
  8
0
  6
CONTINUOUS
 62
     7
 10
4.2676644
 20
-128.39438
 11
4.2676644
 21
-98.394379
  0
LINE
  8
0
  6
CONTINUOUS
 62
     7
 10
1.7497847
 20
-128.89438
 11
3.7676644
 21
-128.89438
  0
LINE
  8
0
  6
CONTINUOUS
 62
     7
 10
4.2676616
 20
-128.39438
 11
3.7676611
 21
-128.89438
  0
LINE
  8
0
  6
CONTINUOUS
 62
     7
 10
4.2676644
 20
-68.394386
 11
3.7676642
 21
-67.894386
  0
LINE
  8
0
  6
CONTINUOUS
 62
     7
 10
1.7497847
 20
-128.39438
 11
1.7497847
 21
-128.89438
  0
LINE
  8
0
  6
CONTINUOUS
 62
     7
 10
-35.232334
 20
-121.39438
 11
-5.2502155
 21
-121.39438
  0
LINE
  8
0
  6
CONTINUOUS
 62
     7
 10
0.26766452
 20
-67.894379
 11
3.7676644
 21
-67.894379
  0
LINE
  8
0
  6
CONTINUOUS
 62
     7
 10
4.2676644
 20
-68.394379
 11
4.2676644
 21
-98.394379
  0
LINE
  8
0
  6
CONTINUOUS
 62
     7
 10
-4.7323356
 20
-62.894382
 11
-4.7323356
 21
-59.394382
  0
LINE
  8
0
  6
CONTINUOUS
 62
     7
 10
-5.2323356
 20
-58.894382
 11
-35.232334
 21
-58.894382
  0
LINE
  8
0
  6
CONTINUOUS
 62
     7
 10
-5.2323375
 20
-58.894382
 11
-4.732337
 21
-59.394382
  0
LINE
  8
0
  6
CONTINUOUS
 62
     7
 10
-5.2323356
 20
-61.412262
 11
-4.7323356
 21
-61.412262
  0
LINE
  8
0
  6
CONTINUOUS
 62
     7
 10
-193.2282
 20
40.953442
 11
-208.2282
 21
40.953442
  0
LINE
  8
0
  6
CONTINUOUS
 62
     7
 10
-189.12819
 20
36.353443
 11
-189.12819
 21
21.853439
  0
LINE
  8
0
  6
CONTINUOUS
 62
     7
 10
-189.12819
 20
21.853439
 11
-189.12819
 21
7.3534393
  0
LINE
  8
0
  6
CONTINUOUS
 62
     7
 10
-94.955711
 20
41.953442
 11
-112.45571
 21
41.953442
  0
LINE
  8
0
  6
CONTINUOUS
 62
     7
 10
-92.355713
 20
39.353443
 11
-92.355713
 21
21.853439
  0
LINE
  8
0
  6
CONTINUOUS
 62
     7
 10
-92.355705
 20
4.3534393
 11
-92.355705
 21
21.853439
  0
LINE
  8
0
  6
CONTINUOUS
 62
     7
 10
-4.0512333
 20
48.853443
 11
17.448776
 21
48.853443
  0
LINE
  8
0
  6
CONTINUOUS
 62
     7
 10
22.948767
 20
43.353451
 11
22.948767
 21
21.853439
  0
LINE
  8
0
  6
CONTINUOUS
 62
     7
 10
22.948767
 20
21.853439
 11
22.948767
 21
0.35343951
  0
LINE
  8
0
  6
CONTINUOUS
 62
     7
 10
-145.51363
 20
-67.394379
 11
-171.01363
 21
-67.394379
  0
LINE
  8
0
  6
CONTINUOUS
 62
     7
 10
-140.01363
 20
-73.394379
 11
-140.01363
 21
-98.394379
  0
LINE
  8
0
  6
CONTINUOUS
 62
     7
 10
-140.01363
 20
-123.89438
 11
-140.01363
 21
-98.394379
  0
LINE
  8
0
  6
CONTINUOUS
 62
     7
 10
1.7676647
 20
-68.394379
 11
1.7676647
 21
-98.394379
  0
LINE
  8
0
  6
CONTINUOUS
 62
     7
 10
1.7676647
 20
-128.89438
 11
1.7676647
 21
-98.394379
  0
LINE
  8
0
  6
CONTINUOUS
 62
     7
 10
-5.2323356
 20
-61.394382
 11
-35.232334
 21
-61.394382
  0
LINE
  8
0
  6
CONTINUOUS
 62
     7
 10
-147.53525
 20
-60.794384
 11
-146.51363
 21
-60.794384
  0
LINE
  8
0
  6
CONTINUOUS
 62
     7
 10
-147.53525
 20
-60.794384
 11
-147.53525
 21
-50.394382
  0
LINE
  8
0
  6
CONTINUOUS
 62
     7
 10
-162.31018
 20
-60.794384
 11
-162.31018
 21
-50.394382
  0
LINE
  8
0
  6
CONTINUOUS
 62
     7
 10
-162.31018
 20
-60.794384
 11
-159.84378
 21
-60.794384
  0
LINE
  8
0
  6
CONTINUOUS
 62
     7
 10
-171.01363
 20
-45.394382
 11
-151.51363
 21
-45.394382
  0
LINE
  8
0
  6
CONTINUOUS
 62
     7
 10
-147.01363
 20
-61.294384
 11
-146.51363
 21
-60.794384
  0
LINE
  8
0
  6
CONTINUOUS
 62
     7
 10
-146.51363
 20
-60.794384
 11
-146.51363
 21
-50.394382
  0
LINE
  8
0
  6
CONTINUOUS
 62
     7
 10
-171.01363
 20
-50.394382
 11
-146.51363
 21
-50.394382
  0
LINE
  8
0
  6
CONTINUOUS
 62
     7
 10
-159.84378
 20
-60.794384
 11
-159.84378
 21
-50.394382
  0
LINE
  8
0
  6
CONTINUOUS
 62
     7
 10
8.3676605
 20
-107.92066
 11
19.767664
 21
-107.92066
  0
LINE
  8
0
  6
CONTINUOUS
 62
     7
 10
19.767664
 20
-98.394379
 11
19.767664
 21
-127.89438
  0
LINE
  8
0
  6
CONTINUOUS
 62
     7
 10
7.8676634
 20
-127.39439
 11
8.3676643
 21
-127.89439
  0
LINE
  8
0
  6
CONTINUOUS
 62
     7
 10
8.3676605
 20
-125.99013
 11
19.767664
 21
-125.99013
  0
LINE
  8
0
  6
CONTINUOUS
 62
     7
 10
8.3676605
 20
-112.51794
 11
19.767664
 21
-112.51794
  0
LINE
  8
0
  6
CONTINUOUS
 62
     7
 10
8.3676643
 20
-127.89438
 11
19.767664
 21
-127.89438
  0
LINE
  8
0
  6
CONTINUOUS
 62
     7
 10
25.767664
 20
-98.394379
 11
25.767664
 21
-121.89438
  0
LINE
  8
0
  6
CONTINUOUS
 62
     7
 10
8.3676605
 20
-107.92066
 11
8.3676605
 21
-112.51794
  0
LINE
  8
0
  6
CONTINUOUS
 62
     7
 10
8.3676605
 20
-125.99013
 11
8.3676605
 21
-127.89438
  0
LINE
  8
0
  6
CONTINUOUS
 62
     7
 10
7.8676648
 20
-98.394379
 11
7.8676648
 21
-127.39438
  0
LINE
  8
0
  6
CENTER
 62
     7
 10
-185.42473
 20
21.853439
 11
-169.14375
 21
21.853439
  0
LINE
  8
0
  6
CONTINUOUS
 62
     7
 10
-172.2282
 20
21.853439
 11
-172.2282
 21
11.353439
  0
LINE
  8
0
  6
CONTINUOUS
 62
     7
 10
-183.7282
 20
21.853439
 11
-183.7282
 21
7.8534393
  0
LINE
  8
0
  6
CONTINUOUS
 62
     7
 10
-183.2282
 20
8.2321205
 11
-183.2282
 21
7.3534393
  0
LINE
  8
0
  6
CONTINUOUS
 62
     7
 10
-183.2282
 20
7.3534393
 11
-176.2282
 21
7.3534393
  0
LINE
  8
0
  6
CONTINUOUS
 62
     7
 10
-183.7282
 20
7.8534513
 11
-183.2282
 21
7.3534508
  0
LINE
  8
0
  6
CONTINUOUS
 62
     7
 10
-183.2282
 20
17.089985
 11
-183.2282
 21
14.968098
  0
LINE
  8
0
  6
CONTINUOUS
 62
     7
 10
-183.2282
 20
8.2321205
 11
-176.2282
 21
8.2321205
  0
LINE
  8
0
  6
CONTINUOUS
 62
     7
 10
-183.2282
 20
17.089985
 11
-176.2282
 21
17.089985
  0
LINE
  8
0
  6
CONTINUOUS
 62
     7
 10
-183.2282
 20
14.968098
 11
-176.2282
 21
14.968098
  0
LINE
  8
0
  6
CONTINUOUS
 62
     7
 10
-176.2282
 20
21.853439
 11
-176.2282
 21
7.3534393
  0
LINE
  8
0
  6
CONTINUOUS
 62
     7
 10
-73.455711
 20
21.853439
 11
-73.455711
 21
9.8534393
  0
LINE
  8
0
  6
CONTINUOUS
 62
     7
 10
-78.455711
 20
21.853439
 11
-78.455711
 21
4.8534393
  0
LINE
  8
0
  6
CONTINUOUS
 62
     7
 10
-86.955711
 20
21.853439
 11
-86.955711
 21
5.3534393
  0
LINE
  8
0
  6
CONTINUOUS
 62
     7
 10
-86.455711
 20
16.054451
 11
-78.455711
 21
16.054451
  0
LINE
  8
0
  6
CONTINUOUS
 62
     7
 10
-86.455711
 20
16.054451
 11
-86.455711
 21
13.933132
  0
LINE
  8
0
  6
CONTINUOUS
 62
     7
 10
-86.455711
 20
5.7321205
 11
-86.455711
 21
4.8534393
  0
LINE
  8
0
  6
CONTINUOUS
 62
     7
 10
-86.455711
 20
5.7321205
 11
-78.455711
 21
5.7321205
  0
LINE
  8
0
  6
CONTINUOUS
 62
     7
 10
-86.455711
 20
4.8534393
 11
-78.455711
 21
4.8534393
  0
LINE
  8
0
  6
CONTINUOUS
 62
     7
 10
-86.455711
 20
4.853446
 11
-86.955711
 21
5.3534465
  0
LINE
  8
0
  6
CONTINUOUS
 62
     7
 10
-86.455711
 20
13.933132
 11
-78.455711
 21
13.933132
  0
LINE
  8
0
  6
CONTINUOUS
 62
     7
 10
28.948767
 20
1.9602281
 11
37.948769
 21
1.9602281
  0
LINE
  8
0
  6
CONTINUOUS
 62
     7
 10
28.448767
 20
21.853439
 11
28.448767
 21
0.85344332
  0
LINE
  8
0
  6
CONTINUOUS
 62
     7
 10
28.448765
 20
0.85344046
 11
28.948765
 21
0.35344133
  0
LINE
  8
0
  6
CONTINUOUS
 62
     7
 10
28.948767
 20
1.9602281
 11
28.948767
 21
0.35344332
  0
LINE
  8
0
  6
CONTINUOUS
 62
     7
 10
28.948767
 20
15.220192
 11
28.948767
 21
11.341061
  0
LINE
  8
0
  6
CONTINUOUS
 62
     7
 10
28.948767
 20
0.35344332
 11
37.948769
 21
0.35344332
  0
LINE
  8
0
  6
CONTINUOUS
 62
     7
 10
42.948769
 20
21.853439
 11
42.948769
 21
5.3534431
  0
LINE
  8
0
  6
CONTINUOUS
 62
     7
 10
37.948769
 20
21.853439
 11
37.948769
 21
0.35344332
  0
LINE
  8
0
  6
CONTINUOUS
 62
     7
 10
28.948767
 20
11.341061
 11
37.948769
 21
11.341061
  0
LINE
  8
0
  6
CONTINUOUS
 62
     7
 10
28.948767
 20
15.220192
 11
37.948769
 21
15.220192
  0
LINE
  8
0
  6
CONTINUOUS
 62
     7
 10
-133.41362
 20
-121.87276
 11
-133.41362
 21
-122.89438
  0
LINE
  8
0
  6
CONTINUOUS
 62
     7
 10
-133.41362
 20
-121.87276
 11
-123.01363
 21
-121.87276
  0
LINE
  8
0
  6
CONTINUOUS
 62
     7
 10
-133.41362
 20
-107.09782
 11
-123.01363
 21
-107.09782
  0
LINE
  8
0
  6
CONTINUOUS
 62
     7
 10
-133.41362
 20
-107.09782
 11
-133.41362
 21
-109.56423
  0
LINE
  8
0
  6
CONTINUOUS
 62
     7
 10
-118.01363
 20
-98.394379
 11
-118.01363
 21
-117.89438
  0
LINE
  8
0
  6
CONTINUOUS
 62
     7
 10
-133.91364
 20
-122.39439
 11
-133.41364
 21
-122.89439
  0
LINE
  8
0
  6
CONTINUOUS
 62
     7
 10
-133.41362
 20
-122.89438
 11
-123.01363
 21
-122.89438
  0
LINE
  8
0
  6
CONTINUOUS
 62
     7
 10
-123.01363
 20
-98.394379
 11
-123.01363
 21
-122.89438
  0
LINE
  8
0
  6
CONTINUOUS
 62
     7
 10
-133.91362
 20
-98.394379
 11
-133.91362
 21
-122.39438
  0
LINE
  8
0
  6
CONTINUOUS
 62
     7
 10
-133.41362
 20
-109.56423
 11
-123.01363
 21
-109.56423
  0
LINE
  8
0
  6
CENTER
 62
     7
 10
34.050884
 20
-98.394379
 11
-102.03485
 21
-98.394379
  0
LINE
  8
0
  6
CONTINUOUS
 62
     7
 10
8.3676605
 20
-88.868103
 11
19.767664
 21
-88.868103
  0
LINE
  8
0
  6
CONTINUOUS
 62
     7
 10
19.767664
 20
-98.394379
 11
19.767664
 21
-68.894386
  0
LINE
  8
0
  6
CONTINUOUS
 62
     7
 10
7.8676634
 20
-69.394386
 11
8.3676634
 21
-68.894386
  0
LINE
  8
0
  6
CONTINUOUS
 62
     7
 10
8.3676605
 20
-70.798637
 11
19.767664
 21
-70.798637
  0
LINE
  8
0
  6
CONTINUOUS
 62
     7
 10
8.3676605
 20
-84.270828
 11
19.767664
 21
-84.270828
  0
LINE
  8
0
  6
CONTINUOUS
 62
     7
 10
8.3676643
 20
-68.894386
 11
19.767664
 21
-68.894386
  0
LINE
  8
0
  6
CONTINUOUS
 62
     7
 10
25.767664
 20
-98.394379
 11
25.767664
 21
-74.894386
  0
LINE
  8
0
  6
CONTINUOUS
 62
     7
 10
8.3676605
 20
-88.868103
 11
8.3676605
 21
-84.270828
  0
LINE
  8
0
  6
CONTINUOUS
 62
     7
 10
8.3676605
 20
-70.798637
 11
8.3676605
 21
-68.894386
  0
LINE
  8
0
  6
CONTINUOUS
 62
     7
 10
7.8676648
 20
-98.394379
 11
7.8676648
 21
-69.394379
  0
LINE
  8
0
  6
CONTINUOUS
 62
     7
 10
-133.41362
 20
-74.916
 11
-133.41362
 21
-73.894386
  0
LINE
  8
0
  6
CONTINUOUS
 62
     7
 10
-133.41362
 20
-74.916
 11
-123.01363
 21
-74.916
  0
LINE
  8
0
  6
CONTINUOUS
 62
     7
 10
-133.41362
 20
-89.690933
 11
-123.01363
 21
-89.690933
  0
LINE
  8
0
  6
CONTINUOUS
 62
     7
 10
-133.41362
 20
-89.690933
 11
-133.41362
 21
-87.224533
  0
LINE
  8
0
  6
CONTINUOUS
 62
     7
 10
-118.01363
 20
-98.394379
 11
-118.01363
 21
-78.894386
  0
LINE
  8
0
  6
CONTINUOUS
 62
     7
 10
-133.91362
 20
-74.394379
 11
-133.41362
 21
-73.894379
  0
LINE
  8
0
  6
CONTINUOUS
 62
     7
 10
-133.41362
 20
-73.894386
 11
-123.01363
 21
-73.894386
  0
LINE
  8
0
  6
CONTINUOUS
 62
     7
 10
-123.01363
 20
-98.394379
 11
-123.01363
 21
-73.894386
  0
LINE
  8
0
  6
CONTINUOUS
 62
     7
 10
-133.91362
 20
-98.394379
 11
-133.91362
 21
-74.394386
  0
LINE
  8
0
  6
CONTINUOUS
 62
     7
 10
-133.41362
 20
-87.224533
 11
-123.01363
 21
-87.224533
  0
LINE
  8
0
  6
CONTINUOUS
 62
     7
 10
-172.2282
 20
21.853439
 11
-172.2282
 21
32.353443
  0
LINE
  8
0
  6
CONTINUOUS
 62
     7
 10
-183.7282
 20
21.853439
 11
-183.7282
 21
35.853443
  0
LINE
  8
0
  6
CONTINUOUS
 62
     7
 10
-183.2282
 20
35.474758
 11
-183.2282
 21
36.353443
  0
LINE
  8
0
  6
CONTINUOUS
 62
     7
 10
-183.2282
 20
36.353443
 11
-176.2282
 21
36.353443
  0
LINE
  8
0
  6
CONTINUOUS
 62
     7
 10
-183.7282
 20
35.853439
 11
-183.2282
 21
36.353439
  0
LINE
  8
0
  6
CONTINUOUS
 62
     7
 10
-183.2282
 20
26.616898
 11
-183.2282
 21
28.738785
  0
LINE
  8
0
  6
CONTINUOUS
 62
     7
 10
-183.2282
 20
35.474758
 11
-176.2282
 21
35.474758
  0
LINE
  8
0
  6
CONTINUOUS
 62
     7
 10
-183.2282
 20
26.616898
 11
-176.2282
 21
26.616898
  0
LINE
  8
0
  6
CONTINUOUS
 62
     7
 10
-183.2282
 20
28.738785
 11
-176.2282
 21
28.738785
  0
LINE
  8
0
  6
CONTINUOUS
 62
     7
 10
-176.2282
 20
21.853439
 11
-176.2282
 21
36.353443
  0
LINE
  8
0
  6
CONTINUOUS
 62
     7
 10
-73.455711
 20
21.853439
 11
-73.455711
 21
33.853443
  0
LINE
  8
0
  6
CONTINUOUS
 62
     7
 10
-78.455711
 20
21.853439
 11
-78.455711
 21
38.853443
  0
LINE
  8
0
  6
CONTINUOUS
 62
     7
 10
-86.955711
 20
21.853439
 11
-86.955711
 21
38.353443
  0
LINE
  8
0
  6
CONTINUOUS
 62
     7
 10
-86.455711
 20
27.652431
 11
-78.455711
 21
27.652431
  0
LINE
  8
0
  6
CONTINUOUS
 62
     7
 10
-86.455711
 20
27.652431
 11
-86.455711
 21
29.77375
  0
LINE
  8
0
  6
CONTINUOUS
 62
     7
 10
-86.455711
 20
37.974758
 11
-86.455711
 21
38.853443
  0
LINE
  8
0
  6
CONTINUOUS
 62
     7
 10
-86.455711
 20
37.974758
 11
-78.455711
 21
37.974758
  0
LINE
  8
0
  6
CONTINUOUS
 62
     7
 10
-86.455711
 20
38.853443
 11
-78.455711
 21
38.853443
  0
LINE
  8
0
  6
CONTINUOUS
 62
     7
 10
-86.455711
 20
38.853439
 11
-86.955711
 21
38.353436
  0
LINE
  8
0
  6
CONTINUOUS
 62
     7
 10
-86.455711
 20
29.77375
 11
-78.455711
 21
29.77375
  0
LINE
  8
0
  6
CONTINUOUS
 62
     7
 10
28.948767
 20
41.746655
 11
37.948769
 21
41.746655
  0
LINE
  8
0
  6
CONTINUOUS
 62
     7
 10
28.448767
 20
21.853439
 11
28.448767
 21
42.853443
  0
LINE
  8
0
  6
CONTINUOUS
 62
     7
 10
28.448769
 20
42.853443
 11
28.948771
 21
43.353443
  0
LINE
  8
0
  6
CONTINUOUS
 62
     7
 10
28.948767
 20
41.746655
 11
28.948767
 21
43.353443
  0
LINE
  8
0
  6
CONTINUOUS
 62
     7
 10
28.948767
 20
28.486691
 11
28.948767
 21
32.365818
  0
LINE
  8
0
  6
CONTINUOUS
 62
     7
 10
28.948767
 20
43.353443
 11
37.948769
 21
43.353443
  0
LINE
  8
0
  6
CONTINUOUS
 62
     7
 10
42.948769
 20
21.853439
 11
42.948769
 21
38.353443
  0
LINE
  8
0
  6
CONTINUOUS
 62
     7
 10
37.948769
 20
21.853439
 11
37.948769
 21
43.353443
  0
LINE
  8
0
  6
CONTINUOUS
 62
     7
 10
28.948767
 20
32.365818
 11
37.948769
 21
32.365818
  0
LINE
  8
0
  6
CONTINUOUS
 62
     7
 10
28.948767
 20
28.486691
 11
37.948769
 21
28.486691
  0
LINE
  8
0
  6
CONTINUOUS
 62
     7
 10
-208.2282
 20
57.853443
 11
-197.7282
 21
57.853443
  0
LINE
  8
0
  6
CONTINUOUS
 62
     7
 10
-194.60687
 20
46.853443
 11
-193.7282
 21
46.853443
  0
LINE
  8
0
  6
CONTINUOUS
 62
     7
 10
-193.7282
 20
46.853443
 11
-193.7282
 21
53.853443
  0
LINE
  8
0
  6
CONTINUOUS
 62
     7
 10
-194.2282
 20
46.353443
 11
-193.7282
 21
46.853443
  0
LINE
  8
0
  6
CONTINUOUS
 62
     7
 10
-203.46474
 20
46.853443
 11
-201.34285
 21
46.853443
  0
LINE
  8
0
  6
CONTINUOUS
 62
     7
 10
-194.60687
 20
46.853443
 11
-194.60687
 21
53.853443
  0
LINE
  8
0
  6
CONTINUOUS
 62
     7
 10
-203.46474
 20
46.853443
 11
-203.46474
 21
53.853443
  0
LINE
  8
0
  6
CONTINUOUS
 62
     7
 10
-201.34285
 20
46.853443
 11
-201.34285
 21
53.853443
  0
LINE
  8
0
  6
CONTINUOUS
 62
     7
 10
-208.2282
 20
53.853443
 11
-193.7282
 21
53.853443
  0
LINE
  8
0
  6
CONTINUOUS
 62
     7
 10
-208.2282
 20
46.353443
 11
-194.2282
 21
46.353443
  0
LINE
  8
0
  6
CONTINUOUS
 62
     7
 10
-112.45571
 20
60.853436
 11
-100.45571
 21
60.853436
  0
LINE
  8
0
  6
CONTINUOUS
 62
     7
 10
-112.45571
 20
55.853443
 11
-95.455711
 21
55.853443
  0
LINE
  8
0
  6
CONTINUOUS
 62
     7
 10
-106.65672
 20
47.853436
 11
-106.65672
 21
55.853443
  0
LINE
  8
0
  6
CONTINUOUS
 62
     7
 10
-106.65672
 20
47.853436
 11
-104.5354
 21
47.853436
  0
LINE
  8
0
  6
CONTINUOUS
 62
     7
 10
-96.334389
 20
47.853436
 11
-95.455711
 21
47.853436
  0
LINE
  8
0
  6
CONTINUOUS
 62
     7
 10
-96.334389
 20
47.853436
 11
-96.334389
 21
55.853443
  0
LINE
  8
0
  6
CONTINUOUS
 62
     7
 10
-95.455711
 20
47.853443
 11
-95.455711
 21
55.853443
  0
LINE
  8
0
  6
CONTINUOUS
 62
     7
 10
-95.455711
 20
47.853439
 11
-95.955711
 21
47.353439
  0
LINE
  8
0
  6
CONTINUOUS
 62
     7
 10
-104.5354
 20
47.853436
 11
-104.5354
 21
55.853443
  0
LINE
  8
0
  6
CONTINUOUS
 62
     7
 10
-112.45571
 20
47.353443
 11
-95.955711
 21
47.353443
  0
LINE
  8
0
  6
CONTINUOUS
 62
     7
 10
15.841978
 20
54.853443
 11
15.841978
 21
63.853443
  0
LINE
  8
0
  6
CONTINUOUS
 62
     7
 10
16.948765
 20
54.353439
 11
17.448765
 21
54.853443
  0
LINE
  8
0
  6
CONTINUOUS
 62
     7
 10
15.841978
 20
54.853443
 11
17.448765
 21
54.853443
  0
LINE
  8
0
  6
CONTINUOUS
 62
     7
 10
2.5820165
 20
54.853443
 11
6.4611468
 21
54.853443
  0
LINE
  8
0
  6
CONTINUOUS
 62
     7
 10
17.448765
 20
54.853443
 11
17.448765
 21
63.853443
  0
LINE
  8
0
  6
CONTINUOUS
 62
     7
 10
-4.0512333
 20
68.853447
 11
12.448766
 21
68.853447
  0
LINE
  8
0
  6
CONTINUOUS
 62
     7
 10
-4.0512333
 20
63.853443
 11
17.448765
 21
63.853443
  0
LINE
  8
0
  6
CONTINUOUS
 62
     7
 10
6.4611468
 20
54.853443
 11
6.4611468
 21
63.853443
  0
LINE
  8
0
  6
CONTINUOUS
 62
     7
 10
2.5820165
 20
54.853443
 11
2.5820165
 21
63.853443
  0
LINE
  8
0
  6
CONTINUOUS
 62
     7
 10
-4.0512333
 20
54.353443
 11
16.948765
 21
54.353443
  0
LINE
  8
0
  6
CONTINUOUS
 62
     7
 10
-171.01363
 20
-61.294384
 11
-147.01363
 21
-61.294384
  0
LINE
  8
0
  6
CONTINUOUS
 62
     7
 10
-25.706057
 20
-54.794388
 11
-25.706057
 21
-43.394382
  0
LINE
  8
0
  6
CONTINUOUS
 62
     7
 10
-35.232334
 20
-43.394382
 11
-5.7323365
 21
-43.394382
  0
LINE
  8
0
  6
CONTINUOUS
 62
     7
 10
-6.2323365
 20
-55.294384
 11
-5.732336
 21
-54.794384
  0
LINE
  8
0
  6
CONTINUOUS
 62
     7
 10
-7.6365895
 20
-54.794388
 11
-7.6365895
 21
-43.394382
  0
LINE
  8
0
  6
CONTINUOUS
 62
     7
 10
-21.108782
 20
-54.794388
 11
-21.108782
 21
-43.394382
  0
LINE
  8
0
  6
CONTINUOUS
 62
     7
 10
-5.7323365
 20
-54.794384
 11
-5.7323365
 21
-43.394382
  0
LINE
  8
0
  6
CONTINUOUS
 62
     7
 10
-35.232334
 20
-37.394382
 11
-11.732337
 21
-37.394382
  0
LINE
  8
0
  6
CONTINUOUS
 62
     7
 10
-25.706057
 20
-54.794388
 11
-21.108782
 21
-54.794388
  0
LINE
  8
0
  6
CONTINUOUS
 62
     7
 10
-7.6365895
 20
-54.794388
 11
-5.7323365
 21
-54.794388
  0
LINE
  8
0
  6
CONTINUOUS
 62
     7
 10
-35.232334
 20
-55.294384
 11
-6.2323346
 21
-55.294384
  0
LINE
  8
0
  6
CONTINUOUS
 62
     7
 10
-194.52063
 20
46.353443
 11
-194.52063
 21
42.953442
  0
LINE
  8
0
  6
CONTINUOUS
 62
     7
 10
-187.12819
 20
35.609028
 11
-183.7282
 21
35.609028
  0
LINE
  8
0
  6
CONTINUOUS
 62
     7
 10
-187.12819
 20
8.1196594
 11
-183.7282
 21
8.1196594
  0
LINE
  8
0
  6
CONTINUOUS
 62
     7
 10
-96.226463
 20
47.353443
 11
-96.226463
 21
43.953442
  0
LINE
  8
0
  6
CONTINUOUS
 62
     7
 10
-90.355705
 20
5.6089516
 11
-86.955711
 21
5.6089516
  0
LINE
  8
0
  6
CONTINUOUS
 62
     7
 10
-90.355705
 20
38.303143
 11
-86.955711
 21
38.303143
  0
LINE
  8
0
  6
CONTINUOUS
 62
     7
 10
-126.59669
 20
9.6534386
 11
-112.45571
 21
9.6534386
  0
LINE
  8
0
  6
CONTINUOUS
 62
     7
 10
-134.05571
 20
4.3534393
 11
-132.55571
 21
4.3534393
  0
LINE
  8
0
  6
CONTINUOUS
 62
     7
 10
-134.55571
 20
4.8534393
 11
-134.55571
 21
21.853439
  0
LINE
  8
0
  6
CONTINUOUS
 62
     7
 10
-129.45572
 20
43.953445
 11
-129.95572
 21
43.453445
  0
LINE
  8
0
  6
CONTINUOUS
 62
     7
 10
-134.05571
 20
39.353443
 11
-131.9557
 21
39.353443
  0
LINE
  8
0
  6
CONTINUOUS
 62
     7
 10
-129.45572
 20
43.953442
 11
-112.45571
 21
43.953442
  0
LINE
  8
0
  6
CONTINUOUS
 62
     7
 10
-134.55571
 20
38.853436
 11
-134.55571
 21
21.853439
  0
LINE
  8
0
  6
CONTINUOUS
 62
     7
 10
-129.9557
 20
43.453442
 11
-129.9557
 21
41.353443
  0
LINE
  8
0
  6
CONTINUOUS
 62
     7
 10
-134.05573
 20
39.353443
 11
-134.55573
 21
38.853443
  0
LINE
  8
0
  6
CONTINUOUS
 62
     7
 10
-134.55571
 20
4.8534393
 11
-134.05571
 21
4.3534389
  0
LINE
  8
0
  6
CONTINUOUS
 62
     7
 10
-129.9557
 20
41.953442
 11
-112.45571
 21
41.953442
  0
LINE
  8
0
  6
CONTINUOUS
 62
     7
 10
-132.55571
 20
39.353443
 11
-132.55571
 21
21.853439
  0
LINE
  8
0
  6
CONTINUOUS
 62
     7
 10
-132.55571
 20
4.3534393
 11
-132.55571
 21
21.853439
  0
LINE
  8
0
  6
CONTINUOUS
 62
     7
 10
-151.4557
 20
21.853439
 11
-151.4557
 21
9.8534393
  0
LINE
  8
0
  6
CONTINUOUS
 62
     7
 10
-146.4557
 20
21.853439
 11
-146.4557
 21
4.8534393
  0
LINE
  8
0
  6
CONTINUOUS
 62
     7
 10
-137.9557
 20
21.853439
 11
-137.9557
 21
5.3534393
  0
LINE
  8
0
  6
CONTINUOUS
 62
     7
 10
-138.4557
 20
16.054451
 11
-146.4557
 21
16.054451
  0
LINE
  8
0
  6
CONTINUOUS
 62
     7
 10
-138.4557
 20
16.054451
 11
-138.4557
 21
13.933132
  0
LINE
  8
0
  6
CONTINUOUS
 62
     7
 10
-138.4557
 20
5.7321205
 11
-138.4557
 21
4.8534393
  0
LINE
  8
0
  6
CONTINUOUS
 62
     7
 10
-138.4557
 20
5.7321205
 11
-146.4557
 21
5.7321205
  0
LINE
  8
0
  6
CONTINUOUS
 62
     7
 10
-138.4557
 20
4.8534393
 11
-146.4557
 21
4.8534393
  0
LINE
  8
0
  6
CONTINUOUS
 62
     7
 10
-138.4557
 20
4.8534446
 11
-137.9557
 21
5.3534451
  0
LINE
  8
0
  6
CONTINUOUS
 62
     7
 10
-138.4557
 20
13.933132
 11
-146.4557
 21
13.933132
  0
LINE
  8
0
  6
CONTINUOUS
 62
     7
 10
-151.4557
 20
21.853439
 11
-151.4557
 21
33.853443
  0
LINE
  8
0
  6
CONTINUOUS
 62
     7
 10
-146.4557
 20
21.853439
 11
-146.4557
 21
38.853443
  0
LINE
  8
0
  6
CONTINUOUS
 62
     7
 10
-137.9557
 20
21.853439
 11
-137.9557
 21
38.353443
  0
LINE
  8
0
  6
CONTINUOUS
 62
     7
 10
-138.4557
 20
27.652431
 11
-146.4557
 21
27.652431
  0
LINE
  8
0
  6
CONTINUOUS
 62
     7
 10
-138.4557
 20
27.652431
 11
-138.4557
 21
29.77375
  0
LINE
  8
0
  6
CONTINUOUS
 62
     7
 10
-138.4557
 20
37.974758
 11
-138.4557
 21
38.853443
  0
LINE
  8
0
  6
CONTINUOUS
 62
     7
 10
-138.4557
 20
37.974758
 11
-146.4557
 21
37.974758
  0
LINE
  8
0
  6
CONTINUOUS
 62
     7
 10
-138.4557
 20
38.853443
 11
-146.4557
 21
38.853443
  0
LINE
  8
0
  6
CONTINUOUS
 62
     7
 10
-138.4557
 20
38.853443
 11
-137.9557
 21
38.353443
  0
LINE
  8
0
  6
CONTINUOUS
 62
     7
 10
-138.4557
 20
29.77375
 11
-146.4557
 21
29.77375
  0
LINE
  8
0
  6
CONTINUOUS
 62
     7
 10
-112.45571
 20
60.853436
 11
-124.45571
 21
60.853436
  0
LINE
  8
0
  6
CONTINUOUS
 62
     7
 10
-112.45571
 20
55.853443
 11
-129.4557
 21
55.853443
  0
LINE
  8
0
  6
CONTINUOUS
 62
     7
 10
-118.2547
 20
47.853436
 11
-118.2547
 21
55.853443
  0
LINE
  8
0
  6
CONTINUOUS
 62
     7
 10
-118.2547
 20
47.853436
 11
-120.37602
 21
47.853436
  0
LINE
  8
0
  6
CONTINUOUS
 62
     7
 10
-128.57703
 20
47.853436
 11
-129.4557
 21
47.853436
  0
LINE
  8
0
  6
CONTINUOUS
 62
     7
 10
-128.57703
 20
47.853436
 11
-128.57703
 21
55.853443
  0
LINE
  8
0
  6
CONTINUOUS
 62
     7
 10
-129.4557
 20
47.853443
 11
-129.4557
 21
55.853443
  0
LINE
  8
0
  6
CONTINUOUS
 62
     7
 10
-129.4557
 20
47.853436
 11
-128.9557
 21
47.353436
  0
LINE
  8
0
  6
CONTINUOUS
 62
     7
 10
-120.37602
 20
47.853436
 11
-120.37602
 21
55.853443
  0
LINE
  8
0
  6
CONTINUOUS
 62
     7
 10
-112.45571
 20
47.353443
 11
-128.9557
 21
47.353443
  0
LINE
  8
0
  6
CONTINUOUS
 62
     7
 10
-128.68495
 20
47.353443
 11
-128.68495
 21
43.953442
  0
LINE
  8
0
  6
CONTINUOUS
 62
     7
 10
-134.55571
 20
5.6089516
 11
-137.9557
 21
5.6089516
  0
LINE
  8
0
  6
CONTINUOUS
 62
     7
 10
-134.55571
 20
38.303143
 11
-137.9557
 21
38.303143
  0
LINE
  8
0
  6
CONTINUOUS
 62
     7
 10
24.948767
 20
1.0599939
 11
28.448767
 21
1.0599939
  0
LINE
  8
0
  6
CONTINUOUS
 62
     7
 10
24.948767
 20
42.757633
 11
28.448767
 21
42.757633
  0
LINE
  8
0
  6
CONTINUOUS
 62
     7
 10
16.588064
 20
54.353443
 11
16.588064
 21
50.853443
  0
LINE
  8
0
  6
CONTINUOUS
 62
     7
 10
-29.051231
 20
43.853443
 11
-32.551231
 21
43.853443
  0
LINE
  8
0
  6
CONTINUOUS
 62
     7
 10
-32.551231
 20
-0.14655668
 11
-31.051233
 21
-0.14655668
  0
LINE
  8
0
  6
CONTINUOUS
 62
     7
 10
-32.551239
 20
-0.14655502
 11
-33.051228
 21
0.35343474
  0
LINE
  8
0
  6
CONTINUOUS
 62
     7
 10
-33.051231
 20
43.353451
 11
-33.051231
 21
21.853439
  0
LINE
  8
0
  6
CONTINUOUS
 62
     7
 10
-33.051231
 20
21.853439
 11
-33.051231
 21
0.35343951
  0
LINE
  8
0
  6
CONTINUOUS
 62
     7
 10
-4.0512333
 20
50.853443
 11
-25.551243
 21
50.853443
  0
LINE
  8
0
  6
CONTINUOUS
 62
     7
 10
-26.051231
 20
50.353443
 11
-26.051231
 21
46.853443
  0
LINE
  8
0
  6
CONTINUOUS
 62
     7
 10
-32.551231
 20
43.853451
 11
-33.051231
 21
43.353451
  0
LINE
  8
0
  6
CONTINUOUS
 62
     7
 10
-25.551235
 20
50.853447
 11
-26.051235
 21
50.353447
  0
LINE
  8
0
  6
CONTINUOUS
 62
     7
 10
-24.05409
 20
6.6534424
 11
-4.0512333
 21
6.6534424
  0
LINE
  8
0
  6
CONTINUOUS
 62
     7
 10
-4.0512333
 20
48.853443
 11
-25.551243
 21
48.853443
  0
LINE
  8
0
  6
CONTINUOUS
 62
     7
 10
-31.051233
 20
43.353451
 11
-31.051233
 21
21.853439
  0
LINE
  8
0
  6
CONTINUOUS
 62
     7
 10
-31.051233
 20
21.853439
 11
-31.051233
 21
0.35343951
  0
LINE
  8
0
  6
CONTINUOUS
 62
     7
 10
-37.051231
 20
1.9602281
 11
-46.051231
 21
1.9602281
  0
LINE
  8
0
  6
CONTINUOUS
 62
     7
 10
-36.551231
 20
21.853439
 11
-36.551231
 21
0.85344332
  0
LINE
  8
0
  6
CONTINUOUS
 62
     7
 10
-36.551231
 20
0.85344082
 11
-37.051231
 21
0.35344166
  0
LINE
  8
0
  6
CONTINUOUS
 62
     7
 10
-37.051231
 20
1.9602281
 11
-37.051231
 21
0.35344332
  0
LINE
  8
0
  6
CONTINUOUS
 62
     7
 10
-37.051231
 20
15.220192
 11
-37.051231
 21
11.341061
  0
LINE
  8
0
  6
CONTINUOUS
 62
     7
 10
-37.051231
 20
0.35344332
 11
-46.051231
 21
0.35344332
  0
LINE
  8
0
  6
CONTINUOUS
 62
     7
 10
-51.051231
 20
21.853439
 11
-51.051231
 21
5.3534431
  0
LINE
  8
0
  6
CONTINUOUS
 62
     7
 10
-46.051231
 20
21.853439
 11
-46.051231
 21
0.35344332
  0
LINE
  8
0
  6
CONTINUOUS
 62
     7
 10
-37.051231
 20
11.341061
 11
-46.051231
 21
11.341061
  0
LINE
  8
0
  6
CONTINUOUS
 62
     7
 10
-37.051231
 20
15.220192
 11
-46.051231
 21
15.220192
  0
LINE
  8
0
  6
CONTINUOUS
 62
     7
 10
-37.051231
 20
41.746655
 11
-46.051231
 21
41.746655
  0
LINE
  8
0
  6
CONTINUOUS
 62
     7
 10
-36.551231
 20
21.853439
 11
-36.551231
 21
42.853443
  0
LINE
  8
0
  6
CONTINUOUS
 62
     7
 10
-36.551231
 20
42.853443
 11
-37.051231
 21
43.353443
  0
LINE
  8
0
  6
CONTINUOUS
 62
     7
 10
-37.051231
 20
41.746655
 11
-37.051231
 21
43.353443
  0
LINE
  8
0
  6
CONTINUOUS
 62
     7
 10
-37.051231
 20
28.486691
 11
-37.051231
 21
32.365818
  0
LINE
  8
0
  6
CONTINUOUS
 62
     7
 10
-37.051231
 20
43.353443
 11
-46.051231
 21
43.353443
  0
LINE
  8
0
  6
CONTINUOUS
 62
     7
 10
-51.051231
 20
21.853439
 11
-51.051231
 21
38.353443
  0
LINE
  8
0
  6
CONTINUOUS
 62
     7
 10
-46.051231
 20
21.853439
 11
-46.051231
 21
43.353443
  0
LINE
  8
0
  6
CONTINUOUS
 62
     7
 10
-37.051231
 20
32.365818
 11
-46.051231
 21
32.365818
  0
LINE
  8
0
  6
CONTINUOUS
 62
     7
 10
-37.051231
 20
28.486691
 11
-46.051231
 21
28.486691
  0
LINE
  8
0
  6
CONTINUOUS
 62
     7
 10
-23.944445
 20
54.853443
 11
-23.944445
 21
63.853443
  0
LINE
  8
0
  6
CONTINUOUS
 62
     7
 10
-25.051231
 20
54.353443
 11
-25.551231
 21
54.853443
  0
LINE
  8
0
  6
CONTINUOUS
 62
     7
 10
-23.944445
 20
54.853443
 11
-25.551231
 21
54.853443
  0
LINE
  8
0
  6
CONTINUOUS
 62
     7
 10
-10.684483
 20
54.853443
 11
-14.563614
 21
54.853443
  0
LINE
  8
0
  6
CONTINUOUS
 62
     7
 10
-25.551231
 20
54.853443
 11
-25.551231
 21
63.853443
  0
LINE
  8
0
  6
CONTINUOUS
 62
     7
 10
-4.0512333
 20
68.853447
 11
-20.551233
 21
68.853447
  0
LINE
  8
0
  6
CONTINUOUS
 62
     7
 10
-4.0512333
 20
63.853443
 11
-25.551231
 21
63.853443
  0
LINE
  8
0
  6
CONTINUOUS
 62
     7
 10
-14.563614
 20
54.853443
 11
-14.563614
 21
63.853443
  0
LINE
  8
0
  6
CONTINUOUS
 62
     7
 10
-10.684483
 20
54.853443
 11
-10.684483
 21
63.853443
  0
LINE
  8
0
  6
CONTINUOUS
 62
     7
 10
-4.0512333
 20
54.353443
 11
-25.051231
 21
54.353443
  0
LINE
  8
0
  6
CONTINUOUS
 62
     7
 10
-33.051231
 20
1.0599939
 11
-36.551231
 21
1.0599939
  0
LINE
  8
0
  6
CONTINUOUS
 62
     7
 10
-33.051231
 20
42.757633
 11
-36.551231
 21
42.757633
  0
LINE
  8
0
  6
CONTINUOUS
 62
     7
 10
-24.690531
 20
54.353443
 11
-24.690531
 21
50.853443
  0
LINE
  8
0
  6
CONTINUOUS
 62
     7
 10
-147.41547
 20
-61.294384
 11
-147.41547
 21
-64.894386
  0
LINE
  8
0
  6
CONTINUOUS
 62
     7
 10
-137.51363
 20
-74.47258
 11
-133.91362
 21
-74.47258
  0
LINE
  8
0
  6
CONTINUOUS
 62
     7
 10
-137.51363
 20
-122.02
 11
-133.91362
 21
-122.02
  0
LINE
  8
0
  6
CONTINUOUS
 62
     7
 10
-204.51363
 20
-122.02
 11
-208.11363
 21
-122.02
  0
LINE
  8
0
  6
CONTINUOUS
 62
     7
 10
-208.61363
 20
-74.916
 11
-208.61363
 21
-73.894386
  0
LINE
  8
0
  6
CONTINUOUS
 62
     7
 10
-194.61179
 20
-61.294384
 11
-194.61179
 21
-64.894386
  0
LINE
  8
0
  6
CONTINUOUS
 62
     7
 10
-204.51363
 20
-74.47258
 11
-208.11363
 21
-74.47258
  0
LINE
  8
0
  6
CONTINUOUS
 62
     7
 10
-171.01363
 20
-61.294384
 11
-195.01363
 21
-61.294384
  0
LINE
  8
0
  6
CONTINUOUS
 62
     7
 10
-208.61363
 20
-87.224533
 11
-219.01363
 21
-87.224533
  0
LINE
  8
0
  6
CONTINUOUS
 62
     7
 10
-208.11363
 20
-98.394379
 11
-208.11363
 21
-74.394386
  0
LINE
  8
0
  6
CONTINUOUS
 62
     7
 10
-208.61363
 20
-107.09782
 11
-208.61363
 21
-109.56423
  0
LINE
  8
0
  6
CONTINUOUS
 62
     7
 10
-195.03151
 20
-117.39438
 11
-171.01363
 21
-117.39438
  0
LINE
  8
0
  6
CONTINUOUS
 62
     7
 10
-196.51363
 20
-65.394386
 11
-196.01363
 21
-64.894386
  0
LINE
  8
0
  6
CONTINUOUS
 62
     7
 10
-196.01363
 20
-64.894386
 11
-171.01363
 21
-64.894386
  0
LINE
  8
0
  6
CONTINUOUS
 62
     7
 10
-196.51363
 20
-67.894379
 11
-196.51363
 21
-65.394386
  0
LINE
  8
0
  6
CONTINUOUS
 62
     7
 10
-202.01363
 20
-123.89438
 11
-204.01363
 21
-123.89438
  0
LINE
  8
0
  6
CONTINUOUS
 62
     7
 10
-204.01363
 20
-123.89439
 11
-204.51363
 21
-123.39439
  0
LINE
  8
0
  6
CONTINUOUS
 62
     7
 10
-204.51363
 20
-123.39439
 11
-204.51363
 21
-98.394379
  0
LINE
  8
0
  6
CONTINUOUS
 62
     7
 10
-204.51363
 20
-73.394379
 11
-204.51363
 21
-98.394379
  0
LINE
  8
0
  6
CONTINUOUS
 62
     7
 10
-204.01363
 20
-72.894379
 11
-204.51363
 21
-73.394379
  0
LINE
  8
0
  6
CONTINUOUS
 62
     7
 10
-201.51363
 20
-72.894379
 11
-204.01363
 21
-72.894379
  0
LINE
  8
0
  6
CONTINUOUS
 62
     7
 10
-219.01363
 20
-98.394379
 11
-219.01363
 21
-73.894386
  0
LINE
  8
0
  6
CONTINUOUS
 62
     7
 10
-208.61363
 20
-73.894386
 11
-219.01363
 21
-73.894386
  0
LINE
  8
0
  6
CONTINUOUS
 62
     7
 10
-208.11363
 20
-74.394379
 11
-208.61363
 21
-73.894379
  0
LINE
  8
0
  6
CONTINUOUS
 62
     7
 10
-224.01363
 20
-98.394379
 11
-224.01363
 21
-78.894386
  0
LINE
  8
0
  6
CONTINUOUS
 62
     7
 10
-208.61363
 20
-89.690933
 11
-208.61363
 21
-87.224533
  0
LINE
  8
0
  6
CONTINUOUS
 62
     7
 10
-208.61363
 20
-89.690933
 11
-219.01363
 21
-89.690933
  0
LINE
  8
0
  6
CONTINUOUS
 62
     7
 10
-208.61363
 20
-74.916
 11
-219.01363
 21
-74.916
  0
LINE
  8
0
  6
CONTINUOUS
 62
     7
 10
-208.61363
 20
-109.56423
 11
-219.01363
 21
-109.56423
  0
LINE
  8
0
  6
CONTINUOUS
 62
     7
 10
-208.11363
 20
-98.394379
 11
-208.11363
 21
-122.39438
  0
LINE
  8
0
  6
CONTINUOUS
 62
     7
 10
-219.01363
 20
-98.394379
 11
-219.01363
 21
-122.89438
  0
LINE
  8
0
  6
CONTINUOUS
 62
     7
 10
-208.61363
 20
-122.89438
 11
-219.01363
 21
-122.89438
  0
LINE
  8
0
  6
CONTINUOUS
 62
     7
 10
-208.61363
 20
-107.09782
 11
-219.01363
 21
-107.09782
  0
LINE
  8
0
  6
CONTINUOUS
 62
     7
 10
-208.11362
 20
-122.39439
 11
-208.61362
 21
-122.89439
  0
LINE
  8
0
  6
CONTINUOUS
 62
     7
 10
-208.61363
 20
-121.87276
 11
-219.01363
 21
-121.87276
  0
LINE
  8
0
  6
CONTINUOUS
 62
     7
 10
-202.01363
 20
-123.89438
 11
-202.01363
 21
-98.394379
  0
LINE
  8
0
  6
CONTINUOUS
 62
     7
 10
-202.01363
 20
-73.394379
 11
-202.01363
 21
-98.394379
  0
LINE
  8
0
  6
CONTINUOUS
 62
     7
 10
-196.51363
 20
-67.394379
 11
-171.01363
 21
-67.394379
  0
LINE
  8
0
  6
CONTINUOUS
 62
     7
 10
-208.61363
 20
-121.87276
 11
-208.61363
 21
-122.89438
  0
LINE
  8
0
  6
CONTINUOUS
 62
     7
 10
-224.01363
 20
-98.394379
 11
-224.01363
 21
-117.89438
  0
LINE
  8
0
  6
CONTINUOUS
 62
     7
 10
-182.18347
 20
-60.794384
 11
-182.18347
 21
-50.394382
  0
LINE
  8
0
  6
CONTINUOUS
 62
     7
 10
-171.01363
 20
-50.394382
 11
-195.51363
 21
-50.394382
  0
LINE
  8
0
  6
CONTINUOUS
 62
     7
 10
-195.51363
 20
-60.794384
 11
-195.51363
 21
-50.394382
  0
LINE
  8
0
  6
CONTINUOUS
 62
     7
 10
-195.01363
 20
-61.294388
 11
-195.51363
 21
-60.794388
  0
LINE
  8
0
  6
CONTINUOUS
 62
     7
 10
-171.01363
 20
-45.394382
 11
-190.51363
 21
-45.394382
  0
LINE
  8
0
  6
CONTINUOUS
 62
     7
 10
-179.71707
 20
-60.794384
 11
-182.18347
 21
-60.794384
  0
LINE
  8
0
  6
CONTINUOUS
 62
     7
 10
-179.71707
 20
-60.794384
 11
-179.71707
 21
-50.394382
  0
LINE
  8
0
  6
CONTINUOUS
 62
     7
 10
-194.492
 20
-60.794384
 11
-194.492
 21
-50.394382
  0
LINE
  8
0
  6
CONTINUOUS
 62
     7
 10
-194.492
 20
-60.794384
 11
-195.51363
 21
-60.794384
  0
LINE
  8
0
  6
CONTINUOUS
 62
     7
 10
4.2676644
 20
-126.86443
 11
7.8676648
 21
-126.86443
  0
LINE
  8
0
  6
CONTINUOUS
 62
     7
 10
4.2676644
 20
-69.742538
 11
7.8676648
 21
-69.742538
  0
LINE
  8
0
  6
CONTINUOUS
 62
     7
 10
-6.8269792
 20
-55.294384
 11
-6.8269792
 21
-58.894382
  0
LINE
  8
0
  6
CONTINUOUS
 62
     7
 10
-74.732338
 20
-128.39438
 11
-74.732338
 21
-98.394379
  0
LINE
  8
0
  6
CONTINUOUS
 62
     7
 10
-72.214455
 20
-128.89438
 11
-74.232338
 21
-128.89438
  0
LINE
  8
0
  6
CONTINUOUS
 62
     7
 10
-74.73233
 20
-128.39438
 11
-74.23233
 21
-128.89438
  0
LINE
  8
0
  6
CONTINUOUS
 62
     7
 10
-74.732338
 20
-68.394386
 11
-74.232338
 21
-67.894386
  0
LINE
  8
0
  6
CONTINUOUS
 62
     7
 10
-72.214455
 20
-128.39438
 11
-72.214455
 21
-128.89438
  0
LINE
  8
0
  6
CONTINUOUS
 62
     7
 10
-35.232334
 20
-121.39438
 11
-65.214455
 21
-121.39438
  0
LINE
  8
0
  6
CONTINUOUS
 62
     7
 10
-70.732338
 20
-67.894379
 11
-74.232338
 21
-67.894379
  0
LINE
  8
0
  6
CONTINUOUS
 62
     7
 10
-74.732338
 20
-68.394379
 11
-74.732338
 21
-98.394379
  0
LINE
  8
0
  6
CONTINUOUS
 62
     7
 10
-65.732338
 20
-62.894382
 11
-65.732338
 21
-59.394382
  0
LINE
  8
0
  6
CONTINUOUS
 62
     7
 10
-65.232338
 20
-58.894382
 11
-35.232334
 21
-58.894382
  0
LINE
  8
0
  6
CONTINUOUS
 62
     7
 10
-65.232338
 20
-58.894382
 11
-65.732338
 21
-59.394382
  0
LINE
  8
0
  6
CONTINUOUS
 62
     7
 10
-65.232338
 20
-61.412262
 11
-65.732338
 21
-61.412262
  0
LINE
  8
0
  6
CONTINUOUS
 62
     7
 10
-72.232338
 20
-68.394379
 11
-72.232338
 21
-98.394379
  0
LINE
  8
0
  6
CONTINUOUS
 62
     7
 10
-72.232338
 20
-128.89438
 11
-72.232338
 21
-98.394379
  0
LINE
  8
0
  6
CONTINUOUS
 62
     7
 10
-65.232338
 20
-61.394382
 11
-35.232334
 21
-61.394382
  0
LINE
  8
0
  6
CONTINUOUS
 62
     7
 10
-78.832336
 20
-107.92066
 11
-90.232338
 21
-107.92066
  0
LINE
  8
0
  6
CONTINUOUS
 62
     7
 10
-90.232338
 20
-98.394379
 11
-90.232338
 21
-127.89438
  0
LINE
  8
0
  6
CONTINUOUS
 62
     7
 10
-78.332329
 20
-127.39438
 11
-78.832329
 21
-127.89438
  0
LINE
  8
0
  6
CONTINUOUS
 62
     7
 10
-78.832336
 20
-125.99013
 11
-90.232338
 21
-125.99013
  0
LINE
  8
0
  6
CONTINUOUS
 62
     7
 10
-78.832336
 20
-112.51794
 11
-90.232338
 21
-112.51794
  0
LINE
  8
0
  6
CONTINUOUS
 62
     7
 10
-78.832336
 20
-127.89438
 11
-90.232338
 21
-127.89438
  0
LINE
  8
0
  6
CONTINUOUS
 62
     7
 10
-96.232338
 20
-98.394379
 11
-96.232338
 21
-121.89438
  0
LINE
  8
0
  6
CONTINUOUS
 62
     7
 10
-78.832336
 20
-107.92066
 11
-78.832336
 21
-112.51794
  0
LINE
  8
0
  6
CONTINUOUS
 62
     7
 10
-78.832336
 20
-125.99013
 11
-78.832336
 21
-127.89438
  0
LINE
  8
0
  6
CONTINUOUS
 62
     7
 10
-78.332336
 20
-98.394379
 11
-78.332336
 21
-127.39438
  0
LINE
  8
0
  6
CONTINUOUS
 62
     7
 10
-78.832336
 20
-88.868103
 11
-90.232338
 21
-88.868103
  0
LINE
  8
0
  6
CONTINUOUS
 62
     7
 10
-90.232338
 20
-98.394379
 11
-90.232338
 21
-68.894386
  0
LINE
  8
0
  6
CONTINUOUS
 62
     7
 10
-78.332336
 20
-69.394386
 11
-78.832336
 21
-68.894386
  0
LINE
  8
0
  6
CONTINUOUS
 62
     7
 10
-78.832336
 20
-70.798637
 11
-90.232338
 21
-70.798637
  0
LINE
  8
0
  6
CONTINUOUS
 62
     7
 10
-78.832336
 20
-84.270828
 11
-90.232338
 21
-84.270828
  0
LINE
  8
0
  6
CONTINUOUS
 62
     7
 10
-78.832336
 20
-68.894386
 11
-90.232338
 21
-68.894386
  0
LINE
  8
0
  6
CONTINUOUS
 62
     7
 10
-96.232338
 20
-98.394379
 11
-96.232338
 21
-74.894386
  0
LINE
  8
0
  6
CONTINUOUS
 62
     7
 10
-78.832336
 20
-88.868103
 11
-78.832336
 21
-84.270828
  0
LINE
  8
0
  6
CONTINUOUS
 62
     7
 10
-78.832336
 20
-70.798637
 11
-78.832336
 21
-68.894386
  0
LINE
  8
0
  6
CONTINUOUS
 62
     7
 10
-78.332336
 20
-98.394379
 11
-78.332336
 21
-69.394379
  0
LINE
  8
0
  6
CONTINUOUS
 62
     7
 10
-44.758614
 20
-54.794388
 11
-44.758614
 21
-43.394382
  0
LINE
  8
0
  6
CONTINUOUS
 62
     7
 10
-35.232334
 20
-43.394382
 11
-64.732338
 21
-43.394382
  0
LINE
  8
0
  6
CONTINUOUS
 62
     7
 10
-64.232338
 20
-55.294388
 11
-64.732338
 21
-54.794388
  0
LINE
  8
0
  6
CONTINUOUS
 62
     7
 10
-62.828079
 20
-54.794388
 11
-62.828079
 21
-43.394382
  0
LINE
  8
0
  6
CONTINUOUS
 62
     7
 10
-49.355888
 20
-54.794388
 11
-49.355888
 21
-43.394382
  0
LINE
  8
0
  6
CONTINUOUS
 62
     7
 10
-64.732338
 20
-54.794384
 11
-64.732338
 21
-43.394382
  0
LINE
  8
0
  6
CONTINUOUS
 62
     7
 10
-35.232334
 20
-37.394382
 11
-58.732334
 21
-37.394382
  0
LINE
  8
0
  6
CONTINUOUS
 62
     7
 10
-44.758614
 20
-54.794388
 11
-49.355888
 21
-54.794388
  0
LINE
  8
0
  6
CONTINUOUS
 62
     7
 10
-62.828079
 20
-54.794388
 11
-64.732338
 21
-54.794388
  0
LINE
  8
0
  6
CONTINUOUS
 62
     7
 10
-35.232334
 20
-55.294384
 11
-64.232338
 21
-55.294384
  0
LINE
  8
0
  6
CONTINUOUS
 62
     7
 10
-74.732338
 20
-126.86443
 11
-78.332336
 21
-126.86443
  0
LINE
  8
0
  6
CONTINUOUS
 62
     7
 10
-74.732338
 20
-69.742538
 11
-78.332336
 21
-69.742538
  0
LINE
  8
0
  6
CONTINUOUS
 62
     7
 10
-63.637691
 20
-55.294384
 11
-63.637691
 21
-58.894382
  0
LINE
  8
0
  6
CONTINUOUS
 62
     7
 10
-170.38297
 20
-323.17209
 11
-170.38297
 21
-322.67209
  0
LINE
  8
0
  6
CONTINUOUS
 62
     7
 10
-177.38297
 20
-315.87207
 11
-209.88297
 21
-315.87207
  0
LINE
  8
0
  6
CENTER
 62
     7
 10
-136.22282
 20
-289.17209
 11
-284.51138
 21
-289.17209
  0
LINE
  8
0
  6
CENTER
 62
     7
 10
-209.88297
 20
-214.92632
 11
-209.88297
 21
-325.07458
  0
LINE
  8
0
  6
CONTINUOUS
 62
     7
 10
-167.38297
 20
-323.67209
 11
-166.88298
 21
-323.17209
  0
LINE
  8
0
  6
CONTINUOUS
 62
     7
 10
-170.38297
 20
-323.67209
 11
-167.38297
 21
-323.67209
  0
LINE
  8
0
  6
CONTINUOUS
 62
     7
 10
-166.88297
 20
-323.17206
 11
-166.88297
 21
-289.17209
  0
LINE
  8
0
  6
CONTINUOUS
 62
     7
 10
-167.38297
 20
-254.67209
 11
-166.88297
 21
-255.17209
  0
LINE
  8
0
  6
CONTINUOUS
 62
     7
 10
-170.38297
 20
-254.67207
 11
-167.38297
 21
-254.67207
  0
LINE
  8
0
  6
CONTINUOUS
 62
     7
 10
-166.88297
 20
-255.17209
 11
-166.88297
 21
-289.17209
  0
LINE
  8
0
  6
CONTINUOUS
 62
     7
 10
-175.38298
 20
-246.67207
 11
-175.88297
 21
-246.17209
  0
LINE
  8
0
  6
CONTINUOUS
 62
     7
 10
-175.38297
 20
-249.67207
 11
-175.38297
 21
-246.67207
  0
LINE
  8
0
  6
CONTINUOUS
 62
     7
 10
-175.38297
 20
-249.67207
 11
-176.57912
 21
-249.67207
  0
LINE
  8
0
  6
CONTINUOUS
 62
     7
 10
-175.88297
 20
-246.17207
 11
-209.88297
 21
-246.17207
  0
LINE
  8
0
  6
DASHED
 62
     7
 10
-170.38297
 20
-255.17209
 11
-170.38297
 21
-255.47208
  0
LINE
  8
0
  6
CONTINUOUS
 62
     7
 10
-170.38297
 20
-323.67209
 11
-170.38297
 21
-322.87207
  0
LINE
  8
0
  6
CONTINUOUS
 62
     7
 10
-170.38297
 20
-254.67207
 11
-170.38297
 21
-255.47208
  0
LINE
  8
0
  6
CENTER
 62
     7
 10
55.087055
 20
-289.17209
 11
-83.108177
 21
-289.17209
  0
LINE
  8
0
  6
CENTER
 62
     7
 10
-16.390835
 20
-203.97113
 11
-16.390835
 21
-345.74695
  0
LINE
  8
0
  6
CONTINUOUS
 62
     7
 10
32.609165
 20
-247.67209
 11
32.609165
 21
-289.17209
  0
LINE
  8
0
  6
CONTINUOUS
 62
     7
 10
28.609165
 20
-247.17207
 11
32.109165
 21
-247.17207
  0
LINE
  8
0
  6
CONTINUOUS
 62
     7
 10
32.109161
 20
-247.17207
 11
32.609161
 21
-247.67207
  0
LINE
  8
0
  6
CONTINUOUS
 62
     7
 10
28.109165
 20
-331.17209
 11
32.109165
 21
-331.17209
  0
LINE
  8
0
  6
CONTINUOUS
 62
     7
 10
32.109173
 20
-331.17209
 11
32.609177
 21
-330.67209
  0
LINE
  8
0
  6
CONTINUOUS
 62
     7
 10
28.109165
 20
-331.17209
 11
28.109165
 21
-330.67209
  0
LINE
  8
0
  6
CONTINUOUS
 62
     7
 10
19.109165
 20
-321.67209
 11
-16.390835
 21
-321.67209
  0
LINE
  8
0
  6
CONTINUOUS
 62
     7
 10
25.609163
 20
-240.67207
 11
25.109163
 21
-240.17207
  0
LINE
  8
0
  6
CONTINUOUS
 62
     7
 10
25.109161
 20
-240.17207
 11
-16.390835
 21
-240.17207
  0
LINE
  8
0
  6
CONTINUOUS
 62
     7
 10
32.609165
 20
-330.67209
 11
32.609165
 21
-289.17209
  0
LINE
  8
0
  6
CONTINUOUS
 62
     7
 10
28.109165
 20
-247.17207
 11
28.109165
 21
-247.67207
  0
LINE
  8
0
  6
CONTINUOUS
 62
     7
 10
25.609165
 20
-244.67207
 11
25.109165
 21
-244.67207
  0
LINE
  8
0
  6
CONTINUOUS
 62
     7
 10
25.609165
 20
-244.17207
 11
25.609165
 21
-240.67207
  0
LINE
  8
0
  6
CONTINUOUS
 62
     7
 10
-175.88297
 20
-249.67207
 11
-209.88297
 21
-249.67207
  0
LINE
  8
0
  6
CONTINUOUS
 62
     7
 10
-170.38297
 20
-255.17209
 11
-170.38297
 21
-289.17209
  0
LINE
  8
0
  6
CONTINUOUS
 62
     7
 10
-170.38297
 20
-323.17206
 11
-170.38297
 21
-289.17209
  0
LINE
  8
0
  6
CONTINUOUS
 62
     7
 10
25.109161
 20
-244.67207
 11
-16.390835
 21
-244.67207
  0
LINE
  8
0
  6
CONTINUOUS
 62
     7
 10
28.109165
 20
-247.67209
 11
28.109165
 21
-289.17209
  0
LINE
  8
0
  6
CONTINUOUS
 62
     7
 10
28.109165
 20
-330.67209
 11
28.109165
 21
-289.17209
  0
LINE
  8
0
  6
CONTINUOUS
 62
     7
 10
-162.38297
 20
-299.38235
 11
-150.88297
 21
-299.38235
  0
LINE
  8
0
  6
CONTINUOUS
 62
     7
 10
-162.38297
 20
-320.43347
 11
-162.38297
 21
-323.17209
  0
LINE
  8
0
  6
CONTINUOUS
 62
     7
 10
-162.38297
 20
-255.17209
 11
-162.88297
 21
-255.67207
  0
LINE
  8
0
  6
CONTINUOUS
 62
     7
 10
-150.88297
 20
-289.17209
 11
-150.88297
 21
-255.17207
  0
LINE
  8
0
  6
CONTINUOUS
 62
     7
 10
-162.88297
 20
-289.17209
 11
-162.88297
 21
-255.67207
  0
LINE
  8
0
  6
CONTINUOUS
 62
     7
 10
-162.38297
 20
-272.35022
 11
-150.88297
 21
-272.35022
  0
LINE
  8
0
  6
CONTINUOUS
 62
     7
 10
-162.38297
 20
-278.96179
 11
-162.38297
 21
-272.35022
  0
LINE
  8
0
  6
CONTINUOUS
 62
     7
 10
-162.38297
 20
-255.17207
 11
-150.88297
 21
-255.17207
  0
LINE
  8
0
  6
CONTINUOUS
 62
     7
 10
-142.88297
 20
-289.17209
 11
-142.88297
 21
-263.17209
  0
LINE
  8
0
  6
CONTINUOUS
 62
     7
 10
-162.38297
 20
-257.91068
 11
-150.88297
 21
-257.91068
  0
LINE
  8
0
  6
CONTINUOUS
 62
     7
 10
-162.38297
 20
-320.43347
 11
-150.88297
 21
-320.43347
  0
LINE
  8
0
  6
CONTINUOUS
 62
     7
 10
-142.88297
 20
-289.17209
 11
-142.88297
 21
-315.17209
  0
LINE
  8
0
  6
CONTINUOUS
 62
     7
 10
-162.38297
 20
-257.91068
 11
-162.38297
 21
-255.17207
  0
LINE
  8
0
  6
CONTINUOUS
 62
     7
 10
-162.38297
 20
-323.17209
 11
-150.88297
 21
-323.17209
  0
LINE
  8
0
  6
CONTINUOUS
 62
     7
 10
-162.38297
 20
-278.96179
 11
-150.88297
 21
-278.96179
  0
LINE
  8
0
  6
CONTINUOUS
 62
     7
 10
-162.38297
 20
-299.38235
 11
-162.38297
 21
-305.99396
  0
LINE
  8
0
  6
CONTINUOUS
 62
     7
 10
-162.38297
 20
-305.99396
 11
-150.88297
 21
-305.99396
  0
LINE
  8
0
  6
CONTINUOUS
 62
     7
 10
-162.88297
 20
-289.17209
 11
-162.88297
 21
-322.67209
  0
LINE
  8
0
  6
CONTINUOUS
 62
     7
 10
-150.88297
 20
-289.17209
 11
-150.88297
 21
-323.17209
  0
LINE
  8
0
  6
CONTINUOUS
 62
     7
 10
-162.38297
 20
-323.17209
 11
-162.88297
 21
-322.67209
  0
LINE
  8
0
  6
CENTER
 62
     7
 10
33.29211
 20
-289.17209
 11
63.29211
 21
-289.17209
  0
LINE
  8
0
  6
CONTINUOUS
 62
     7
 10
36.609165
 20
-248.17207
 11
51.609165
 21
-248.17207
  0
LINE
  8
0
  6
CONTINUOUS
 62
     7
 10
36.609165
 20
-330.17209
 11
51.609165
 21
-330.17209
  0
LINE
  8
0
  6
CONTINUOUS
 62
     7
 10
36.609161
 20
-330.17209
 11
36.10915
 21
-329.67206
  0
LINE
  8
0
  6
CONTINUOUS
 62
     7
 10
36.609165
 20
-327.32861
 11
36.609165
 21
-330.17209
  0
LINE
  8
0
  6
CONTINUOUS
 62
     7
 10
59.609165
 20
-289.17209
 11
59.609165
 21
-322.17209
  0
LINE
  8
0
  6
CONTINUOUS
 62
     7
 10
36.109165
 20
-289.17209
 11
36.109165
 21
-329.67209
  0
LINE
  8
0
  6
CONTINUOUS
 62
     7
 10
36.609165
 20
-327.32861
 11
51.609165
 21
-327.32861
  0
LINE
  8
0
  6
CONTINUOUS
 62
     7
 10
36.609165
 20
-302.13358
 11
51.609165
 21
-302.13358
  0
LINE
  8
0
  6
CONTINUOUS
 62
     7
 10
51.609165
 20
-289.17209
 11
51.609165
 21
-330.17209
  0
LINE
  8
0
  6
CONTINUOUS
 62
     7
 10
36.609165
 20
-308.99829
 11
51.609165
 21
-308.99829
  0
LINE
  8
0
  6
CONTINUOUS
 62
     7
 10
36.609165
 20
-276.2106
 11
36.609165
 21
-269.34586
  0
LINE
  8
0
  6
CONTINUOUS
 62
     7
 10
36.609165
 20
-269.34586
 11
51.609165
 21
-269.34586
  0
LINE
  8
0
  6
CONTINUOUS
 62
     7
 10
36.609165
 20
-302.13358
 11
36.609165
 21
-308.99829
  0
LINE
  8
0
  6
CONTINUOUS
 62
     7
 10
51.609165
 20
-289.17209
 11
51.609165
 21
-248.17207
  0
LINE
  8
0
  6
CONTINUOUS
 62
     7
 10
36.609165
 20
-276.2106
 11
51.609165
 21
-276.2106
  0
LINE
  8
0
  6
CONTINUOUS
 62
     7
 10
36.609165
 20
-251.01555
 11
51.609165
 21
-251.01555
  0
LINE
  8
0
  6
CONTINUOUS
 62
     7
 10
36.109165
 20
-289.17209
 11
36.109165
 21
-248.67207
  0
LINE
  8
0
  6
CONTINUOUS
 62
     7
 10
59.609165
 20
-289.17209
 11
59.609165
 21
-256.17209
  0
LINE
  8
0
  6
CONTINUOUS
 62
     7
 10
36.609165
 20
-251.01555
 11
36.609165
 21
-248.17207
  0
LINE
  8
0
  6
CONTINUOUS
 62
     7
 10
36.609165
 20
-248.17207
 11
36.109165
 21
-248.67207
  0
LINE
  8
0
  6
CONTINUOUS
 62
     7
 10
-175.88298
 20
-241.67209
 11
-176.38297
 21
-242.17207
  0
LINE
  8
0
  6
CONTINUOUS
 62
     7
 10
-178.62157
 20
-241.67207
 11
-175.88297
 21
-241.67207
  0
LINE
  8
0
  6
CONTINUOUS
 62
     7
 10
-175.88297
 20
-241.67207
 11
-175.88297
 21
-230.17207
  0
LINE
  8
0
  6
CONTINUOUS
 62
     7
 10
-178.62157
 20
-241.67207
 11
-178.62157
 21
-230.17207
  0
LINE
  8
0
  6
CONTINUOUS
 62
     7
 10
-209.88297
 20
-222.17207
 11
-183.88297
 21
-222.17207
  0
LINE
  8
0
  6
CONTINUOUS
 62
     7
 10
-199.67268
 20
-241.67207
 11
-193.0611
 21
-241.67207
  0
LINE
  8
0
  6
CONTINUOUS
 62
     7
 10
-193.0611
 20
-241.67207
 11
-193.0611
 21
-230.17207
  0
LINE
  8
0
  6
CONTINUOUS
 62
     7
 10
-209.88297
 20
-230.17207
 11
-175.88297
 21
-230.17207
  0
LINE
  8
0
  6
CONTINUOUS
 62
     7
 10
-199.67268
 20
-241.67207
 11
-199.67268
 21
-230.17207
  0
LINE
  8
0
  6
CONTINUOUS
 62
     7
 10
-209.88297
 20
-242.17207
 11
-176.38297
 21
-242.17207
  0
LINE
  8
0
  6
CONTINUOUS
 62
     7
 10
24.609165
 20
-236.17207
 11
24.609165
 21
-221.17207
  0
LINE
  8
0
  6
CONTINUOUS
 62
     7
 10
24.609163
 20
-236.17207
 11
24.109163
 21
-236.67207
  0
LINE
  8
0
  6
CONTINUOUS
 62
     7
 10
21.765694
 20
-236.17207
 11
24.609165
 21
-236.17207
  0
LINE
  8
0
  6
CONTINUOUS
 62
     7
 10
-16.390835
 20
-213.17207
 11
16.609165
 21
-213.17207
  0
LINE
  8
0
  6
CONTINUOUS
 62
     7
 10
21.765694
 20
-236.17207
 11
21.765694
 21
-221.17207
  0
LINE
  8
0
  6
CONTINUOUS
 62
     7
 10
-3.4293535
 20
-236.17207
 11
-3.4293535
 21
-221.17207
  0
LINE
  8
0
  6
CONTINUOUS
 62
     7
 10
-16.390835
 20
-221.17207
 11
24.609165
 21
-221.17207
  0
LINE
  8
0
  6
CONTINUOUS
 62
     7
 10
3.4353907
 20
-236.17207
 11
3.4353907
 21
-221.17207
  0
LINE
  8
0
  6
CONTINUOUS
 62
     7
 10
-3.4293535
 20
-236.17207
 11
3.4353907
 21
-236.17207
  0
LINE
  8
0
  6
CONTINUOUS
 62
     7
 10
-16.390835
 20
-236.67207
 11
24.109165
 21
-236.67207
  0
LINE
  8
0
  6
CONTINUOUS
 62
     7
 10
-166.88297
 20
-255.92969
 11
-162.88297
 21
-255.92969
  0
LINE
  8
0
  6
CONTINUOUS
 62
     7
 10
-176.90958
 20
-242.17207
 11
-176.90958
 21
-246.17207
  0
LINE
  8
0
  6
CONTINUOUS
 62
     7
 10
-166.88297
 20
-322.1044
 11
-162.88297
 21
-322.1044
  0
LINE
  8
0
  6
CONTINUOUS
 62
     7
 10
-249.38297
 20
-323.17209
 11
-249.38297
 21
-322.67209
  0
LINE
  8
0
  6
CONTINUOUS
 62
     7
 10
-242.38297
 20
-315.87207
 11
-209.88297
 21
-315.87207
  0
LINE
  8
0
  6
CONTINUOUS
 62
     7
 10
-252.38297
 20
-323.67209
 11
-252.88295
 21
-323.17209
  0
LINE
  8
0
  6
CONTINUOUS
 62
     7
 10
-249.38297
 20
-323.67209
 11
-252.38297
 21
-323.67209
  0
LINE
  8
0
  6
CONTINUOUS
 62
     7
 10
-252.88297
 20
-323.17206
 11
-252.88297
 21
-289.17209
  0
LINE
  8
0
  6
CONTINUOUS
 62
     7
 10
-252.38295
 20
-254.67207
 11
-252.88297
 21
-255.17209
  0
LINE
  8
0
  6
CONTINUOUS
 62
     7
 10
-249.38297
 20
-254.67207
 11
-252.38297
 21
-254.67207
  0
LINE
  8
0
  6
CONTINUOUS
 62
     7
 10
-252.88297
 20
-255.17209
 11
-252.88297
 21
-289.17209
  0
LINE
  8
0
  6
CONTINUOUS
 62
     7
 10
-244.38295
 20
-246.67207
 11
-243.88297
 21
-246.17207
  0
LINE
  8
0
  6
CONTINUOUS
 62
     7
 10
-244.38297
 20
-249.67207
 11
-244.38297
 21
-246.67207
  0
LINE
  8
0
  6
CONTINUOUS
 62
     7
 10
-244.38297
 20
-249.67207
 11
-243.18681
 21
-249.67207
  0
LINE
  8
0
  6
CONTINUOUS
 62
     7
 10
-243.88297
 20
-246.17207
 11
-209.88297
 21
-246.17207
  0
LINE
  8
0
  6
DASHED
 62
     7
 10
-249.38297
 20
-255.17209
 11
-249.38297
 21
-255.47208
  0
LINE
  8
0
  6
CONTINUOUS
 62
     7
 10
-249.38297
 20
-323.67209
 11
-249.38297
 21
-322.87207
  0
LINE
  8
0
  6
CONTINUOUS
 62
     7
 10
-249.38297
 20
-254.67207
 11
-249.38297
 21
-255.47208
  0
LINE
  8
0
  6
CONTINUOUS
 62
     7
 10
-243.88297
 20
-249.67207
 11
-209.88297
 21
-249.67207
  0
LINE
  8
0
  6
CONTINUOUS
 62
     7
 10
-249.38297
 20
-255.17209
 11
-249.38297
 21
-289.17209
  0
LINE
  8
0
  6
CONTINUOUS
 62
     7
 10
-249.38297
 20
-323.17206
 11
-249.38297
 21
-289.17209
  0
LINE
  8
0
  6
CONTINUOUS
 62
     7
 10
-257.38297
 20
-299.38235
 11
-268.88297
 21
-299.38235
  0
LINE
  8
0
  6
CONTINUOUS
 62
     7
 10
-257.38297
 20
-320.43347
 11
-257.38297
 21
-323.17209
  0
LINE
  8
0
  6
CONTINUOUS
 62
     7
 10
-257.38297
 20
-255.17209
 11
-256.88297
 21
-255.67209
  0
LINE
  8
0
  6
CONTINUOUS
 62
     7
 10
-268.88297
 20
-289.17209
 11
-268.88297
 21
-255.17207
  0
LINE
  8
0
  6
CONTINUOUS
 62
     7
 10
-256.88297
 20
-289.17209
 11
-256.88297
 21
-255.67207
  0
LINE
  8
0
  6
CONTINUOUS
 62
     7
 10
-257.38297
 20
-272.35022
 11
-268.88297
 21
-272.35022
  0
LINE
  8
0
  6
CONTINUOUS
 62
     7
 10
-257.38297
 20
-278.96179
 11
-257.38297
 21
-272.35022
  0
LINE
  8
0
  6
CONTINUOUS
 62
     7
 10
-257.38297
 20
-255.17207
 11
-268.88297
 21
-255.17207
  0
LINE
  8
0
  6
CONTINUOUS
 62
     7
 10
-276.88297
 20
-289.17209
 11
-276.88297
 21
-263.17209
  0
LINE
  8
0
  6
CONTINUOUS
 62
     7
 10
-257.38297
 20
-257.91068
 11
-268.88297
 21
-257.91068
  0
LINE
  8
0
  6
CONTINUOUS
 62
     7
 10
-257.38297
 20
-320.43347
 11
-268.88297
 21
-320.43347
  0
LINE
  8
0
  6
CONTINUOUS
 62
     7
 10
-276.88297
 20
-289.17209
 11
-276.88297
 21
-315.17209
  0
LINE
  8
0
  6
CONTINUOUS
 62
     7
 10
-257.38297
 20
-257.91068
 11
-257.38297
 21
-255.17207
  0
LINE
  8
0
  6
CONTINUOUS
 62
     7
 10
-257.38297
 20
-323.17209
 11
-268.88297
 21
-323.17209
  0
LINE
  8
0
  6
CONTINUOUS
 62
     7
 10
-257.38297
 20
-278.96179
 11
-268.88297
 21
-278.96179
  0
LINE
  8
0
  6
CONTINUOUS
 62
     7
 10
-257.38297
 20
-299.38235
 11
-257.38297
 21
-305.99396
  0
LINE
  8
0
  6
CONTINUOUS
 62
     7
 10
-257.38297
 20
-305.99396
 11
-268.88297
 21
-305.99396
  0
LINE
  8
0
  6
CONTINUOUS
 62
     7
 10
-256.88297
 20
-289.17209
 11
-256.88297
 21
-322.67209
  0
LINE
  8
0
  6
CONTINUOUS
 62
     7
 10
-268.88297
 20
-289.17209
 11
-268.88297
 21
-323.17209
  0
LINE
  8
0
  6
CONTINUOUS
 62
     7
 10
-257.38297
 20
-323.17206
 11
-256.88297
 21
-322.67209
  0
LINE
  8
0
  6
CONTINUOUS
 62
     7
 10
-243.88297
 20
-241.67209
 11
-243.38297
 21
-242.17209
  0
LINE
  8
0
  6
CONTINUOUS
 62
     7
 10
-241.14436
 20
-241.67207
 11
-243.88297
 21
-241.67207
  0
LINE
  8
0
  6
CONTINUOUS
 62
     7
 10
-243.88297
 20
-241.67207
 11
-243.88297
 21
-230.17207
  0
LINE
  8
0
  6
CONTINUOUS
 62
     7
 10
-241.14436
 20
-241.67207
 11
-241.14436
 21
-230.17207
  0
LINE
  8
0
  6
CONTINUOUS
 62
     7
 10
-209.88297
 20
-222.17207
 11
-235.88297
 21
-222.17207
  0
LINE
  8
0
  6
CONTINUOUS
 62
     7
 10
-220.09325
 20
-241.67207
 11
-226.70483
 21
-241.67207
  0
LINE
  8
0
  6
CONTINUOUS
 62
     7
 10
-226.70483
 20
-241.67207
 11
-226.70483
 21
-230.17207
  0
LINE
  8
0
  6
CONTINUOUS
 62
     7
 10
-209.88297
 20
-230.17207
 11
-243.88297
 21
-230.17207
  0
LINE
  8
0
  6
CONTINUOUS
 62
     7
 10
-220.09325
 20
-241.67207
 11
-220.09325
 21
-230.17207
  0
LINE
  8
0
  6
CONTINUOUS
 62
     7
 10
-209.88297
 20
-242.17207
 11
-243.38297
 21
-242.17207
  0
LINE
  8
0
  6
CONTINUOUS
 62
     7
 10
-252.88297
 20
-255.92969
 11
-256.88297
 21
-255.92969
  0
LINE
  8
0
  6
CONTINUOUS
 62
     7
 10
-242.85634
 20
-242.17207
 11
-242.85634
 21
-246.17207
  0
LINE
  8
0
  6
CONTINUOUS
 62
     7
 10
-252.88297
 20
-322.1044
 11
-256.88297
 21
-322.1044
  0
LINE
  8
0
  6
CONTINUOUS
 62
     7
 10
32.609165
 20
-249.01788
 11
36.109165
 21
-249.01788
  0
LINE
  8
0
  6
CONTINUOUS
 62
     7
 10
23.547203
 20
-236.67207
 11
23.547203
 21
-240.17207
  0
LINE
  8
0
  6
CONTINUOUS
 62
     7
 10
32.609165
 20
-329.29221
 11
36.109165
 21
-329.29221
  0
LINE
  8
0
  6
CONTINUOUS
 62
     7
 10
-65.390839
 20
-247.67209
 11
-65.390839
 21
-289.17209
  0
LINE
  8
0
  6
CONTINUOUS
 62
     7
 10
-61.390835
 20
-247.17207
 11
-64.890839
 21
-247.17207
  0
LINE
  8
0
  6
CONTINUOUS
 62
     7
 10
-64.890823
 20
-247.17209
 11
-65.390823
 21
-247.67209
  0
LINE
  8
0
  6
CONTINUOUS
 62
     7
 10
-60.890835
 20
-331.17209
 11
-64.890839
 21
-331.17209
  0
LINE
  8
0
  6
CONTINUOUS
 62
     7
 10
-64.890839
 20
-331.17209
 11
-65.390839
 21
-330.67209
  0
LINE
  8
0
  6
CONTINUOUS
 62
     7
 10
-60.890835
 20
-331.17209
 11
-60.890835
 21
-330.67209
  0
LINE
  8
0
  6
CONTINUOUS
 62
     7
 10
-51.890835
 20
-321.67209
 11
-16.390835
 21
-321.67209
  0
LINE
  8
0
  6
CONTINUOUS
 62
     7
 10
-58.390827
 20
-240.67209
 11
-57.890827
 21
-240.17207
  0
LINE
  8
0
  6
CONTINUOUS
 62
     7
 10
-57.890831
 20
-240.17207
 11
-16.390835
 21
-240.17207
  0
LINE
  8
0
  6
CONTINUOUS
 62
     7
 10
-65.390839
 20
-330.67209
 11
-65.390839
 21
-289.17209
  0
LINE
  8
0
  6
CONTINUOUS
 62
     7
 10
-60.890835
 20
-247.17207
 11
-60.890835
 21
-247.67207
  0
LINE
  8
0
  6
CONTINUOUS
 62
     7
 10
-58.390835
 20
-244.67207
 11
-57.890835
 21
-244.67207
  0
LINE
  8
0
  6
CONTINUOUS
 62
     7
 10
-58.390835
 20
-244.17207
 11
-58.390835
 21
-240.67207
  0
LINE
  8
0
  6
CONTINUOUS
 62
     7
 10
-57.890831
 20
-244.67207
 11
-16.390835
 21
-244.67207
  0
LINE
  8
0
  6
CONTINUOUS
 62
     7
 10
-60.890835
 20
-247.67209
 11
-60.890835
 21
-289.17209
  0
LINE
  8
0
  6
CONTINUOUS
 62
     7
 10
-60.890835
 20
-330.67209
 11
-60.890835
 21
-289.17209
  0
LINE
  8
0
  6
CENTER
 62
     7
 10
-66.073784
 20
-289.17209
 11
-96.073784
 21
-289.17209
  0
LINE
  8
0
  6
CONTINUOUS
 62
     7
 10
-69.390839
 20
-248.17207
 11
-84.390839
 21
-248.17207
  0
LINE
  8
0
  6
CONTINUOUS
 62
     7
 10
-69.390839
 20
-330.17209
 11
-84.390839
 21
-330.17209
  0
LINE
  8
0
  6
CONTINUOUS
 62
     7
 10
-69.390839
 20
-330.17209
 11
-68.890823
 21
-329.67209
  0
LINE
  8
0
  6
CONTINUOUS
 62
     7
 10
-69.390839
 20
-327.32861
 11
-69.390839
 21
-330.17209
  0
LINE
  8
0
  6
CONTINUOUS
 62
     7
 10
-92.390839
 20
-289.17209
 11
-92.390839
 21
-322.17209
  0
LINE
  8
0
  6
CONTINUOUS
 62
     7
 10
-68.890839
 20
-289.17209
 11
-68.890839
 21
-329.67209
  0
LINE
  8
0
  6
CONTINUOUS
 62
     7
 10
-69.390839
 20
-327.32861
 11
-84.390839
 21
-327.32861
  0
LINE
  8
0
  6
CONTINUOUS
 62
     7
 10
-69.390839
 20
-302.13358
 11
-84.390839
 21
-302.13358
  0
LINE
  8
0
  6
CONTINUOUS
 62
     7
 10
-84.390839
 20
-289.17209
 11
-84.390839
 21
-330.17209
  0
LINE
  8
0
  6
CONTINUOUS
 62
     7
 10
-69.390839
 20
-308.99829
 11
-84.390839
 21
-308.99829
  0
LINE
  8
0
  6
CONTINUOUS
 62
     7
 10
-69.390839
 20
-276.2106
 11
-69.390839
 21
-269.34586
  0
LINE
  8
0
  6
CONTINUOUS
 62
     7
 10
-69.390839
 20
-269.34586
 11
-84.390839
 21
-269.34586
  0
LINE
  8
0
  6
CONTINUOUS
 62
     7
 10
-69.390839
 20
-302.13358
 11
-69.390839
 21
-308.99829
  0
LINE
  8
0
  6
CONTINUOUS
 62
     7
 10
-84.390839
 20
-289.17209
 11
-84.390839
 21
-248.17207
  0
LINE
  8
0
  6
CONTINUOUS
 62
     7
 10
-69.390839
 20
-276.2106
 11
-84.390839
 21
-276.2106
  0
LINE
  8
0
  6
CONTINUOUS
 62
     7
 10
-69.390839
 20
-251.01555
 11
-84.390839
 21
-251.01555
  0
LINE
  8
0
  6
CONTINUOUS
 62
     7
 10
-68.890839
 20
-289.17209
 11
-68.890839
 21
-248.67207
  0
LINE
  8
0
  6
CONTINUOUS
 62
     7
 10
-92.390839
 20
-289.17209
 11
-92.390839
 21
-256.17209
  0
LINE
  8
0
  6
CONTINUOUS
 62
     7
 10
-69.390839
 20
-251.01555
 11
-69.390839
 21
-248.17207
  0
LINE
  8
0
  6
CONTINUOUS
 62
     7
 10
-69.390839
 20
-248.17209
 11
-68.890839
 21
-248.67209
  0
LINE
  8
0
  6
CONTINUOUS
 62
     7
 10
-57.390835
 20
-236.17207
 11
-57.390835
 21
-221.17207
  0
LINE
  8
0
  6
CONTINUOUS
 62
     7
 10
-57.390839
 20
-236.17209
 11
-56.890839
 21
-236.67209
  0
LINE
  8
0
  6
CONTINUOUS
 62
     7
 10
-54.547363
 20
-236.17207
 11
-57.390835
 21
-236.17207
  0
LINE
  8
0
  6
CONTINUOUS
 62
     7
 10
-16.390835
 20
-213.17207
 11
-49.390835
 21
-213.17207
  0
LINE
  8
0
  6
CONTINUOUS
 62
     7
 10
-54.547363
 20
-236.17207
 11
-54.547363
 21
-221.17207
  0
LINE
  8
0
  6
CONTINUOUS
 62
     7
 10
-29.352318
 20
-236.17207
 11
-29.352318
 21
-221.17207
  0
LINE
  8
0
  6
CONTINUOUS
 62
     7
 10
-16.390835
 20
-221.17207
 11
-57.390835
 21
-221.17207
  0
LINE
  8
0
  6
CONTINUOUS
 62
     7
 10
-36.21706
 20
-236.17207
 11
-36.21706
 21
-221.17207
  0
LINE
  8
0
  6
CONTINUOUS
 62
     7
 10
-29.352318
 20
-236.17207
 11
-36.21706
 21
-236.17207
  0
LINE
  8
0
  6
CONTINUOUS
 62
     7
 10
-16.390835
 20
-236.67207
 11
-56.890835
 21
-236.67207
  0
LINE
  8
0
  6
CONTINUOUS
 62
     7
 10
-65.390839
 20
-249.01788
 11
-68.890839
 21
-249.01788
  0
LINE
  8
0
  6
CONTINUOUS
 62
     7
 10
-56.328873
 20
-236.67207
 11
-56.328873
 21
-240.17207
  0
LINE
  8
0
  6
CONTINUOUS
 62
     7
 10
-65.390839
 20
-329.29221
 11
-68.890839
 21
-329.29221
  0
LINE
  8
0
  6
CONTINUOUS
 62
     7
 10
-229.3282
 20
36.353443
 11
-229.3282
 21
21.853439
  0
LINE
  8
0
  6
CONTINUOUS
 62
     7
 10
-228.8282
 20
6.8534431
 11
-227.3282
 21
6.8534431
  0
LINE
  8
0
  6
CONTINUOUS
 62
     7
 10
-221.34908
 20
12.353439
 11
-208.2282
 21
12.353439
  0
LINE
  8
0
  6
CONTINUOUS
 62
     7
 10
-222.7282
 20
42.953442
 11
-208.2282
 21
42.953442
  0
LINE
  8
0
  6
CONTINUOUS
 62
     7
 10
-229.3282
 20
21.853439
 11
-229.3282
 21
7.3534393
  0
LINE
  8
0
  6
CONTINUOUS
 62
     7
 10
-225.2282
 20
36.853443
 11
-228.8282
 21
36.853443
  0
LINE
  8
0
  6
CONTINUOUS
 62
     7
 10
-223.2282
 20
42.453442
 11
-223.2282
 21
38.853443
  0
LINE
  8
0
  6
CONTINUOUS
 62
     7
 10
-222.7282
 20
42.953442
 11
-223.2282
 21
42.453442
  0
LINE
  8
0
  6
CONTINUOUS
 62
     7
 10
-228.8282
 20
6.8534298
 11
-229.3282
 21
7.3534303
  0
LINE
  8
0
  6
CONTINUOUS
 62
     7
 10
-228.8282
 20
36.853455
 11
-229.32822
 21
36.353455
  0
LINE
  8
0
  6
CONTINUOUS
 62
     7
 10
-223.2282
 20
40.953442
 11
-208.2282
 21
40.953442
  0
LINE
  8
0
  6
CONTINUOUS
 62
     7
 10
-227.3282
 20
36.353443
 11
-227.3282
 21
21.853439
  0
LINE
  8
0
  6
CONTINUOUS
 62
     7
 10
-227.3282
 20
21.853439
 11
-227.3282
 21
7.3534393
  0
LINE
  8
0
  6
CENTER
 62
     7
 10
-231.03166
 20
21.853439
 11
-247.31264
 21
21.853439
  0
LINE
  8
0
  6
CONTINUOUS
 62
     7
 10
-244.2282
 20
21.853439
 11
-244.2282
 21
11.353439
  0
LINE
  8
0
  6
CONTINUOUS
 62
     7
 10
-232.7282
 20
21.853439
 11
-232.7282
 21
7.8534393
  0
LINE
  8
0
  6
CONTINUOUS
 62
     7
 10
-233.2282
 20
8.2321205
 11
-233.2282
 21
7.3534393
  0
LINE
  8
0
  6
CONTINUOUS
 62
     7
 10
-233.2282
 20
7.3534393
 11
-240.2282
 21
7.3534393
  0
LINE
  8
0
  6
CONTINUOUS
 62
     7
 10
-232.7282
 20
7.8534417
 11
-233.2282
 21
7.3534412
  0
LINE
  8
0
  6
CONTINUOUS
 62
     7
 10
-233.2282
 20
17.089985
 11
-233.2282
 21
14.968098
  0
LINE
  8
0
  6
CONTINUOUS
 62
     7
 10
-233.2282
 20
8.2321205
 11
-240.2282
 21
8.2321205
  0
LINE
  8
0
  6
CONTINUOUS
 62
     7
 10
-233.2282
 20
17.089985
 11
-240.2282
 21
17.089985
  0
LINE
  8
0
  6
CONTINUOUS
 62
     7
 10
-233.2282
 20
14.968098
 11
-240.2282
 21
14.968098
  0
LINE
  8
0
  6
CONTINUOUS
 62
     7
 10
-240.2282
 20
21.853439
 11
-240.2282
 21
7.3534393
  0
LINE
  8
0
  6
CONTINUOUS
 62
     7
 10
-244.2282
 20
21.853439
 11
-244.2282
 21
32.353443
  0
LINE
  8
0
  6
CONTINUOUS
 62
     7
 10
-232.7282
 20
21.853439
 11
-232.7282
 21
35.853443
  0
LINE
  8
0
  6
CONTINUOUS
 62
     7
 10
-233.2282
 20
35.474758
 11
-233.2282
 21
36.353443
  0
LINE
  8
0
  6
CONTINUOUS
 62
     7
 10
-233.2282
 20
36.353443
 11
-240.2282
 21
36.353443
  0
LINE
  8
0
  6
CONTINUOUS
 62
     7
 10
-232.7282
 20
35.853451
 11
-233.2282
 21
36.353455
  0
LINE
  8
0
  6
CONTINUOUS
 62
     7
 10
-233.2282
 20
26.616898
 11
-233.2282
 21
28.738785
  0
LINE
  8
0
  6
CONTINUOUS
 62
     7
 10
-233.2282
 20
35.474758
 11
-240.2282
 21
35.474758
  0
LINE
  8
0
  6
CONTINUOUS
 62
     7
 10
-233.2282
 20
26.616898
 11
-240.2282
 21
26.616898
  0
LINE
  8
0
  6
CONTINUOUS
 62
     7
 10
-233.2282
 20
28.738785
 11
-240.2282
 21
28.738785
  0
LINE
  8
0
  6
CONTINUOUS
 62
     7
 10
-240.2282
 20
21.853439
 11
-240.2282
 21
36.353443
  0
LINE
  8
0
  6
CONTINUOUS
 62
     7
 10
-208.2282
 20
57.853443
 11
-218.7282
 21
57.853443
  0
LINE
  8
0
  6
CONTINUOUS
 62
     7
 10
-221.84952
 20
46.853443
 11
-222.7282
 21
46.853443
  0
LINE
  8
0
  6
CONTINUOUS
 62
     7
 10
-222.7282
 20
46.853443
 11
-222.7282
 21
53.853443
  0
LINE
  8
0
  6
CONTINUOUS
 62
     7
 10
-222.2282
 20
46.353428
 11
-222.7282
 21
46.853428
  0
LINE
  8
0
  6
CONTINUOUS
 62
     7
 10
-212.99165
 20
46.853443
 11
-215.11354
 21
46.853443
  0
LINE
  8
0
  6
CONTINUOUS
 62
     7
 10
-221.84952
 20
46.853443
 11
-221.84952
 21
53.853443
  0
LINE
  8
0
  6
CONTINUOUS
 62
     7
 10
-212.99165
 20
46.853443
 11
-212.99165
 21
53.853443
  0
LINE
  8
0
  6
CONTINUOUS
 62
     7
 10
-215.11354
 20
46.853443
 11
-215.11354
 21
53.853443
  0
LINE
  8
0
  6
CONTINUOUS
 62
     7
 10
-208.2282
 20
53.853443
 11
-222.7282
 21
53.853443
  0
LINE
  8
0
  6
CONTINUOUS
 62
     7
 10
-208.2282
 20
46.353443
 11
-222.2282
 21
46.353443
  0
LINE
  8
0
  6
CONTINUOUS
 62
     7
 10
-221.93576
 20
46.353443
 11
-221.93576
 21
42.953442
  0
LINE
  8
0
  6
CONTINUOUS
 62
     7
 10
-229.3282
 20
35.609028
 11
-232.7282
 21
35.609028
  0
LINE
  8
0
  6
CONTINUOUS
 62
     7
 10
-229.3282
 20
8.1196594
 11
-232.7282
 21
8.1196594
  0
LINE
  8
0
  6
CENTER
 62
     7
 10
-387.97409
 20
118.69495
 11
-387.97409
 21
79.449463
  0
LINE
  8
0
  6
CENTER
 62
     7
 10
-406.45599
 20
100.27163
 11
-370.20798
 21
100.27163
  0
LINE
  8
0
  6
CONTINUOUS
 62
     7
 10
-372.27942
 20
100.27163
 11
-376.87628
 21
111.36945
  0
LINE
  8
0
  6
CONTINUOUS
 62
     7
 10
-376.87625
 20
111.36945
 11
-387.97409
 21
115.96632
  0
LINE
  8
0
  6
CONTINUOUS
 62
     7
 10
-399.0719
 20
111.36945
 11
-387.97409
 21
115.96631
  0
LINE
  8
0
  6
CONTINUOUS
 62
     7
 10
-403.66876
 20
100.27163
 11
-399.0719
 21
111.36945
  0
LINE
  8
0
  6
CONTINUOUS
 62
     7
 10
-399.0719
 20
89.173805
 11
-403.66879
 21
100.27162
  0
LINE
  8
0
  6
CONTINUOUS
 62
     7
 10
-387.97406
 20
84.576942
 11
-399.0719
 21
89.173813
  0
LINE
  8
0
  6
CONTINUOUS
 62
     7
 10
-376.87625
 20
89.173805
 11
-387.97406
 21
84.576942
  0
LINE
  8
0
  6
CONTINUOUS
 62
     7
 10
-372.27939
 20
100.27163
 11
-376.87625
 21
89.173813
  0
LINE
  8
0
  6
CENTER
 62
     7
 10
-412.02448
 20
55.195049
 11
-364.27667
 21
55.195049
  0
LINE
  8
0
  6
CONTINUOUS
 62
     7
 10
-369.57343
 20
55.195045
 11
-374.96286
 21
68.206276
  0
LINE
  8
0
  6
CONTINUOUS
 62
     7
 10
-374.96283
 20
68.206291
 11
-387.97406
 21
73.595718
  0
LINE
  8
0
  6
CONTINUOUS
 62
     7
 10
-400.98532
 20
68.206284
 11
-387.97409
 21
73.595711
  0
LINE
  8
0
  6
CONTINUOUS
 62
     7
 10
-406.37476
 20
55.195045
 11
-400.98532
 21
68.206284
  0
LINE
  8
0
  6
CONTINUOUS
 62
     7
 10
-400.98532
 20
42.183811
 11
-406.37476
 21
55.195038
  0
LINE
  8
0
  6
CONTINUOUS
 62
     7
 10
-387.97409
 20
36.794384
 11
-400.98532
 21
42.183811
  0
LINE
  8
0
  6
CONTINUOUS
 62
     7
 10
-374.96286
 20
42.183804
 11
-387.97409
 21
36.794376
  0
LINE
  8
0
  6
CONTINUOUS
 62
     7
 10
-369.57339
 20
55.195045
 11
-374.96283
 21
42.183811
  0
LINE
  8
0
  6
CENTER
 62
     7
 10
-387.97409
 20
77.518333
 11
-387.97409
 21
34.067951
  0
LINE
  8
0
  6
CENTER
 62
     7
 10
-417.2811
 20
4.380867
 11
-359.02002
 21
4.380867
  0
LINE
  8
0
  6
CONTINUOUS
 62
     7
 10
-364.70264
 20
4.3808613
 11
-371.51871
 21
20.836252
  0
LINE
  8
0
  6
CONTINUOUS
 62
     7
 10
-371.51868
 20
20.83625
 11
-387.97406
 21
27.652298
  0
LINE
  8
0
  6
CONTINUOUS
 62
     7
 10
-404.42947
 20
20.836256
 11
-387.97406
 21
27.652302
  0
LINE
  8
0
  6
CONTINUOUS
 62
     7
 10
-411.24551
 20
4.380868
 11
-404.42947
 21
20.83626
  0
LINE
  8
0
  6
CONTINUOUS
 62
     7
 10
-404.42947
 20
-12.074527
 11
-411.24551
 21
4.3808651
  0
LINE
  8
0
  6
CONTINUOUS
 62
     7
 10
-387.97406
 20
-18.89057
 11
-404.42944
 21
-12.074523
  0
LINE
  8
0
  6
CONTINUOUS
 62
     7
 10
-371.51868
 20
-12.074517
 11
-387.97406
 21
-18.890564
  0
LINE
  8
0
  6
CONTINUOUS
 62
     7
 10
-364.70264
 20
4.3808718
 11
-371.51871
 21
-12.07452
  0
LINE
  8
0
  6
CENTER
 62
     7
 10
-387.97409
 20
30.205696
 11
-387.97409
 21
-21.451982
  0
LINE
  8
0
  6
CENTER
 62
     7
 10
-421.34152
 20
-51.689957
 11
-356.21805
 21
-51.689957
  0
LINE
  8
0
  6
CONTINUOUS
 62
     7
 10
-361.45547
 20
-51.689957
 11
-369.2226
 21
-32.938465
  0
LINE
  8
0
  6
CONTINUOUS
 62
     7
 10
-369.2226
 20
-32.938473
 11
-387.97409
 21
-25.171347
  0
LINE
  8
0
  6
CONTINUOUS
 62
     7
 10
-406.72556
 20
-32.938469
 11
-387.97409
 21
-25.171354
  0
LINE
  8
0
  6
CONTINUOUS
 62
     7
 10
-414.49271
 20
-51.689945
 11
-406.72559
 21
-32.938457
  0
LINE
  8
0
  6
CONTINUOUS
 62
     7
 10
-406.72556
 20
-70.441444
 11
-414.49268
 21
-51.689953
  0
LINE
  8
0
  6
CONTINUOUS
 62
     7
 10
-387.97406
 20
-78.208572
 11
-406.72556
 21
-70.441444
  0
LINE
  8
0
  6
CONTINUOUS
 62
     7
 10
-369.2226
 20
-70.441452
 11
-387.97406
 21
-78.208565
  0
LINE
  8
0
  6
CONTINUOUS
 62
     7
 10
-361.45547
 20
-51.689945
 11
-369.2226
 21
-70.441437
  0
LINE
  8
0
  6
CENTER
 62
     7
 10
-387.97409
 20
-22.658937
 11
-387.97409
 21
-82.282524
  0
LINE
  8
0
  6
CENTER
 62
     7
 10
-424.40146
 20
-138.66864
 11
-351.48157
 21
-138.66864
  0
LINE
  8
0
  6
CONTINUOUS
 62
     7
 10
-356.04352
 20
-138.66866
 11
-365.39575
 21
-116.09032
  0
LINE
  8
0
  6
CONTINUOUS
 62
     7
 10
-365.39575
 20
-116.09032
 11
-387.97409
 21
-106.73808
  0
LINE
  8
0
  6
CONTINUOUS
 62
     7
 10
-410.5524
 20
-116.09032
 11
-387.97409
 21
-106.73808
  0
LINE
  8
0
  6
CONTINUOUS
 62
     7
 10
-419.90466
 20
-138.66864
 11
-410.5524
 21
-116.09032
  0
LINE
  8
0
  6
CONTINUOUS
 62
     7
 10
-410.5524
 20
-161.24698
 11
-419.90466
 21
-138.66866
  0
LINE
  8
0
  6
CONTINUOUS
 62
     7
 10
-387.97409
 20
-170.59921
 11
-410.5524
 21
-161.24696
  0
LINE
  8
0
  6
CONTINUOUS
 62
     7
 10
-365.39575
 20
-161.24698
 11
-387.97409
 21
-170.59921
  0
LINE
  8
0
  6
CONTINUOUS
 62
     7
 10
-356.04352
 20
-138.66864
 11
-365.39575
 21
-161.24696
  0
LINE
  8
0
  6
CENTER
 62
     7
 10
-387.97409
 20
-103.04215
 11
-387.97409
 21
-173.52832
  0
LINE
  8
0
  6
CENTER
 62
     7
 10
-434.78979
 20
-242.56616
 11
-344.99231
 21
-242.56616
  0
LINE
  8
0
  6
CONTINUOUS
 62
     7
 10
-351.17276
 20
-242.56616
 11
-361.9516
 21
-216.5437
  0
LINE
  8
0
  6
CONTINUOUS
 62
     7
 10
-361.9516
 20
-216.5437
 11
-387.97409
 21
-205.76485
  0
LINE
  8
0
  6
CONTINUOUS
 62
     7
 10
-413.99655
 20
-216.54369
 11
-387.97409
 21
-205.76483
  0
LINE
  8
0
  6
CONTINUOUS
 62
     7
 10
-424.77542
 20
-242.56616
 11
-413.99655
 21
-216.54369
  0
LINE
  8
0
  6
CONTINUOUS
 62
     7
 10
-413.99655
 20
-268.58862
 11
-424.77542
 21
-242.56616
  0
LINE
  8
0
  6
CONTINUOUS
 62
     7
 10
-387.97406
 20
-279.36752
 11
-413.99655
 21
-268.58865
  0
LINE
  8
0
  6
CONTINUOUS
 62
     7
 10
-361.95163
 20
-268.58865
 11
-387.97406
 21
-279.36749
  0
LINE
  8
0
  6
CONTINUOUS
 62
     7
 10
-351.17273
 20
-242.56616
 11
-361.9516
 21
-268.58865
  0
LINE
  8
0
  6
CENTER
 62
     7
 10
-387.97409
 20
-199.11577
 11
-387.97409
 21
-284.08542
  0
LINE
  8
0
  6
CENTER
 62
     7
 10
-436.96231
 20
-348.29544
 11
-337.99197
 21
-348.29544
  0
LINE
  8
0
  6
CONTINUOUS
 62
     7
 10
-343.59601
 20
-348.29544
 11
-356.59406
 21
-316.91541
  0
LINE
  8
0
  6
CONTINUOUS
 62
     7
 10
-356.59402
 20
-316.91537
 11
-387.97409
 21
-303.91736
  0
LINE
  8
0
  6
CONTINUOUS
 62
     7
 10
-419.35413
 20
-316.91541
 11
-387.97409
 21
-303.91736
  0
LINE
  8
0
  6
CONTINUOUS
 62
     7
 10
-432.35217
 20
-348.29544
 11
-419.35413
 21
-316.91537
  0
LINE
  8
0
  6
CONTINUOUS
 62
     7
 10
-419.35406
 20
-379.67545
 11
-432.35211
 21
-348.29541
  0
LINE
  8
0
  6
CONTINUOUS
 62
     7
 10
-387.97409
 20
-392.67355
 11
-419.35413
 21
-379.67551
  0
LINE
  8
0
  6
CONTINUOUS
 62
     7
 10
-356.59406
 20
-379.67548
 11
-387.97409
 21
-392.67352
  0
LINE
  8
0
  6
CONTINUOUS
 62
     7
 10
-343.59601
 20
-348.29544
 11
-356.59402
 21
-379.67548
  0
LINE
  8
0
  6
CENTER
 62
     7
 10
-387.97409
 20
-298.08609
 11
-387.97409
 21
-398.02197
  0
ARC
  8
0
  6
CONTINUOUS
 62
     7
 10
-195.10732
 20
37.353443
 40
6
 50
284.05519
 51
355.2198
  0
ARC
  8
0
  6
CONTINUOUS
 62
     7
 10
-196.60844
 20
35.945736
 40
2
 50
165.94476
 51
195.03109
  0
ARC
  8
0
  6
CONTINUOUS
 62
     7
 10
-193.2282
 20
36.853443
 40
5.5
 50
195.0311
 51
254.96895
  0
ARC
  8
0
  6
CONTINUOUS
 62
     7
 10
-194.13589
 20
33.473194
 40
2
 50
254.96895
 51
284.05519
  0
ARC
  8
0
  6
CONTINUOUS
 62
     7
 10
-192.7282
 20
34.974308
 40
6
 50
94.780192
 51
165.94476
  0
ARC
  8
0
  6
CONTINUOUS
 62
     7
 10
-195.10732
 20
6.3534431
 40
6
 50
4.780201
 51
90.000003
  0
ARC
  8
0
  6
CONTINUOUS
 62
     7
 10
-191.2282
 20
38.853443
 40
2
 50
179.99999
 51
270
  0
ARC
  8
0
  6
CONTINUOUS
 62
     7
 10
-93.455711
 20
40.853443
 40
6.8000002
 50
223.14627
 51
226.85381
  0
ARC
  8
0
  6
CONTINUOUS
 62
     7
 10
-98.314735
 20
3.6534388
 40
6
 50
6.699765
 51
90.000003
  0
ARC
  8
0
  6
CONTINUOUS
 62
     7
 10
-96.05439
 20
38.080921
 40
3
 50
226.85381
 51
318.88995
  0
ARC
  8
0
  6
CONTINUOUS
 62
     7
 10
-96.228233
 20
38.254757
 40
3
 50
131.10996
 51
223.14627
  0
ARC
  8
0
  6
CONTINUOUS
 62
     7
 10
-92.955711
 20
41.353443
 40
2
 50
179.99999
 51
270
  0
ARC
  8
0
  6
CONTINUOUS
 62
     7
 10
-94.255714
 20
35.994411
 40
6
 50
96.699762
 51
131.10996
  0
ARC
  8
0
  6
CONTINUOUS
 62
     7
 10
-98.314735
 20
40.05344
 40
6
 50
318.88995
 51
353.30023
  0
ARC
  8
0
  6
CONTINUOUS
 62
     7
 10
18.948767
 20
44.853443
 40
7.8000002
 50
199.07854
 51
250.92146
  0
ARC
  8
0
  6
CONTINUOUS
 62
     7
 10
20.948765
 20
46.853443
 40
3
 50
179.99999
 51
270
  0
ARC
  8
0
  6
CONTINUOUS
 62
     7
 10
18.148766
 20
41.856297
 40
7
 50
91.63726
 51
159.08094
  0
ARC
  8
0
  6
CONTINUOUS
 62
     7
 10
15.951624
 20
-0.34655744
 40
7
 50
1.6372607
 51
90.000003
  0
ARC
  8
0
  6
CONTINUOUS
 62
     7
 10
15.951624
 20
44.05344
 40
7
 50
290.91907
 51
358.36275
  0
ARC
  8
0
  6
CONTINUOUS
 62
     7
 10
17.37982
 20
40.317097
 40
3
 50
250.92146
 51
290.91907
  0
ARC
  8
0
  6
CONTINUOUS
 62
     7
 10
14.412424
 20
43.284496
 40
3
 50
159.08094
 51
199.07854
  0
ARC
  8
0
  6
CONTINUOUS
 62
     7
 10
-145.01363
 20
-74.376503
 40
7
 50
94.096046
 51
142.46051
  0
ARC
  8
0
  6
CONTINUOUS
 62
     7
 10
-146.99574
 20
-72.394379
 40
7
 50
307.53947
 51
355.90394
  0
ARC
  8
0
  6
CONTINUOUS
 62
     7
 10
-146.99574
 20
-124.39438
 40
7
 50
4.0960751
 51
90.000003
  0
ARC
  8
0
  6
CONTINUOUS
 62
     7
 10
-141.01363
 20
-68.394379
 40
11
 50
206.30253
 51
243.69745
  0
ARC
  8
0
  6
CONTINUOUS
 62
     7
 10
-148.18536
 20
-71.93927
 40
3
 50
142.46051
 51
206.30254
  0
ARC
  8
0
  6
CONTINUOUS
 62
     7
 10
-144.55852
 20
-75.566116
 40
3
 50
243.69745
 51
307.53947
  0
ARC
  8
0
  6
CONTINUOUS
 62
     7
 10
-140.51363
 20
-67.894379
 40
5
 50
179.99999
 51
270
  0
ARC
  8
0
  6
CONTINUOUS
 62
     7
 10
-5.2323356
 20
-68.394379
 40
7
 50
315.00001
 51
4.096044
  0
ARC
  8
0
  6
CONTINUOUS
 62
     7
 10
-1.2323354
 20
-64.394386
 40
11
 50
205.52878
 51
244.47122
  0
ARC
  8
0
  6
CONTINUOUS
 62
     7
 10
-3.8181202
 20
-69.808594
 40
5
 50
244.47122
 51
315
  0
ARC
  8
0
  6
CONTINUOUS
 62
     7
 10
-5.2502155
 20
-128.39438
 40
7
 50
0
 51
90.000003
  0
ARC
  8
0
  6
CONTINUOUS
 62
     7
 10
-5.2323356
 20
-68.394379
 40
7
 50
85.903959
 51
135
  0
ARC
  8
0
  6
CONTINUOUS
 62
     7
 10
-6.6465487
 20
-66.980164
 40
5
 50
135
 51
205.52878
  0
ARC
  8
0
  6
CONTINUOUS
 62
     7
 10
0.26766452
 20
-62.894382
 40
5
 50
179.99999
 51
270
  0
ARC
  8
0
  6
CONTINUOUS
 62
     7
 10
-153.68951
 20
-23.169365
 40
38.125019
 50
260.71048
 51
279.28953
  0
ARC
  8
0
  6
CONTINUOUS
 62
     7
 10
-151.51363
 20
-50.394382
 40
5
 50
360
 51
90.000003
  0
ARC
  8
0
  6
CONTINUOUS
 62
     7
 10
-171.01363
 20
14.705635
 40
76.000023
 50
270
 51
276.57588
  0
ARC
  8
0
  6
CONTINUOUS
 62
     7
 10
53.49287
 20
-119.25403
 40
45.625206
 50
171.50982
 51
188.49018
  0
ARC
  8
0
  6
CONTINUOUS
 62
     7
 10
98.868057
 20
-98.394379
 40
91.000397
 50
180.00001
 51
186.00896
  0
ARC
  8
0
  6
CONTINUOUS
 62
     7
 10
19.767664
 20
-121.89438
 40
6
 50
270
 51
0
  0
ARC
  8
0
  6
CONTINUOUS
 62
     7
 10
-176.2282
 20
11.353439
 40
4
 50
270
 51
360
  0
ARC
  8
0
  6
CONTINUOUS
 62
     7
 10
-172.13483
 20
11.600109
 40
11.59337
 50
163.11152
 51
196.88848
  0
ARC
  8
0
  6
CONTINUOUS
 62
     7
 10
-160.78764
 20
21.853439
 40
22.940548
 50
179.99999
 51
191.9843
  0
ARC
  8
0
  6
CONTINUOUS
 62
     7
 10
-69.891479
 20
9.8326263
 40
17.064236
 50
166.09586
 51
193.90414
  0
ARC
  8
0
  6
CONTINUOUS
 62
     7
 10
-53.077236
 20
21.853439
 40
33.878471
 50
180.00001
 51
189.85588
  0
ARC
  8
0
  6
CONTINUOUS
 62
     7
 10
-78.455711
 20
9.8534393
 40
5
 50
270
 51
360
  0
ARC
  8
0
  6
CONTINUOUS
 62
     7
 10
50.698765
 20
6.6506462
 40
22.249998
 50
167.83045
 51
192.16954
  0
ARC
  8
0
  6
CONTINUOUS
 62
     7
 10
72.698753
 20
21.853439
 40
44.249989
 50
180.00001
 51
188.62136
  0
ARC
  8
0
  6
CONTINUOUS
 62
     7
 10
37.948769
 20
5.3534431
 40
5
 50
270
 51
360
  0
ARC
  8
0
  6
CONTINUOUS
 62
     7
 10
-95.788605
 20
-115.7185
 40
38.125019
 50
170.71048
 51
189.28953
  0
ARC
  8
0
  6
CONTINUOUS
 62
     7
 10
-123.01363
 20
-117.89438
 40
5
 50
270
 51
0
  0
ARC
  8
0
  6
CONTINUOUS
 62
     7
 10
-57.913605
 20
-98.394379
 40
76.000023
 50
180.00001
 51
186.57588
  0
ARC
  8
0
  6
CONTINUOUS
 62
     7
 10
53.49287
 20
-77.534729
 40
45.625206
 50
171.50982
 51
188.49018
  0
ARC
  8
0
  6
CONTINUOUS
 62
     7
 10
98.868057
 20
-98.394379
 40
91.000397
 50
173.99104
 51
179.99999
  0
ARC
  8
0
  6
CONTINUOUS
 62
     7
 10
19.767664
 20
-74.894386
 40
6
 50
0
 51
90.000003
  0
ARC
  8
0
  6
CONTINUOUS
 62
     7
 10
-95.788605
 20
-81.070267
 40
38.125019
 50
170.71047
 51
189.28951
  0
ARC
  8
0
  6
CONTINUOUS
 62
     7
 10
-123.01363
 20
-78.894386
 40
5
 50
0
 51
90.000003
  0
ARC
  8
0
  6
CONTINUOUS
 62
     7
 10
-57.913605
 20
-98.394379
 40
76.000023
 50
173.42412
 51
179.99999
  0
ARC
  8
0
  6
CONTINUOUS
 62
     7
 10
-176.2282
 20
32.353443
 40
4
 50
0
 51
90.000003
  0
ARC
  8
0
  6
CONTINUOUS
 62
     7
 10
-172.13483
 20
32.10677
 40
11.59337
 50
163.11152
 51
196.88848
  0
ARC
  8
0
  6
CONTINUOUS
 62
     7
 10
-160.78764
 20
21.853443
 40
22.940548
 50
168.0157
 51
180.00001
  0
ARC
  8
0
  6
CONTINUOUS
 62
     7
 10
-69.891479
 20
33.874256
 40
17.064236
 50
166.09586
 51
193.90414
  0
ARC
  8
0
  6
CONTINUOUS
 62
     7
 10
-53.077236
 20
21.853439
 40
33.878471
 50
170.14412
 51
179.99999
  0
ARC
  8
0
  6
CONTINUOUS
 62
     7
 10
-78.455711
 20
33.853443
 40
5
 50
0
 51
90.000003
  0
ARC
  8
0
  6
CONTINUOUS
 62
     7
 10
50.698765
 20
37.05624
 40
22.249998
 50
167.83045
 51
192.16954
  0
ARC
  8
0
  6
CONTINUOUS
 62
     7
 10
72.698753
 20
21.853443
 40
44.249989
 50
171.37864
 51
179.99999
  0
ARC
  8
0
  6
CONTINUOUS
 62
     7
 10
37.948769
 20
38.353443
 40
5
 50
0
 51
90.000003
  0
ARC
  8
0
  6
CONTINUOUS
 62
     7
 10
-197.7282
 20
53.853443
 40
4
 50
360
 51
90.000003
  0
ARC
  8
0
  6
CONTINUOUS
 62
     7
 10
-197.97487
 20
57.946812
 40
11.59337
 50
253.11151
 51
286.88848
  0
ARC
  8
0
  6
CONTINUOUS
 62
     7
 10
-208.2282
 20
69.293991
 40
22.940548
 50
269.99999
 51
281.9843
  0
ARC
  8
0
  6
CONTINUOUS
 62
     7
 10
-100.4349
 20
64.417679
 40
17.064236
 50
256.09586
 51
283.90414
  0
ARC
  8
0
  6
CONTINUOUS
 62
     7
 10
-112.45571
 20
81.231911
 40
33.878471
 50
270.00001
 51
279.85588
  0
ARC
  8
0
  6
CONTINUOUS
 62
     7
 10
-100.45571
 20
55.853443
 40
5
 50
360
 51
90.000003
  0
ARC
  8
0
  6
CONTINUOUS
 62
     7
 10
11.151563
 20
76.603439
 40
22.249998
 50
257.83045
 51
282.16954
  0
ARC
  8
0
  6
CONTINUOUS
 62
     7
 10
-4.0512328
 20
98.603432
 40
44.249989
 50
270
 51
278.62136
  0
ARC
  8
0
  6
CONTINUOUS
 62
     7
 10
12.448766
 20
63.853443
 40
5
 50
360
 51
90.000003
  0
ARC
  8
0
  6
CONTINUOUS
 62
     7
 10
-14.372686
 20
-9.669178
 40
45.625206
 50
261.50982
 51
278.49018
  0
ARC
  8
0
  6
CONTINUOUS
 62
     7
 10
-35.232334
 20
35.706013
 40
91.000397
 50
270
 51
276.00896
  0
ARC
  8
0
  6
CONTINUOUS
 62
     7
 10
-11.732337
 20
-43.394382
 40
6
 50
360
 51
90.000003
  0
ARC
  8
0
  6
CONTINUOUS
 62
     7
 10
-124.45571
 20
55.853443
 40
5
 50
89.999996
 51
180.00001
  0
ARC
  8
0
  6
CONTINUOUS
 62
     7
 10
-131.4557
 20
40.853443
 40
6.8000002
 50
313.14619
 51
316.85373
  0
ARC
  8
0
  6
CONTINUOUS
 62
     7
 10
-126.59669
 20
3.6534388
 40
6
 50
89.999996
 51
173.30023
  0
ARC
  8
0
  6
CONTINUOUS
 62
     7
 10
-128.85703
 20
38.080921
 40
3
 50
221.11006
 51
313.14619
  0
ARC
  8
0
  6
CONTINUOUS
 62
     7
 10
-128.68318
 20
38.254757
 40
3
 50
316.85373
 51
48.89004
  0
ARC
  8
0
  6
CONTINUOUS
 62
     7
 10
-131.9557
 20
41.353443
 40
2
 50
270
 51
5.0089561E-006
  0
ARC
  8
0
  6
CONTINUOUS
 62
     7
 10
-130.65572
 20
35.994411
 40
6
 50
48.89004
 51
83.300236
  0
ARC
  8
0
  6
CONTINUOUS
 62
     7
 10
-126.59669
 20
40.05344
 40
6
 50
186.69977
 51
221.11006
  0
ARC
  8
0
  6
CONTINUOUS
 62
     7
 10
-155.01994
 20
9.8326263
 40
17.064236
 50
346.09586
 51
13.904143
  0
ARC
  8
0
  6
CONTINUOUS
 62
     7
 10
-171.83418
 20
21.853439
 40
33.878471
 50
350.14412
 51
359.99999
  0
ARC
  8
0
  6
CONTINUOUS
 62
     7
 10
-146.4557
 20
9.8534393
 40
5
 50
180.00001
 51
270
  0
ARC
  8
0
  6
CONTINUOUS
 62
     7
 10
-155.01994
 20
33.874256
 40
17.064236
 50
346.09586
 51
13.904143
  0
ARC
  8
0
  6
CONTINUOUS
 62
     7
 10
-171.83418
 20
21.853439
 40
33.878471
 50
8.6514222E-006
 51
9.8558759
  0
ARC
  8
0
  6
CONTINUOUS
 62
     7
 10
-146.4557
 20
33.853443
 40
5
 50
89.999996
 51
180.00001
  0
ARC
  8
0
  6
CONTINUOUS
 62
     7
 10
-124.47652
 20
64.417679
 40
17.064236
 50
256.09586
 51
283.90415
  0
ARC
  8
0
  6
CONTINUOUS
 62
     7
 10
-112.45571
 20
81.231911
 40
33.878471
 50
260.14412
 51
269.99999
  0
ARC
  8
0
  6
CONTINUOUS
 62
     7
 10
-20.551233
 20
63.853443
 40
5
 50
89.999996
 51
180.00001
  0
ARC
  8
0
  6
CONTINUOUS
 62
     7
 10
-27.051233
 20
44.853443
 40
7.8000002
 50
289.07854
 51
340.92146
  0
ARC
  8
0
  6
CONTINUOUS
 62
     7
 10
-29.051231
 20
46.853443
 40
3
 50
270
 51
5.0089561E-006
  0
ARC
  8
0
  6
CONTINUOUS
 62
     7
 10
-26.251232
 20
41.856297
 40
7
 50
20.919061
 51
88.362738
  0
ARC
  8
0
  6
CONTINUOUS
 62
     7
 10
-24.05409
 20
-0.34655744
 40
7
 50
89.999996
 51
178.36274
  0
ARC
  8
0
  6
CONTINUOUS
 62
     7
 10
-24.05409
 20
44.05344
 40
7
 50
181.63725
 51
249.08093
  0
ARC
  8
0
  6
CONTINUOUS
 62
     7
 10
-25.482286
 20
40.317097
 40
3
 50
249.08093
 51
289.07854
  0
ARC
  8
0
  6
CONTINUOUS
 62
     7
 10
-22.514891
 20
43.284496
 40
3
 50
340.92146
 51
20.919061
  0
ARC
  8
0
  6
CONTINUOUS
 62
     7
 10
-58.801228
 20
6.6506462
 40
22.249998
 50
347.83046
 51
12.169548
  0
ARC
  8
0
  6
CONTINUOUS
 62
     7
 10
-80.801224
 20
21.853439
 40
44.249989
 50
351.37864
 51
359.99999
  0
ARC
  8
0
  6
CONTINUOUS
 62
     7
 10
-46.051231
 20
5.3534431
 40
5
 50
180.00001
 51
270
  0
ARC
  8
0
  6
CONTINUOUS
 62
     7
 10
-58.801228
 20
37.05624
 40
22.249998
 50
347.83046
 51
12.169548
  0
ARC
  8
0
  6
CONTINUOUS
 62
     7
 10
-80.801224
 20
21.853443
 40
44.249989
 50
8.6514222E-006
 51
8.6213602
  0
ARC
  8
0
  6
CONTINUOUS
 62
     7
 10
-46.051231
 20
38.353443
 40
5
 50
89.999996
 51
180.00001
  0
ARC
  8
0
  6
CONTINUOUS
 62
     7
 10
-19.25403
 20
76.603439
 40
22.249998
 50
257.83046
 51
282.16955
  0
ARC
  8
0
  6
CONTINUOUS
 62
     7
 10
-4.0512338
 20
98.603432
 40
44.249989
 50
261.37865
 51
270
  0
ARC
  8
0
  6
CONTINUOUS
 62
     7
 10
-246.23865
 20
-81.070267
 40
38.125019
 50
350.71049
 51
9.2895303
  0
ARC
  8
0
  6
CONTINUOUS
 62
     7
 10
-219.01363
 20
-78.894386
 40
5
 50
89.999996
 51
180.00001
  0
ARC
  8
0
  6
CONTINUOUS
 62
     7
 10
-284.11362
 20
-98.394379
 40
76.000023
 50
8.6514222E-006
 51
6.5758824
  0
ARC
  8
0
  6
CONTINUOUS
 62
     7
 10
-197.01363
 20
-74.376503
 40
7
 50
37.539495
 51
85.903952
  0
ARC
  8
0
  6
CONTINUOUS
 62
     7
 10
-195.03151
 20
-72.394379
 40
7
 50
184.09606
 51
232.46053
  0
ARC
  8
0
  6
CONTINUOUS
 62
     7
 10
-246.23865
 20
-115.7185
 40
38.125019
 50
350.71047
 51
9.2895166
  0
ARC
  8
0
  6
CONTINUOUS
 62
     7
 10
-219.01363
 20
-117.89438
 40
5
 50
180.00001
 51
270
  0
ARC
  8
0
  6
CONTINUOUS
 62
     7
 10
-284.11362
 20
-98.394379
 40
76.000023
 50
353.42412
 51
359.99999
  0
ARC
  8
0
  6
CONTINUOUS
 62
     7
 10
-195.03151
 20
-124.39438
 40
7
 50
89.999996
 51
175.90393
  0
ARC
  8
0
  6
CONTINUOUS
 62
     7
 10
-201.01363
 20
-68.394379
 40
11
 50
296.30255
 51
333.69747
  0
ARC
  8
0
  6
CONTINUOUS
 62
     7
 10
-193.84189
 20
-71.93927
 40
3
 50
333.69746
 51
37.539495
  0
ARC
  8
0
  6
CONTINUOUS
 62
     7
 10
-197.46873
 20
-75.566116
 40
3
 50
232.46053
 51
296.30255
  0
ARC
  8
0
  6
CONTINUOUS
 62
     7
 10
-201.51363
 20
-67.894379
 40
5
 50
270
 51
5.0089561E-006
  0
ARC
  8
0
  6
CONTINUOUS
 62
     7
 10
-188.33774
 20
-23.169365
 40
38.125019
 50
260.71048
 51
279.28952
  0
ARC
  8
0
  6
CONTINUOUS
 62
     7
 10
-190.51363
 20
-50.394382
 40
5
 50
89.999996
 51
180.00001
  0
ARC
  8
0
  6
CONTINUOUS
 62
     7
 10
-171.01363
 20
14.705635
 40
76.000023
 50
263.42412
 51
270
  0
ARC
  8
0
  6
CONTINUOUS
 62
     7
 10
-58.732334
 20
-43.394382
 40
6
 50
89.999996
 51
180.00001
  0
ARC
  8
0
  6
CONTINUOUS
 62
     7
 10
-65.232338
 20
-68.394379
 40
7
 50
175.90395
 51
225
  0
ARC
  8
0
  6
CONTINUOUS
 62
     7
 10
-69.232338
 20
-64.394386
 40
11
 50
295.52879
 51
334.47122
  0
ARC
  8
0
  6
CONTINUOUS
 62
     7
 10
-66.646553
 20
-69.808594
 40
5
 50
225
 51
295.52879
  0
ARC
  8
0
  6
CONTINUOUS
 62
     7
 10
-65.214455
 20
-128.39438
 40
7
 50
89.999996
 51
180.00001
  0
ARC
  8
0
  6
CONTINUOUS
 62
     7
 10
-65.232338
 20
-68.394379
 40
7
 50
45.000001
 51
94.09604
  0
ARC
  8
0
  6
CONTINUOUS
 62
     7
 10
-63.818119
 20
-66.980164
 40
5
 50
334.47122
 51
45.000001
  0
ARC
  8
0
  6
CONTINUOUS
 62
     7
 10
-70.732338
 20
-62.894382
 40
5
 50
270
 51
5.0089565E-006
  0
ARC
  8
0
  6
CONTINUOUS
 62
     7
 10
-123.95754
 20
-119.25403
 40
45.625206
 50
351.50982
 51
8.4901796
  0
ARC
  8
0
  6
CONTINUOUS
 62
     7
 10
-169.33273
 20
-98.394379
 40
91.000397
 50
353.99104
 51
359.99999
  0
ARC
  8
0
  6
CONTINUOUS
 62
     7
 10
-90.232338
 20
-121.89438
 40
6
 50
179.99999
 51
270
  0
ARC
  8
0
  6
CONTINUOUS
 62
     7
 10
-123.95754
 20
-77.534729
 40
45.625206
 50
351.50982
 51
8.4901796
  0
ARC
  8
0
  6
CONTINUOUS
 62
     7
 10
-169.33273
 20
-98.394379
 40
91.000397
 50
8.651423E-006
 51
6.0089631
  0
ARC
  8
0
  6
CONTINUOUS
 62
     7
 10
-90.232338
 20
-74.894386
 40
6
 50
89.999996
 51
180.00001
  0
ARC
  8
0
  6
CONTINUOUS
 62
     7
 10
-56.091984
 20
-9.669178
 40
45.625206
 50
261.50983
 51
278.49018
  0
ARC
  8
0
  6
CONTINUOUS
 62
     7
 10
-35.232334
 20
35.706013
 40
91.000397
 50
263.99104
 51
270
  0
ARC
  8
0
  6
CONTINUOUS
 62
     7
 10
-177.17702
 20
-254.9366
 40
5
 50
119.80323
 51
214.25306
  0
ARC
  8
0
  6
CONTINUOUS
 62
     7
 10
-155.04996
 20
-316.42209
 40
0.80000001
 50
270
 51
300
  0
ARC
  8
0
  6
CONTINUOUS
 62
     7
 10
-172.38297
 20
-251.67207
 40
10.8
 50
214.25307
 51
235.74693
  0
ARC
  8
0
  6
CONTINUOUS
 62
     7
 10
-177.38297
 20
-322.87207
 40
7
 50
353.43757
 51
90.000003
  0
ARC
  8
0
  6
CONTINUOUS
 62
     7
 10
-175.64749
 20
-256.46613
 40
5
 50
235.74693
 51
330.19677
  0
ARC
  8
0
  6
CONTINUOUS
 62
     7
 10
-176.18297
 20
-256.67209
 40
7
 50
90.000003
 51
119.80323
  0
ARC
  8
0
  6
CONTINUOUS
 62
     7
 10
-177.38297
 20
-255.47208
 40
7
 50
330.19677
 51
0
  0
ARC
  8
0
  6
CONTINUOUS
 62
     7
 10
-170.38297
 20
-249.67207
 40
5
 50
179.99999
 51
270
  0
ARC
  8
0
  6
CONTINUOUS
 62
     7
 10
19.809814
 20
-250.85838
 40
3
 50
152.03389
 51
209.23673
  0
ARC
  8
0
  6
CONTINUOUS
 62
     7
 10
19.109165
 20
-330.67209
 40
9
 50
0
 51
90.000003
  0
ARC
  8
0
  6
CONTINUOUS
 62
     7
 10
19.109165
 20
-247.67207
 40
9
 50
297.96611
 51
0
  0
ARC
  8
0
  6
CONTINUOUS
 62
     7
 10
28.609165
 20
-244.17207
 40
3
 50
179.99999
 51
270
  0
ARC
  8
0
  6
CONTINUOUS
 62
     7
 10
21.922859
 20
-252.97144
 40
3
 50
240.76328
 51
297.96611
  0
ARC
  8
0
  6
CONTINUOUS
 62
     7
 10
25.109165
 20
-253.67207
 40
9
 50
90.000003
 51
152.03389
  0
ARC
  8
0
  6
CONTINUOUS
 62
     7
 10
24.609165
 20
-248.17207
 40
8.5
 50
209.23672
 51
240.76328
  0
ARC
  8
0
  6
CONTINUOUS
 62
     7
 10
-110.50795
 20
-313.21371
 40
52.375008
 50
172.07669
 51
187.92331
  0
ARC
  8
0
  6
CONTINUOUS
 62
     7
 10
-150.88297
 20
-315.17209
 40
8
 50
270
 51
0
  0
ARC
  8
0
  6
CONTINUOUS
 62
     7
 10
-58.382942
 20
-289.17209
 40
104.50002
 50
174.3929
 51
179.99999
  0
ARC
  8
0
  6
CONTINUOUS
 62
     7
 10
-110.50795
 20
-265.13046
 40
52.375008
 50
172.07669
 51
187.92331
  0
ARC
  8
0
  6
CONTINUOUS
 62
     7
 10
-150.88297
 20
-263.17209
 40
8
 50
0
 51
90.000003
  0
ARC
  8
0
  6
CONTINUOUS
 62
     7
 10
-58.382942
 20
-289.17209
 40
104.50002
 50
180.00001
 51
185.6071
  0
ARC
  8
0
  6
CONTINUOUS
 62
     7
 10
120.35897
 20
-260.18069
 40
84.249809
 50
173.75468
 51
186.2453
  0
ARC
  8
0
  6
CONTINUOUS
 62
     7
 10
204.35878
 20
-289.17209
 40
168.24962
 50
175.58172
 51
180.00001
  0
ARC
  8
0
  6
CONTINUOUS
 62
     7
 10
51.609165
 20
-256.17209
 40
8
 50
0
 51
90.000003
  0
ARC
  8
0
  6
CONTINUOUS
 62
     7
 10
51.609165
 20
-322.17209
 40
8
 50
270
 51
0
  0
ARC
  8
0
  6
CONTINUOUS
 62
     7
 10
204.35878
 20
-289.17209
 40
168.24962
 50
179.99999
 51
184.41828
  0
ARC
  8
0
  6
CONTINUOUS
 62
     7
 10
120.35897
 20
-318.16345
 40
84.249809
 50
173.7547
 51
186.24531
  0
ARC
  8
0
  6
CONTINUOUS
 62
     7
 10
-183.88297
 20
-230.17207
 40
8
 50
360
 51
90.000003
  0
ARC
  8
0
  6
CONTINUOUS
 62
     7
 10
-185.84134
 20
-189.79707
 40
52.375008
 50
262.07668
 51
277.92331
  0
ARC
  8
0
  6
CONTINUOUS
 62
     7
 10
-209.88297
 20
-137.67206
 40
104.50002
 50
270
 51
275.6071
  0
ARC
  8
0
  6
CONTINUOUS
 62
     7
 10
16.609165
 20
-221.17207
 40
8
 50
360
 51
90.000003
  0
ARC
  8
0
  6
CONTINUOUS
 62
     7
 10
-16.390835
 20
-68.422462
 40
168.24962
 50
270
 51
274.41828
  0
ARC
  8
0
  6
CONTINUOUS
 62
     7
 10
12.600542
 20
-152.42227
 40
84.249809
 50
263.7547
 51
276.24531
  0
ARC
  8
0
  6
CONTINUOUS
 62
     7
 10
-209.88297
 20
-137.67206
 40
104.50002
 50
264.3929
 51
270
  0
ARC
  8
0
  6
CONTINUOUS
 62
     7
 10
-242.58891
 20
-254.9366
 40
5
 50
325.74694
 51
60.196773
  0
ARC
  8
0
  6
CONTINUOUS
 62
     7
 10
-264.71597
 20
-316.42209
 40
0.80000001
 50
240
 51
270
  0
ARC
  8
0
  6
CONTINUOUS
 62
     7
 10
-247.38297
 20
-251.67207
 40
10.8
 50
304.25306
 51
325.74693
  0
ARC
  8
0
  6
CONTINUOUS
 62
     7
 10
-242.38297
 20
-322.87207
 40
7
 50
89.999996
 51
186.56242
  0
ARC
  8
0
  6
CONTINUOUS
 62
     7
 10
-244.11844
 20
-256.46613
 40
5
 50
209.80324
 51
304.25306
  0
ARC
  8
0
  6
CONTINUOUS
 62
     7
 10
-243.58296
 20
-256.67209
 40
7
 50
60.196773
 51
89.999996
  0
ARC
  8
0
  6
CONTINUOUS
 62
     7
 10
-242.38297
 20
-255.47208
 40
7
 50
180.00001
 51
209.80323
  0
ARC
  8
0
  6
CONTINUOUS
 62
     7
 10
-249.38297
 20
-249.67207
 40
5
 50
270
 51
5.008956E-006
  0
ARC
  8
0
  6
CONTINUOUS
 62
     7
 10
-309.25797
 20
-313.21371
 40
52.375008
 50
352.07669
 51
7.9233148
  0
ARC
  8
0
  6
CONTINUOUS
 62
     7
 10
-268.88297
 20
-315.17209
 40
8
 50
180.00001
 51
270
  0
ARC
  8
0
  6
CONTINUOUS
 62
     7
 10
-361.38297
 20
-289.17209
 40
104.50002
 50
8.6514222E-006
 51
5.6071021
  0
ARC
  8
0
  6
CONTINUOUS
 62
     7
 10
-309.25797
 20
-265.13046
 40
52.375008
 50
352.07669
 51
7.9233148
  0
ARC
  8
0
  6
CONTINUOUS
 62
     7
 10
-268.88297
 20
-263.17209
 40
8
 50
89.999996
 51
180.00001
  0
ARC
  8
0
  6
CONTINUOUS
 62
     7
 10
-361.38297
 20
-289.17209
 40
104.50002
 50
354.3929
 51
359.99999
  0
ARC
  8
0
  6
CONTINUOUS
 62
     7
 10
-235.88297
 20
-230.17207
 40
8
 50
89.999996
 51
180.00001
  0
ARC
  8
0
  6
CONTINUOUS
 62
     7
 10
-233.92459
 20
-189.79707
 40
52.375008
 50
262.07669
 51
277.92332
  0
ARC
  8
0
  6
CONTINUOUS
 62
     7
 10
-45.382214
 20
-152.42227
 40
84.249809
 50
263.75469
 51
276.2453
  0
ARC
  8
0
  6
CONTINUOUS
 62
     7
 10
-52.591484
 20
-250.85838
 40
3
 50
330.76328
 51
27.966109
  0
ARC
  8
0
  6
CONTINUOUS
 62
     7
 10
-51.890835
 20
-330.67209
 40
9
 50
89.999996
 51
180.00001
  0
ARC
  8
0
  6
CONTINUOUS
 62
     7
 10
-51.890835
 20
-247.67207
 40
9
 50
180.00001
 51
242.0339
  0
ARC
  8
0
  6
CONTINUOUS
 62
     7
 10
-61.390835
 20
-244.17207
 40
3
 50
270
 51
5.0089559E-006
  0
ARC
  8
0
  6
CONTINUOUS
 62
     7
 10
-54.704529
 20
-252.97144
 40
3
 50
242.03389
 51
299.23672
  0
ARC
  8
0
  6
CONTINUOUS
 62
     7
 10
-57.890835
 20
-253.67207
 40
9
 50
27.966109
 51
89.999996
  0
ARC
  8
0
  6
CONTINUOUS
 62
     7
 10
-57.390835
 20
-248.17207
 40
8.5
 50
299.23672
 51
330.76328
  0
ARC
  8
0
  6
CONTINUOUS
 62
     7
 10
-153.14064
 20
-260.18069
 40
84.249809
 50
353.7547
 51
6.2453149
  0
ARC
  8
0
  6
CONTINUOUS
 62
     7
 10
-237.14046
 20
-289.17209
 40
168.24962
 50
359.99999
 51
4.4182803
  0
ARC
  8
0
  6
CONTINUOUS
 62
     7
 10
-84.390839
 20
-256.17209
 40
8
 50
89.999996
 51
180.00001
  0
ARC
  8
0
  6
CONTINUOUS
 62
     7
 10
-84.390839
 20
-322.17209
 40
8
 50
180.00001
 51
270
  0
ARC
  8
0
  6
CONTINUOUS
 62
     7
 10
-237.14046
 20
-289.17209
 40
168.24962
 50
355.58172
 51
8.6514222E-006
  0
ARC
  8
0
  6
CONTINUOUS
 62
     7
 10
-153.14064
 20
-318.16345
 40
84.249809
 50
353.75469
 51
6.2453013
  0
ARC
  8
0
  6
CONTINUOUS
 62
     7
 10
-49.390835
 20
-221.17207
 40
8
 50
89.999996
 51
180.00001
  0
ARC
  8
0
  6
CONTINUOUS
 62
     7
 10
-16.390835
 20
-68.422462
 40
168.24962
 50
265.58172
 51
270
  0
ARC
  8
0
  6
CONTINUOUS
 62
     7
 10
-208.2282
 20
69.293991
 40
22.940548
 50
258.01571
 51
270.00001
  0
ARC
  8
0
  6
CONTINUOUS
 62
     7
 10
-221.34908
 20
37.353443
 40
6
 50
184.7802
 51
255.94481
  0
ARC
  8
0
  6
CONTINUOUS
 62
     7
 10
-219.84795
 20
35.945736
 40
2
 50
344.96891
 51
14.05524
  0
ARC
  8
0
  6
CONTINUOUS
 62
     7
 10
-223.2282
 20
36.853443
 40
5.5
 50
285.03105
 51
344.9689
  0
ARC
  8
0
  6
CONTINUOUS
 62
     7
 10
-222.3205
 20
33.473194
 40
2
 50
255.94481
 51
285.03105
  0
ARC
  8
0
  6
CONTINUOUS
 62
     7
 10
-223.7282
 20
34.974308
 40
6
 50
14.05524
 51
85.219806
  0
ARC
  8
0
  6
CONTINUOUS
 62
     7
 10
-221.34908
 20
6.3534431
 40
6
 50
89.999996
 51
175.2198
  0
ARC
  8
0
  6
CONTINUOUS
 62
     7
 10
-225.2282
 20
38.853443
 40
2
 50
270
 51
5.0089561E-006
  0
ARC
  8
0
  6
CONTINUOUS
 62
     7
 10
-240.2282
 20
11.353439
 40
4
 50
180.00001
 51
270
  0
ARC
  8
0
  6
CONTINUOUS
 62
     7
 10
-244.32156
 20
11.600109
 40
11.59337
 50
343.11152
 51
16.888485
  0
ARC
  8
0
  6
CONTINUOUS
 62
     7
 10
-255.66875
 20
21.853439
 40
22.940548
 50
348.0157
 51
8.6514222E-006
  0
ARC
  8
0
  6
CONTINUOUS
 62
     7
 10
-240.2282
 20
32.353443
 40
4
 50
89.999996
 51
180.00001
  0
ARC
  8
0
  6
CONTINUOUS
 62
     7
 10
-244.32156
 20
32.10677
 40
11.59337
 50
343.11152
 51
16.888485
  0
ARC
  8
0
  6
CONTINUOUS
 62
     7
 10
-255.66875
 20
21.853443
 40
22.940548
 50
359.99999
 51
11.984299
  0
ARC
  8
0
  6
CONTINUOUS
 62
     7
 10
-218.7282
 20
53.853443
 40
4
 50
89.999996
 51
180.00001
  0
ARC
  8
0
  6
CONTINUOUS
 62
     7
 10
-218.48152
 20
57.946812
 40
11.59337
 50
253.11152
 51
286.88849
  0
CIRCLE
  8
0
  6
CONTINUOUS
 62
     7
 10
-387.97409
 20
100.27163
 40
14.5
  0
CIRCLE
  8
0
  6
CONTINUOUS
 62
     7
 10
-387.97409
 20
100.27163
 40
8.0500002
  0
CIRCLE
  8
0
  6
CONTINUOUS
 62
     7
 10
-387.97409
 20
55.195049
 40
17
  0
CIRCLE
  8
0
  6
CONTINUOUS
 62
     7
 10
-387.97409
 20
55.195049
 40
11.25
  0
CIRCLE
  8
0
  6
CONTINUOUS
 62
     7
 10
-387.97409
 20
4.380867
 40
21.5
  0
CIRCLE
  8
0
  6
CONTINUOUS
 62
     7
 10
-387.97409
 20
4.380867
 40
14.4
  0
CIRCLE
  8
0
  6
CONTINUOUS
 62
     7
 10
-387.97409
 20
-51.689957
 40
24.5
  0
CIRCLE
  8
0
  6
CONTINUOUS
 62
     7
 10
-387.97409
 20
-51.689957
 40
17.25
  0
CIRCLE
  8
0
  6
CONTINUOUS
 62
     7
 10
-387.97409
 20
-138.66864
 40
29.5
  0
CIRCLE
  8
0
  6
CONTINUOUS
 62
     7
 10
-387.97409
 20
-138.66864
 40
21.65
  0
CIRCLE
  8
0
  6
CONTINUOUS
 62
     7
 10
-387.97409
 20
-242.56616
 40
34
  0
CIRCLE
  8
0
  6
CONTINUOUS
 62
     7
 10
-387.97409
 20
-242.56616
 40
24.65
  0
CIRCLE
  8
0
  6
CONTINUOUS
 62
     7
 10
-387.97409
 20
-348.29544
 40
41
  0
CIRCLE
  8
0
  6
CONTINUOUS
 62
     7
 10
-387.97409
 20
-348.29544
 40
30.65
  0
TEXT
  8
0
  6
CONTINUOUS
 62
     7
 10
-118.75011
 20
73.235405
 40
8
 41
1.028625
  1
20
  0
TEXT
  8
0
  6
CONTINUOUS
 62
     7
 10
-11.983668
 20
80.79409
 40
8
 41
1.028625
  1
25
  0
TEXT
  8
0
  6
CONTINUOUS
 62
     7
 10
-178.27477
 20
-29.751696
 40
8
 41
1.028625
  1
30
  0
TEXT
  8
0
  6
CONTINUOUS
 62
     7
 10
-43.163248
 20
-25.027515
 40
8
 41
1.028625
  1
40
  0
TEXT
  8
0
  6
CONTINUOUS
 62
     7
 10
-217.92182
 20
-200.30235
 40
8
 41
1.028625
  1
50
  0
TEXT
  8
0
  6
CONTINUOUS
 62
     7
 10
-22.697399
 20
-191.20894
 40
8
 41
1.028625
  1
60
  0
TEXT
  8
0
  6
CONTINUOUS
 62
     7
 10
-215.12301
 20
72.290573
 40
8
 41
1.0285716
  1
13
  0
TEXT
  8
0
  6
CONTINUOUS
 62
     7
 10
-287.82534
 20
121.78638
 40
8
 41
0.84326415
  1
コマサスフィット継手　チ－ズ
  0
TEXT
  8
0
  6
CONTINUOUS
 62
     7
 10
-434.65915
 20
99.967917
 40
3.2
 41
1.0285716
  1
13
  0
TEXT
  8
0
  6
CONTINUOUS
 62
     7
 10
-436.21805
 20
57.877859
 40
3.2
 41
1.0285716
  1
20
  0
TEXT
  8
0
  6
CONTINUOUS
 62
     7
 10
-439.33582
 20
6.43446
 40
3.2
 41
1.0285716
  1
25
  0
TEXT
  8
0
  6
CONTINUOUS
 62
     7
 10
-436.9975
 20
-57.48007
 40
3.2
 41
1.0285716
  1
30
  0
TEXT
  8
0
  6
CONTINUOUS
 62
     7
 10
-436.6568
 20
-133.60906
 40
3.2
 41
1.0285716
  1
40
  0
TEXT
  8
0
  6
CONTINUOUS
 62
     7
 10
-429.89786
 20
-211.33698
 40
3.2
 41
1.0285716
  1
50
  0
TEXT
  8
0
  6
CONTINUOUS
 62
     7
 10
-437.01362
 20
-311.81704
 40
3.2
 41
1.0285716
  1
60
  0
POINT
  8
1
  6
CONTINUOUS
 62
     7
 10
-311.3107
 20
-470.71918
  0
POINT
  8
1
  6
CONTINUOUS
 62
     7
 10
-311.3107
 20
-767.71918
  0
POINT
  8
1
  6
CONTINUOUS
 62
     7
 10
108.68929
 20
143.28081
  0
POINT
  8
1
  6
CONTINUOUS
 62
     7
 10
108.68929
 20
-153.71919
  0
POINT
  8
1
  6
CONTINUOUS
 62
     7
 10
-311.3107
 20
-777.71918
  0
POINT
  8
1
  6
CONTINUOUS
 62
     7
 10
-311.3107
 20
-163.71919
  0
POINT
  8
1
  6
CONTINUOUS
 62
     7
 10
-311.3107
 20
-153.71919
  0
POINT
  8
1
  6
CONTINUOUS
 62
     7
 10
-311.3107
 20
143.28081
  0
POINT
  8
1
  6
CONTINUOUS
 62
     7
 10
-311.3107
 20
-470.71918
  0
POINT
  8
1
  6
CONTINUOUS
 62
     7
 10
-311.3107
 20
-460.71918
  0
POINT
  8
1
  6
CONTINUOUS
 62
     7
 10
-311.3107
 20
-163.71919
  0
LINE
  8
1
  6
CONTINUOUS
 62
     7
 10
108.68929
 20
143.28081
 11
108.68929
 21
-33.714287
  0
LINE
  8
1
  6
CONTINUOUS
 62
     2
 10
-311.3107
 20
-470.71918
 11
108.68929
 21
-470.71918
  0
LINE
  8
1
  6
CONTINUOUS
 62
     2
 10
-311.3107
 20
-470.71918
 11
-311.3107
 21
-767.71918
  0
LINE
  8
1
  6
CONTINUOUS
 62
     2
 10
-311.3107
 20
-767.71918
 11
108.68929
 21
-767.71918
  0
LINE
  8
1
  6
CONTINUOUS
 62
     2
 10
108.68929
 20
-470.71918
 11
108.68929
 21
-767.71918
  0
LINE
  8
1
  6
CONTINUOUS
 62
     2
 10
-311.3107
 20
-153.71919
 11
108.68929
 21
-153.71919
  0
LINE
  8
1
  6
CONTINUOUS
 62
     2
 10
-311.3107
 20
143.28081
 11
-311.3107
 21
-153.71919
  0
LINE
  8
1
  6
CONTINUOUS
 62
     2
 10
-311.3107
 20
143.28081
 11
108.68929
 21
143.28081
  0
LINE
  8
1
  6
CONTINUOUS
 62
     2
 10
108.68929
 20
143.28081
 11
108.68929
 21
-153.71919
  0
LINE
  8
1
  6
CONTINUOUS
 62
     2
 10
-311.3107
 20
-460.71918
 11
108.68929
 21
-460.71918
  0
LINE
  8
1
  6
CONTINUOUS
 62
     2
 10
-311.3107
 20
-163.71919
 11
-311.3107
 21
-460.71918
  0
LINE
  8
1
  6
CONTINUOUS
 62
     2
 10
-311.3107
 20
-163.71919
 11
108.68929
 21
-163.71919
  0
LINE
  8
1
  6
CONTINUOUS
 62
     2
 10
108.68929
 20
-163.71919
 11
108.68929
 21
-460.71918
  0
ENDSEC
  0
EOF
