  0
SECTION
  2
HEADER
  9
$EXTMAX
 10
108.92817
 20
144.14287
  9
$EXTMIN
 10
-311.07183
 20
-153.71428
  0
ENDSEC
  0
SECTION
  2
TABLES
  0
TABLE
  2
LTYPE
 70
    22
  0
LTYPE
  2
CONTINUOUS
 70
    64
  3
Solid line
 72
    65
 73
     0
 40
0.000000
  0
LTYPE
  2
DASHED
 70
    64
  3
__ __ __ __ __ __ __ __ __ __ __ __ __ __ __
 72
    65
 73
     2
 40
3.500000
 49
2.000000
 49
-1.500000
  0
LTYPE
  2
CENTER
 70
    64
  3
____ _ ____ _ ____ _ ____ _ ____ _ ____ _ ____
 72
    65
 73
     4
 40
17.500000
 49
13.000000
 49
-1.500000
 49
1.500000
 49
-1.500000
  0
LTYPE
  2
PHANTOM
 70
    64
  3
_____ _ _ _____ _ _ _____ _ _ _____ _ _ ____  
 72
    65
 73
     6
 40
15.500000
 49
8.000000
 49
-1.500000
 49
1.500000
 49
-1.500000
 49
1.500000
 49
-1.500000
  0
LTYPE
  2
DOT
 70
    64
  3
. . . . . . . . . . . . . . . . . . . . . . . .
 72
    65
 73
     2
 40
0.25
 49
0.0
 49
-0.25
  0
ENDTAB
  0
TABLE
  2
LAYER
 70
     2
  0
LAYER
  2
0
 70
     0
 62
     7
  6
CONTINUOUS
  0
LAYER
  2
1
 70
     0
 62
     7
  6
CONTINUOUS
  0
ENDTAB
  0
TABLE
  2
STYLE
 70
     1
  0
STYLE
  2
STANDARD
 70
     0
 40
0.000000
 41
1.000000
 50
0.000000
 71
     0
 42
0.200000
  3
txt
  4
BIGFONT
  0
ENDTAB
  0
TABLE
  2
VIEW
 70
     0
  0
ENDTAB
  0
ENDSEC
  0
SECTION
  2
BLOCKS
  0
ENDSEC
  0
SECTION
  2
ENTITIES
  0
POINT
  8
0
  6
CONTINUOUS
 62
     7
 10
-211.65198
 20
-379.98911
  0
POINT
  8
0
  6
CONTINUOUS
 62
     7
 10
-228.54448
 20
-252.18513
  0
POINT
  8
0
  6
CONTINUOUS
 62
     7
 10
-124.52553
 20
-252.18513
  0
POINT
  8
0
  6
CONTINUOUS
 62
     7
 10
-17.14332
 20
-251.06404
  0
POINT
  8
0
  6
CONTINUOUS
 62
     7
 10
-241.87643
 20
-47.026142
  0
POINT
  8
0
  6
CONTINUOUS
 62
     7
 10
-163.40033
 20
-48.147232
  0
POINT
  8
0
  6
CONTINUOUS
 62
     7
 10
-77.350067
 20
-50.389404
  0
POINT
  8
0
  6
CONTINUOUS
 62
     7
 10
29.184534
 20
-53.752666
  0
POINT
  8
0
  6
CONTINUOUS
 62
     7
 10
-241.82405
 20
65.082596
  0
POINT
  8
0
  6
CONTINUOUS
 62
     7
 10
-169.88467
 20
65.082596
  0
POINT
  8
0
  6
CONTINUOUS
 62
     7
 10
-92.529648
 20
63.96151
  0
POINT
  8
0
  6
CONTINUOUS
 62
     7
 10
-3.8836699
 20
62.413811
  0
LINE
  8
0
  6
CENTER
 62
     7
 10
-401.50162
 20
119.69923
 11
-401.50162
 21
80.453743
  0
LINE
  8
0
  6
CENTER
 62
     7
 10
-419.98352
 20
101.27591
 11
-383.7355
 21
101.27591
  0
LINE
  8
0
  6
CONTINUOUS
 62
     7
 10
-385.80695
 20
101.27591
 11
-390.40381
 21
112.37373
  0
LINE
  8
0
  6
CONTINUOUS
 62
     7
 10
-390.40378
 20
112.37373
 11
-401.50162
 21
116.9706
  0
LINE
  8
0
  6
CONTINUOUS
 62
     7
 10
-412.59943
 20
112.37373
 11
-401.50162
 21
116.97059
  0
LINE
  8
0
  6
CONTINUOUS
 62
     7
 10
-417.19629
 20
101.27592
 11
-412.59943
 21
112.37373
  0
LINE
  8
0
  6
CONTINUOUS
 62
     7
 10
-412.59946
 20
90.178085
 11
-417.19632
 21
101.2759
  0
LINE
  8
0
  6
CONTINUOUS
 62
     7
 10
-401.50162
 20
85.581223
 11
-412.59946
 21
90.178093
  0
LINE
  8
0
  6
CONTINUOUS
 62
     7
 10
-390.40381
 20
90.178085
 11
-401.50162
 21
85.581223
  0
LINE
  8
0
  6
CONTINUOUS
 62
     7
 10
-385.80692
 20
101.27591
 11
-390.40381
 21
90.178093
  0
LINE
  8
0
  6
CENTER
 62
     7
 10
-425.552
 20
56.199329
 11
-377.8042
 21
56.199329
  0
LINE
  8
0
  6
CONTINUOUS
 62
     7
 10
-383.10095
 20
56.199326
 11
-388.49039
 21
69.210556
  0
LINE
  8
0
  6
CONTINUOUS
 62
     7
 10
-388.49039
 20
69.210571
 11
-401.50162
 21
74.599998
  0
LINE
  8
0
  6
CONTINUOUS
 62
     7
 10
-414.51285
 20
69.210564
 11
-401.50165
 21
74.599991
  0
LINE
  8
0
  6
CONTINUOUS
 62
     7
 10
-419.90228
 20
56.199326
 11
-414.51285
 21
69.210564
  0
LINE
  8
0
  6
CONTINUOUS
 62
     7
 10
-414.51288
 20
43.188091
 11
-419.90228
 21
56.199318
  0
LINE
  8
0
  6
CONTINUOUS
 62
     7
 10
-401.50162
 20
37.798664
 11
-414.51285
 21
43.188091
  0
LINE
  8
0
  6
CONTINUOUS
 62
     7
 10
-388.49039
 20
43.188084
 11
-401.50162
 21
37.798656
  0
LINE
  8
0
  6
CONTINUOUS
 62
     7
 10
-383.10095
 20
56.199326
 11
-388.49039
 21
43.188091
  0
LINE
  8
0
  6
CENTER
 62
     7
 10
-401.50162
 20
78.522614
 11
-401.50162
 21
35.072231
  0
LINE
  8
0
  6
CENTER
 62
     7
 10
-430.80862
 20
5.3851457
 11
-372.54755
 21
5.3851457
  0
LINE
  8
0
  6
CONTINUOUS
 62
     7
 10
-378.23019
 20
5.3851414
 11
-385.04623
 21
21.840534
  0
LINE
  8
0
  6
CONTINUOUS
 62
     7
 10
-385.04623
 20
21.840532
 11
-401.50162
 21
28.656578
  0
LINE
  8
0
  6
CONTINUOUS
 62
     7
 10
-417.957
 20
21.840536
 11
-401.50162
 21
28.656582
  0
LINE
  8
0
  6
CONTINUOUS
 62
     7
 10
-424.77307
 20
5.3851485
 11
-417.957
 21
21.84054
  0
LINE
  8
0
  6
CONTINUOUS
 62
     7
 10
-417.957
 20
-11.070247
 11
-424.77307
 21
5.3851457
  0
LINE
  8
0
  6
CONTINUOUS
 62
     7
 10
-401.50162
 20
-17.886288
 11
-417.957
 21
-11.070242
  0
LINE
  8
0
  6
CONTINUOUS
 62
     7
 10
-385.04623
 20
-11.070237
 11
-401.50162
 21
-17.886284
  0
LINE
  8
0
  6
CONTINUOUS
 62
     7
 10
-378.23019
 20
5.3851528
 11
-385.04623
 21
-11.070239
  0
LINE
  8
0
  6
CENTER
 62
     7
 10
-401.50162
 20
31.209974
 11
-401.50162
 21
-20.447704
  0
LINE
  8
0
  6
CENTER
 62
     7
 10
-434.86905
 20
-50.685677
 11
-369.74557
 21
-50.685677
  0
LINE
  8
0
  6
CONTINUOUS
 62
     7
 10
-374.983
 20
-50.685677
 11
-382.75012
 21
-31.934185
  0
LINE
  8
0
  6
CONTINUOUS
 62
     7
 10
-382.75012
 20
-31.934193
 11
-401.50162
 21
-24.167067
  0
LINE
  8
0
  6
CONTINUOUS
 62
     7
 10
-420.25308
 20
-31.934187
 11
-401.50162
 21
-24.167074
  0
LINE
  8
0
  6
CONTINUOUS
 62
     7
 10
-428.02023
 20
-50.685665
 11
-420.25311
 21
-31.934177
  0
LINE
  8
0
  6
CONTINUOUS
 62
     7
 10
-420.25311
 20
-69.437164
 11
-428.02023
 21
-50.685673
  0
LINE
  8
0
  6
CONTINUOUS
 62
     7
 10
-401.50162
 20
-77.204292
 11
-420.25311
 21
-69.437164
  0
LINE
  8
0
  6
CONTINUOUS
 62
     7
 10
-382.75012
 20
-69.437172
 11
-401.50162
 21
-77.204285
  0
LINE
  8
0
  6
CONTINUOUS
 62
     7
 10
-374.98303
 20
-50.685665
 11
-382.75015
 21
-69.437149
  0
LINE
  8
0
  6
CENTER
 62
     7
 10
-401.50162
 20
-21.654659
 11
-401.50162
 21
-81.278244
  0
LINE
  8
0
  6
CENTER
 62
     7
 10
-437.92899
 20
-137.66437
 11
-365.00909
 21
-137.66437
  0
LINE
  8
0
  6
CONTINUOUS
 62
     7
 10
-369.57104
 20
-137.66437
 11
-378.92331
 21
-115.08604
  0
LINE
  8
0
  6
CONTINUOUS
 62
     7
 10
-378.92331
 20
-115.08604
 11
-401.50162
 21
-105.7338
  0
LINE
  8
0
  6
CONTINUOUS
 62
     7
 10
-424.07996
 20
-115.08604
 11
-401.50162
 21
-105.7338
  0
LINE
  8
0
  6
CONTINUOUS
 62
     7
 10
-433.43219
 20
-137.66437
 11
-424.07996
 21
-115.08604
  0
LINE
  8
0
  6
CONTINUOUS
 62
     7
 10
-424.07996
 20
-160.24269
 11
-433.43219
 21
-137.66437
  0
LINE
  8
0
  6
CONTINUOUS
 62
     7
 10
-401.50162
 20
-169.59494
 11
-424.07996
 21
-160.24269
  0
LINE
  8
0
  6
CONTINUOUS
 62
     7
 10
-378.92331
 20
-160.24269
 11
-401.50162
 21
-169.59494
  0
LINE
  8
0
  6
CONTINUOUS
 62
     7
 10
-369.57104
 20
-137.66437
 11
-378.92331
 21
-160.24269
  0
LINE
  8
0
  6
CENTER
 62
     7
 10
-401.50162
 20
-102.03787
 11
-401.50162
 21
-172.52405
  0
LINE
  8
0
  6
CENTER
 62
     7
 10
-448.31732
 20
-241.56189
 11
-358.51984
 21
-241.56189
  0
LINE
  8
0
  6
CONTINUOUS
 62
     7
 10
-364.70029
 20
-241.56189
 11
-375.47916
 21
-215.53941
  0
LINE
  8
0
  6
CONTINUOUS
 62
     7
 10
-375.47913
 20
-215.53943
 11
-401.50162
 21
-204.76056
  0
LINE
  8
0
  6
CONTINUOUS
 62
     7
 10
-427.52408
 20
-215.53941
 11
-401.50162
 21
-204.76056
  0
LINE
  8
0
  6
CONTINUOUS
 62
     7
 10
-438.30298
 20
-241.56189
 11
-427.52411
 21
-215.5394
  0
LINE
  8
0
  6
CONTINUOUS
 62
     7
 10
-427.52408
 20
-267.58435
 11
-438.30295
 21
-241.56189
  0
LINE
  8
0
  6
CONTINUOUS
 62
     7
 10
-401.50162
 20
-278.36322
 11
-427.52411
 21
-267.58438
  0
LINE
  8
0
  6
CONTINUOUS
 62
     7
 10
-375.47916
 20
-267.58435
 11
-401.50162
 21
-278.36322
  0
LINE
  8
0
  6
CONTINUOUS
 62
     7
 10
-364.70029
 20
-241.56187
 11
-375.47916
 21
-267.58435
  0
LINE
  8
0
  6
CENTER
 62
     7
 10
-401.50162
 20
-198.1115
 11
-401.50162
 21
-283.08115
  0
LINE
  8
0
  6
CENTER
 62
     7
 10
-450.48984
 20
-347.29117
 11
-351.5195
 21
-347.29117
  0
LINE
  8
0
  6
CONTINUOUS
 62
     7
 10
-357.12354
 20
-347.29117
 11
-370.12158
 21
-315.9111
  0
LINE
  8
0
  6
CONTINUOUS
 62
     7
 10
-370.12158
 20
-315.9111
 11
-401.50162
 21
-302.91306
  0
LINE
  8
0
  6
CONTINUOUS
 62
     7
 10
-432.88165
 20
-315.9111
 11
-401.50162
 21
-302.91309
  0
LINE
  8
0
  6
CONTINUOUS
 62
     7
 10
-445.8797
 20
-347.29114
 11
-432.88165
 21
-315.9111
  0
LINE
  8
0
  6
CONTINUOUS
 62
     7
 10
-432.88162
 20
-378.67117
 11
-445.87967
 21
-347.29114
  0
LINE
  8
0
  6
CONTINUOUS
 62
     7
 10
-401.50165
 20
-391.66925
 11
-432.88168
 21
-378.6712
  0
LINE
  8
0
  6
CONTINUOUS
 62
     7
 10
-370.12158
 20
-378.6712
 11
-401.50162
 21
-391.66925
  0
LINE
  8
0
  6
CONTINUOUS
 62
     7
 10
-357.12354
 20
-347.29114
 11
-370.12158
 21
-378.6712
  0
LINE
  8
0
  6
CENTER
 62
     7
 10
-401.50162
 20
-297.08182
 11
-401.50162
 21
-397.0177
  0
LINE
  8
0
  6
CONTINUOUS
 62
     7
 10
-264.4014
 20
54.198402
 11
-264.4014
 21
53.355095
  0
LINE
  8
0
  6
CONTINUOUS
 62
     7
 10
-274.2467
 20
54.198402
 11
-274.2467
 21
53.355095
  0
LINE
  8
0
  6
CENTER
 62
     7
 10
-281.82394
 20
65.082596
 11
-236.31947
 21
65.082596
  0
LINE
  8
0
  6
CONTINUOUS
 62
     7
 10
-264.4014
 20
65.082596
 11
-264.4014
 21
64.48629
  0
LINE
  8
0
  6
CONTINUOUS
 62
     7
 10
-274.2467
 20
65.082596
 11
-274.2467
 21
64.48629
  0
LINE
  8
0
  6
CONTINUOUS
 62
     7
 10
-274.2467
 20
64.48629
 11
-264.4014
 21
64.48629
  0
LINE
  8
0
  6
CONTINUOUS
 62
     7
 10
-256.72406
 20
65.082596
 11
-256.72406
 21
50.582588
  0
LINE
  8
0
  6
CONTINUOUS
 62
     7
 10
-274.82407
 20
65.082596
 11
-274.82407
 21
50.082596
  0
LINE
  8
0
  6
CONTINUOUS
 62
     7
 10
-263.82407
 20
65.082596
 11
-263.82407
 21
50.082596
  0
LINE
  8
0
  6
CONTINUOUS
 62
     7
 10
-264.4014
 20
49.082596
 11
-263.82404
 21
50.082592
  0
LINE
  8
0
  6
CONTINUOUS
 62
     7
 10
-274.82407
 20
50.0826
 11
-274.2467
 21
49.082592
  0
LINE
  8
0
  6
CONTINUOUS
 62
     7
 10
-263.82407
 20
50.082588
 11
-257.22406
 21
50.082588
  0
LINE
  8
0
  6
CONTINUOUS
 62
     7
 10
-274.2467
 20
53.355095
 11
-264.4014
 21
53.355095
  0
LINE
  8
0
  6
CONTINUOUS
 62
     7
 10
-274.2467
 20
49.082596
 11
-264.4014
 21
49.082596
  0
LINE
  8
0
  6
CONTINUOUS
 62
     7
 10
-274.2467
 20
54.198402
 11
-264.4014
 21
54.198402
  0
LINE
  8
0
  6
CONTINUOUS
 62
     7
 10
-256.72406
 20
50.582584
 11
-257.22406
 21
50.082584
  0
LINE
  8
0
  6
CONTINUOUS
 62
     7
 10
-241.82405
 20
65.082596
 11
-241.82405
 21
54.582596
  0
LINE
  8
0
  6
CONTINUOUS
 62
     7
 10
-252.82405
 20
51.461273
 11
-252.82405
 21
50.582596
  0
LINE
  8
0
  6
CONTINUOUS
 62
     7
 10
-252.82405
 20
50.582596
 11
-245.82405
 21
50.582596
  0
LINE
  8
0
  6
CONTINUOUS
 62
     7
 10
-253.32407
 20
51.082596
 11
-252.82407
 21
50.582596
  0
LINE
  8
0
  6
CONTINUOUS
 62
     7
 10
-252.82405
 20
60.319138
 11
-252.82405
 21
58.19725
  0
LINE
  8
0
  6
CONTINUOUS
 62
     7
 10
-252.82405
 20
51.461273
 11
-245.82405
 21
51.461273
  0
LINE
  8
0
  6
CONTINUOUS
 62
     7
 10
-252.82405
 20
60.319138
 11
-245.82405
 21
60.319138
  0
LINE
  8
0
  6
CONTINUOUS
 62
     7
 10
-252.82405
 20
58.19725
 11
-245.82405
 21
58.19725
  0
LINE
  8
0
  6
CONTINUOUS
 62
     7
 10
-245.82405
 20
65.082596
 11
-245.82405
 21
50.582596
  0
LINE
  8
0
  6
CONTINUOUS
 62
     7
 10
-253.32405
 20
65.082596
 11
-253.32405
 21
51.082596
  0
LINE
  8
0
  6
CONTINUOUS
 62
     7
 10
-193.46202
 20
52.842361
 11
-193.46202
 21
51.210808
  0
LINE
  8
0
  6
CONTINUOUS
 62
     7
 10
-203.30731
 20
46.582596
 11
-193.46202
 21
46.582596
  0
LINE
  8
0
  6
CENTER
 62
     7
 10
-210.79257
 20
65.082596
 11
-164.81279
 21
65.082596
  0
LINE
  8
0
  6
CONTINUOUS
 62
     7
 10
-186.78467
 20
65.082596
 11
-186.78467
 21
48.082596
  0
LINE
  8
0
  6
CONTINUOUS
 62
     7
 10
-203.88466
 20
47.582596
 11
-203.30731
 21
46.582588
  0
LINE
  8
0
  6
CONTINUOUS
 62
     7
 10
-203.30731
 20
51.210808
 11
-193.46202
 21
51.210808
  0
LINE
  8
0
  6
CONTINUOUS
 62
     7
 10
-203.88467
 20
65.082596
 11
-203.88467
 21
47.582596
  0
LINE
  8
0
  6
CONTINUOUS
 62
     7
 10
-192.88467
 20
65.082596
 11
-192.88467
 21
47.582596
  0
LINE
  8
0
  6
CONTINUOUS
 62
     7
 10
-192.88467
 20
47.582596
 11
-193.46202
 21
46.582596
  0
LINE
  8
0
  6
CONTINUOUS
 62
     7
 10
-192.88467
 20
47.582596
 11
-187.28467
 21
47.582596
  0
LINE
  8
0
  6
CONTINUOUS
 62
     7
 10
-203.30731
 20
52.842361
 11
-193.46202
 21
52.842361
  0
LINE
  8
0
  6
CONTINUOUS
 62
     7
 10
-203.30731
 20
52.842361
 11
-203.30731
 21
51.210808
  0
LINE
  8
0
  6
CONTINUOUS
 62
     7
 10
-193.46202
 20
65.082596
 11
-193.46202
 21
63.928917
  0
LINE
  8
0
  6
CONTINUOUS
 62
     7
 10
-203.30731
 20
63.928917
 11
-193.46202
 21
63.928917
  0
LINE
  8
0
  6
CONTINUOUS
 62
     7
 10
-203.30731
 20
65.082596
 11
-203.30731
 21
63.928917
  0
LINE
  8
0
  6
CONTINUOUS
 62
     7
 10
-192.88467
 20
65.082596
 11
-192.88467
 21
47.582596
  0
LINE
  8
0
  6
CONTINUOUS
 62
     7
 10
-187.28467
 20
47.582588
 11
-186.78467
 21
48.082588
  0
LINE
  8
0
  6
CONTINUOUS
 62
     7
 10
-128.95229
 20
51.721275
 11
-119.10699
 21
51.721275
  0
LINE
  8
0
  6
CENTER
 62
     7
 10
-86.549583
 20
63.96151
 11
-134.60156
 21
63.96151
  0
LINE
  8
0
  6
CONTINUOUS
 62
     7
 10
-109.42964
 20
63.96151
 11
-109.42964
 21
46.96151
  0
LINE
  8
0
  6
CONTINUOUS
 62
     7
 10
-129.52965
 20
46.461514
 11
-128.9523
 21
45.461506
  0
LINE
  8
0
  6
CONTINUOUS
 62
     7
 10
-119.10699
 20
51.721275
 11
-119.10699
 21
50.089722
  0
LINE
  8
0
  6
CONTINUOUS
 62
     7
 10
-129.52965
 20
63.96151
 11
-129.52965
 21
46.46151
  0
LINE
  8
0
  6
CONTINUOUS
 62
     7
 10
-118.52965
 20
63.96151
 11
-118.52965
 21
46.46151
  0
LINE
  8
0
  6
CONTINUOUS
 62
     7
 10
-119.10699
 20
63.96151
 11
-119.10699
 21
62.807831
  0
LINE
  8
0
  6
CONTINUOUS
 62
     7
 10
-118.52965
 20
46.46151
 11
-119.10699
 21
45.46151
  0
LINE
  8
0
  6
CONTINUOUS
 62
     7
 10
-118.52965
 20
46.46151
 11
-109.92965
 21
46.46151
  0
LINE
  8
0
  6
CONTINUOUS
 62
     7
 10
-128.95229
 20
51.721275
 11
-128.95229
 21
50.089722
  0
LINE
  8
0
  6
CONTINUOUS
 62
     7
 10
-128.95229
 20
63.96151
 11
-128.95229
 21
62.807831
  0
LINE
  8
0
  6
CONTINUOUS
 62
     7
 10
-128.95229
 20
62.807831
 11
-119.10699
 21
62.807831
  0
LINE
  8
0
  6
CONTINUOUS
 62
     7
 10
-128.95229
 20
50.089722
 11
-119.10699
 21
50.089722
  0
LINE
  8
0
  6
CONTINUOUS
 62
     7
 10
-128.95229
 20
45.46151
 11
-119.10699
 21
45.46151
  0
LINE
  8
0
  6
CONTINUOUS
 62
     7
 10
-109.92965
 20
46.46151
 11
-109.42965
 21
46.96151
  0
LINE
  8
0
  6
CONTINUOUS
 62
     7
 10
-169.88467
 20
65.082596
 11
-169.88467
 21
53.082596
  0
LINE
  8
0
  6
CONTINUOUS
 62
     7
 10
-182.88467
 20
57.162285
 11
-174.88467
 21
57.162285
  0
LINE
  8
0
  6
CONTINUOUS
 62
     7
 10
-182.88467
 20
48.961273
 11
-182.88467
 21
48.082596
  0
LINE
  8
0
  6
CONTINUOUS
 62
     7
 10
-182.88466
 20
48.082596
 11
-183.38466
 21
48.582596
  0
LINE
  8
0
  6
CONTINUOUS
 62
     7
 10
-182.88467
 20
48.082596
 11
-174.88467
 21
48.082596
  0
LINE
  8
0
  6
CONTINUOUS
 62
     7
 10
-182.88467
 20
48.961273
 11
-174.88467
 21
48.961273
  0
LINE
  8
0
  6
CONTINUOUS
 62
     7
 10
-182.88467
 20
59.283607
 11
-174.88467
 21
59.283607
  0
LINE
  8
0
  6
CONTINUOUS
 62
     7
 10
-174.88467
 20
65.082596
 11
-174.88467
 21
48.082596
  0
LINE
  8
0
  6
CONTINUOUS
 62
     7
 10
-182.88467
 20
59.283607
 11
-182.88467
 21
57.162285
  0
LINE
  8
0
  6
CONTINUOUS
 62
     7
 10
-92.529648
 20
63.96151
 11
-92.529648
 21
51.96151
  0
LINE
  8
0
  6
CONTINUOUS
 62
     7
 10
-105.52965
 20
58.162521
 11
-105.52965
 21
56.041199
  0
LINE
  8
0
  6
CONTINUOUS
 62
     7
 10
-97.52964
 20
63.96151
 11
-97.52964
 21
46.96151
  0
LINE
  8
0
  6
CONTINUOUS
 62
     7
 10
-105.52965
 20
58.162521
 11
-97.52964
 21
58.162521
  0
LINE
  8
0
  6
CONTINUOUS
 62
     7
 10
-105.52965
 20
47.840187
 11
-97.52964
 21
47.840187
  0
LINE
  8
0
  6
CONTINUOUS
 62
     7
 10
-105.52964
 20
46.96151
 11
-97.52964
 21
46.96151
  0
LINE
  8
0
  6
CONTINUOUS
 62
     7
 10
-105.52964
 20
46.961502
 11
-106.02964
 21
47.461506
  0
LINE
  8
0
  6
CONTINUOUS
 62
     7
 10
-105.52965
 20
47.840187
 11
-105.52965
 21
46.96151
  0
LINE
  8
0
  6
CONTINUOUS
 62
     7
 10
-105.52965
 20
56.041199
 11
-97.52964
 21
56.041199
  0
LINE
  8
0
  6
CONTINUOUS
 62
     7
 10
-183.38467
 20
65.082596
 11
-183.38467
 21
48.582596
  0
LINE
  8
0
  6
CONTINUOUS
 62
     7
 10
-106.02964
 20
63.96151
 11
-106.02964
 21
47.46151
  0
LINE
  8
0
  6
CONTINUOUS
 62
     7
 10
-34.461021
 20
39.413815
 11
-33.883675
 21
40.413811
  0
LINE
  8
0
  6
CENTER
 62
     7
 10
-51.475868
 20
62.413811
 11
0.018543389
 21
62.413811
  0
LINE
  8
0
  6
CONTINUOUS
 62
     7
 10
-21.883667
 20
62.413811
 11
-21.883667
 21
40.913811
  0
LINE
  8
0
  6
CONTINUOUS
 62
     7
 10
-44.883678
 20
40.413811
 11
-44.306328
 21
39.413811
  0
LINE
  8
0
  6
CONTINUOUS
 62
     7
 10
-33.883675
 20
40.413811
 11
-22.383667
 21
40.413811
  0
LINE
  8
0
  6
CONTINUOUS
 62
     7
 10
-33.883675
 20
62.413811
 11
-33.883675
 21
40.413818
  0
LINE
  8
0
  6
CONTINUOUS
 62
     7
 10
-44.883675
 20
62.413811
 11
-44.883675
 21
40.413818
  0
LINE
  8
0
  6
CONTINUOUS
 62
     7
 10
-34.461021
 20
47.797203
 11
-34.461021
 21
44.655579
  0
LINE
  8
0
  6
CONTINUOUS
 62
     7
 10
-44.306328
 20
47.797203
 11
-44.306328
 21
44.655579
  0
LINE
  8
0
  6
CONTINUOUS
 62
     7
 10
-34.461021
 20
62.413811
 11
-34.461021
 21
60.192345
  0
LINE
  8
0
  6
CONTINUOUS
 62
     7
 10
-44.306328
 20
60.192345
 11
-34.461021
 21
60.192345
  0
LINE
  8
0
  6
CONTINUOUS
 62
     7
 10
-44.306328
 20
47.797203
 11
-34.461021
 21
47.797203
  0
LINE
  8
0
  6
CONTINUOUS
 62
     7
 10
-44.306328
 20
44.655579
 11
-34.461021
 21
44.655579
  0
LINE
  8
0
  6
CONTINUOUS
 62
     7
 10
-44.306328
 20
62.413811
 11
-44.306328
 21
60.192345
  0
LINE
  8
0
  6
CONTINUOUS
 62
     7
 10
-44.306328
 20
39.413811
 11
-34.461021
 21
39.413811
  0
LINE
  8
0
  6
CONTINUOUS
 62
     7
 10
-22.383667
 20
40.413811
 11
-21.883665
 21
40.913811
  0
LINE
  8
0
  6
CONTINUOUS
 62
     7
 10
-17.883667
 20
55.780563
 11
-17.883667
 21
51.901428
  0
LINE
  8
0
  6
CONTINUOUS
 62
     7
 10
-18.383671
 20
41.413815
 11
-17.883671
 21
40.913815
  0
LINE
  8
0
  6
CONTINUOUS
 62
     7
 10
-17.883667
 20
42.520599
 11
-17.883667
 21
40.913811
  0
LINE
  8
0
  6
CONTINUOUS
 62
     7
 10
-17.883667
 20
40.913811
 11
-8.8836679
 21
40.913811
  0
LINE
  8
0
  6
CONTINUOUS
 62
     7
 10
-3.8836699
 20
62.413811
 11
-3.8836699
 21
45.913811
  0
LINE
  8
0
  6
CONTINUOUS
 62
     7
 10
-8.8836679
 20
62.413811
 11
-8.8836679
 21
40.913811
  0
LINE
  8
0
  6
CONTINUOUS
 62
     7
 10
-17.883667
 20
55.780563
 11
-8.8836679
 21
55.780563
  0
LINE
  8
0
  6
CONTINUOUS
 62
     7
 10
-17.883667
 20
51.901428
 11
-8.8836679
 21
51.901428
  0
LINE
  8
0
  6
CONTINUOUS
 62
     7
 10
-17.883667
 20
42.520599
 11
-8.8836679
 21
42.520599
  0
LINE
  8
0
  6
CONTINUOUS
 62
     7
 10
-18.383667
 20
62.413811
 11
-18.383667
 21
41.413811
  0
LINE
  8
0
  6
CENTER
 62
     7
 10
-288.06894
 20
-47.026142
 11
-237.58632
 21
-47.026142
  0
LINE
  8
0
  6
CONTINUOUS
 62
     7
 10
-273.4538
 20
-73.526146
 11
-278.37643
 21
-73.526146
  0
LINE
  8
0
  6
CONTINUOUS
 62
     7
 10
-283.87643
 20
-72.526138
 11
-283.29907
 21
-73.526138
  0
LINE
  8
0
  6
CONTINUOUS
 62
     7
 10
-283.2991
 20
-73.526146
 11
-278.37643
 21
-73.526146
  0
LINE
  8
0
  6
CONTINUOUS
 62
     7
 10
-283.2991
 20
-67.8255
 11
-278.37643
 21
-67.8255
  0
LINE
  8
0
  6
CONTINUOUS
 62
     7
 10
-283.2991
 20
-63.446758
 11
-278.37643
 21
-63.446758
  0
LINE
  8
0
  6
CONTINUOUS
 62
     7
 10
-283.2991
 20
-50.122379
 11
-278.37643
 21
-50.122379
  0
LINE
  8
0
  6
CONTINUOUS
 62
     7
 10
-283.2991
 20
-47.026142
 11
-283.2991
 21
-50.122379
  0
LINE
  8
0
  6
CONTINUOUS
 62
     7
 10
-283.2991
 20
-63.446758
 11
-283.2991
 21
-67.8255
  0
LINE
  8
0
  6
CONTINUOUS
 62
     7
 10
-283.87643
 20
-47.026142
 11
-283.87643
 21
-72.526146
  0
LINE
  8
0
  6
CONTINUOUS
 62
     7
 10
-272.87643
 20
-72.526138
 11
-273.4538
 21
-73.526146
  0
LINE
  8
0
  6
CONTINUOUS
 62
     7
 10
-273.4538
 20
-67.8255
 11
-278.37643
 21
-67.8255
  0
LINE
  8
0
  6
CONTINUOUS
 62
     7
 10
-273.4538
 20
-63.446758
 11
-278.37643
 21
-63.446758
  0
LINE
  8
0
  6
CONTINUOUS
 62
     7
 10
-273.4538
 20
-50.122379
 11
-278.37643
 21
-50.122379
  0
LINE
  8
0
  6
CONTINUOUS
 62
     7
 10
-273.4538
 20
-47.026142
 11
-273.4538
 21
-50.122379
  0
LINE
  8
0
  6
CONTINUOUS
 62
     7
 10
-273.4538
 20
-63.446758
 11
-273.4538
 21
-67.8255
  0
LINE
  8
0
  6
CONTINUOUS
 62
     7
 10
-272.87643
 20
-47.026142
 11
-272.87643
 21
-72.526146
  0
LINE
  8
0
  6
CONTINUOUS
 62
     7
 10
-272.87643
 20
-72.526146
 11
-261.87643
 21
-72.526146
  0
LINE
  8
0
  6
CONTINUOUS
 62
     7
 10
-283.87643
 20
-47.473331
 11
-283.87643
 21
-47.026142
  0
LINE
  8
0
  6
CONTINUOUS
 62
     7
 10
-261.37643
 20
-72.026146
 11
-261.37643
 21
-47.026142
  0
LINE
  8
0
  6
CONTINUOUS
 62
     7
 10
-261.87643
 20
-47.026142
 11
-261.87643
 21
-72.526146
  0
LINE
  8
0
  6
CONTINUOUS
 62
     7
 10
-261.87643
 20
-72.526146
 11
-261.37643
 21
-72.026146
  0
LINE
  8
0
  6
CONTINUOUS
 62
     7
 10
-257.27643
 20
-70.504532
 11
-246.87643
 21
-70.504532
  0
LINE
  8
0
  6
CONTINUOUS
 62
     7
 10
-257.27643
 20
-71.526146
 11
-246.87643
 21
-71.526146
  0
LINE
  8
0
  6
CONTINUOUS
 62
     7
 10
-257.27643
 20
-55.729588
 11
-246.87643
 21
-55.729588
  0
LINE
  8
0
  6
CONTINUOUS
 62
     7
 10
-257.77646
 20
-71.026146
 11
-257.27646
 21
-71.526146
  0
LINE
  8
0
  6
CONTINUOUS
 62
     7
 10
-241.87643
 20
-47.026142
 11
-241.87643
 21
-66.526146
  0
LINE
  8
0
  6
CONTINUOUS
 62
     7
 10
-257.27643
 20
-55.729588
 11
-257.27643
 21
-58.195988
  0
LINE
  8
0
  6
CONTINUOUS
 62
     7
 10
-257.27643
 20
-70.504532
 11
-257.27643
 21
-71.526146
  0
LINE
  8
0
  6
CONTINUOUS
 62
     7
 10
-257.27643
 20
-58.195988
 11
-246.87643
 21
-58.195988
  0
LINE
  8
0
  6
CONTINUOUS
 62
     7
 10
-246.87643
 20
-47.026142
 11
-246.87643
 21
-71.526146
  0
LINE
  8
0
  6
CONTINUOUS
 62
     7
 10
-257.77643
 20
-47.026142
 11
-257.77643
 21
-71.026146
  0
LINE
  8
0
  6
CENTER
 62
     7
 10
-212.77818
 20
-48.147232
 11
-157.9155
 21
-48.147232
  0
LINE
  8
0
  6
CONTINUOUS
 62
     7
 10
-197.47768
 20
-74.647232
 11
-202.40031
 21
-74.647232
  0
LINE
  8
0
  6
CONTINUOUS
 62
     7
 10
-207.90031
 20
-73.647232
 11
-207.32297
 21
-74.647232
  0
LINE
  8
0
  6
CONTINUOUS
 62
     7
 10
-207.32298
 20
-74.647232
 11
-202.40031
 21
-74.647232
  0
LINE
  8
0
  6
CONTINUOUS
 62
     7
 10
-207.32298
 20
-68.946587
 11
-202.40031
 21
-68.946587
  0
LINE
  8
0
  6
CONTINUOUS
 62
     7
 10
-207.32298
 20
-64.567848
 11
-202.40031
 21
-64.567848
  0
LINE
  8
0
  6
CONTINUOUS
 62
     7
 10
-207.32298
 20
-51.243469
 11
-202.40031
 21
-51.243469
  0
LINE
  8
0
  6
CONTINUOUS
 62
     7
 10
-207.32298
 20
-48.147232
 11
-207.32298
 21
-51.243469
  0
LINE
  8
0
  6
CONTINUOUS
 62
     7
 10
-207.32298
 20
-64.567848
 11
-207.32298
 21
-68.946587
  0
LINE
  8
0
  6
CONTINUOUS
 62
     7
 10
-207.90031
 20
-48.147232
 11
-207.90031
 21
-73.647232
  0
LINE
  8
0
  6
CONTINUOUS
 62
     7
 10
-196.90031
 20
-73.647232
 11
-197.47766
 21
-74.647224
  0
LINE
  8
0
  6
CONTINUOUS
 62
     7
 10
-197.47768
 20
-68.946587
 11
-202.40031
 21
-68.946587
  0
LINE
  8
0
  6
CONTINUOUS
 62
     7
 10
-197.47768
 20
-64.567848
 11
-202.40031
 21
-64.567848
  0
LINE
  8
0
  6
CONTINUOUS
 62
     7
 10
-197.47768
 20
-51.243469
 11
-202.40031
 21
-51.243469
  0
LINE
  8
0
  6
CONTINUOUS
 62
     7
 10
-197.47768
 20
-48.147232
 11
-197.47768
 21
-51.243469
  0
LINE
  8
0
  6
CONTINUOUS
 62
     7
 10
-197.47768
 20
-64.567848
 11
-197.47768
 21
-68.946587
  0
LINE
  8
0
  6
CONTINUOUS
 62
     7
 10
-196.90033
 20
-48.147232
 11
-196.90033
 21
-73.647232
  0
LINE
  8
0
  6
CONTINUOUS
 62
     7
 10
-196.90033
 20
-73.647232
 11
-182.90033
 21
-73.647232
  0
LINE
  8
0
  6
CONTINUOUS
 62
     7
 10
-182.90033
 20
-73.147232
 11
-182.90033
 21
-48.147232
  0
LINE
  8
0
  6
CONTINUOUS
 62
     7
 10
-183.40031
 20
-73.647224
 11
-182.90031
 21
-73.147224
  0
LINE
  8
0
  6
CONTINUOUS
 62
     7
 10
-183.40033
 20
-48.147232
 11
-183.40033
 21
-73.647232
  0
LINE
  8
0
  6
CONTINUOUS
 62
     7
 10
-178.80032
 20
-71.62561
 11
-178.80032
 21
-72.647232
  0
LINE
  8
0
  6
CONTINUOUS
 62
     7
 10
-178.80032
 20
-71.62561
 11
-168.40033
 21
-71.62561
  0
LINE
  8
0
  6
CONTINUOUS
 62
     7
 10
-178.80032
 20
-56.850677
 11
-168.40033
 21
-56.850677
  0
LINE
  8
0
  6
CONTINUOUS
 62
     7
 10
-178.80032
 20
-56.850677
 11
-178.80032
 21
-59.317081
  0
LINE
  8
0
  6
CONTINUOUS
 62
     7
 10
-163.40033
 20
-48.147232
 11
-163.40033
 21
-67.647232
  0
LINE
  8
0
  6
CONTINUOUS
 62
     7
 10
-179.30031
 20
-72.147232
 11
-178.80031
 21
-72.647232
  0
LINE
  8
0
  6
CONTINUOUS
 62
     7
 10
-178.80032
 20
-72.647232
 11
-168.40033
 21
-72.647232
  0
LINE
  8
0
  6
CONTINUOUS
 62
     7
 10
-168.40033
 20
-48.147232
 11
-168.40033
 21
-72.647232
  0
LINE
  8
0
  6
CONTINUOUS
 62
     7
 10
-178.80032
 20
-59.317081
 11
-168.40033
 21
-59.317081
  0
LINE
  8
0
  6
CONTINUOUS
 62
     7
 10
-179.30032
 20
-48.147232
 11
-179.30032
 21
-72.147232
  0
LINE
  8
0
  6
CONTINUOUS
 62
     7
 10
-17.660765
 20
-74.369934
 11
-17.660765
 21
-78.225677
  0
LINE
  8
0
  6
CONTINUOUS
 62
     7
 10
-6.9701676
 20
-74.369934
 11
-6.9701676
 21
-78.225677
  0
LINE
  8
0
  6
CONTINUOUS
 62
     7
 10
-12.315467
 20
-74.369934
 11
-6.9701676
 21
-74.369934
  0
LINE
  8
0
  6
CONTINUOUS
 62
     7
 10
-12.315467
 20
-56.479088
 11
-6.9701676
 21
-56.479088
  0
LINE
  8
0
  6
CONTINUOUS
 62
     7
 10
-12.315467
 20
-78.225677
 11
-6.9701676
 21
-78.225677
  0
LINE
  8
0
  6
CONTINUOUS
 62
     7
 10
7.6845336
 20
-83.25267
 11
7.6845336
 21
-53.752666
  0
LINE
  8
0
  6
CONTINUOUS
 62
     7
 10
-6.9701695
 20
-85.75267
 11
-5.8154683
 21
-83.75267
  0
LINE
  8
0
  6
CONTINUOUS
 62
     7
 10
-5.8154664
 20
-83.75267
 11
-5.8154664
 21
-53.752666
  0
LINE
  8
0
  6
CONTINUOUS
 62
     7
 10
-12.315467
 20
-56.479088
 11
-17.660765
 21
-56.479088
  0
LINE
  8
0
  6
CENTER
 62
     7
 10
-24.90238
 20
-53.752666
 11
36.207706
 21
-53.752666
  0
LINE
  8
0
  6
CONTINUOUS
 62
     7
 10
-12.315467
 20
-74.369934
 11
-17.660765
 21
-74.369934
  0
LINE
  8
0
  6
CONTINUOUS
 62
     7
 10
-17.66077
 20
-85.752663
 11
-18.815468
 21
-83.75267
  0
LINE
  8
0
  6
CONTINUOUS
 62
     7
 10
-18.815466
 20
-83.75267
 11
-18.815466
 21
-53.752666
  0
LINE
  8
0
  6
CONTINUOUS
 62
     7
 10
-12.315467
 20
-78.225677
 11
-17.660765
 21
-78.225677
  0
LINE
  8
0
  6
CONTINUOUS
 62
     7
 10
-17.660765
 20
-53.752666
 11
-17.660765
 21
-56.479088
  0
LINE
  8
0
  6
CONTINUOUS
 62
     7
 10
-12.315467
 20
-85.75267
 11
-17.660765
 21
-85.75267
  0
LINE
  8
0
  6
CONTINUOUS
 62
     7
 10
-5.8154664
 20
-83.75267
 11
7.1845336
 21
-83.75267
  0
LINE
  8
0
  6
CONTINUOUS
 62
     7
 10
-12.315467
 20
-85.75267
 11
-6.9701676
 21
-85.75267
  0
LINE
  8
0
  6
CONTINUOUS
 62
     7
 10
-6.9701676
 20
-53.752666
 11
-6.9701676
 21
-56.479088
  0
LINE
  8
0
  6
CONTINUOUS
 62
     7
 10
7.1845322
 20
-83.752663
 11
7.6845326
 21
-83.252663
  0
LINE
  8
0
  6
CONTINUOUS
 62
     7
 10
7.1845336
 20
-53.752666
 11
7.1845336
 21
-83.75267
  0
LINE
  8
0
  6
CONTINUOUS
 62
     7
 10
23.184534
 20
-53.752666
 11
23.184534
 21
-83.252663
  0
LINE
  8
0
  6
CONTINUOUS
 62
     7
 10
29.184534
 20
-53.752666
 11
29.184534
 21
-77.25267
  0
LINE
  8
0
  6
CONTINUOUS
 62
     7
 10
11.284532
 20
-82.75267
 11
11.784533
 21
-83.25267
  0
LINE
  8
0
  6
CONTINUOUS
 62
     7
 10
11.784532
 20
-83.252663
 11
23.184534
 21
-83.252663
  0
LINE
  8
0
  6
CONTINUOUS
 62
     7
 10
11.784532
 20
-67.876221
 11
23.184534
 21
-67.876221
  0
LINE
  8
0
  6
CONTINUOUS
 62
     7
 10
11.784532
 20
-81.348412
 11
23.184534
 21
-81.348412
  0
LINE
  8
0
  6
CONTINUOUS
 62
     7
 10
11.784532
 20
-63.278946
 11
23.184534
 21
-63.278946
  0
LINE
  8
0
  6
CONTINUOUS
 62
     7
 10
11.784532
 20
-63.278946
 11
11.784532
 21
-67.876221
  0
LINE
  8
0
  6
CONTINUOUS
 62
     7
 10
11.784532
 20
-81.348412
 11
11.784532
 21
-83.252663
  0
LINE
  8
0
  6
CONTINUOUS
 62
     7
 10
11.284532
 20
-53.752666
 11
11.284532
 21
-82.75267
  0
LINE
  8
0
  6
CONTINUOUS
 62
     7
 10
-124.19536
 20
-71.006676
 11
-124.19536
 21
-74.862411
  0
LINE
  8
0
  6
CONTINUOUS
 62
     7
 10
-113.50476
 20
-71.006676
 11
-113.50476
 21
-74.862411
  0
LINE
  8
0
  6
CONTINUOUS
 62
     7
 10
-118.85007
 20
-71.006676
 11
-113.50476
 21
-71.006676
  0
LINE
  8
0
  6
CONTINUOUS
 62
     7
 10
-118.85007
 20
-53.115826
 11
-113.50476
 21
-53.115826
  0
LINE
  8
0
  6
CONTINUOUS
 62
     7
 10
-118.85007
 20
-74.862411
 11
-113.50476
 21
-74.862411
  0
LINE
  8
0
  6
CONTINUOUS
 62
     7
 10
-98.850067
 20
-79.889404
 11
-98.850067
 21
-50.389404
  0
LINE
  8
0
  6
CONTINUOUS
 62
     7
 10
-113.50476
 20
-82.389404
 11
-112.35006
 21
-80.389412
  0
LINE
  8
0
  6
CONTINUOUS
 62
     7
 10
-112.35007
 20
-80.389404
 11
-112.35007
 21
-50.389404
  0
LINE
  8
0
  6
CONTINUOUS
 62
     7
 10
-118.85007
 20
-53.115826
 11
-124.19536
 21
-53.115826
  0
LINE
  8
0
  6
CENTER
 62
     7
 10
-128.21683
 20
-50.389404
 11
-69.799004
 21
-50.389404
  0
LINE
  8
0
  6
CONTINUOUS
 62
     7
 10
-118.85007
 20
-71.006676
 11
-124.19536
 21
-71.006676
  0
LINE
  8
0
  6
CONTINUOUS
 62
     7
 10
-124.19536
 20
-82.389404
 11
-125.35006
 21
-80.389404
  0
LINE
  8
0
  6
CONTINUOUS
 62
     7
 10
-125.35007
 20
-80.389404
 11
-125.35007
 21
-50.389404
  0
LINE
  8
0
  6
CONTINUOUS
 62
     7
 10
-118.85007
 20
-74.862411
 11
-124.19536
 21
-74.862411
  0
LINE
  8
0
  6
CONTINUOUS
 62
     7
 10
-124.19536
 20
-50.389404
 11
-124.19536
 21
-53.115826
  0
LINE
  8
0
  6
CONTINUOUS
 62
     7
 10
-118.85007
 20
-82.389404
 11
-124.19536
 21
-82.389404
  0
LINE
  8
0
  6
CONTINUOUS
 62
     7
 10
-112.35007
 20
-80.389404
 11
-99.350067
 21
-80.389404
  0
LINE
  8
0
  6
CONTINUOUS
 62
     7
 10
-118.85007
 20
-82.389404
 11
-113.50476
 21
-82.389404
  0
LINE
  8
0
  6
CONTINUOUS
 62
     7
 10
-113.50476
 20
-50.389404
 11
-113.50476
 21
-53.115826
  0
LINE
  8
0
  6
CONTINUOUS
 62
     7
 10
-99.350067
 20
-50.389404
 11
-99.350067
 21
-80.389404
  0
LINE
  8
0
  6
CONTINUOUS
 62
     7
 10
-99.350067
 20
-80.389412
 11
-98.850067
 21
-79.889412
  0
LINE
  8
0
  6
CONTINUOUS
 62
     7
 10
-94.750061
 20
-59.915684
 11
-83.350067
 21
-59.915684
  0
LINE
  8
0
  6
CONTINUOUS
 62
     7
 10
-83.350067
 20
-50.389404
 11
-83.350067
 21
-79.889404
  0
LINE
  8
0
  6
CONTINUOUS
 62
     7
 10
-95.250061
 20
-79.389412
 11
-94.750061
 21
-79.889412
  0
LINE
  8
0
  6
CONTINUOUS
 62
     7
 10
-94.750061
 20
-77.985153
 11
-83.350067
 21
-77.985153
  0
LINE
  8
0
  6
CONTINUOUS
 62
     7
 10
-94.750061
 20
-64.512962
 11
-83.350067
 21
-64.512962
  0
LINE
  8
0
  6
CONTINUOUS
 62
     7
 10
-94.750061
 20
-79.889404
 11
-83.350067
 21
-79.889404
  0
LINE
  8
0
  6
CONTINUOUS
 62
     7
 10
-77.350067
 20
-50.389404
 11
-77.350067
 21
-73.889404
  0
LINE
  8
0
  6
CONTINUOUS
 62
     7
 10
-94.750061
 20
-59.915684
 11
-94.750061
 21
-64.512962
  0
LINE
  8
0
  6
CONTINUOUS
 62
     7
 10
-94.750061
 20
-77.985153
 11
-94.750061
 21
-79.889404
  0
LINE
  8
0
  6
CONTINUOUS
 62
     7
 10
-95.250061
 20
-50.389404
 11
-95.250061
 21
-79.389404
  0
LINE
  8
0
  6
CONTINUOUS
 62
     7
 10
-252.54448
 20
-285.18515
 11
-252.54448
 21
-252.18513
  0
LINE
  8
0
  6
CENTER
 62
     7
 10
-281.68185
 20
-252.18513
 11
-216.58406
 21
-252.18513
  0
LINE
  8
0
  6
CONTINUOUS
 62
     7
 10
-264.04449
 20
-285.68515
 11
-264.04449
 21
-252.18513
  0
LINE
  8
0
  6
CONTINUOUS
 62
     7
 10
-271.54449
 20
-255.76329
 11
-265.19919
 21
-255.76329
  0
LINE
  8
0
  6
CONTINUOUS
 62
     7
 10
-265.19919
 20
-274.62946
 11
-265.19919
 21
-279.68973
  0
LINE
  8
0
  6
CONTINUOUS
 62
     7
 10
-271.54449
 20
-287.68515
 11
-265.19919
 21
-287.68515
  0
LINE
  8
0
  6
CONTINUOUS
 62
     7
 10
-265.19919
 20
-252.18513
 11
-265.19919
 21
-255.76329
  0
LINE
  8
0
  6
CONTINUOUS
 62
     7
 10
-271.54449
 20
-274.62946
 11
-265.19919
 21
-274.62946
  0
LINE
  8
0
  6
CONTINUOUS
 62
     7
 10
-265.19916
 20
-287.68512
 11
-264.04446
 21
-285.68515
  0
LINE
  8
0
  6
CONTINUOUS
 62
     7
 10
-279.04449
 20
-285.68515
 11
-279.04449
 21
-252.18513
  0
LINE
  8
0
  6
CONTINUOUS
 62
     7
 10
-271.54449
 20
-287.68515
 11
-277.88977
 21
-287.68515
  0
LINE
  8
0
  6
CONTINUOUS
 62
     7
 10
-277.88977
 20
-252.18513
 11
-277.88977
 21
-255.76329
  0
LINE
  8
0
  6
CONTINUOUS
 62
     7
 10
-277.88977
 20
-274.62946
 11
-277.88977
 21
-279.68973
  0
LINE
  8
0
  6
CONTINUOUS
 62
     7
 10
-271.54449
 20
-279.68973
 11
-277.88977
 21
-279.68973
  0
LINE
  8
0
  6
CONTINUOUS
 62
     7
 10
-277.88977
 20
-287.68512
 11
-279.04446
 21
-285.68512
  0
LINE
  8
0
  6
CONTINUOUS
 62
     7
 10
-271.54449
 20
-274.62946
 11
-277.88977
 21
-274.62946
  0
LINE
  8
0
  6
CONTINUOUS
 62
     7
 10
-271.54449
 20
-255.76329
 11
-277.88977
 21
-255.76329
  0
LINE
  8
0
  6
CONTINUOUS
 62
     7
 10
-271.54449
 20
-279.68973
 11
-265.19919
 21
-279.68973
  0
LINE
  8
0
  6
CONTINUOUS
 62
     7
 10
-264.04449
 20
-285.68515
 11
-253.04448
 21
-285.68515
  0
LINE
  8
0
  6
CONTINUOUS
 62
     7
 10
-253.04448
 20
-252.18513
 11
-253.04448
 21
-285.68515
  0
LINE
  8
0
  6
CONTINUOUS
 62
     7
 10
-253.04448
 20
-285.68512
 11
-252.54449
 21
-285.18515
  0
LINE
  8
0
  6
CONTINUOUS
 62
     7
 10
-248.04448
 20
-286.18515
 11
-248.54448
 21
-285.68515
  0
LINE
  8
0
  6
CONTINUOUS
 62
     7
 10
-248.04448
 20
-283.44653
 11
-248.04448
 21
-286.18515
  0
LINE
  8
0
  6
CONTINUOUS
 62
     7
 10
-248.04448
 20
-286.18515
 11
-236.54448
 21
-286.18515
  0
LINE
  8
0
  6
CONTINUOUS
 62
     7
 10
-248.04448
 20
-283.44653
 11
-236.54448
 21
-283.44653
  0
LINE
  8
0
  6
CONTINUOUS
 62
     7
 10
-228.54448
 20
-252.18513
 11
-228.54448
 21
-278.18515
  0
LINE
  8
0
  6
CONTINUOUS
 62
     7
 10
-248.04448
 20
-262.39542
 11
-248.04448
 21
-269.00699
  0
LINE
  8
0
  6
CONTINUOUS
 62
     7
 10
-248.04448
 20
-269.00699
 11
-236.54448
 21
-269.00699
  0
LINE
  8
0
  6
CONTINUOUS
 62
     7
 10
-236.54448
 20
-252.18513
 11
-236.54448
 21
-286.18515
  0
LINE
  8
0
  6
CONTINUOUS
 62
     7
 10
-248.04448
 20
-262.39542
 11
-236.54448
 21
-262.39542
  0
LINE
  8
0
  6
CONTINUOUS
 62
     7
 10
-248.54448
 20
-252.18513
 11
-248.54448
 21
-285.68515
  0
LINE
  8
0
  6
CONTINUOUS
 62
     7
 10
-172.52553
 20
-287.68515
 11
-178.87083
 21
-287.68515
  0
LINE
  8
0
  6
CONTINUOUS
 62
     7
 10
-178.87082
 20
-287.68512
 11
-180.02551
 21
-285.68515
  0
LINE
  8
0
  6
CONTINUOUS
 62
     7
 10
-172.52553
 20
-255.76329
 11
-178.87083
 21
-255.76329
  0
LINE
  8
0
  6
CONTINUOUS
 62
     7
 10
-172.52553
 20
-279.68973
 11
-178.87083
 21
-279.68973
  0
LINE
  8
0
  6
CONTINUOUS
 62
     7
 10
-178.87083
 20
-274.62946
 11
-178.87083
 21
-279.68973
  0
LINE
  8
0
  6
CONTINUOUS
 62
     7
 10
-172.52553
 20
-274.62946
 11
-178.87083
 21
-274.62946
  0
LINE
  8
0
  6
CONTINUOUS
 62
     7
 10
-148.52553
 20
-285.18515
 11
-148.52553
 21
-252.18513
  0
LINE
  8
0
  6
CONTINUOUS
 62
     7
 10
-165.02553
 20
-285.68515
 11
-149.02553
 21
-285.68515
  0
LINE
  8
0
  6
CONTINUOUS
 62
     7
 10
-180.02553
 20
-285.68515
 11
-180.02553
 21
-252.18513
  0
LINE
  8
0
  6
CONTINUOUS
 62
     7
 10
-178.87083
 20
-252.18513
 11
-178.87083
 21
-255.76329
  0
LINE
  8
0
  6
CENTER
 62
     7
 10
-131.55553
 20
-252.18513
 11
-182.79552
 21
-252.18513
  0
LINE
  8
0
  6
CONTINUOUS
 62
     7
 10
-165.02553
 20
-285.68515
 11
-165.02553
 21
-252.18513
  0
LINE
  8
0
  6
CONTINUOUS
 62
     7
 10
-172.52553
 20
-255.76329
 11
-166.18022
 21
-255.76329
  0
LINE
  8
0
  6
CONTINUOUS
 62
     7
 10
-166.18024
 20
-287.68515
 11
-165.02553
 21
-285.68512
  0
LINE
  8
0
  6
CONTINUOUS
 62
     7
 10
-172.52553
 20
-287.68515
 11
-166.18022
 21
-287.68515
  0
LINE
  8
0
  6
CONTINUOUS
 62
     7
 10
-172.52553
 20
-279.68973
 11
-166.18022
 21
-279.68973
  0
LINE
  8
0
  6
CONTINUOUS
 62
     7
 10
-166.18022
 20
-274.62946
 11
-166.18022
 21
-279.68973
  0
LINE
  8
0
  6
CONTINUOUS
 62
     7
 10
-172.52553
 20
-274.62946
 11
-166.18022
 21
-274.62946
  0
LINE
  8
0
  6
CONTINUOUS
 62
     7
 10
-166.18022
 20
-252.18513
 11
-166.18022
 21
-255.76329
  0
LINE
  8
0
  6
CONTINUOUS
 62
     7
 10
-149.02553
 20
-252.18513
 11
-149.02553
 21
-285.68515
  0
LINE
  8
0
  6
CONTINUOUS
 62
     7
 10
-149.02551
 20
-285.68512
 11
-148.52553
 21
-285.18512
  0
LINE
  8
0
  6
CONTINUOUS
 62
     7
 10
-144.02553
 20
-286.18512
 11
-144.52551
 21
-285.68512
  0
LINE
  8
0
  6
CONTINUOUS
 62
     7
 10
-144.02553
 20
-283.44653
 11
-144.02553
 21
-286.18512
  0
LINE
  8
0
  6
CONTINUOUS
 62
     7
 10
-144.02553
 20
-286.18512
 11
-132.52553
 21
-286.18512
  0
LINE
  8
0
  6
CONTINUOUS
 62
     7
 10
-144.02553
 20
-283.44653
 11
-132.52553
 21
-283.44653
  0
LINE
  8
0
  6
CONTINUOUS
 62
     7
 10
-124.52553
 20
-252.18513
 11
-124.52553
 21
-278.18512
  0
LINE
  8
0
  6
CONTINUOUS
 62
     7
 10
-144.02553
 20
-262.39542
 11
-144.02553
 21
-269.00699
  0
LINE
  8
0
  6
CENTER
 62
     7
 10
-148.84258
 20
-252.18513
 11
-118.84259
 21
-252.18513
  0
LINE
  8
0
  6
CONTINUOUS
 62
     7
 10
-144.02553
 20
-269.00699
 11
-132.52553
 21
-269.00699
  0
LINE
  8
0
  6
CONTINUOUS
 62
     7
 10
-132.52553
 20
-252.18513
 11
-132.52553
 21
-286.18512
  0
LINE
  8
0
  6
CONTINUOUS
 62
     7
 10
-144.02553
 20
-262.39542
 11
-132.52553
 21
-262.39542
  0
LINE
  8
0
  6
CONTINUOUS
 62
     7
 10
-144.52553
 20
-252.18513
 11
-144.52553
 21
-285.68512
  0
LINE
  8
0
  6
CONTINUOUS
 62
     7
 10
-64.298019
 20
-283.98297
 11
-76.988602
 21
-283.98297
  0
LINE
  8
0
  6
CENTER
 62
     7
 10
-10.723149
 20
-251.06404
 11
-79.913315
 21
-251.06404
  0
LINE
  8
0
  6
CONTINUOUS
 62
     7
 10
-44.143311
 20
-251.06404
 11
-44.143311
 21
-291.56403
  0
LINE
  8
0
  6
CONTINUOUS
 62
     7
 10
-64.298019
 20
-251.06404
 11
-64.298019
 21
-254.77922
  0
LINE
  8
0
  6
CONTINUOUS
 62
     7
 10
-63.143311
 20
-292.06403
 11
-63.143311
 21
-251.06404
  0
LINE
  8
0
  6
CONTINUOUS
 62
     7
 10
-64.298019
 20
-294.06406
 11
-76.988602
 21
-294.06406
  0
LINE
  8
0
  6
CONTINUOUS
 62
     7
 10
-64.298027
 20
-294.06406
 11
-63.143314
 21
-292.06403
  0
LINE
  8
0
  6
CONTINUOUS
 62
     7
 10
-63.143311
 20
-292.06403
 11
-44.643311
 21
-292.06403
  0
LINE
  8
0
  6
CONTINUOUS
 62
     7
 10
-76.988602
 20
-251.06404
 11
-76.988602
 21
-254.77922
  0
LINE
  8
0
  6
CONTINUOUS
 62
     7
 10
-78.143311
 20
-292.06406
 11
-78.143311
 21
-251.06404
  0
LINE
  8
0
  6
CONTINUOUS
 62
     7
 10
-64.298019
 20
-278.72891
 11
-64.298019
 21
-283.98297
  0
LINE
  8
0
  6
CONTINUOUS
 62
     7
 10
-76.988602
 20
-294.06406
 11
-78.143311
 21
-292.06403
  0
LINE
  8
0
  6
CONTINUOUS
 62
     7
 10
-64.298019
 20
-278.72891
 11
-76.988602
 21
-278.72891
  0
LINE
  8
0
  6
CONTINUOUS
 62
     7
 10
-64.298019
 20
-254.77922
 11
-76.988602
 21
-254.77922
  0
LINE
  8
0
  6
CONTINUOUS
 62
     7
 10
-76.988602
 20
-278.72891
 11
-76.988602
 21
-283.98297
  0
LINE
  8
0
  6
CONTINUOUS
 62
     7
 10
-44.643311
 20
-292.06403
 11
-44.143311
 21
-291.56403
  0
LINE
  8
0
  6
CONTINUOUS
 62
     7
 10
-44.643311
 20
-251.06404
 11
-44.643311
 21
-292.06403
  0
LINE
  8
0
  6
CONTINUOUS
 62
     7
 10
-275.99725
 20
-379.98911
 11
-275.99725
 21
-383.70428
  0
LINE
  8
0
  6
CONTINUOUS
 62
     7
 10
-275.99725
 20
-407.65396
 11
-275.99725
 21
-412.90802
  0
LINE
  8
0
  6
CONTINUOUS
 62
     7
 10
-275.99728
 20
-422.98911
 11
-277.15198
 21
-420.98911
  0
LINE
  8
0
  6
CONTINUOUS
 62
     7
 10
-258.30667
 20
-422.98907
 11
-257.15198
 21
-420.98911
  0
LINE
  8
0
  6
CONTINUOUS
 62
     7
 10
-258.30667
 20
-407.65396
 11
-258.30667
 21
-412.90802
  0
LINE
  8
0
  6
CONTINUOUS
 62
     7
 10
-258.30667
 20
-407.65396
 11
-275.99725
 21
-407.65396
  0
LINE
  8
0
  6
CONTINUOUS
 62
     7
 10
-258.30667
 20
-379.98911
 11
-258.30667
 21
-383.70428
  0
LINE
  8
0
  6
CONTINUOUS
 62
     7
 10
-258.30667
 20
-383.70428
 11
-275.99725
 21
-383.70428
  0
LINE
  8
0
  6
CONTINUOUS
 62
     7
 10
-258.30667
 20
-412.90802
 11
-275.99725
 21
-412.90802
  0
LINE
  8
0
  6
CONTINUOUS
 62
     7
 10
-258.30667
 20
-422.98911
 11
-275.99725
 21
-422.98911
  0
LINE
  8
0
  6
CONTINUOUS
 62
     7
 10
-238.65198
 20
-379.98911
 11
-238.65198
 21
-420.48911
  0
LINE
  8
0
  6
CONTINUOUS
 62
     7
 10
-277.15198
 20
-379.98911
 11
-277.15198
 21
-420.98911
  0
LINE
  8
0
  6
CENTER
 62
     7
 10
-205.38069
 20
-379.98911
 11
-280.13538
 21
-379.98911
  0
LINE
  8
0
  6
CONTINUOUS
 62
     7
 10
-257.15198
 20
-379.98911
 11
-257.15198
 21
-420.98911
  0
LINE
  8
0
  6
CONTINUOUS
 62
     7
 10
-257.15198
 20
-420.98911
 11
-239.15198
 21
-420.98911
  0
LINE
  8
0
  6
CONTINUOUS
 62
     7
 10
-238.65199
 20
-420.48911
 11
-239.15198
 21
-420.98911
  0
LINE
  8
0
  6
CONTINUOUS
 62
     7
 10
-239.15198
 20
-379.98911
 11
-239.15198
 21
-420.98911
  0
LINE
  8
0
  6
CONTINUOUS
 62
     7
 10
-40.143311
 20
-292.06406
 11
-25.143312
 21
-292.06406
  0
LINE
  8
0
  6
CONTINUOUS
 62
     7
 10
-40.143311
 20
-292.06406
 11
-40.643311
 21
-291.56406
  0
LINE
  8
0
  6
CONTINUOUS
 62
     7
 10
-40.143311
 20
-289.22058
 11
-40.143311
 21
-292.06406
  0
LINE
  8
0
  6
CONTINUOUS
 62
     7
 10
-17.14332
 20
-251.06404
 11
-17.14332
 21
-284.06406
  0
LINE
  8
0
  6
CONTINUOUS
 62
     7
 10
-40.143311
 20
-289.22058
 11
-25.143312
 21
-289.22058
  0
LINE
  8
0
  6
CONTINUOUS
 62
     7
 10
-40.143311
 20
-264.02551
 11
-25.143312
 21
-264.02551
  0
LINE
  8
0
  6
CONTINUOUS
 62
     7
 10
-25.143312
 20
-251.06404
 11
-25.143312
 21
-292.06406
  0
LINE
  8
0
  6
CONTINUOUS
 62
     7
 10
-40.143311
 20
-270.89026
 11
-25.143312
 21
-270.89026
  0
LINE
  8
0
  6
CONTINUOUS
 62
     7
 10
-40.143311
 20
-264.02551
 11
-40.143311
 21
-270.89026
  0
LINE
  8
0
  6
CONTINUOUS
 62
     7
 10
-234.65198
 20
-420.98911
 11
-235.15198
 21
-420.48911
  0
LINE
  8
0
  6
CONTINUOUS
 62
     7
 10
-234.65198
 20
-418.14563
 11
-234.65198
 21
-420.98911
  0
LINE
  8
0
  6
CONTINUOUS
 62
     7
 10
-211.65198
 20
-379.98911
 11
-211.65198
 21
-412.98911
  0
LINE
  8
0
  6
CONTINUOUS
 62
     7
 10
-234.65198
 20
-420.98911
 11
-219.65198
 21
-420.98911
  0
LINE
  8
0
  6
CONTINUOUS
 62
     7
 10
-234.65198
 20
-392.95059
 11
-219.65198
 21
-392.95059
  0
LINE
  8
0
  6
CONTINUOUS
 62
     7
 10
-234.65198
 20
-418.14563
 11
-219.65198
 21
-418.14563
  0
LINE
  8
0
  6
CONTINUOUS
 62
     7
 10
-234.65198
 20
-399.81534
 11
-219.65198
 21
-399.81534
  0
LINE
  8
0
  6
CONTINUOUS
 62
     7
 10
-234.65198
 20
-392.95059
 11
-234.65198
 21
-399.81534
  0
LINE
  8
0
  6
CONTINUOUS
 62
     7
 10
-219.65198
 20
-379.98911
 11
-219.65198
 21
-420.98911
  0
LINE
  8
0
  6
CONTINUOUS
 62
     7
 10
-40.643311
 20
-251.06404
 11
-40.643311
 21
-291.56406
  0
LINE
  8
0
  6
CONTINUOUS
 62
     7
 10
-235.15198
 20
-379.98911
 11
-235.15198
 21
-420.48911
  0
LINE
  8
0
  6
CONTINUOUS
 62
     7
 10
-148.52553
 20
-284.80667
 11
-144.52553
 21
-284.80667
  0
LINE
  8
0
  6
CONTINUOUS
 62
     7
 10
-44.143311
 20
-291.32504
 11
-40.643311
 21
-291.32504
  0
LINE
  8
0
  6
CONTINUOUS
 62
     7
 10
-238.65198
 20
-420.09662
 11
-235.15198
 21
-420.09662
  0
LINE
  8
0
  6
CONTINUOUS
 62
     7
 10
-252.54448
 20
-284.73276
 11
-248.54448
 21
-284.73276
  0
LINE
  8
0
  6
CONTINUOUS
 62
     7
 10
7.6845336
 20
-82.310501
 11
11.284532
 21
-82.310501
  0
LINE
  8
0
  6
CONTINUOUS
 62
     7
 10
-98.850067
 20
-79.254143
 11
-95.250061
 21
-79.254143
  0
LINE
  8
0
  6
CONTINUOUS
 62
     7
 10
-182.90033
 20
-71.641106
 11
-179.30032
 21
-71.641106
  0
LINE
  8
0
  6
CONTINUOUS
 62
     7
 10
-256.72406
 20
51.279312
 11
-253.32405
 21
51.279312
  0
LINE
  8
0
  6
CONTINUOUS
 62
     7
 10
-186.78467
 20
48.977516
 11
-183.38467
 21
48.977516
  0
LINE
  8
0
  6
CONTINUOUS
 62
     7
 10
-109.42964
 20
47.85643
 11
-106.02964
 21
47.85643
  0
LINE
  8
0
  6
CONTINUOUS
 62
     7
 10
-21.883667
 20
42.012047
 11
-18.383667
 21
42.012047
  0
LINE
  8
0
  6
CONTINUOUS
 62
     7
 10
-261.37643
 20
-70.650429
 11
-257.77643
 21
-70.650429
  0
LINE
  8
0
  6
CONTINUOUS
 62
     7
 10
-264.4014
 20
75.966789
 11
-264.4014
 21
76.810097
  0
LINE
  8
0
  6
CONTINUOUS
 62
     7
 10
-274.2467
 20
75.966789
 11
-274.2467
 21
76.810097
  0
LINE
  8
0
  6
CONTINUOUS
 62
     7
 10
-264.4014
 20
65.082596
 11
-264.4014
 21
65.678902
  0
LINE
  8
0
  6
CONTINUOUS
 62
     7
 10
-274.2467
 20
65.082596
 11
-274.2467
 21
65.678902
  0
LINE
  8
0
  6
CONTINUOUS
 62
     7
 10
-274.2467
 20
65.678902
 11
-264.4014
 21
65.678902
  0
LINE
  8
0
  6
CONTINUOUS
 62
     7
 10
-256.72406
 20
65.082596
 11
-256.72406
 21
79.582603
  0
LINE
  8
0
  6
CONTINUOUS
 62
     7
 10
-274.82407
 20
65.082596
 11
-274.82407
 21
80.082596
  0
LINE
  8
0
  6
CONTINUOUS
 62
     7
 10
-263.82407
 20
65.082596
 11
-263.82407
 21
80.082596
  0
LINE
  8
0
  6
CONTINUOUS
 62
     7
 10
-264.4014
 20
81.082596
 11
-263.82404
 21
80.082603
  0
LINE
  8
0
  6
CONTINUOUS
 62
     7
 10
-274.82407
 20
80.082603
 11
-274.2467
 21
81.082611
  0
LINE
  8
0
  6
CONTINUOUS
 62
     7
 10
-263.82407
 20
80.082603
 11
-257.22406
 21
80.082603
  0
LINE
  8
0
  6
CONTINUOUS
 62
     7
 10
-274.2467
 20
76.810097
 11
-264.4014
 21
76.810097
  0
LINE
  8
0
  6
CONTINUOUS
 62
     7
 10
-274.2467
 20
81.082596
 11
-264.4014
 21
81.082596
  0
LINE
  8
0
  6
CONTINUOUS
 62
     7
 10
-274.2467
 20
75.966789
 11
-264.4014
 21
75.966789
  0
LINE
  8
0
  6
CONTINUOUS
 62
     7
 10
-256.72406
 20
79.582603
 11
-257.22406
 21
80.082603
  0
LINE
  8
0
  6
CONTINUOUS
 62
     7
 10
-241.82405
 20
65.082596
 11
-241.82405
 21
75.582596
  0
LINE
  8
0
  6
CONTINUOUS
 62
     7
 10
-252.82405
 20
78.703918
 11
-252.82405
 21
79.582596
  0
LINE
  8
0
  6
CONTINUOUS
 62
     7
 10
-252.82405
 20
79.582596
 11
-245.82405
 21
79.582596
  0
LINE
  8
0
  6
CONTINUOUS
 62
     7
 10
-253.32407
 20
79.082596
 11
-252.82407
 21
79.582596
  0
LINE
  8
0
  6
CONTINUOUS
 62
     7
 10
-252.82405
 20
69.846054
 11
-252.82405
 21
71.967941
  0
LINE
  8
0
  6
CONTINUOUS
 62
     7
 10
-252.82405
 20
78.703918
 11
-245.82405
 21
78.703918
  0
LINE
  8
0
  6
CONTINUOUS
 62
     7
 10
-252.82405
 20
69.846054
 11
-245.82405
 21
69.846054
  0
LINE
  8
0
  6
CONTINUOUS
 62
     7
 10
-252.82405
 20
71.967941
 11
-245.82405
 21
71.967941
  0
LINE
  8
0
  6
CONTINUOUS
 62
     7
 10
-245.82405
 20
65.082596
 11
-245.82405
 21
79.582596
  0
LINE
  8
0
  6
CONTINUOUS
 62
     7
 10
-253.32405
 20
65.082596
 11
-253.32405
 21
79.082596
  0
LINE
  8
0
  6
CONTINUOUS
 62
     7
 10
-256.72406
 20
78.88588
 11
-253.32405
 21
78.88588
  0
LINE
  8
0
  6
CONTINUOUS
 62
     7
 10
-193.46202
 20
77.32283
 11
-193.46202
 21
78.954384
  0
LINE
  8
0
  6
CONTINUOUS
 62
     7
 10
-203.30731
 20
83.582596
 11
-193.46202
 21
83.582596
  0
LINE
  8
0
  6
CONTINUOUS
 62
     7
 10
-186.78467
 20
65.082596
 11
-186.78467
 21
82.082596
  0
LINE
  8
0
  6
CONTINUOUS
 62
     7
 10
-203.88467
 20
82.582588
 11
-203.30731
 21
83.582596
  0
LINE
  8
0
  6
CONTINUOUS
 62
     7
 10
-203.30731
 20
78.954384
 11
-193.46202
 21
78.954384
  0
LINE
  8
0
  6
CONTINUOUS
 62
     7
 10
-203.88467
 20
65.082596
 11
-203.88467
 21
82.582596
  0
LINE
  8
0
  6
CONTINUOUS
 62
     7
 10
-192.88467
 20
65.082596
 11
-192.88467
 21
82.582596
  0
LINE
  8
0
  6
CONTINUOUS
 62
     7
 10
-192.88467
 20
82.582596
 11
-193.46202
 21
83.582588
  0
LINE
  8
0
  6
CONTINUOUS
 62
     7
 10
-192.88467
 20
82.582596
 11
-187.28467
 21
82.582596
  0
LINE
  8
0
  6
CONTINUOUS
 62
     7
 10
-203.30731
 20
77.32283
 11
-193.46202
 21
77.32283
  0
LINE
  8
0
  6
CONTINUOUS
 62
     7
 10
-203.30731
 20
77.32283
 11
-203.30731
 21
78.954384
  0
LINE
  8
0
  6
CONTINUOUS
 62
     7
 10
-193.46202
 20
65.082596
 11
-193.46202
 21
66.236275
  0
LINE
  8
0
  6
CONTINUOUS
 62
     7
 10
-203.30731
 20
66.236275
 11
-193.46202
 21
66.236275
  0
LINE
  8
0
  6
CONTINUOUS
 62
     7
 10
-203.30731
 20
65.082596
 11
-203.30731
 21
66.236275
  0
LINE
  8
0
  6
CONTINUOUS
 62
     7
 10
-192.88467
 20
65.082596
 11
-192.88467
 21
82.582596
  0
LINE
  8
0
  6
CONTINUOUS
 62
     7
 10
-187.28467
 20
82.582596
 11
-186.78467
 21
82.082596
  0
LINE
  8
0
  6
CONTINUOUS
 62
     7
 10
-169.88467
 20
65.082596
 11
-169.88467
 21
77.082596
  0
LINE
  8
0
  6
CONTINUOUS
 62
     7
 10
-182.88467
 20
73.002907
 11
-174.88467
 21
73.002907
  0
LINE
  8
0
  6
CONTINUOUS
 62
     7
 10
-182.88467
 20
81.203918
 11
-182.88467
 21
82.082596
  0
LINE
  8
0
  6
CONTINUOUS
 62
     7
 10
-182.88467
 20
82.082596
 11
-183.38467
 21
81.582596
  0
LINE
  8
0
  6
CONTINUOUS
 62
     7
 10
-182.88467
 20
82.082596
 11
-174.88467
 21
82.082596
  0
LINE
  8
0
  6
CONTINUOUS
 62
     7
 10
-182.88467
 20
81.203918
 11
-174.88467
 21
81.203918
  0
LINE
  8
0
  6
CONTINUOUS
 62
     7
 10
-182.88467
 20
70.881584
 11
-174.88467
 21
70.881584
  0
LINE
  8
0
  6
CONTINUOUS
 62
     7
 10
-174.88467
 20
65.082596
 11
-174.88467
 21
82.082596
  0
LINE
  8
0
  6
CONTINUOUS
 62
     7
 10
-182.88467
 20
70.881584
 11
-182.88467
 21
73.002907
  0
LINE
  8
0
  6
CONTINUOUS
 62
     7
 10
-183.38467
 20
65.082596
 11
-183.38467
 21
81.582596
  0
LINE
  8
0
  6
CONTINUOUS
 62
     7
 10
-186.78467
 20
81.187675
 11
-183.38467
 21
81.187675
  0
LINE
  8
0
  6
CONTINUOUS
 62
     7
 10
-128.95229
 20
76.201744
 11
-119.10699
 21
76.201744
  0
LINE
  8
0
  6
CONTINUOUS
 62
     7
 10
-109.42964
 20
63.96151
 11
-109.42964
 21
80.96151
  0
LINE
  8
0
  6
CONTINUOUS
 62
     7
 10
-129.52965
 20
81.461502
 11
-128.9523
 21
82.46151
  0
LINE
  8
0
  6
CONTINUOUS
 62
     7
 10
-119.10699
 20
76.201744
 11
-119.10699
 21
77.833298
  0
LINE
  8
0
  6
CONTINUOUS
 62
     7
 10
-129.52965
 20
63.96151
 11
-129.52965
 21
81.46151
  0
LINE
  8
0
  6
CONTINUOUS
 62
     7
 10
-118.52965
 20
63.96151
 11
-118.52965
 21
81.46151
  0
LINE
  8
0
  6
CONTINUOUS
 62
     7
 10
-119.10699
 20
63.96151
 11
-119.10699
 21
65.115189
  0
LINE
  8
0
  6
CONTINUOUS
 62
     7
 10
-118.52965
 20
81.46151
 11
-119.10699
 21
82.461502
  0
LINE
  8
0
  6
CONTINUOUS
 62
     7
 10
-118.52965
 20
81.46151
 11
-109.92965
 21
81.46151
  0
LINE
  8
0
  6
CONTINUOUS
 62
     7
 10
-128.95229
 20
76.201744
 11
-128.95229
 21
77.833298
  0
LINE
  8
0
  6
CONTINUOUS
 62
     7
 10
-128.95229
 20
63.96151
 11
-128.95229
 21
65.115189
  0
LINE
  8
0
  6
CONTINUOUS
 62
     7
 10
-128.95229
 20
65.115189
 11
-119.10699
 21
65.115189
  0
LINE
  8
0
  6
CONTINUOUS
 62
     7
 10
-128.95229
 20
77.833298
 11
-119.10699
 21
77.833298
  0
LINE
  8
0
  6
CONTINUOUS
 62
     7
 10
-128.95229
 20
82.46151
 11
-119.10699
 21
82.46151
  0
LINE
  8
0
  6
CONTINUOUS
 62
     7
 10
-109.92965
 20
81.46151
 11
-109.42965
 21
80.96151
  0
LINE
  8
0
  6
CONTINUOUS
 62
     7
 10
-92.529648
 20
63.96151
 11
-92.529648
 21
75.96151
  0
LINE
  8
0
  6
CONTINUOUS
 62
     7
 10
-105.52965
 20
69.760498
 11
-105.52965
 21
71.881821
  0
LINE
  8
0
  6
CONTINUOUS
 62
     7
 10
-97.52964
 20
63.96151
 11
-97.52964
 21
80.96151
  0
LINE
  8
0
  6
CONTINUOUS
 62
     7
 10
-105.52965
 20
69.760498
 11
-97.52964
 21
69.760498
  0
LINE
  8
0
  6
CONTINUOUS
 62
     7
 10
-105.52965
 20
80.082832
 11
-97.52964
 21
80.082832
  0
LINE
  8
0
  6
CONTINUOUS
 62
     7
 10
-105.52964
 20
80.96151
 11
-97.52964
 21
80.96151
  0
LINE
  8
0
  6
CONTINUOUS
 62
     7
 10
-105.52964
 20
80.96151
 11
-106.02964
 21
80.461502
  0
LINE
  8
0
  6
CONTINUOUS
 62
     7
 10
-105.52965
 20
80.082832
 11
-105.52965
 21
80.96151
  0
LINE
  8
0
  6
CONTINUOUS
 62
     7
 10
-105.52965
 20
71.881821
 11
-97.52964
 21
71.881821
  0
LINE
  8
0
  6
CONTINUOUS
 62
     7
 10
-106.02964
 20
63.96151
 11
-106.02964
 21
80.46151
  0
LINE
  8
0
  6
CONTINUOUS
 62
     7
 10
-109.42964
 20
80.066589
 11
-106.02964
 21
80.066589
  0
LINE
  8
0
  6
CONTINUOUS
 62
     7
 10
-34.461025
 20
85.413811
 11
-33.883678
 21
84.413818
  0
LINE
  8
0
  6
CONTINUOUS
 62
     7
 10
-21.883667
 20
62.413811
 11
-21.883667
 21
83.913811
  0
LINE
  8
0
  6
CONTINUOUS
 62
     7
 10
-44.883675
 20
84.413811
 11
-44.306324
 21
85.413811
  0
LINE
  8
0
  6
CONTINUOUS
 62
     7
 10
-33.883675
 20
84.413811
 11
-22.383667
 21
84.413811
  0
LINE
  8
0
  6
CONTINUOUS
 62
     7
 10
-33.883675
 20
62.413811
 11
-33.883675
 21
84.413803
  0
LINE
  8
0
  6
CONTINUOUS
 62
     7
 10
-44.883675
 20
62.413811
 11
-44.883675
 21
84.413803
  0
LINE
  8
0
  6
CONTINUOUS
 62
     7
 10
-34.461021
 20
77.030418
 11
-34.461021
 21
80.172043
  0
LINE
  8
0
  6
CONTINUOUS
 62
     7
 10
-44.306328
 20
77.030418
 11
-44.306328
 21
80.172043
  0
LINE
  8
0
  6
CONTINUOUS
 62
     7
 10
-34.461021
 20
62.413811
 11
-34.461021
 21
64.635277
  0
LINE
  8
0
  6
CONTINUOUS
 62
     7
 10
-44.306328
 20
64.635277
 11
-34.461021
 21
64.635277
  0
LINE
  8
0
  6
CONTINUOUS
 62
     7
 10
-44.306328
 20
77.030418
 11
-34.461021
 21
77.030418
  0
LINE
  8
0
  6
CONTINUOUS
 62
     7
 10
-44.306328
 20
80.172043
 11
-34.461021
 21
80.172043
  0
LINE
  8
0
  6
CONTINUOUS
 62
     7
 10
-44.306328
 20
62.413811
 11
-44.306328
 21
64.635277
  0
LINE
  8
0
  6
CONTINUOUS
 62
     7
 10
-44.306328
 20
85.413811
 11
-34.461021
 21
85.413811
  0
LINE
  8
0
  6
CONTINUOUS
 62
     7
 10
-22.383663
 20
84.413811
 11
-21.883663
 21
83.913811
  0
LINE
  8
0
  6
CONTINUOUS
 62
     7
 10
-17.883667
 20
69.047058
 11
-17.883667
 21
72.926193
  0
LINE
  8
0
  6
CONTINUOUS
 62
     7
 10
-18.383669
 20
83.413811
 11
-17.883669
 21
83.913811
  0
LINE
  8
0
  6
CONTINUOUS
 62
     7
 10
-17.883667
 20
82.307022
 11
-17.883667
 21
83.913811
  0
LINE
  8
0
  6
CONTINUOUS
 62
     7
 10
-17.883667
 20
83.913811
 11
-8.8836679
 21
83.913811
  0
LINE
  8
0
  6
CONTINUOUS
 62
     7
 10
-3.8836699
 20
62.413811
 11
-3.8836699
 21
78.913811
  0
LINE
  8
0
  6
CONTINUOUS
 62
     7
 10
-8.8836679
 20
62.413811
 11
-8.8836679
 21
83.913811
  0
LINE
  8
0
  6
CONTINUOUS
 62
     7
 10
-17.883667
 20
69.047058
 11
-8.8836679
 21
69.047058
  0
LINE
  8
0
  6
CONTINUOUS
 62
     7
 10
-17.883667
 20
72.926193
 11
-8.8836679
 21
72.926193
  0
LINE
  8
0
  6
CONTINUOUS
 62
     7
 10
-17.883667
 20
82.307022
 11
-8.8836679
 21
82.307022
  0
LINE
  8
0
  6
CONTINUOUS
 62
     7
 10
-18.383667
 20
62.413811
 11
-18.383667
 21
83.413811
  0
LINE
  8
0
  6
CONTINUOUS
 62
     7
 10
-21.883667
 20
82.815582
 11
-18.383667
 21
82.815582
  0
LINE
  8
0
  6
CONTINUOUS
 62
     7
 10
-273.4538
 20
-20.526144
 11
-278.37643
 21
-20.526144
  0
LINE
  8
0
  6
CONTINUOUS
 62
     7
 10
-283.87643
 20
-21.52615
 11
-283.29907
 21
-20.526142
  0
LINE
  8
0
  6
CONTINUOUS
 62
     7
 10
-283.2991
 20
-20.526144
 11
-278.37643
 21
-20.526144
  0
LINE
  8
0
  6
CONTINUOUS
 62
     7
 10
-283.2991
 20
-26.226789
 11
-278.37643
 21
-26.226789
  0
LINE
  8
0
  6
CONTINUOUS
 62
     7
 10
-283.2991
 20
-30.605528
 11
-278.37643
 21
-30.605528
  0
LINE
  8
0
  6
CONTINUOUS
 62
     7
 10
-283.2991
 20
-43.929905
 11
-278.37643
 21
-43.929905
  0
LINE
  8
0
  6
CONTINUOUS
 62
     7
 10
-283.2991
 20
-47.026142
 11
-283.2991
 21
-43.929905
  0
LINE
  8
0
  6
CONTINUOUS
 62
     7
 10
-283.2991
 20
-30.605528
 11
-283.2991
 21
-26.226789
  0
LINE
  8
0
  6
CONTINUOUS
 62
     7
 10
-283.87643
 20
-47.026142
 11
-283.87643
 21
-21.526144
  0
LINE
  8
0
  6
CONTINUOUS
 62
     7
 10
-272.87643
 20
-21.526146
 11
-273.4538
 21
-20.526146
  0
LINE
  8
0
  6
CONTINUOUS
 62
     7
 10
-273.4538
 20
-26.226789
 11
-278.37643
 21
-26.226789
  0
LINE
  8
0
  6
CONTINUOUS
 62
     7
 10
-273.4538
 20
-30.605528
 11
-278.37643
 21
-30.605528
  0
LINE
  8
0
  6
CONTINUOUS
 62
     7
 10
-273.4538
 20
-43.929905
 11
-278.37643
 21
-43.929905
  0
LINE
  8
0
  6
CONTINUOUS
 62
     7
 10
-273.4538
 20
-47.026142
 11
-273.4538
 21
-43.929905
  0
LINE
  8
0
  6
CONTINUOUS
 62
     7
 10
-273.4538
 20
-30.605528
 11
-273.4538
 21
-26.226789
  0
LINE
  8
0
  6
CONTINUOUS
 62
     7
 10
-272.87643
 20
-47.026142
 11
-272.87643
 21
-21.526144
  0
LINE
  8
0
  6
CONTINUOUS
 62
     7
 10
-272.87643
 20
-21.526144
 11
-261.87643
 21
-21.526144
  0
LINE
  8
0
  6
CONTINUOUS
 62
     7
 10
-261.37643
 20
-22.026144
 11
-261.37643
 21
-47.026142
  0
LINE
  8
0
  6
CONTINUOUS
 62
     7
 10
-261.87643
 20
-47.026142
 11
-261.87643
 21
-21.526144
  0
LINE
  8
0
  6
CONTINUOUS
 62
     7
 10
-261.87643
 20
-21.526144
 11
-261.37643
 21
-22.026146
  0
LINE
  8
0
  6
CONTINUOUS
 62
     7
 10
-257.27643
 20
-23.547758
 11
-246.87643
 21
-23.547758
  0
LINE
  8
0
  6
CONTINUOUS
 62
     7
 10
-257.27643
 20
-22.526144
 11
-246.87643
 21
-22.526144
  0
LINE
  8
0
  6
CONTINUOUS
 62
     7
 10
-257.27643
 20
-38.322697
 11
-246.87643
 21
-38.322697
  0
LINE
  8
0
  6
CONTINUOUS
 62
     7
 10
-257.77643
 20
-23.026146
 11
-257.27643
 21
-22.526146
  0
LINE
  8
0
  6
CONTINUOUS
 62
     7
 10
-241.87643
 20
-47.026142
 11
-241.87643
 21
-27.526144
  0
LINE
  8
0
  6
CONTINUOUS
 62
     7
 10
-257.27643
 20
-38.322697
 11
-257.27643
 21
-35.856297
  0
LINE
  8
0
  6
CONTINUOUS
 62
     7
 10
-257.27643
 20
-23.547758
 11
-257.27643
 21
-22.526144
  0
LINE
  8
0
  6
CONTINUOUS
 62
     7
 10
-257.27643
 20
-35.856297
 11
-246.87643
 21
-35.856297
  0
LINE
  8
0
  6
CONTINUOUS
 62
     7
 10
-246.87643
 20
-47.026142
 11
-246.87643
 21
-22.526144
  0
LINE
  8
0
  6
CONTINUOUS
 62
     7
 10
-257.77643
 20
-47.026142
 11
-257.77643
 21
-23.026144
  0
LINE
  8
0
  6
CONTINUOUS
 62
     7
 10
-261.37643
 20
-23.401861
 11
-257.77643
 21
-23.401861
  0
LINE
  8
0
  6
CONTINUOUS
 62
     7
 10
-197.47768
 20
-21.64723
 11
-202.40031
 21
-21.64723
  0
LINE
  8
0
  6
CONTINUOUS
 62
     7
 10
-207.90031
 20
-22.647224
 11
-207.32297
 21
-21.647224
  0
LINE
  8
0
  6
CONTINUOUS
 62
     7
 10
-207.32298
 20
-21.64723
 11
-202.40031
 21
-21.64723
  0
LINE
  8
0
  6
CONTINUOUS
 62
     7
 10
-207.32298
 20
-27.347872
 11
-202.40031
 21
-27.347872
  0
LINE
  8
0
  6
CONTINUOUS
 62
     7
 10
-207.32298
 20
-31.726614
 11
-202.40031
 21
-31.726614
  0
LINE
  8
0
  6
CONTINUOUS
 62
     7
 10
-207.32298
 20
-45.050995
 11
-202.40031
 21
-45.050995
  0
LINE
  8
0
  6
CONTINUOUS
 62
     7
 10
-207.32298
 20
-48.147232
 11
-207.32298
 21
-45.050995
  0
LINE
  8
0
  6
CONTINUOUS
 62
     7
 10
-207.32298
 20
-31.726614
 11
-207.32298
 21
-27.347872
  0
LINE
  8
0
  6
CONTINUOUS
 62
     7
 10
-207.90031
 20
-48.147232
 11
-207.90031
 21
-22.64723
  0
LINE
  8
0
  6
CONTINUOUS
 62
     7
 10
-196.90031
 20
-22.647228
 11
-197.47766
 21
-21.647234
  0
LINE
  8
0
  6
CONTINUOUS
 62
     7
 10
-197.47768
 20
-27.347872
 11
-202.40031
 21
-27.347872
  0
LINE
  8
0
  6
CONTINUOUS
 62
     7
 10
-197.47768
 20
-31.726614
 11
-202.40031
 21
-31.726614
  0
LINE
  8
0
  6
CONTINUOUS
 62
     7
 10
-197.47768
 20
-45.050995
 11
-202.40031
 21
-45.050995
  0
LINE
  8
0
  6
CONTINUOUS
 62
     7
 10
-197.47768
 20
-48.147232
 11
-197.47768
 21
-45.050995
  0
LINE
  8
0
  6
CONTINUOUS
 62
     7
 10
-197.47768
 20
-31.726614
 11
-197.47768
 21
-27.347872
  0
LINE
  8
0
  6
CONTINUOUS
 62
     7
 10
-196.90033
 20
-48.147232
 11
-196.90033
 21
-22.64723
  0
LINE
  8
0
  6
CONTINUOUS
 62
     7
 10
-196.90033
 20
-22.64723
 11
-182.90033
 21
-22.64723
  0
LINE
  8
0
  6
CONTINUOUS
 62
     7
 10
-182.90033
 20
-23.14723
 11
-182.90033
 21
-48.147232
  0
LINE
  8
0
  6
CONTINUOUS
 62
     7
 10
-183.40031
 20
-22.64723
 11
-182.90031
 21
-23.14723
  0
LINE
  8
0
  6
CONTINUOUS
 62
     7
 10
-183.40033
 20
-48.147232
 11
-183.40033
 21
-22.64723
  0
LINE
  8
0
  6
CONTINUOUS
 62
     7
 10
-178.80032
 20
-24.668848
 11
-178.80032
 21
-23.647232
  0
LINE
  8
0
  6
CONTINUOUS
 62
     7
 10
-178.80032
 20
-24.668848
 11
-168.40033
 21
-24.668848
  0
LINE
  8
0
  6
CONTINUOUS
 62
     7
 10
-178.80032
 20
-39.443783
 11
-168.40033
 21
-39.443783
  0
LINE
  8
0
  6
CONTINUOUS
 62
     7
 10
-178.80032
 20
-39.443783
 11
-178.80032
 21
-36.977383
  0
LINE
  8
0
  6
CONTINUOUS
 62
     7
 10
-163.40033
 20
-48.147232
 11
-163.40033
 21
-28.647232
  0
LINE
  8
0
  6
CONTINUOUS
 62
     7
 10
-179.30031
 20
-24.147221
 11
-178.80031
 21
-23.647221
  0
LINE
  8
0
  6
CONTINUOUS
 62
     7
 10
-178.80032
 20
-23.647232
 11
-168.40033
 21
-23.647232
  0
LINE
  8
0
  6
CONTINUOUS
 62
     7
 10
-168.40033
 20
-48.147232
 11
-168.40033
 21
-23.647232
  0
LINE
  8
0
  6
CONTINUOUS
 62
     7
 10
-178.80032
 20
-36.977383
 11
-168.40033
 21
-36.977383
  0
LINE
  8
0
  6
CONTINUOUS
 62
     7
 10
-179.30032
 20
-48.147232
 11
-179.30032
 21
-24.147232
  0
LINE
  8
0
  6
CONTINUOUS
 62
     7
 10
-182.90033
 20
-24.653353
 11
-179.30032
 21
-24.653353
  0
LINE
  8
0
  6
CONTINUOUS
 62
     7
 10
-124.19536
 20
-29.772137
 11
-124.19536
 21
-25.916397
  0
LINE
  8
0
  6
CONTINUOUS
 62
     7
 10
-113.50476
 20
-29.772137
 11
-113.50476
 21
-25.916397
  0
LINE
  8
0
  6
CONTINUOUS
 62
     7
 10
-118.85007
 20
-29.772137
 11
-113.50476
 21
-29.772137
  0
LINE
  8
0
  6
CONTINUOUS
 62
     7
 10
-118.85007
 20
-47.662987
 11
-113.50476
 21
-47.662987
  0
LINE
  8
0
  6
CONTINUOUS
 62
     7
 10
-118.85007
 20
-25.916397
 11
-113.50476
 21
-25.916397
  0
LINE
  8
0
  6
CONTINUOUS
 62
     7
 10
-98.850067
 20
-20.889406
 11
-98.850067
 21
-50.389404
  0
LINE
  8
0
  6
CONTINUOUS
 62
     7
 10
-113.50476
 20
-18.38941
 11
-112.35007
 21
-20.389404
  0
LINE
  8
0
  6
CONTINUOUS
 62
     7
 10
-112.35007
 20
-20.389406
 11
-112.35007
 21
-50.389404
  0
LINE
  8
0
  6
CONTINUOUS
 62
     7
 10
-118.85007
 20
-47.662987
 11
-124.19536
 21
-47.662987
  0
LINE
  8
0
  6
CONTINUOUS
 62
     7
 10
-118.85007
 20
-29.772137
 11
-124.19536
 21
-29.772137
  0
LINE
  8
0
  6
CONTINUOUS
 62
     7
 10
-124.19537
 20
-18.389404
 11
-125.35007
 21
-20.389406
  0
LINE
  8
0
  6
CONTINUOUS
 62
     7
 10
-125.35007
 20
-20.389406
 11
-125.35007
 21
-50.389404
  0
LINE
  8
0
  6
CONTINUOUS
 62
     7
 10
-118.85007
 20
-25.916397
 11
-124.19536
 21
-25.916397
  0
LINE
  8
0
  6
CONTINUOUS
 62
     7
 10
-124.19536
 20
-50.389404
 11
-124.19536
 21
-47.662987
  0
LINE
  8
0
  6
CONTINUOUS
 62
     7
 10
-118.85007
 20
-18.389406
 11
-124.19536
 21
-18.389406
  0
LINE
  8
0
  6
CONTINUOUS
 62
     7
 10
-112.35007
 20
-20.389406
 11
-99.350067
 21
-20.389406
  0
LINE
  8
0
  6
CONTINUOUS
 62
     7
 10
-118.85007
 20
-18.389406
 11
-113.50476
 21
-18.389406
  0
LINE
  8
0
  6
CONTINUOUS
 62
     7
 10
-113.50476
 20
-50.389404
 11
-113.50476
 21
-47.662987
  0
LINE
  8
0
  6
CONTINUOUS
 62
     7
 10
-99.350067
 20
-50.389404
 11
-99.350067
 21
-20.389406
  0
LINE
  8
0
  6
CONTINUOUS
 62
     7
 10
-99.350067
 20
-20.389402
 11
-98.850067
 21
-20.889404
  0
LINE
  8
0
  6
CONTINUOUS
 62
     7
 10
-94.750061
 20
-40.863125
 11
-83.350067
 21
-40.863125
  0
LINE
  8
0
  6
CONTINUOUS
 62
     7
 10
-83.350067
 20
-50.389404
 11
-83.350067
 21
-20.889408
  0
LINE
  8
0
  6
CONTINUOUS
 62
     7
 10
-95.250069
 20
-21.389404
 11
-94.750069
 21
-20.889404
  0
LINE
  8
0
  6
CONTINUOUS
 62
     7
 10
-94.750061
 20
-22.793659
 11
-83.350067
 21
-22.793659
  0
LINE
  8
0
  6
CONTINUOUS
 62
     7
 10
-94.750061
 20
-36.265854
 11
-83.350067
 21
-36.265854
  0
LINE
  8
0
  6
CONTINUOUS
 62
     7
 10
-94.750061
 20
-20.889408
 11
-83.350067
 21
-20.889408
  0
LINE
  8
0
  6
CONTINUOUS
 62
     7
 10
-77.350067
 20
-50.389404
 11
-77.350067
 21
-26.889406
  0
LINE
  8
0
  6
CONTINUOUS
 62
     7
 10
-94.750061
 20
-40.863125
 11
-94.750061
 21
-36.265854
  0
LINE
  8
0
  6
CONTINUOUS
 62
     7
 10
-94.750061
 20
-22.793659
 11
-94.750061
 21
-20.889408
  0
LINE
  8
0
  6
CONTINUOUS
 62
     7
 10
-95.250061
 20
-50.389404
 11
-95.250061
 21
-21.389406
  0
LINE
  8
0
  6
CONTINUOUS
 62
     7
 10
-98.850067
 20
-21.524668
 11
-95.250061
 21
-21.524668
  0
LINE
  8
0
  6
CONTINUOUS
 62
     7
 10
-17.660765
 20
-33.135399
 11
-17.660765
 21
-29.279659
  0
LINE
  8
0
  6
CONTINUOUS
 62
     7
 10
-6.9701676
 20
-33.135399
 11
-6.9701676
 21
-29.279659
  0
LINE
  8
0
  6
CONTINUOUS
 62
     7
 10
-12.315467
 20
-33.135399
 11
-6.9701676
 21
-33.135399
  0
LINE
  8
0
  6
CONTINUOUS
 62
     7
 10
-12.315467
 20
-51.026249
 11
-6.9701676
 21
-51.026249
  0
LINE
  8
0
  6
CONTINUOUS
 62
     7
 10
-12.315467
 20
-29.279659
 11
-6.9701676
 21
-29.279659
  0
LINE
  8
0
  6
CONTINUOUS
 62
     7
 10
7.6845336
 20
-24.252668
 11
7.6845336
 21
-53.752666
  0
LINE
  8
0
  6
CONTINUOUS
 62
     7
 10
-6.9701676
 20
-21.752666
 11
-5.8154669
 21
-23.752666
  0
LINE
  8
0
  6
CONTINUOUS
 62
     7
 10
-5.8154664
 20
-23.752668
 11
-5.8154664
 21
-53.752666
  0
LINE
  8
0
  6
CONTINUOUS
 62
     7
 10
-12.315467
 20
-51.026249
 11
-17.660765
 21
-51.026249
  0
LINE
  8
0
  6
CONTINUOUS
 62
     7
 10
-12.315467
 20
-33.135399
 11
-17.660765
 21
-33.135399
  0
LINE
  8
0
  6
CONTINUOUS
 62
     7
 10
-17.660769
 20
-21.752668
 11
-18.815468
 21
-23.752666
  0
LINE
  8
0
  6
CONTINUOUS
 62
     7
 10
-18.815466
 20
-23.752668
 11
-18.815466
 21
-53.752666
  0
LINE
  8
0
  6
CONTINUOUS
 62
     7
 10
-12.315467
 20
-29.279659
 11
-17.660765
 21
-29.279659
  0
LINE
  8
0
  6
CONTINUOUS
 62
     7
 10
-17.660765
 20
-53.752666
 11
-17.660765
 21
-51.026249
  0
LINE
  8
0
  6
CONTINUOUS
 62
     7
 10
-12.315467
 20
-21.752668
 11
-17.660765
 21
-21.752668
  0
LINE
  8
0
  6
CONTINUOUS
 62
     7
 10
-5.8154664
 20
-23.752668
 11
7.1845336
 21
-23.752668
  0
LINE
  8
0
  6
CONTINUOUS
 62
     7
 10
-12.315467
 20
-21.752668
 11
-6.9701676
 21
-21.752668
  0
LINE
  8
0
  6
CONTINUOUS
 62
     7
 10
-6.9701676
 20
-53.752666
 11
-6.9701676
 21
-51.026249
  0
LINE
  8
0
  6
CONTINUOUS
 62
     7
 10
7.1845326
 20
-23.752666
 11
7.6845336
 21
-24.252666
  0
LINE
  8
0
  6
CONTINUOUS
 62
     7
 10
7.1845336
 20
-53.752666
 11
7.1845336
 21
-23.752668
  0
LINE
  8
0
  6
CONTINUOUS
 62
     7
 10
23.184534
 20
-53.752666
 11
23.184534
 21
-24.25267
  0
LINE
  8
0
  6
CONTINUOUS
 62
     7
 10
29.184534
 20
-53.752666
 11
29.184534
 21
-30.252668
  0
LINE
  8
0
  6
CONTINUOUS
 62
     7
 10
11.284533
 20
-24.752665
 11
11.784533
 21
-24.252665
  0
LINE
  8
0
  6
CONTINUOUS
 62
     7
 10
11.784532
 20
-24.25267
 11
23.184534
 21
-24.25267
  0
LINE
  8
0
  6
CONTINUOUS
 62
     7
 10
11.784532
 20
-39.629116
 11
23.184534
 21
-39.629116
  0
LINE
  8
0
  6
CONTINUOUS
 62
     7
 10
11.784532
 20
-26.156921
 11
23.184534
 21
-26.156921
  0
LINE
  8
0
  6
CONTINUOUS
 62
     7
 10
11.784532
 20
-44.226387
 11
23.184534
 21
-44.226387
  0
LINE
  8
0
  6
CONTINUOUS
 62
     7
 10
11.784532
 20
-44.226387
 11
11.784532
 21
-39.629116
  0
LINE
  8
0
  6
CONTINUOUS
 62
     7
 10
11.784532
 20
-26.156921
 11
11.784532
 21
-24.25267
  0
LINE
  8
0
  6
CONTINUOUS
 62
     7
 10
11.284532
 20
-53.752666
 11
11.284532
 21
-24.752668
  0
LINE
  8
0
  6
CONTINUOUS
 62
     7
 10
7.6845336
 20
-25.194838
 11
11.284532
 21
-25.194838
  0
LINE
  8
0
  6
CONTINUOUS
 62
     7
 10
-252.54448
 20
-219.18513
 11
-252.54448
 21
-252.18513
  0
LINE
  8
0
  6
CONTINUOUS
 62
     7
 10
-264.04449
 20
-218.68513
 11
-264.04449
 21
-252.18513
  0
LINE
  8
0
  6
CONTINUOUS
 62
     7
 10
-271.54449
 20
-248.60698
 11
-265.19919
 21
-248.60698
  0
LINE
  8
0
  6
CONTINUOUS
 62
     7
 10
-265.19919
 20
-229.74083
 11
-265.19919
 21
-224.68054
  0
LINE
  8
0
  6
CONTINUOUS
 62
     7
 10
-271.54449
 20
-216.68513
 11
-265.19919
 21
-216.68513
  0
LINE
  8
0
  6
CONTINUOUS
 62
     7
 10
-265.19919
 20
-252.18513
 11
-265.19919
 21
-248.60698
  0
LINE
  8
0
  6
CONTINUOUS
 62
     7
 10
-271.54449
 20
-229.74083
 11
-265.19919
 21
-229.74083
  0
LINE
  8
0
  6
CONTINUOUS
 62
     7
 10
-265.19919
 20
-216.68515
 11
-264.04449
 21
-218.68513
  0
LINE
  8
0
  6
CONTINUOUS
 62
     7
 10
-279.04449
 20
-218.68513
 11
-279.04449
 21
-252.18513
  0
LINE
  8
0
  6
CONTINUOUS
 62
     7
 10
-271.54449
 20
-216.68513
 11
-277.88977
 21
-216.68513
  0
LINE
  8
0
  6
CONTINUOUS
 62
     7
 10
-277.88977
 20
-252.18513
 11
-277.88977
 21
-248.60698
  0
LINE
  8
0
  6
CONTINUOUS
 62
     7
 10
-277.88977
 20
-229.74083
 11
-277.88977
 21
-224.68054
  0
LINE
  8
0
  6
CONTINUOUS
 62
     7
 10
-271.54449
 20
-224.68054
 11
-277.88977
 21
-224.68054
  0
LINE
  8
0
  6
CONTINUOUS
 62
     7
 10
-277.88977
 20
-216.68515
 11
-279.04446
 21
-218.68513
  0
LINE
  8
0
  6
CONTINUOUS
 62
     7
 10
-271.54449
 20
-229.74083
 11
-277.88977
 21
-229.74083
  0
LINE
  8
0
  6
CONTINUOUS
 62
     7
 10
-271.54449
 20
-248.60698
 11
-277.88977
 21
-248.60698
  0
LINE
  8
0
  6
CONTINUOUS
 62
     7
 10
-271.54449
 20
-224.68054
 11
-265.19919
 21
-224.68054
  0
LINE
  8
0
  6
CONTINUOUS
 62
     7
 10
-264.04449
 20
-218.68513
 11
-253.04448
 21
-218.68513
  0
LINE
  8
0
  6
CONTINUOUS
 62
     7
 10
-253.04448
 20
-252.18513
 11
-253.04448
 21
-218.68513
  0
LINE
  8
0
  6
CONTINUOUS
 62
     7
 10
-253.04448
 20
-218.68513
 11
-252.54448
 21
-219.18513
  0
LINE
  8
0
  6
CONTINUOUS
 62
     7
 10
-248.04449
 20
-218.18515
 11
-248.54448
 21
-218.68513
  0
LINE
  8
0
  6
CONTINUOUS
 62
     7
 10
-248.04448
 20
-220.92374
 11
-248.04448
 21
-218.18513
  0
LINE
  8
0
  6
CONTINUOUS
 62
     7
 10
-248.04448
 20
-218.18513
 11
-236.54448
 21
-218.18513
  0
LINE
  8
0
  6
CONTINUOUS
 62
     7
 10
-248.04448
 20
-220.92374
 11
-236.54448
 21
-220.92374
  0
LINE
  8
0
  6
CONTINUOUS
 62
     7
 10
-228.54448
 20
-252.18513
 11
-228.54448
 21
-226.18513
  0
LINE
  8
0
  6
CONTINUOUS
 62
     7
 10
-248.04448
 20
-241.97485
 11
-248.04448
 21
-235.36327
  0
LINE
  8
0
  6
CONTINUOUS
 62
     7
 10
-248.04448
 20
-235.36327
 11
-236.54448
 21
-235.36327
  0
LINE
  8
0
  6
CONTINUOUS
 62
     7
 10
-236.54448
 20
-252.18513
 11
-236.54448
 21
-218.18513
  0
LINE
  8
0
  6
CONTINUOUS
 62
     7
 10
-248.04448
 20
-241.97485
 11
-236.54448
 21
-241.97485
  0
LINE
  8
0
  6
CONTINUOUS
 62
     7
 10
-248.54448
 20
-252.18513
 11
-248.54448
 21
-218.68513
  0
LINE
  8
0
  6
CONTINUOUS
 62
     7
 10
-252.54448
 20
-219.63753
 11
-248.54448
 21
-219.63753
  0
LINE
  8
0
  6
CONTINUOUS
 62
     7
 10
-275.99725
 20
-379.98911
 11
-275.99725
 21
-376.27393
  0
LINE
  8
0
  6
CONTINUOUS
 62
     7
 10
-275.99725
 20
-352.32422
 11
-275.99725
 21
-347.07019
  0
LINE
  8
0
  6
CONTINUOUS
 62
     7
 10
-275.99728
 20
-336.98907
 11
-277.15198
 21
-338.98911
  0
LINE
  8
0
  6
CONTINUOUS
 62
     7
 10
-258.30667
 20
-336.98911
 11
-257.15198
 21
-338.98911
  0
LINE
  8
0
  6
CONTINUOUS
 62
     7
 10
-258.30667
 20
-352.32422
 11
-258.30667
 21
-347.07019
  0
LINE
  8
0
  6
CONTINUOUS
 62
     7
 10
-258.30667
 20
-352.32422
 11
-275.99725
 21
-352.32422
  0
LINE
  8
0
  6
CONTINUOUS
 62
     7
 10
-258.30667
 20
-379.98911
 11
-258.30667
 21
-376.27393
  0
LINE
  8
0
  6
CONTINUOUS
 62
     7
 10
-258.30667
 20
-376.27393
 11
-275.99725
 21
-376.27393
  0
LINE
  8
0
  6
CONTINUOUS
 62
     7
 10
-258.30667
 20
-347.07019
 11
-275.99725
 21
-347.07019
  0
LINE
  8
0
  6
CONTINUOUS
 62
     7
 10
-258.30667
 20
-336.98911
 11
-275.99725
 21
-336.98911
  0
LINE
  8
0
  6
CONTINUOUS
 62
     7
 10
-238.65198
 20
-379.98911
 11
-238.65198
 21
-339.48911
  0
LINE
  8
0
  6
CONTINUOUS
 62
     7
 10
-277.15198
 20
-379.98911
 11
-277.15198
 21
-338.98911
  0
LINE
  8
0
  6
CONTINUOUS
 62
     7
 10
-257.15198
 20
-379.98911
 11
-257.15198
 21
-338.98911
  0
LINE
  8
0
  6
CONTINUOUS
 62
     7
 10
-257.15198
 20
-338.98911
 11
-239.15198
 21
-338.98911
  0
LINE
  8
0
  6
CONTINUOUS
 62
     7
 10
-238.65198
 20
-339.48907
 11
-239.15198
 21
-338.98907
  0
LINE
  8
0
  6
CONTINUOUS
 62
     7
 10
-239.15198
 20
-379.98911
 11
-239.15198
 21
-338.98911
  0
LINE
  8
0
  6
CONTINUOUS
 62
     7
 10
-234.65198
 20
-338.98907
 11
-235.15198
 21
-339.48911
  0
LINE
  8
0
  6
CONTINUOUS
 62
     7
 10
-234.65198
 20
-341.83258
 11
-234.65198
 21
-338.98911
  0
LINE
  8
0
  6
CONTINUOUS
 62
     7
 10
-211.65198
 20
-379.98911
 11
-211.65198
 21
-346.98911
  0
LINE
  8
0
  6
CONTINUOUS
 62
     7
 10
-234.65198
 20
-338.98911
 11
-219.65198
 21
-338.98911
  0
LINE
  8
0
  6
CONTINUOUS
 62
     7
 10
-234.65198
 20
-367.02762
 11
-219.65198
 21
-367.02762
  0
LINE
  8
0
  6
CONTINUOUS
 62
     7
 10
-234.65198
 20
-341.83258
 11
-219.65198
 21
-341.83258
  0
LINE
  8
0
  6
CONTINUOUS
 62
     7
 10
-234.65198
 20
-360.16287
 11
-219.65198
 21
-360.16287
  0
LINE
  8
0
  6
CONTINUOUS
 62
     7
 10
-234.65198
 20
-367.02762
 11
-234.65198
 21
-360.16287
  0
LINE
  8
0
  6
CONTINUOUS
 62
     7
 10
-219.65198
 20
-379.98911
 11
-219.65198
 21
-338.98911
  0
LINE
  8
0
  6
CONTINUOUS
 62
     7
 10
-235.15198
 20
-379.98911
 11
-235.15198
 21
-339.48911
  0
LINE
  8
0
  6
CONTINUOUS
 62
     7
 10
-238.65198
 20
-339.88156
 11
-235.15198
 21
-339.88156
  0
LINE
  8
0
  6
CONTINUOUS
 62
     7
 10
-64.298019
 20
-218.14513
 11
-76.988602
 21
-218.14513
  0
LINE
  8
0
  6
CONTINUOUS
 62
     7
 10
-44.143311
 20
-251.06404
 11
-44.143311
 21
-210.56406
  0
LINE
  8
0
  6
CONTINUOUS
 62
     7
 10
-64.298019
 20
-251.06404
 11
-64.298019
 21
-247.34888
  0
LINE
  8
0
  6
CONTINUOUS
 62
     7
 10
-63.143311
 20
-210.06406
 11
-63.143311
 21
-251.06404
  0
LINE
  8
0
  6
CONTINUOUS
 62
     7
 10
-64.298019
 20
-208.06404
 11
-76.988602
 21
-208.06404
  0
LINE
  8
0
  6
CONTINUOUS
 62
     7
 10
-64.298019
 20
-208.06404
 11
-63.143314
 21
-210.06406
  0
LINE
  8
0
  6
CONTINUOUS
 62
     7
 10
-63.143311
 20
-210.06406
 11
-44.643311
 21
-210.06406
  0
LINE
  8
0
  6
CONTINUOUS
 62
     7
 10
-76.988602
 20
-251.06404
 11
-76.988602
 21
-247.34888
  0
LINE
  8
0
  6
CONTINUOUS
 62
     7
 10
-78.143311
 20
-210.06404
 11
-78.143311
 21
-251.06404
  0
LINE
  8
0
  6
CONTINUOUS
 62
     7
 10
-64.298019
 20
-223.39917
 11
-64.298019
 21
-218.14513
  0
LINE
  8
0
  6
CONTINUOUS
 62
     7
 10
-76.988609
 20
-208.06406
 11
-78.143318
 21
-210.06407
  0
LINE
  8
0
  6
CONTINUOUS
 62
     7
 10
-64.298019
 20
-223.39917
 11
-76.988602
 21
-223.39917
  0
LINE
  8
0
  6
CONTINUOUS
 62
     7
 10
-64.298019
 20
-247.34888
 11
-76.988602
 21
-247.34888
  0
LINE
  8
0
  6
CONTINUOUS
 62
     7
 10
-76.988602
 20
-223.39917
 11
-76.988602
 21
-218.14513
  0
LINE
  8
0
  6
CONTINUOUS
 62
     7
 10
-44.643311
 20
-210.06406
 11
-44.143311
 21
-210.56406
  0
LINE
  8
0
  6
CONTINUOUS
 62
     7
 10
-44.643311
 20
-251.06404
 11
-44.643311
 21
-210.06406
  0
LINE
  8
0
  6
CONTINUOUS
 62
     7
 10
-40.143311
 20
-210.06404
 11
-25.143312
 21
-210.06404
  0
LINE
  8
0
  6
CONTINUOUS
 62
     7
 10
-40.143311
 20
-210.06404
 11
-40.643311
 21
-210.56406
  0
LINE
  8
0
  6
CONTINUOUS
 62
     7
 10
-40.143311
 20
-212.90752
 11
-40.143311
 21
-210.06404
  0
LINE
  8
0
  6
CONTINUOUS
 62
     7
 10
-17.14332
 20
-251.06404
 11
-17.14332
 21
-218.06404
  0
LINE
  8
0
  6
CONTINUOUS
 62
     7
 10
-40.143311
 20
-212.90752
 11
-25.143312
 21
-212.90752
  0
LINE
  8
0
  6
CONTINUOUS
 62
     7
 10
-40.143311
 20
-238.10257
 11
-25.143312
 21
-238.10257
  0
LINE
  8
0
  6
CONTINUOUS
 62
     7
 10
-25.143312
 20
-251.06404
 11
-25.143312
 21
-210.06404
  0
LINE
  8
0
  6
CONTINUOUS
 62
     7
 10
-40.143311
 20
-231.23782
 11
-25.143312
 21
-231.23782
  0
LINE
  8
0
  6
CONTINUOUS
 62
     7
 10
-40.143311
 20
-238.10257
 11
-40.143311
 21
-231.23782
  0
LINE
  8
0
  6
CONTINUOUS
 62
     7
 10
-40.643311
 20
-251.06404
 11
-40.643311
 21
-210.56404
  0
LINE
  8
0
  6
CONTINUOUS
 62
     7
 10
-44.143311
 20
-210.80305
 11
-40.643311
 21
-210.80305
  0
LINE
  8
0
  6
CONTINUOUS
 62
     7
 10
-172.52553
 20
-216.68513
 11
-178.87083
 21
-216.68513
  0
LINE
  8
0
  6
CONTINUOUS
 62
     7
 10
-178.87082
 20
-216.68513
 11
-180.02553
 21
-218.68515
  0
LINE
  8
0
  6
CONTINUOUS
 62
     7
 10
-172.52553
 20
-248.60698
 11
-178.87083
 21
-248.60698
  0
LINE
  8
0
  6
CONTINUOUS
 62
     7
 10
-172.52553
 20
-224.68054
 11
-178.87083
 21
-224.68054
  0
LINE
  8
0
  6
CONTINUOUS
 62
     7
 10
-178.87083
 20
-229.74083
 11
-178.87083
 21
-224.68054
  0
LINE
  8
0
  6
CONTINUOUS
 62
     7
 10
-172.52553
 20
-229.74083
 11
-178.87083
 21
-229.74083
  0
LINE
  8
0
  6
CONTINUOUS
 62
     7
 10
-148.52553
 20
-219.18513
 11
-148.52553
 21
-252.18513
  0
LINE
  8
0
  6
CONTINUOUS
 62
     7
 10
-165.02553
 20
-218.68513
 11
-149.02553
 21
-218.68513
  0
LINE
  8
0
  6
CONTINUOUS
 62
     7
 10
-180.02553
 20
-218.68513
 11
-180.02553
 21
-252.18513
  0
LINE
  8
0
  6
CONTINUOUS
 62
     7
 10
-178.87083
 20
-252.18513
 11
-178.87083
 21
-248.60698
  0
LINE
  8
0
  6
CONTINUOUS
 62
     7
 10
-165.02553
 20
-218.68513
 11
-165.02553
 21
-252.18513
  0
LINE
  8
0
  6
CONTINUOUS
 62
     7
 10
-172.52553
 20
-248.60698
 11
-166.18022
 21
-248.60698
  0
LINE
  8
0
  6
CONTINUOUS
 62
     7
 10
-166.18022
 20
-216.68513
 11
-165.02553
 21
-218.68513
  0
LINE
  8
0
  6
CONTINUOUS
 62
     7
 10
-172.52553
 20
-216.68513
 11
-166.18022
 21
-216.68513
  0
LINE
  8
0
  6
CONTINUOUS
 62
     7
 10
-172.52553
 20
-224.68054
 11
-166.18022
 21
-224.68054
  0
LINE
  8
0
  6
CONTINUOUS
 62
     7
 10
-166.18022
 20
-229.74083
 11
-166.18022
 21
-224.68054
  0
LINE
  8
0
  6
CONTINUOUS
 62
     7
 10
-172.52553
 20
-229.74083
 11
-166.18022
 21
-229.74083
  0
LINE
  8
0
  6
CONTINUOUS
 62
     7
 10
-166.18022
 20
-252.18513
 11
-166.18022
 21
-248.60698
  0
LINE
  8
0
  6
CONTINUOUS
 62
     7
 10
-149.02553
 20
-252.18513
 11
-149.02553
 21
-218.68513
  0
LINE
  8
0
  6
CONTINUOUS
 62
     7
 10
-149.02553
 20
-218.68515
 11
-148.52553
 21
-219.18515
  0
LINE
  8
0
  6
CONTINUOUS
 62
     7
 10
-144.02551
 20
-218.18513
 11
-144.52553
 21
-218.68515
  0
LINE
  8
0
  6
CONTINUOUS
 62
     7
 10
-144.02553
 20
-220.92375
 11
-144.02553
 21
-218.18515
  0
LINE
  8
0
  6
CONTINUOUS
 62
     7
 10
-144.02553
 20
-218.18515
 11
-132.52553
 21
-218.18515
  0
LINE
  8
0
  6
CONTINUOUS
 62
     7
 10
-144.02553
 20
-220.92375
 11
-132.52553
 21
-220.92375
  0
LINE
  8
0
  6
CONTINUOUS
 62
     7
 10
-124.52553
 20
-252.18513
 11
-124.52553
 21
-226.18515
  0
LINE
  8
0
  6
CONTINUOUS
 62
     7
 10
-144.02553
 20
-241.97485
 11
-144.02553
 21
-235.36328
  0
LINE
  8
0
  6
CONTINUOUS
 62
     7
 10
-144.02553
 20
-235.36328
 11
-132.52553
 21
-235.36328
  0
LINE
  8
0
  6
CONTINUOUS
 62
     7
 10
-132.52553
 20
-252.18513
 11
-132.52553
 21
-218.18515
  0
LINE
  8
0
  6
CONTINUOUS
 62
     7
 10
-144.02553
 20
-241.97485
 11
-132.52553
 21
-241.97485
  0
LINE
  8
0
  6
CONTINUOUS
 62
     7
 10
-144.52553
 20
-252.18513
 11
-144.52553
 21
-218.68515
  0
LINE
  8
0
  6
CONTINUOUS
 62
     7
 10
-148.52553
 20
-219.5636
 11
-144.52553
 21
-219.5636
  0
CIRCLE
  8
0
  6
CONTINUOUS
 62
     7
 10
-401.50162
 20
101.27591
 40
14.5
  0
CIRCLE
  8
0
  6
CONTINUOUS
 62
     7
 10
-401.50162
 20
101.27591
 40
8.0500002
  0
CIRCLE
  8
0
  6
CONTINUOUS
 62
     7
 10
-401.50162
 20
56.199329
 40
17
  0
CIRCLE
  8
0
  6
CONTINUOUS
 62
     7
 10
-401.50162
 20
56.199329
 40
11.25
  0
CIRCLE
  8
0
  6
CONTINUOUS
 62
     7
 10
-401.50162
 20
5.3851457
 40
21.5
  0
CIRCLE
  8
0
  6
CONTINUOUS
 62
     7
 10
-401.50162
 20
5.3851457
 40
14.4
  0
CIRCLE
  8
0
  6
CONTINUOUS
 62
     7
 10
-401.50162
 20
-50.685677
 40
24.5
  0
CIRCLE
  8
0
  6
CONTINUOUS
 62
     7
 10
-401.50162
 20
-50.685677
 40
17.25
  0
CIRCLE
  8
0
  6
CONTINUOUS
 62
     7
 10
-401.50162
 20
-137.66437
 40
29.5
  0
CIRCLE
  8
0
  6
CONTINUOUS
 62
     7
 10
-401.50162
 20
-137.66437
 40
21.65
  0
CIRCLE
  8
0
  6
CONTINUOUS
 62
     7
 10
-401.50162
 20
-241.56189
 40
34
  0
CIRCLE
  8
0
  6
CONTINUOUS
 62
     7
 10
-401.50162
 20
-241.56189
 40
24.65
  0
CIRCLE
  8
0
  6
CONTINUOUS
 62
     7
 10
-401.50162
 20
-347.29117
 40
41
  0
CIRCLE
  8
0
  6
CONTINUOUS
 62
     7
 10
-401.50162
 20
-347.29117
 40
30.65
  0
ARC
  8
0
  6
CONTINUOUS
 62
     7
 10
-251.62006
 20
59.342346
 40
23.203985
 50
167.19206
 51
192.80795
  0
ARC
  8
0
  6
CONTINUOUS
 62
     7
 10
-270.58322
 20
51.218842
 40
4.24085
 50
149.75285
 51
210.24716
  0
ARC
  8
0
  6
CONTINUOUS
 62
     7
 10
-268.06491
 20
51.218842
 40
4.24085
 50
329.75285
 51
30.247151
  0
ARC
  8
0
  6
CONTINUOUS
 62
     7
 10
-287.02805
 20
59.342346
 40
23.203985
 50
347.19206
 51
12.807943
  0
ARC
  8
0
  6
CONTINUOUS
 62
     7
 10
-245.82405
 20
54.582596
 40
4
 50
270
 51
0
  0
ARC
  8
0
  6
CONTINUOUS
 62
     7
 10
-241.73068
 20
54.829262
 40
11.59337
 50
163.11152
 51
196.88848
  0
ARC
  8
0
  6
CONTINUOUS
 62
     7
 10
-230.3835
 20
65.082596
 40
22.940548
 50
179.99999
 51
191.9843
  0
ARC
  8
0
  6
CONTINUOUS
 62
     7
 10
-219.78442
 20
58.385635
 40
26.899755
 50
348.10776
 51
11.89224
  0
ARC
  8
0
  6
CONTINUOUS
 62
     7
 10
-197.81096
 20
48.896698
 40
4.9262962
 50
331.98224
 51
28.017762
  0
ARC
  8
0
  6
CONTINUOUS
 62
     7
 10
-176.98491
 20
58.385635
 40
26.899755
 50
168.10776
 51
191.89224
  0
ARC
  8
0
  6
CONTINUOUS
 62
     7
 10
-198.95837
 20
48.896698
 40
4.9262962
 50
151.98224
 51
208.01776
  0
ARC
  8
0
  6
CONTINUOUS
 62
     7
 10
-145.42952
 20
57.264549
 40
26.899881
 50
348.10782
 51
11.892183
  0
ARC
  8
0
  6
CONTINUOUS
 62
     7
 10
-123.45596
 20
47.775612
 40
4.9263172
 50
331.98237
 51
28.017634
  0
ARC
  8
0
  6
CONTINUOUS
 62
     7
 10
-102.62981
 20
57.264549
 40
26.89983
 50
168.1078
 51
191.89221
  0
ARC
  8
0
  6
CONTINUOUS
 62
     7
 10
-124.60333
 20
47.775612
 40
4.9263086
 50
151.98231
 51
208.01769
  0
ARC
  8
0
  6
CONTINUOUS
 62
     7
 10
-174.88467
 20
53.082596
 40
5
 50
270
 51
0
  0
ARC
  8
0
  6
CONTINUOUS
 62
     7
 10
-149.5062
 20
65.082596
 40
33.878471
 50
180.00001
 51
189.85588
  0
ARC
  8
0
  6
CONTINUOUS
 62
     7
 10
-166.32043
 20
53.061783
 40
17.064236
 50
166.09586
 51
193.90414
  0
ARC
  8
0
  6
CONTINUOUS
 62
     7
 10
-88.965408
 20
51.940697
 40
17.064236
 50
166.09586
 51
193.90414
  0
ARC
  8
0
  6
CONTINUOUS
 62
     7
 10
-72.151176
 20
63.96151
 40
33.878471
 50
180.00001
 51
189.85588
  0
ARC
  8
0
  6
CONTINUOUS
 62
     7
 10
-97.52964
 20
51.96151
 40
5
 50
270
 51
0
  0
ARC
  8
0
  6
CONTINUOUS
 62
     7
 10
-38.646233
 20
42.034698
 40
6.2374358
 50
155.15368
 51
204.84632
  0
ARC
  8
0
  6
CONTINUOUS
 62
     7
 10
-40.121117
 20
42.034698
 40
6.2374358
 50
335.15368
 51
24.846323
  0
ARC
  8
0
  6
CONTINUOUS
 62
     7
 10
-67.436333
 20
53.994774
 40
33.552666
 50
349.35568
 51
10.644325
  0
ARC
  8
0
  6
CONTINUOUS
 62
     7
 10
-11.33101
 20
53.994774
 40
33.552666
 50
169.35567
 51
190.64432
  0
ARC
  8
0
  6
CONTINUOUS
 62
     7
 10
-8.8836679
 20
45.913811
 40
5
 50
270
 51
0
  0
ARC
  8
0
  6
CONTINUOUS
 62
     7
 10
25.86632
 20
62.413811
 40
44.249989
 50
180.00001
 51
188.62136
  0
ARC
  8
0
  6
CONTINUOUS
 62
     7
 10
3.8663282
 20
47.211014
 40
22.249998
 50
167.83045
 51
192.16954
  0
ARC
  8
0
  6
CONTINUOUS
 62
     7
 10
-276.55902
 20
-70.675827
 40
7.3179798
 50
157.07688
 51
202.92312
  0
ARC
  8
0
  6
CONTINUOUS
 62
     7
 10
-245.14941
 20
-56.784573
 40
38.72702
 50
170.09415
 51
189.90584
  0
ARC
  8
0
  6
CONTINUOUS
 62
     7
 10
-280.19385
 20
-70.675827
 40
7.3179798
 50
337.07688
 51
22.923115
  0
ARC
  8
0
  6
CONTINUOUS
 62
     7
 10
-311.60345
 20
-56.784573
 40
38.72702
 50
350.09416
 51
9.9058404
  0
ARC
  8
0
  6
CONTINUOUS
 62
     7
 10
-219.65143
 20
-64.350258
 40
38.125019
 50
170.71048
 51
189.28953
  0
ARC
  8
0
  6
CONTINUOUS
 62
     7
 10
-181.77643
 20
-47.026142
 40
76.000023
 50
180.00001
 51
186.57588
  0
ARC
  8
0
  6
CONTINUOUS
 62
     7
 10
-246.87643
 20
-66.526146
 40
5
 50
270
 51
0
  0
ARC
  8
0
  6
CONTINUOUS
 62
     7
 10
-200.5829
 20
-71.796913
 40
7.3179798
 50
157.07688
 51
202.92312
  0
ARC
  8
0
  6
CONTINUOUS
 62
     7
 10
-169.17331
 20
-57.905659
 40
38.72702
 50
170.09415
 51
189.90584
  0
ARC
  8
0
  6
CONTINUOUS
 62
     7
 10
-204.21773
 20
-71.796913
 40
7.3179798
 50
337.07688
 51
22.923115
  0
ARC
  8
0
  6
CONTINUOUS
 62
     7
 10
-235.62733
 20
-57.905659
 40
38.72702
 50
350.09416
 51
9.9058404
  0
ARC
  8
0
  6
CONTINUOUS
 62
     7
 10
-141.17531
 20
-65.471344
 40
38.125019
 50
170.71048
 51
189.28953
  0
ARC
  8
0
  6
CONTINUOUS
 62
     7
 10
-168.40033
 20
-67.647232
 40
5
 50
270
 51
0
  0
ARC
  8
0
  6
CONTINUOUS
 62
     7
 10
-103.3003
 20
-48.147232
 40
76.000023
 50
180.00001
 51
186.57588
  0
ARC
  8
0
  6
CONTINUOUS
 62
     7
 10
16.411829
 20
-65.424515
 40
35.227299
 50
165.28954
 51
194.71046
  0
ARC
  8
0
  6
CONTINUOUS
 62
     7
 10
-41.04277
 20
-65.424515
 40
35.227299
 50
345.28954
 51
14.710455
  0
ARC
  8
0
  6
CONTINUOUS
 62
     7
 10
-12.524497
 20
-81.989174
 40
6.7092843
 50
325.87928
 51
34.120722
  0
ARC
  8
0
  6
CONTINUOUS
 62
     7
 10
-12.106437
 20
-81.989174
 40
6.7092843
 50
145.87928
 51
214.12072
  0
ARC
  8
0
  6
CONTINUOUS
 62
     7
 10
23.184534
 20
-77.25267
 40
6
 50
270
 51
0
  0
ARC
  8
0
  6
CONTINUOUS
 62
     7
 10
102.28493
 20
-53.752666
 40
91.000397
 50
180.00001
 51
186.00896
  0
ARC
  8
0
  6
CONTINUOUS
 62
     7
 10
56.909737
 20
-74.61232
 40
45.625206
 50
171.50982
 51
188.49018
  0
ARC
  8
0
  6
CONTINUOUS
 62
     7
 10
-90.122757
 20
-62.061249
 40
35.227299
 50
165.28954
 51
194.71046
  0
ARC
  8
0
  6
CONTINUOUS
 62
     7
 10
-147.57736
 20
-62.061249
 40
35.227299
 50
345.28954
 51
14.710455
  0
ARC
  8
0
  6
CONTINUOUS
 62
     7
 10
-119.0591
 20
-78.625908
 40
6.7092843
 50
325.87928
 51
34.120722
  0
ARC
  8
0
  6
CONTINUOUS
 62
     7
 10
-118.64104
 20
-78.625908
 40
6.7092843
 50
145.87928
 51
214.12072
  0
ARC
  8
0
  6
CONTINUOUS
 62
     7
 10
-49.624859
 20
-71.249054
 40
45.625206
 50
171.50982
 51
188.49018
  0
ARC
  8
0
  6
CONTINUOUS
 62
     7
 10
-4.2496705
 20
-50.389404
 40
91.000397
 50
180.00001
 51
186.00896
  0
ARC
  8
0
  6
CONTINUOUS
 62
     7
 10
-83.350067
 20
-73.889404
 40
6
 50
270
 51
0
  0
ARC
  8
0
  6
CONTINUOUS
 62
     7
 10
-303.15256
 20
-265.19638
 40
39.108093
 50
346.04231
 51
13.957685
  0
ARC
  8
0
  6
CONTINUOUS
 62
     7
 10
-239.93639
 20
-265.19638
 40
39.108093
 50
166.04231
 51
193.95769
  0
ARC
  8
0
  6
CONTINUOUS
 62
     7
 10
-271.55042
 20
-283.68744
 40
7.4946027
 50
147.76379
 51
212.2362
  0
ARC
  8
0
  6
CONTINUOUS
 62
     7
 10
-271.53854
 20
-283.68744
 40
7.4946027
 50
327.7638
 51
32.236201
  0
ARC
  8
0
  6
CONTINUOUS
 62
     7
 10
-236.54448
 20
-278.18515
 40
8
 50
270
 51
0
  0
ARC
  8
0
  6
CONTINUOUS
 62
     7
 10
-196.16948
 20
-276.22678
 40
52.375008
 50
172.07669
 51
187.92331
  0
ARC
  8
0
  6
CONTINUOUS
 62
     7
 10
-144.04446
 20
-252.18513
 40
104.50002
 50
180.00001
 51
185.6071
  0
ARC
  8
0
  6
CONTINUOUS
 62
     7
 10
-172.53148
 20
-283.68744
 40
7.4946027
 50
147.76379
 51
212.2362
  0
ARC
  8
0
  6
CONTINUOUS
 62
     7
 10
-140.91743
 20
-265.19638
 40
39.108093
 50
166.04231
 51
193.95769
  0
ARC
  8
0
  6
CONTINUOUS
 62
     7
 10
-172.51958
 20
-283.68744
 40
7.4946027
 50
327.7638
 51
32.236201
  0
ARC
  8
0
  6
CONTINUOUS
 62
     7
 10
-204.13362
 20
-265.19638
 40
39.108093
 50
346.04231
 51
13.957685
  0
ARC
  8
0
  6
CONTINUOUS
 62
     7
 10
-132.52553
 20
-278.18512
 40
8
 50
270
 51
0
  0
ARC
  8
0
  6
CONTINUOUS
 62
     7
 10
-92.150513
 20
-276.22678
 40
52.375008
 50
172.07669
 51
187.92331
  0
ARC
  8
0
  6
CONTINUOUS
 62
     7
 10
-40.025505
 20
-252.18513
 40
104.50002
 50
180.00001
 51
185.6071
  0
ARC
  8
0
  6
CONTINUOUS
 62
     7
 10
-125.81297
 20
-266.75406
 40
62.669655
 50
348.98425
 51
11.015753
  0
ARC
  8
0
  6
CONTINUOUS
 62
     7
 10
-74.719376
 20
-289.0235
 40
11.576342
 50
334.18814
 51
25.811862
  0
ARC
  8
0
  6
CONTINUOUS
 62
     7
 10
-15.473664
 20
-266.75406
 40
62.669655
 50
168.98425
 51
191.01575
  0
ARC
  8
0
  6
CONTINUOUS
 62
     7
 10
-66.567245
 20
-289.0235
 40
11.576342
 50
154.18813
 51
205.81186
  0
ARC
  8
0
  6
CONTINUOUS
 62
     7
 10
-268.72809
 20
-417.94855
 40
11.57641
 50
334.1883
 51
25.811698
  0
ARC
  8
0
  6
CONTINUOUS
 62
     7
 10
-265.57584
 20
-417.94855
 40
11.57641
 50
154.1883
 51
205.8117
  0
ARC
  8
0
  6
CONTINUOUS
 62
     7
 10
-319.82202
 20
-395.67914
 40
62.670059
 50
348.98432
 51
11.015681
  0
ARC
  8
0
  6
CONTINUOUS
 62
     7
 10
-214.4819
 20
-395.67914
 40
62.670059
 50
168.98432
 51
191.01568
  0
ARC
  8
0
  6
CONTINUOUS
 62
     7
 10
-25.143312
 20
-284.06406
 40
8
 50
270
 51
0
  0
ARC
  8
0
  6
CONTINUOUS
 62
     7
 10
127.6063
 20
-251.06404
 40
168.24962
 50
179.99999
 51
184.41828
  0
ARC
  8
0
  6
CONTINUOUS
 62
     7
 10
43.606495
 20
-280.05542
 40
84.249809
 50
173.7547
 51
186.24531
  0
ARC
  8
0
  6
CONTINUOUS
 62
     7
 10
-219.65198
 20
-412.98911
 40
8
 50
270
 51
0
  0
ARC
  8
0
  6
CONTINUOUS
 62
     7
 10
-150.90216
 20
-408.98047
 40
84.249809
 50
173.7547
 51
186.24531
  0
ARC
  8
0
  6
CONTINUOUS
 62
     7
 10
-66.902359
 20
-379.98911
 40
168.24962
 50
179.99999
 51
184.41828
  0
ARC
  8
0
  6
CONTINUOUS
 62
     7
 10
-251.62006
 20
70.822845
 40
23.203985
 50
167.19205
 51
192.80793
  0
ARC
  8
0
  6
CONTINUOUS
 62
     7
 10
-270.58322
 20
78.94635
 40
4.24085
 50
149.75284
 51
210.24714
  0
ARC
  8
0
  6
CONTINUOUS
 62
     7
 10
-268.06491
 20
78.94635
 40
4.24085
 50
329.75285
 51
30.247151
  0
ARC
  8
0
  6
CONTINUOUS
 62
     7
 10
-287.02805
 20
70.822845
 40
23.203985
 50
347.19206
 51
12.807943
  0
ARC
  8
0
  6
CONTINUOUS
 62
     7
 10
-245.82405
 20
75.582596
 40
4
 50
0
 51
90.000003
  0
ARC
  8
0
  6
CONTINUOUS
 62
     7
 10
-241.73068
 20
75.33593
 40
11.59337
 50
163.11152
 51
196.88848
  0
ARC
  8
0
  6
CONTINUOUS
 62
     7
 10
-230.3835
 20
65.082596
 40
22.940548
 50
168.0157
 51
180.00001
  0
ARC
  8
0
  6
CONTINUOUS
 62
     7
 10
-219.78442
 20
71.779556
 40
26.899755
 50
348.10776
 51
11.89224
  0
ARC
  8
0
  6
CONTINUOUS
 62
     7
 10
-197.81096
 20
81.268494
 40
4.9262962
 50
331.98224
 51
28.017762
  0
ARC
  8
0
  6
CONTINUOUS
 62
     7
 10
-176.98491
 20
71.779556
 40
26.899755
 50
168.10776
 51
191.89224
  0
ARC
  8
0
  6
CONTINUOUS
 62
     7
 10
-198.95837
 20
81.268494
 40
4.9262962
 50
151.98224
 51
208.01776
  0
ARC
  8
0
  6
CONTINUOUS
 62
     7
 10
-174.88467
 20
77.082596
 40
5
 50
0
 51
90.000003
  0
ARC
  8
0
  6
CONTINUOUS
 62
     7
 10
-149.5062
 20
65.082596
 40
33.878471
 50
170.14412
 51
179.99999
  0
ARC
  8
0
  6
CONTINUOUS
 62
     7
 10
-166.32043
 20
77.103409
 40
17.064236
 50
166.09586
 51
193.90414
  0
ARC
  8
0
  6
CONTINUOUS
 62
     7
 10
-97.52964
 20
75.96151
 40
5
 50
0
 51
90.000003
  0
ARC
  8
0
  6
CONTINUOUS
 62
     7
 10
-145.42952
 20
70.65847
 40
26.899881
 50
348.10782
 51
11.892183
  0
ARC
  8
0
  6
CONTINUOUS
 62
     7
 10
-123.45596
 20
80.147408
 40
4.9263172
 50
331.98237
 51
28.017634
  0
ARC
  8
0
  6
CONTINUOUS
 62
     7
 10
-102.62981
 20
70.65847
 40
26.89983
 50
168.10779
 51
191.8922
  0
ARC
  8
0
  6
CONTINUOUS
 62
     7
 10
-124.60333
 20
80.147408
 40
4.9263086
 50
151.98231
 51
208.01769
  0
ARC
  8
0
  6
CONTINUOUS
 62
     7
 10
-88.965408
 20
75.982323
 40
17.064236
 50
166.09586
 51
193.90414
  0
ARC
  8
0
  6
CONTINUOUS
 62
     7
 10
-72.151176
 20
63.96151
 40
33.878471
 50
170.14412
 51
179.99999
  0
ARC
  8
0
  6
CONTINUOUS
 62
     7
 10
-38.646233
 20
82.792923
 40
6.2374358
 50
155.15368
 51
204.84632
  0
ARC
  8
0
  6
CONTINUOUS
 62
     7
 10
-40.121117
 20
82.792923
 40
6.2374358
 50
335.15368
 51
24.846323
  0
ARC
  8
0
  6
CONTINUOUS
 62
     7
 10
-67.436333
 20
70.832848
 40
33.552666
 50
349.35568
 51
10.644325
  0
ARC
  8
0
  6
CONTINUOUS
 62
     7
 10
-11.33101
 20
70.832848
 40
33.552666
 50
169.35567
 51
190.64432
  0
ARC
  8
0
  6
CONTINUOUS
 62
     7
 10
-8.8836679
 20
78.913811
 40
5
 50
0
 51
90.000003
  0
ARC
  8
0
  6
CONTINUOUS
 62
     7
 10
25.86632
 20
62.413811
 40
44.249989
 50
171.37864
 51
179.99999
  0
ARC
  8
0
  6
CONTINUOUS
 62
     7
 10
3.8663282
 20
77.616608
 40
22.249998
 50
167.83045
 51
192.16954
  0
ARC
  8
0
  6
CONTINUOUS
 62
     7
 10
-276.55902
 20
-23.376463
 40
7.3179798
 50
157.07688
 51
202.92312
  0
ARC
  8
0
  6
CONTINUOUS
 62
     7
 10
-245.14941
 20
-37.267712
 40
38.72702
 50
170.09415
 51
189.90584
  0
ARC
  8
0
  6
CONTINUOUS
 62
     7
 10
-280.19385
 20
-23.376463
 40
7.3179798
 50
337.07688
 51
22.923115
  0
ARC
  8
0
  6
CONTINUOUS
 62
     7
 10
-311.60345
 20
-37.267712
 40
38.72702
 50
350.09416
 51
9.9058404
  0
ARC
  8
0
  6
CONTINUOUS
 62
     7
 10
-219.65143
 20
-29.702032
 40
38.125019
 50
170.71047
 51
189.28951
  0
ARC
  8
0
  6
CONTINUOUS
 62
     7
 10
-181.77643
 20
-47.026142
 40
76.000023
 50
173.42412
 51
179.99999
  0
ARC
  8
0
  6
CONTINUOUS
 62
     7
 10
-246.87643
 20
-27.526144
 40
5
 50
0
 51
90.000003
  0
ARC
  8
0
  6
CONTINUOUS
 62
     7
 10
-200.5829
 20
-24.497551
 40
7.3179798
 50
157.07688
 51
202.92312
  0
ARC
  8
0
  6
CONTINUOUS
 62
     7
 10
-169.17331
 20
-38.388805
 40
38.72702
 50
170.09415
 51
189.90584
  0
ARC
  8
0
  6
CONTINUOUS
 62
     7
 10
-204.21773
 20
-24.497551
 40
7.3179798
 50
337.07688
 51
22.923115
  0
ARC
  8
0
  6
CONTINUOUS
 62
     7
 10
-235.62733
 20
-38.388805
 40
38.72702
 50
350.09416
 51
9.9058404
  0
ARC
  8
0
  6
CONTINUOUS
 62
     7
 10
-141.17531
 20
-30.823116
 40
38.125019
 50
170.71047
 51
189.28951
  0
ARC
  8
0
  6
CONTINUOUS
 62
     7
 10
-168.40033
 20
-28.647232
 40
5
 50
0
 51
90.000003
  0
ARC
  8
0
  6
CONTINUOUS
 62
     7
 10
-103.3003
 20
-48.147228
 40
76.000023
 50
173.42412
 51
179.99999
  0
ARC
  8
0
  6
CONTINUOUS
 62
     7
 10
-90.122757
 20
-38.71756
 40
35.227299
 50
165.28954
 51
194.71046
  0
ARC
  8
0
  6
CONTINUOUS
 62
     7
 10
-147.57736
 20
-38.71756
 40
35.227299
 50
345.28954
 51
14.710455
  0
ARC
  8
0
  6
CONTINUOUS
 62
     7
 10
-119.0591
 20
-22.152903
 40
6.7092843
 50
325.87928
 51
34.120722
  0
ARC
  8
0
  6
CONTINUOUS
 62
     7
 10
-118.64104
 20
-22.152903
 40
6.7092843
 50
145.87928
 51
214.12072
  0
ARC
  8
0
  6
CONTINUOUS
 62
     7
 10
-49.624859
 20
-29.529757
 40
45.625206
 50
171.50982
 51
188.49018
  0
ARC
  8
0
  6
CONTINUOUS
 62
     7
 10
-4.2496705
 20
-50.389404
 40
91.000397
 50
173.99104
 51
179.99999
  0
ARC
  8
0
  6
CONTINUOUS
 62
     7
 10
-83.350067
 20
-26.889406
 40
6
 50
0
 51
90.000003
  0
ARC
  8
0
  6
CONTINUOUS
 62
     7
 10
16.411829
 20
-42.080822
 40
35.227299
 50
165.28954
 51
194.71046
  0
ARC
  8
0
  6
CONTINUOUS
 62
     7
 10
-41.04277
 20
-42.080822
 40
35.227299
 50
345.28954
 51
14.710455
  0
ARC
  8
0
  6
CONTINUOUS
 62
     7
 10
-12.524497
 20
-25.516165
 40
6.7092843
 50
325.87928
 51
34.120722
  0
ARC
  8
0
  6
CONTINUOUS
 62
     7
 10
-12.106437
 20
-25.516165
 40
6.7092843
 50
145.87928
 51
214.12072
  0
ARC
  8
0
  6
CONTINUOUS
 62
     7
 10
23.184534
 20
-30.252668
 40
6
 50
0
 51
90.000003
  0
ARC
  8
0
  6
CONTINUOUS
 62
     7
 10
102.28493
 20
-53.752666
 40
91.000397
 50
173.99104
 51
179.99999
  0
ARC
  8
0
  6
CONTINUOUS
 62
     7
 10
56.909737
 20
-32.893017
 40
45.625206
 50
171.50982
 51
188.49018
  0
ARC
  8
0
  6
CONTINUOUS
 62
     7
 10
-303.15256
 20
-239.1739
 40
39.108093
 50
346.04231
 51
13.957685
  0
ARC
  8
0
  6
CONTINUOUS
 62
     7
 10
-239.93639
 20
-239.1739
 40
39.108093
 50
166.04231
 51
193.95769
  0
ARC
  8
0
  6
CONTINUOUS
 62
     7
 10
-271.55042
 20
-220.68283
 40
7.4946027
 50
147.76379
 51
212.2362
  0
ARC
  8
0
  6
CONTINUOUS
 62
     7
 10
-271.53854
 20
-220.68283
 40
7.4946027
 50
327.7638
 51
32.236201
  0
ARC
  8
0
  6
CONTINUOUS
 62
     7
 10
-236.54448
 20
-226.18513
 40
8
 50
0
 51
90.000003
  0
ARC
  8
0
  6
CONTINUOUS
 62
     7
 10
-196.16948
 20
-228.14351
 40
52.375008
 50
172.07669
 51
187.92331
  0
ARC
  8
0
  6
CONTINUOUS
 62
     7
 10
-144.04446
 20
-252.18513
 40
104.50002
 50
174.3929
 51
179.99999
  0
ARC
  8
0
  6
CONTINUOUS
 62
     7
 10
-268.72809
 20
-342.02963
 40
11.57641
 50
334.1883
 51
25.811698
  0
ARC
  8
0
  6
CONTINUOUS
 62
     7
 10
-265.57584
 20
-342.02963
 40
11.57641
 50
154.1883
 51
205.8117
  0
ARC
  8
0
  6
CONTINUOUS
 62
     7
 10
-319.82202
 20
-364.29907
 40
62.670059
 50
348.98432
 51
11.015681
  0
ARC
  8
0
  6
CONTINUOUS
 62
     7
 10
-214.4819
 20
-364.29907
 40
62.670059
 50
168.98432
 51
191.01568
  0
ARC
  8
0
  6
CONTINUOUS
 62
     7
 10
-219.65198
 20
-346.98911
 40
8
 50
0
 51
90.000003
  0
ARC
  8
0
  6
CONTINUOUS
 62
     7
 10
-150.90216
 20
-350.99771
 40
84.249809
 50
173.75468
 51
186.2453
  0
ARC
  8
0
  6
CONTINUOUS
 62
     7
 10
-66.902359
 20
-379.98911
 40
168.24962
 50
175.58172
 51
180.00001
  0
ARC
  8
0
  6
CONTINUOUS
 62
     7
 10
-125.81297
 20
-235.37402
 40
62.669655
 50
348.98425
 51
11.015753
  0
ARC
  8
0
  6
CONTINUOUS
 62
     7
 10
-74.719376
 20
-213.10458
 40
11.576342
 50
334.18814
 51
25.811862
  0
ARC
  8
0
  6
CONTINUOUS
 62
     7
 10
-15.473664
 20
-235.37402
 40
62.669655
 50
168.98425
 51
191.01575
  0
ARC
  8
0
  6
CONTINUOUS
 62
     7
 10
-66.567245
 20
-213.10458
 40
11.576342
 50
154.18813
 51
205.81186
  0
ARC
  8
0
  6
CONTINUOUS
 62
     7
 10
-25.143312
 20
-218.06404
 40
8
 50
0
 51
90.000003
  0
ARC
  8
0
  6
CONTINUOUS
 62
     7
 10
127.6063
 20
-251.06404
 40
168.24962
 50
175.58172
 51
180.00001
  0
ARC
  8
0
  6
CONTINUOUS
 62
     7
 10
43.606495
 20
-222.07266
 40
84.249809
 50
173.75468
 51
186.2453
  0
ARC
  8
0
  6
CONTINUOUS
 62
     7
 10
-172.53148
 20
-220.68285
 40
7.4946027
 50
147.76379
 51
212.2362
  0
ARC
  8
0
  6
CONTINUOUS
 62
     7
 10
-140.91743
 20
-239.1739
 40
39.108093
 50
166.04231
 51
193.95769
  0
ARC
  8
0
  6
CONTINUOUS
 62
     7
 10
-172.51958
 20
-220.68285
 40
7.4946027
 50
327.7638
 51
32.236201
  0
ARC
  8
0
  6
CONTINUOUS
 62
     7
 10
-204.13362
 20
-239.1739
 40
39.108093
 50
346.04231
 51
13.957685
  0
ARC
  8
0
  6
CONTINUOUS
 62
     7
 10
-132.52553
 20
-226.18515
 40
8
 50
0
 51
90.000003
  0
ARC
  8
0
  6
CONTINUOUS
 62
     7
 10
-92.150513
 20
-228.14351
 40
52.375008
 50
172.07669
 51
187.92331
  0
ARC
  8
0
  6
CONTINUOUS
 62
     7
 10
-40.025505
 20
-252.18513
 40
104.50002
 50
174.3929
 51
179.99999
  0
TEXT
  8
0
  6
CONTINUOUS
 62
     7
 10
-448.18668
 20
100.9722
 40
3.2
 41
1.0285716
  1
13
  0
TEXT
  8
0
  6
CONTINUOUS
 62
     7
 10
-449.74558
 20
58.88214
 40
3.2
 41
1.0285716
  1
20
  0
TEXT
  8
0
  6
CONTINUOUS
 62
     7
 10
-452.86335
 20
7.4387392
 40
3.2
 41
1.0285716
  1
25
  0
TEXT
  8
0
  6
CONTINUOUS
 62
     7
 10
-450.52503
 20
-56.47579
 40
3.2
 41
1.0285716
  1
30
  0
TEXT
  8
0
  6
CONTINUOUS
 62
     7
 10
-450.18433
 20
-132.60479
 40
3.2
 41
1.0285716
  1
40
  0
TEXT
  8
0
  6
CONTINUOUS
 62
     7
 10
-443.42539
 20
-210.33271
 40
3.2
 41
1.0285716
  1
50
  0
TEXT
  8
0
  6
CONTINUOUS
 62
     7
 10
-450.54114
 20
-310.81277
 40
3.2
 41
1.0285716
  1
60
  0
TEXT
  8
0
  6
CONTINUOUS
 62
     7
 10
-282.77682
 20
118.76988
 40
8
 41
0.84260121
  1
コマサスフィット継手　めすアダプター
  0
TEXT
  8
0
  6
CONTINUOUS
 62
     7
 10
-284.24547
 20
95.836304
 40
8
 41
0.84741103
  1
１３×１／２
  0
TEXT
  8
0
  6
CONTINUOUS
 62
     7
 10
-212.49588
 20
95.836304
 40
8
 41
0.84741103
  1
２０×１／２
  0
TEXT
  8
0
  6
CONTINUOUS
 62
     7
 10
-132.89868
 20
96.95739
 40
8
 41
0.84741103
  1
２０×３／４
  0
TEXT
  8
0
  6
CONTINUOUS
 62
     7
 10
-42.090597
 20
104.805
 40
8
 41
0.85127006
  1
２５×１
  0
TEXT
  8
0
  6
CONTINUOUS
 62
     7
 10
-278.64003
 20
-3.9404732
 40
8
 41
0.85127006
  1
３０×１
  0
TEXT
  8
0
  6
CONTINUOUS
 62
     7
 10
-210.25371
 20
7.270401
 40
8
 41
0.84634979
  1
３０×１１／４
  0
TEXT
  8
0
  6
CONTINUOUS
 62
     7
 10
-21.911026
 20
2.7860513
 40
8
 41
0.84634979
  1
４０×１１／２
  0
TEXT
  8
0
  6
CONTINUOUS
 62
     7
 10
-129.53542
 20
8.3914881
 40
8
 41
0.84634979
  1
４０×１１／４
  0
TEXT
  8
0
  6
CONTINUOUS
 62
     7
 10
-282.00331
 20
-195.64642
 40
8
 41
0.84634979
  1
５０×１１／２
  0
TEXT
  8
0
  6
CONTINUOUS
 62
     7
 10
-171.01564
 20
-190.04099
 40
8
 41
0.85127006
  1
５０×２
  0
TEXT
  8
0
  6
CONTINUOUS
 62
     7
 10
-63.39126
 20
-190.04099
 40
8
 41
0.85127006
  1
６０×２
  0
TEXT
  8
0
  6
CONTINUOUS
 62
     7
 10
-274.15569
 20
-317.84494
 40
8
 41
0.84634979
  1
６０×２１／２
  0
POINT
  8
1
  6
CONTINUOUS
 62
     7
 10
-311.3107
 20
-470.71918
  0
POINT
  8
1
  6
CONTINUOUS
 62
     7
 10
-311.3107
 20
-153.71919
  0
POINT
  8
1
  6
CONTINUOUS
 62
     7
 10
-311.3107
 20
-767.71918
  0
POINT
  8
1
  6
CONTINUOUS
 62
     7
 10
108.68929
 20
-153.71919
  0
POINT
  8
1
  6
CONTINUOUS
 62
     7
 10
-311.3107
 20
-777.71918
  0
POINT
  8
1
  6
CONTINUOUS
 62
     7
 10
-311.3107
 20
143.28081
  0
POINT
  8
1
  6
CONTINUOUS
 62
     7
 10
-311.3107
 20
-153.71919
  0
POINT
  8
1
  6
CONTINUOUS
 62
     7
 10
-311.3107
 20
-163.71919
  0
POINT
  8
1
  6
CONTINUOUS
 62
     7
 10
-311.3107
 20
-163.71919
  0
POINT
  8
1
  6
CONTINUOUS
 62
     7
 10
-311.3107
 20
-460.71918
  0
POINT
  8
1
  6
CONTINUOUS
 62
     7
 10
-311.3107
 20
-470.71918
  0
LINE
  8
1
  6
CONTINUOUS
 62
     7
 10
108.68929
 20
143.28081
 11
108.68929
 21
-33.714287
  0
LINE
  8
1
  6
CONTINUOUS
 62
     2
 10
-311.3107
 20
-470.71918
 11
108.68929
 21
-470.71918
  0
LINE
  8
1
  6
CONTINUOUS
 62
     2
 10
-311.3107
 20
-470.71918
 11
-311.3107
 21
-767.71918
  0
LINE
  8
1
  6
CONTINUOUS
 62
     2
 10
-311.3107
 20
-767.71918
 11
108.68929
 21
-767.71918
  0
LINE
  8
1
  6
CONTINUOUS
 62
     2
 10
108.68929
 20
-470.71918
 11
108.68929
 21
-767.71918
  0
LINE
  8
1
  6
CONTINUOUS
 62
     2
 10
-311.3107
 20
143.28081
 11
-311.3107
 21
-153.71919
  0
LINE
  8
1
  6
CONTINUOUS
 62
     2
 10
-311.3107
 20
-153.71919
 11
108.68929
 21
-153.71919
  0
LINE
  8
1
  6
CONTINUOUS
 62
     2
 10
108.68929
 20
143.28081
 11
108.68929
 21
-153.71919
  0
LINE
  8
1
  6
CONTINUOUS
 62
     2
 10
-311.3107
 20
143.28081
 11
108.68929
 21
143.28081
  0
LINE
  8
1
  6
CONTINUOUS
 62
     2
 10
-311.3107
 20
-163.71919
 11
-311.3107
 21
-460.71918
  0
LINE
  8
1
  6
CONTINUOUS
 62
     2
 10
-311.3107
 20
-460.71918
 11
108.68929
 21
-460.71918
  0
LINE
  8
1
  6
CONTINUOUS
 62
     2
 10
108.68929
 20
-163.71919
 11
108.68929
 21
-460.71918
  0
LINE
  8
1
  6
CONTINUOUS
 62
     2
 10
-311.3107
 20
-163.71919
 11
108.68929
 21
-163.71919
  0
ENDSEC
  0
EOF
