  0
SECTION
  2
HEADER
  9
$EXTMAX
 10
0
 20
297
  9
$EXTMIN
 10
-210
 20
0
  0
ENDSEC
  0
SECTION
  2
TABLES
  0
TABLE
  2
LTYPE
 70
    22
  0
LTYPE
  2
CONTINUOUS
 70
    64
  3
Solid line
 72
    65
 73
     0
 40
0.000000
  0
LTYPE
  2
DASHED
 70
    64
  3
__ __ __ __ __ __ __ __ __ __ __ __ __ __ __
 72
    65
 73
     2
 40
3.500000
 49
2.000000
 49
-1.500000
  0
LTYPE
  2
CENTER
 70
    64
  3
____ _ ____ _ ____ _ ____ _ ____ _ ____ _ ____
 72
    65
 73
     4
 40
17.500000
 49
13.000000
 49
-1.500000
 49
1.500000
 49
-1.500000
  0
LTYPE
  2
PHANTOM
 70
    64
  3
_____ _ _ _____ _ _ _____ _ _ _____ _ _ ____  
 72
    65
 73
     6
 40
15.500000
 49
8.000000
 49
-1.500000
 49
1.500000
 49
-1.500000
 49
1.500000
 49
-1.500000
  0
LTYPE
  2
DOT
 70
    64
  3
. . . . . . . . . . . . . . . . . . . . . . . .
 72
    65
 73
     2
 40
0.25
 49
0.0
 49
-0.25
  0
ENDTAB
  0
TABLE
  2
LAYER
 70
     2
  0
LAYER
  2
0
 70
     0
 62
     7
  6
CONTINUOUS
  0
LAYER
  2
1
 70
     0
 62
     7
  6
CONTINUOUS
  0
ENDTAB
  0
TABLE
  2
STYLE
 70
     1
  0
STYLE
  2
STANDARD
 70
     0
 40
0.000000
 41
1.000000
 50
0.000000
 71
     0
 42
0.200000
  3
txt
  4
BIGFONT
  0
ENDTAB
  0
TABLE
  2
VIEW
 70
     0
  0
ENDTAB
  0
ENDSEC
  0
SECTION
  2
BLOCKS
  0
ENDSEC
  0
SECTION
  2
ENTITIES
  0
POINT
  8
0
  6
CONTINUOUS
 62
     7
 10
-110.62278
 20
182.23816
  0
POINT
  8
0
  6
CONTINUOUS
 62
     7
 10
-110.62278
 20
182.23816
  0
LINE
  8
0
  6
CENTER
 62
     7
 10
-110.62278
 20
219.89044
 11
-110.62278
 21
143.64844
  0
LINE
  8
0
  6
CENTER
 62
     7
 10
-70.292595
 20
182.23816
 11
-132.20914
 21
182.23816
  0
LINE
  8
0
  6
CONTINUOUS
 62
     7
 10
-127.12278
 20
217.23817
 11
-127.12278
 21
147.23816
  0
LINE
  8
0
  6
CONTINUOUS
 62
     7
 10
-94.12278
 20
217.23817
 11
-127.12278
 21
217.23817
  0
LINE
  8
0
  6
CONTINUOUS
 62
     7
 10
-94.12278
 20
147.23816
 11
-127.12278
 21
147.23816
  0
LINE
  8
0
  6
CONTINUOUS
 62
     7
 10
-94.12278
 20
157.73816
 11
-94.12278
 21
147.23816
  0
LINE
  8
0
  6
CONTINUOUS
 62
     7
 10
-76.62278
 20
161.73816
 11
-90.12278
 21
161.73816
  0
LINE
  8
0
  6
CONTINUOUS
 62
     7
 10
-76.62278
 20
202.73816
 11
-76.62278
 21
161.73816
  0
LINE
  8
0
  6
CONTINUOUS
 62
     7
 10
-76.62278
 20
202.73817
 11
-90.12278
 21
202.73817
  0
LINE
  8
0
  6
CONTINUOUS
 62
     7
 10
-94.12278
 20
217.23816
 11
-94.12278
 21
206.73816
  0
LINE
  8
0
  6
CONTINUOUS
 62
     7
 10
-76.62278
 20
198.48816
 11
-73.997292
 21
198.48816
  0
LINE
  8
0
  6
CONTINUOUS
 62
     7
 10
-76.62278
 20
165.98816
 11
-73.997292
 21
165.98816
  0
LINE
  8
0
  6
CONTINUOUS
 62
     7
 10
-73.997292
 20
198.48816
 11
-73.997292
 21
165.98816
  0
LINE
  8
0
  6
CONTINUOUS
 62
     7
 10
-78.107109
 20
202.73816
 11
-78.107109
 21
161.73816
  0
LINE
  8
0
  6
CONTINUOUS
 62
     7
 10
-85.107109
 20
202.73816
 11
-85.107109
 21
161.73816
  0
LINE
  8
0
  6
CONTINUOUS
 62
     7
 10
-116.62278
 20
182.83817
 11
-114.97932
 21
182.83817
  0
LINE
  8
0
  6
CONTINUOUS
 62
     7
 10
-116.62278
 20
181.63815
 11
-114.97932
 21
181.63815
  0
LINE
  8
0
  6
CONTINUOUS
 62
     7
 10
-106.26624
 20
181.63815
 11
-104.62278
 21
181.63815
  0
LINE
  8
0
  6
CONTINUOUS
 62
     7
 10
-106.26624
 20
182.83817
 11
-104.62278
 21
182.83817
  0
LINE
  8
0
  6
CONTINUOUS
 62
     7
 10
-113.77497
 20
181.63815
 11
-110.62278
 21
181.63815
  0
LINE
  8
0
  6
CONTINUOUS
 62
     7
 10
-113.77497
 20
182.83817
 11
-110.62278
 21
182.83817
  0
ARC
  8
0
  6
CONTINUOUS
 62
     7
 10
-90.12278
 20
157.73816
 40
4
 50
89.999989
 51
180.00001
  0
ARC
  8
0
  6
CONTINUOUS
 62
     7
 10
-90.12278
 20
206.73816
 40
4
 50
179.99999
 51
270
  0
ARC
  8
0
  6
CONTINUOUS
 62
     7
 10
-113.92509
 20
182.23816
 40
7.6823077
 50
4.4794472
 51
36.008324
  0
ARC
  8
0
  6
CONTINUOUS
 62
     7
 10
-110.62278
 20
184.63815
 40
2.4000001
 50
36.008324
 51
143.99167
  0
ARC
  8
0
  6
CONTINUOUS
 62
     7
 10
-110.62278
 20
184.63815
 40
3.5999999
 50
36.008324
 51
143.99167
  0
ARC
  8
0
  6
CONTINUOUS
 62
     7
 10
-110.62278
 20
179.83815
 40
2.4000001
 50
216.00833
 51
323.99168
  0
ARC
  8
0
  6
CONTINUOUS
 62
     7
 10
-110.62278
 20
179.83815
 40
3.5999999
 50
216.00833
 51
323.99168
  0
ARC
  8
0
  6
CONTINUOUS
 62
     7
 10
-107.32047
 20
182.23816
 40
7.6823077
 50
143.99167
 51
175.52055
  0
ARC
  8
0
  6
CONTINUOUS
 62
     7
 10
-107.32047
 20
182.23816
 40
6.4823079
 50
143.99167
 51
174.68912
  0
ARC
  8
0
  6
CONTINUOUS
 62
     7
 10
-113.92509
 20
182.23816
 40
6.4823079
 50
323.99167
 51
36.008324
  0
ARC
  8
0
  6
CONTINUOUS
 62
     7
 10
-113.92509
 20
182.23816
 40
7.6823077
 50
323.99167
 51
355.52055
  0
ARC
  8
0
  6
CONTINUOUS
 62
     7
 10
-116.1728
 20
182.23816
 40
0.75
 50
126.8699
 51
233.13009
  0
ARC
  8
0
  6
CONTINUOUS
 62
     7
 10
-111.07279
 20
182.23816
 40
0.75
 50
306.8699
 51
53.130102
  0
ARC
  8
0
  6
CONTINUOUS
 62
     7
 10
-105.07279
 20
182.23816
 40
0.75
 50
306.8699
 51
53.130102
  0
ARC
  8
0
  6
CONTINUOUS
 62
     7
 10
-107.32047
 20
182.23816
 40
6.4823079
 50
185.31088
 51
216.00833
  0
ARC
  8
0
  6
CONTINUOUS
 62
     7
 10
-107.32047
 20
182.23816
 40
7.6823077
 50
184.47945
 51
216.00833
  0
TEXT
  8
0
  6
CONTINUOUS
 62
     7
 10
-186.56013
 20
276.28214
 40
5
 41
0.84247986
  1
ＲＣＦ－Ｋ　ＺＷＴ（給水栓用　チーズ）
  0
TEXT
  8
0
  6
CONTINUOUS
 62
     7
 10
-136.94286
 20
229.04999
 40
3.2
 41
1.0178573
  1
3/4
  0
TEXT
  8
0
  6
CONTINUOUS
 62
     7
 10
-79.775
 20
166.85714
 40
3.2
 41
0.84447575
  1
３／４　器具側　２０
 50
90.000003
  0
POINT
  8
1
  6
CONTINUOUS
 62
     7
 10
-210
 20
0
  0
POINT
  8
1
  6
CONTINUOUS
 62
     7
 10
0
 20
0
  0
POINT
  8
1
  6
CONTINUOUS
 62
     7
 10
0
 20
0
  0
POINT
  8
1
  6
CONTINUOUS
 62
     7
 10
-210
 20
297
  0
POINT
  8
1
  6
CONTINUOUS
 62
     7
 10
-210
 20
0
  0
POINT
  8
1
  6
CONTINUOUS
 62
     7
 10
0
 20
0
  0
POINT
  8
1
  6
CONTINUOUS
 62
     7
 10
0
 20
297
  0
LINE
  8
1
  6
CONTINUOUS
 62
     7
 10
-210
 20
0
 11
0
 21
0
  0
LINE
  8
1
  6
CONTINUOUS
 62
     7
 10
-210
 20
297
 11
0
 21
297
  0
LINE
  8
1
  6
CONTINUOUS
 62
     7
 10
0
 20
297
 11
0
 21
0
  0
LINE
  8
1
  6
CONTINUOUS
 62
     7
 10
-210
 20
297
 11
-210
 21
0
  0
ENDSEC
  0
EOF
