  0
SECTION
  2
HEADER
  9
$EXTMAX
 10
0
 20
297
  9
$EXTMIN
 10
-210
 20
0
  0
ENDSEC
  0
SECTION
  2
TABLES
  0
TABLE
  2
LTYPE
 70
    22
  0
LTYPE
  2
CONTINUOUS
 70
    64
  3
Solid line
 72
    65
 73
     0
 40
0.000000
  0
LTYPE
  2
DASHED
 70
    64
  3
__ __ __ __ __ __ __ __ __ __ __ __ __ __ __
 72
    65
 73
     2
 40
3.500000
 49
2.000000
 49
-1.500000
  0
LTYPE
  2
CENTER
 70
    64
  3
____ _ ____ _ ____ _ ____ _ ____ _ ____ _ ____
 72
    65
 73
     4
 40
17.500000
 49
13.000000
 49
-1.500000
 49
1.500000
 49
-1.500000
  0
LTYPE
  2
PHANTOM
 70
    64
  3
_____ _ _ _____ _ _ _____ _ _ _____ _ _ ____  
 72
    65
 73
     6
 40
15.500000
 49
8.000000
 49
-1.500000
 49
1.500000
 49
-1.500000
 49
1.500000
 49
-1.500000
  0
LTYPE
  2
DOT
 70
    64
  3
. . . . . . . . . . . . . . . . . . . . . . . .
 72
    65
 73
     2
 40
0.25
 49
0.0
 49
-0.25
  0
ENDTAB
  0
TABLE
  2
LAYER
 70
     2
  0
LAYER
  2
0
 70
     0
 62
     7
  6
CONTINUOUS
  0
LAYER
  2
1
 70
     0
 62
     7
  6
CONTINUOUS
  0
ENDTAB
  0
TABLE
  2
STYLE
 70
     1
  0
STYLE
  2
STANDARD
 70
     0
 40
0.000000
 41
1.000000
 50
0.000000
 71
     0
 42
0.200000
  3
txt
  4
BIGFONT
  0
ENDTAB
  0
TABLE
  2
VIEW
 70
     0
  0
ENDTAB
  0
ENDSEC
  0
SECTION
  2
BLOCKS
  0
ENDSEC
  0
SECTION
  2
ENTITIES
  0
POINT
  8
0
  6
CONTINUOUS
 62
     7
 10
-111.65
 20
210.35001
  0
POINT
  8
0
  6
CONTINUOUS
 62
     7
 10
-112
 20
108.5
  0
POINT
  8
0
  6
CONTINUOUS
 62
     7
 10
-111.65
 20
210.35001
  0
POINT
  8
0
  6
CONTINUOUS
 62
     7
 10
-111.65
 20
210.35001
  0
POINT
  8
0
  6
CONTINUOUS
 62
     7
 10
-112
 20
108.5
  0
POINT
  8
0
  6
CONTINUOUS
 62
     7
 10
-112
 20
108.5
  0
LINE
  8
0
  6
CENTER
 62
     7
 10
-111.65
 20
232.10387
 11
-111.65
 21
170.57047
  0
LINE
  8
0
  6
CENTER
 62
     7
 10
-71.649986
 20
210.35001
 11
-151.64999
 21
210.35001
  0
LINE
  8
0
  6
CONTINUOUS
 62
     7
 10
-146.64999
 20
226.85001
 11
-146.64999
 21
193.85001
  0
LINE
  8
0
  6
CONTINUOUS
 62
     7
 10
-146.64999
 20
193.85001
 11
-131.14999
 21
193.85001
  0
LINE
  8
0
  6
CONTINUOUS
 62
     7
 10
-76.649986
 20
226.85001
 11
-146.64999
 21
226.85001
  0
LINE
  8
0
  6
CONTINUOUS
 62
     7
 10
-76.649986
 20
226.85001
 11
-76.649986
 21
193.85001
  0
LINE
  8
0
  6
CONTINUOUS
 62
     7
 10
-76.649986
 20
193.85001
 11
-92.150002
 21
193.85001
  0
LINE
  8
0
  6
CONTINUOUS
 62
     7
 10
-95.150002
 20
190.85001
 11
-95.150002
 21
178.35001
  0
LINE
  8
0
  6
CONTINUOUS
 62
     7
 10
-128.14999
 20
190.85001
 11
-128.14999
 21
178.35001
  0
LINE
  8
0
  6
CONTINUOUS
 62
     7
 10
-124.65
 20
178.35001
 11
-124.65
 21
175.57047
  0
LINE
  8
0
  6
CONTINUOUS
 62
     7
 10
-95.150002
 20
178.35001
 11
-128.14999
 21
178.35001
  0
LINE
  8
0
  6
CONTINUOUS
 62
     7
 10
-98.650002
 20
178.35001
 11
-98.650002
 21
175.57047
  0
LINE
  8
0
  6
CONTINUOUS
 62
     7
 10
-98.650002
 20
175.57047
 11
-124.65
 21
175.57047
  0
LINE
  8
0
  6
CONTINUOUS
 62
     7
 10
-95.150002
 20
179.52243
 11
-128.14999
 21
179.52243
  0
LINE
  8
0
  6
CONTINUOUS
 62
     7
 10
-95.150002
 20
186.52243
 11
-128.14999
 21
186.52243
  0
LINE
  8
0
  6
CONTINUOUS
 62
     7
 10
-150
 20
129
 11
-74.000008
 21
129
  0
LINE
  8
0
  6
CONTINUOUS
 62
     7
 10
-150
 20
129
 11
-150
 21
88.000015
  0
LINE
  8
0
  6
CONTINUOUS
 62
     7
 10
-74.000008
 20
129.00002
 11
-74.000008
 21
88.000015
  0
LINE
  8
0
  6
CENTER
 62
     7
 10
-69.000008
 20
108.5
 11
-155
 21
108.5
  0
LINE
  8
0
  6
CENTER
 62
     7
 10
-112
 20
62.874527
 11
-112
 21
137.07523
  0
LINE
  8
0
  6
CONTINUOUS
 62
     7
 10
-87.500008
 20
88.000015
 11
-74.000008
 21
88.000015
  0
LINE
  8
0
  6
CONTINUOUS
 62
     7
 10
-128.25
 20
70.500015
 11
-128.25
 21
67.874527
  0
LINE
  8
0
  6
CONTINUOUS
 62
     7
 10
-132.5
 20
70.500015
 11
-132.5
 21
84.000015
  0
LINE
  8
0
  6
CONTINUOUS
 62
     7
 10
-136.5
 20
88.000015
 11
-150
 21
88.000015
  0
LINE
  8
0
  6
CONTINUOUS
 62
     7
 10
-95.750008
 20
67.874527
 11
-128.25
 21
67.874527
  0
LINE
  8
0
  6
CONTINUOUS
 62
     7
 10
-95.750008
 20
70.500015
 11
-95.750008
 21
67.874527
  0
LINE
  8
0
  6
CONTINUOUS
 62
     7
 10
-132.5
 20
70.500015
 11
-91.500008
 21
70.500015
  0
LINE
  8
0
  6
CONTINUOUS
 62
     7
 10
-91.500008
 20
70.500015
 11
-91.500008
 21
84.000015
  0
LINE
  8
0
  6
CONTINUOUS
 62
     7
 10
-91.500008
 20
72.099991
 11
-132.5
 21
72.099991
  0
LINE
  8
0
  6
CONTINUOUS
 62
     7
 10
-91.500008
 20
79.099991
 11
-132.5
 21
79.099991
  0
LINE
  8
0
  6
CONTINUOUS
 62
     7
 10
-111.2
 20
214.85001
 11
-111.2
 21
213.6174
  0
LINE
  8
0
  6
CONTINUOUS
 62
     7
 10
-112.1
 20
214.85001
 11
-112.1
 21
213.6174
  0
LINE
  8
0
  6
CONTINUOUS
 62
     7
 10
-112.1
 20
207.08261
 11
-112.1
 21
205.85001
  0
LINE
  8
0
  6
CONTINUOUS
 62
     7
 10
-111.2
 20
207.08261
 11
-111.2
 21
205.85001
  0
LINE
  8
0
  6
CONTINUOUS
 62
     7
 10
-112.1
 20
212.71414
 11
-112.1
 21
210.35001
  0
LINE
  8
0
  6
CONTINUOUS
 62
     7
 10
-111.2
 20
212.71414
 11
-111.2
 21
210.35001
  0
LINE
  8
0
  6
CONTINUOUS
 62
     7
 10
-111.39999
 20
114.5
 11
-111.39999
 21
112.85654
  0
LINE
  8
0
  6
CONTINUOUS
 62
     7
 10
-112.60001
 20
114.5
 11
-112.60001
 21
112.85654
  0
LINE
  8
0
  6
CONTINUOUS
 62
     7
 10
-112.60001
 20
104.14346
 11
-112.60001
 21
102.5
  0
LINE
  8
0
  6
CONTINUOUS
 62
     7
 10
-111.39999
 20
104.14346
 11
-111.39999
 21
102.5
  0
LINE
  8
0
  6
CONTINUOUS
 62
     7
 10
-112.60001
 20
111.65218
 11
-112.60001
 21
108.5
  0
LINE
  8
0
  6
CONTINUOUS
 62
     7
 10
-111.39999
 20
111.65218
 11
-111.39999
 21
108.5
  0
ARC
  8
0
  6
CONTINUOUS
 62
     7
 10
-92.150002
 20
190.85001
 40
3
 50
89.999996
 51
180.00001
  0
ARC
  8
0
  6
CONTINUOUS
 62
     7
 10
-131.14999
 20
190.85001
 40
3
 50
359.99999
 51
90.000003
  0
ARC
  8
0
  6
CONTINUOUS
 62
     7
 10
-87.500008
 20
84.000015
 40
4
 50
89.999996
 51
180.00001
  0
ARC
  8
0
  6
CONTINUOUS
 62
     7
 10
-136.5
 20
84.000015
 40
4
 50
359.99999
 51
90.000003
  0
ARC
  8
0
  6
CONTINUOUS
 62
     7
 10
-112
 20
111.80231
 40
7.6823077
 50
274.47945
 51
306.00832
  0
ARC
  8
0
  6
CONTINUOUS
 62
     7
 10
-109.85
 20
210.35001
 40
1.8
 50
306.00832
 51
53.991676
  0
ARC
  8
0
  6
CONTINUOUS
 62
     7
 10
-109.85
 20
210.35001
 40
2.7
 50
306.00832
 51
53.991676
  0
ARC
  8
0
  6
CONTINUOUS
 62
     7
 10
-113.45
 20
210.35001
 40
1.8
 50
126.00833
 51
233.99168
  0
ARC
  8
0
  6
CONTINUOUS
 62
     7
 10
-113.45
 20
210.35001
 40
2.7
 50
126.00833
 51
233.99168
  0
ARC
  8
0
  6
CONTINUOUS
 62
     7
 10
-111.65
 20
207.87328
 40
5.7617307
 50
53.991676
 51
85.520553
  0
ARC
  8
0
  6
CONTINUOUS
 62
     7
 10
-111.65
 20
207.87328
 40
4.8617306
 50
53.991676
 51
84.689121
  0
ARC
  8
0
  6
CONTINUOUS
 62
     7
 10
-111.65
 20
212.82674
 40
4.8617306
 50
233.99167
 51
306.00832
  0
ARC
  8
0
  6
CONTINUOUS
 62
     7
 10
-111.65
 20
212.82674
 40
5.7617307
 50
233.99167
 51
265.52055
  0
ARC
  8
0
  6
CONTINUOUS
 62
     7
 10
-111.65
 20
214.51251
 40
0.5625
 50
36.869897
 51
143.1301
  0
ARC
  8
0
  6
CONTINUOUS
 62
     7
 10
-111.65
 20
210.6875
 40
0.5625
 50
216.8699
 51
323.1301
  0
ARC
  8
0
  6
CONTINUOUS
 62
     7
 10
-111.65
 20
206.1875
 40
0.5625
 50
216.8699
 51
323.1301
  0
ARC
  8
0
  6
CONTINUOUS
 62
     7
 10
-111.65
 20
207.87328
 40
5.7617307
 50
94.479452
 51
126.00833
  0
ARC
  8
0
  6
CONTINUOUS
 62
     7
 10
-111.65
 20
207.87328
 40
4.8617306
 50
95.310878
 51
126.00833
  0
ARC
  8
0
  6
CONTINUOUS
 62
     7
 10
-111.65
 20
212.82674
 40
5.7617307
 50
274.47945
 51
306.00832
  0
ARC
  8
0
  6
CONTINUOUS
 62
     7
 10
-112
 20
105.19769
 40
7.6823077
 50
94.479452
 51
126.00833
  0
ARC
  8
0
  6
CONTINUOUS
 62
     7
 10
-112
 20
105.19769
 40
6.4823079
 50
95.310878
 51
126.00833
  0
ARC
  8
0
  6
CONTINUOUS
 62
     7
 10
-109.60001
 20
108.5
 40
2.4000001
 50
306.00832
 51
53.991676
  0
ARC
  8
0
  6
CONTINUOUS
 62
     7
 10
-109.60001
 20
108.5
 40
3.5999999
 50
306.00832
 51
53.991676
  0
ARC
  8
0
  6
CONTINUOUS
 62
     7
 10
-112
 20
111.80231
 40
6.4823079
 50
233.99167
 51
306.00832
  0
ARC
  8
0
  6
CONTINUOUS
 62
     7
 10
-112
 20
111.80231
 40
7.6823077
 50
233.99167
 51
265.52055
  0
ARC
  8
0
  6
CONTINUOUS
 62
     7
 10
-114.39999
 20
108.5
 40
2.4000001
 50
126.00833
 51
233.99168
  0
ARC
  8
0
  6
CONTINUOUS
 62
     7
 10
-114.39999
 20
108.5
 40
3.5999999
 50
126.00833
 51
233.99168
  0
ARC
  8
0
  6
CONTINUOUS
 62
     7
 10
-112
 20
105.19769
 40
7.6823077
 50
53.991676
 51
85.520553
  0
ARC
  8
0
  6
CONTINUOUS
 62
     7
 10
-112
 20
105.19769
 40
6.4823079
 50
53.991676
 51
84.689121
  0
ARC
  8
0
  6
CONTINUOUS
 62
     7
 10
-112
 20
114.05
 40
0.75
 50
36.869897
 51
143.1301
  0
ARC
  8
0
  6
CONTINUOUS
 62
     7
 10
-112
 20
108.95
 40
0.75
 50
216.8699
 51
323.1301
  0
ARC
  8
0
  6
CONTINUOUS
 62
     7
 10
-112
 20
102.95
 40
0.75
 50
216.8699
 51
323.1301
  0
TEXT
  8
0
  6
CONTINUOUS
 62
     7
 10
-186.56013
 20
276.28214
 40
5
 41
0.84210156
  1
ＲＣＦ－Ｋ　ＺＷＲＴ（給水栓用　径違いチーズ）
  0
TEXT
  8
0
  6
CONTINUOUS
 62
     7
 10
-127.49286
 20
181.45
 40
3.2
 41
0.84447575
  1
１／２　器具側　１３
  0
TEXT
  8
0
  6
CONTINUOUS
 62
     7
 10
-144.89956
 20
243.47449
 40
3.2
 41
1.0071429
  1
3/4X1/2
  0
TEXT
  8
0
  6
CONTINUOUS
 62
     7
 10
-128.36786
 20
73.65
 40
3.2
 41
0.84447575
  1
３／４　器具側　２０
  0
TEXT
  8
0
  6
CONTINUOUS
 62
     7
 10
-149.71785
 20
147.50001
 40
3.2
 41
1.0102042
  1
1X3/4
  0
POINT
  8
1
  6
CONTINUOUS
 62
     7
 10
-210
 20
0
  0
POINT
  8
1
  6
CONTINUOUS
 62
     7
 10
0
 20
0
  0
POINT
  8
1
  6
CONTINUOUS
 62
     7
 10
0
 20
0
  0
POINT
  8
1
  6
CONTINUOUS
 62
     7
 10
-210
 20
297
  0
POINT
  8
1
  6
CONTINUOUS
 62
     7
 10
-210
 20
0
  0
POINT
  8
1
  6
CONTINUOUS
 62
     7
 10
0
 20
0
  0
POINT
  8
1
  6
CONTINUOUS
 62
     7
 10
0
 20
297
  0
LINE
  8
1
  6
CONTINUOUS
 62
     7
 10
-210
 20
0
 11
0
 21
0
  0
LINE
  8
1
  6
CONTINUOUS
 62
     7
 10
-210
 20
297
 11
0
 21
297
  0
LINE
  8
1
  6
CONTINUOUS
 62
     7
 10
0
 20
297
 11
0
 21
0
  0
LINE
  8
1
  6
CONTINUOUS
 62
     7
 10
-210
 20
297
 11
-210
 21
0
  0
ENDSEC
  0
EOF
