  0
SECTION
  2
HEADER
  9
$EXTMAX
 10
0
 20
297
  9
$EXTMIN
 10
-210
 20
0
  0
ENDSEC
  0
SECTION
  2
TABLES
  0
TABLE
  2
LTYPE
 70
    22
  0
LTYPE
  2
CONTINUOUS
 70
    64
  3
Solid line
 72
    65
 73
     0
 40
0.000000
  0
LTYPE
  2
DASHED
 70
    64
  3
__ __ __ __ __ __ __ __ __ __ __ __ __ __ __
 72
    65
 73
     2
 40
3.500000
 49
2.000000
 49
-1.500000
  0
LTYPE
  2
CENTER
 70
    64
  3
____ _ ____ _ ____ _ ____ _ ____ _ ____ _ ____
 72
    65
 73
     4
 40
17.500000
 49
13.000000
 49
-1.500000
 49
1.500000
 49
-1.500000
  0
LTYPE
  2
PHANTOM
 70
    64
  3
_____ _ _ _____ _ _ _____ _ _ _____ _ _ ____  
 72
    65
 73
     6
 40
15.500000
 49
8.000000
 49
-1.500000
 49
1.500000
 49
-1.500000
 49
1.500000
 49
-1.500000
  0
LTYPE
  2
DOT
 70
    64
  3
. . . . . . . . . . . . . . . . . . . . . . . .
 72
    65
 73
     2
 40
0.25
 49
0.0
 49
-0.25
  0
ENDTAB
  0
TABLE
  2
LAYER
 70
     2
  0
LAYER
  2
0
 70
     0
 62
     7
  6
CONTINUOUS
  0
LAYER
  2
1
 70
     0
 62
     7
  6
CONTINUOUS
  0
ENDTAB
  0
TABLE
  2
STYLE
 70
     1
  0
STYLE
  2
STANDARD
 70
     0
 40
0.000000
 41
1.000000
 50
0.000000
 71
     0
 42
0.200000
  3
txt
  4
BIGFONT
  0
ENDTAB
  0
TABLE
  2
VIEW
 70
     0
  0
ENDTAB
  0
ENDSEC
  0
SECTION
  2
BLOCKS
  0
ENDSEC
  0
SECTION
  2
ENTITIES
  0
POINT
  8
0
  6
CONTINUOUS
 62
     7
 10
-150.80136
 20
100.06698
  0
POINT
  8
0
  6
CONTINUOUS
 62
     7
 10
-54.003983
 20
176.78447
  0
POINT
  8
0
  6
CONTINUOUS
 62
     7
 10
-54.003983
 20
100.06698
  0
LINE
  8
0
  6
CONTINUOUS
 62
     7
 10
-22.003983
 20
193.28447
 11
-22.003983
 21
160.28447
  0
LINE
  8
0
  6
CENTER
 62
     7
 10
-186.19295
 20
100.06698
 11
-115.00758
 21
100.06698
  0
LINE
  8
0
  6
CONTINUOUS
 62
     7
 10
-72.003975
 20
207.78447
 11
-72.003975
 21
145.78447
  0
LINE
  8
0
  6
CONTINUOUS
 62
     7
 10
-78.003975
 20
112.39199
 11
-53.251999
 21
112.39199
  0
LINE
  8
0
  6
CONTINUOUS
 62
     7
 10
-66.876732
 20
207.78447
 11
-66.876732
 21
145.78447
  0
LINE
  8
0
  6
CENTER
 62
     7
 10
-54.003983
 20
199.78447
 11
-54.003983
 21
154.92326
  0
LINE
  8
0
  6
CONTINUOUS
 62
     7
 10
-78.003975
 20
87.566971
 11
-66.876732
 21
87.566971
  0
LINE
  8
0
  6
CONTINUOUS
 62
     7
 10
-167.30136
 20
68.066971
 11
-134.30136
 21
68.066971
  0
LINE
  8
0
  6
CENTER
 62
     7
 10
-150.80136
 20
122.28545
 11
-150.80136
 21
59.680969
  0
LINE
  8
0
  6
CENTER
 62
     7
 10
-127.80136
 20
113.17056
 11
-127.80136
 21
86.224655
  0
LINE
  8
0
  6
CENTER
 62
     7
 10
-173.80136
 20
113.17056
 11
-173.80136
 21
86.626846
  0
LINE
  8
0
  6
CONTINUOUS
 62
     7
 10
-150.80136
 20
112.56699
 11
-175.29057
 21
107.92715
  0
LINE
  8
0
  6
CONTINUOUS
 62
     7
 10
-150.80135
 20
87.566986
 11
-175.29058
 21
92.206818
  0
LINE
  8
0
  6
CONTINUOUS
 62
     7
 10
-150.80136
 20
112.56699
 11
-126.31213
 21
107.92715
  0
LINE
  8
0
  6
CONTINUOUS
 62
     7
 10
-150.80136
 20
87.566986
 11
-126.31214
 21
92.206818
  0
LINE
  8
0
  6
CENTER
 62
     7
 10
-102.39875
 20
100.06698
 11
-13.430138
 21
100.06698
  0
LINE
  8
0
  6
CONTINUOUS
 62
     7
 10
-70.503975
 20
83.996262
 11
-70.503975
 21
68.066971
  0
LINE
  8
0
  6
CONTINUOUS
 62
     7
 10
-37.503975
 20
79.391983
 11
-37.503975
 21
68.066971
  0
LINE
  8
0
  6
CONTINUOUS
 62
     7
 10
-70.503975
 20
68.066971
 11
-37.503975
 21
68.066971
  0
LINE
  8
0
  6
CONTINUOUS
 62
     7
 10
-22.003983
 20
163.78447
 11
-19.049454
 21
163.78447
  0
LINE
  8
0
  6
CONTINUOUS
 62
     7
 10
-19.049454
 20
163.78447
 11
-19.049454
 21
189.78447
  0
LINE
  8
0
  6
CONTINUOUS
 62
     7
 10
-22.003983
 20
189.78447
 11
-19.049454
 21
189.78447
  0
LINE
  8
0
  6
CONTINUOUS
 62
     7
 10
-31.060913
 20
160.10948
 11
-31.060913
 21
193.10948
  0
LINE
  8
0
  6
CONTINUOUS
 62
     7
 10
-24.060913
 20
160.10948
 11
-24.060913
 21
193.10948
  0
LINE
  8
0
  6
CONTINUOUS
 62
     7
 10
-52.671436
 20
98.098022
 11
-51.799854
 21
97.22644
  0
LINE
  8
0
  6
CONTINUOUS
 62
     7
 10
-52.035046
 20
98.734413
 11
-51.16346
 21
97.862831
  0
LINE
  8
0
  6
CONTINUOUS
 62
     7
 10
-46.542645
 20
93.24202
 11
-45.671082
 21
92.370453
  0
LINE
  8
0
  6
CONTINUOUS
 62
     7
 10
-47.179035
 20
92.605621
 11
-46.307476
 21
91.734062
  0
LINE
  8
0
  6
CONTINUOUS
 62
     7
 10
-50.524738
 20
97.224113
 11
-48.853062
 21
95.552437
  0
LINE
  8
0
  6
CONTINUOUS
 62
     7
 10
-51.161129
 20
96.587715
 11
-49.489456
 21
94.916046
  0
LINE
  8
0
  6
CENTER
 62
     7
 10
-100.46241
 20
176.78447
 11
-13.430138
 21
176.78447
  0
LINE
  8
0
  6
CONTINUOUS
 62
     7
 10
-37.503975
 20
116.39199
 11
-22.003983
 21
116.39199
  0
LINE
  8
0
  6
CONTINUOUS
 62
     7
 10
-22.003983
 20
116.39199
 11
-22.003983
 21
83.391983
  0
LINE
  8
0
  6
CONTINUOUS
 62
     7
 10
-33.503975
 20
83.391983
 11
-22.003983
 21
83.391983
  0
LINE
  8
0
  6
CONTINUOUS
 62
     7
 10
-22.003983
 20
87.066971
 11
-19.049454
 21
87.066971
  0
LINE
  8
0
  6
CONTINUOUS
 62
     7
 10
-19.049454
 20
87.066971
 11
-19.049454
 21
113.06698
  0
LINE
  8
0
  6
CONTINUOUS
 62
     7
 10
-22.003983
 20
113.06698
 11
-19.049454
 21
113.06698
  0
LINE
  8
0
  6
CONTINUOUS
 62
     7
 10
-24.060913
 20
83.391983
 11
-24.060913
 21
116.39199
  0
LINE
  8
0
  6
CONTINUOUS
 62
     7
 10
-31.060913
 20
83.391983
 11
-31.060913
 21
116.39199
  0
LINE
  8
0
  6
CONTINUOUS
 62
     7
 10
-54.003983
 20
193.28447
 11
-22.003983
 21
193.28447
  0
LINE
  8
0
  6
CONTINUOUS
 62
     7
 10
-54.003983
 20
160.28447
 11
-22.003983
 21
160.28447
  0
LINE
  8
0
  6
CONTINUOUS
 62
     7
 10
-134.30136
 20
90.69313
 11
-134.30136
 21
68.066971
  0
LINE
  8
0
  6
CONTINUOUS
 62
     7
 10
-167.30136
 20
90.69313
 11
-167.30136
 21
68.066971
  0
LINE
  8
0
  6
CONTINUOUS
 62
     7
 10
-66.876732
 20
158.53447
 11
-65.265938
 21
158.53447
  0
LINE
  8
0
  6
CONTINUOUS
 62
     7
 10
-66.876732
 20
149.03447
 11
-65.265938
 21
149.03447
  0
LINE
  8
0
  6
CONTINUOUS
 62
     7
 10
-78.003975
 20
207.78447
 11
-78.003975
 21
145.78447
  0
LINE
  8
0
  6
CONTINUOUS
 62
     7
 10
-78.003971
 20
187.60072
 11
-95.804487
 21
187.04445
  0
LINE
  8
0
  6
CONTINUOUS
 62
     7
 10
-80.003971
 20
186.37623
 11
-97.003958
 21
185.84498
  0
LINE
  8
0
  6
CONTINUOUS
 62
     7
 10
-78.003971
 20
165.96822
 11
-95.804493
 21
166.52448
  0
LINE
  8
0
  6
CONTINUOUS
 62
     7
 10
-80.003977
 20
167.19273
 11
-97.003979
 21
167.72397
  0
LINE
  8
0
  6
CONTINUOUS
 62
     7
 10
-95.804489
 20
166.52448
 11
-95.804489
 21
187.04443
  0
LINE
  8
0
  6
CONTINUOUS
 62
     7
 10
-95.804485
 20
166.52447
 11
-97.003975
 21
167.72396
  0
LINE
  8
0
  6
CONTINUOUS
 62
     7
 10
-97.003975
 20
185.84497
 11
-97.003975
 21
167.72397
  0
LINE
  8
0
  6
CONTINUOUS
 62
     7
 10
-95.804483
 20
187.04445
 11
-97.00397
 21
185.84496
  0
LINE
  8
0
  6
CONTINUOUS
 62
     7
 10
-80.003975
 20
187.53821
 11
-80.003975
 21
166.03072
  0
LINE
  8
0
  6
CONTINUOUS
 62
     7
 10
-77.876146
 20
165.96423
 11
-80.003973
 21
167.19273
  0
LINE
  8
0
  6
CONTINUOUS
 62
     7
 10
-77.876175
 20
187.6047
 11
-80.003971
 21
186.37622
  0
LINE
  8
0
  6
CENTER
 62
     7
 10
-54.003983
 20
118.96704
 11
-54.003983
 21
60.112442
  0
LINE
  8
0
  6
CONTINUOUS
 62
     7
 10
-72.003975
 20
112.39199
 11
-72.003975
 21
87.566971
  0
LINE
  8
0
  6
CONTINUOUS
 62
     7
 10
-78.003975
 20
112.39199
 11
-78.003975
 21
87.566971
  0
LINE
  8
0
  6
CONTINUOUS
 62
     7
 10
-78.003975
 20
110.88322
 11
-95.804489
 21
110.32695
  0
LINE
  8
0
  6
CONTINUOUS
 62
     7
 10
-80.003973
 20
109.65872
 11
-97.00396
 21
109.12748
  0
LINE
  8
0
  6
CONTINUOUS
 62
     7
 10
-78.003975
 20
89.250732
 11
-95.80449
 21
89.806992
  0
LINE
  8
0
  6
CONTINUOUS
 62
     7
 10
-80.003975
 20
90.475235
 11
-97.003976
 21
91.006485
  0
LINE
  8
0
  6
CONTINUOUS
 62
     7
 10
-95.804489
 20
89.806992
 11
-95.804489
 21
110.32694
  0
LINE
  8
0
  6
CONTINUOUS
 62
     7
 10
-95.804493
 20
89.806976
 11
-97.003983
 21
91.00647
  0
LINE
  8
0
  6
CONTINUOUS
 62
     7
 10
-97.003975
 20
109.12748
 11
-97.003975
 21
91.006485
  0
LINE
  8
0
  6
CONTINUOUS
 62
     7
 10
-95.804493
 20
110.32695
 11
-97.003977
 21
109.12746
  0
LINE
  8
0
  6
CONTINUOUS
 62
     7
 10
-80.003975
 20
110.82072
 11
-80.003975
 21
89.313217
  0
LINE
  8
0
  6
CONTINUOUS
 62
     7
 10
-77.876154
 20
89.246735
 11
-80.003971
 21
90.475235
  0
LINE
  8
0
  6
CONTINUOUS
 62
     7
 10
-77.876175
 20
110.88721
 11
-80.003971
 21
109.65872
  0
LINE
  8
0
  6
CONTINUOUS
 62
     7
 10
-66.876732
 20
104.81698
 11
-65.265938
 21
104.81698
  0
LINE
  8
0
  6
CONTINUOUS
 62
     7
 10
-66.876732
 20
95.316978
 11
-65.265938
 21
95.316978
  0
LINE
  8
0
  6
CONTINUOUS
 62
     7
 10
-78.003975
 20
145.78447
 11
-66.876732
 21
145.78447
  0
LINE
  8
0
  6
CONTINUOUS
 62
     7
 10
-78.003975
 20
207.78447
 11
-66.876732
 21
207.78447
  0
LINE
  8
0
  6
CONTINUOUS
 62
     7
 10
-66.876732
 20
112.39199
 11
-66.876732
 21
87.566971
  0
LINE
  8
0
  6
CONTINUOUS
 62
     7
 10
-66.876732
 20
204.53447
 11
-65.265938
 21
204.53447
  0
LINE
  8
0
  6
CONTINUOUS
 62
     7
 10
-66.876732
 20
195.03447
 11
-65.265938
 21
195.03447
  0
LINE
  8
0
  6
CONTINUOUS
 62
     7
 10
-63.876732
 20
178.28447
 11
-56.251987
 21
178.28447
  0
LINE
  8
0
  6
CONTINUOUS
 62
     7
 10
-63.876732
 20
175.28447
 11
-56.251987
 21
175.28447
  0
LINE
  8
0
  6
CENTER
 62
     7
 10
-85.537811
 20
153.78447
 11
-58.39867
 21
153.78447
  0
LINE
  8
0
  6
CENTER
 62
     7
 10
-85.537811
 20
199.78447
 11
-58.39867
 21
199.78447
  0
ARC
  8
0
  6
CONTINUOUS
 62
     7
 10
-33.503975
 20
79.391983
 40
4
 50
89.999996
 51
179.99999
  0
ARC
  8
0
  6
CONTINUOUS
 62
     7
 10
-63.876732
 20
107.89663
 40
3
 50
179.99999
 51
317.10282
  0
ARC
  8
0
  6
CONTINUOUS
 62
     7
 10
-37.503975
 20
83.391983
 40
33
 50
172.73174
 51
179.99999
  0
ARC
  8
0
  6
CONTINUOUS
 62
     7
 10
-37.503975
 20
83.391983
 40
33
 50
89.999996
 51
142.96177
  0
ARC
  8
0
  6
CONTINUOUS
 62
     7
 10
-75.503967
 20
83.996262
 40
5
 50
2.5044781E-006
 51
45.572999
  0
ARC
  8
0
  6
CONTINUOUS
 62
     7
 10
-127.80136
 20
100.06698
 40
8
 50
270
 51
79.27166
  0
CIRCLE
  8
0
  6
CONTINUOUS
 62
     7
 10
-127.80136
 20
100.06698
 40
3
  0
ARC
  8
0
  6
CONTINUOUS
 62
     7
 10
-173.80136
 20
100.06698
 40
8
 50
100.72834
 51
270
  0
CIRCLE
  8
0
  6
CONTINUOUS
 62
     7
 10
-173.80136
 20
100.06698
 40
3
  0
ARC
  8
0
  6
CONTINUOUS
 62
     7
 10
-47.419937
 20
93.482903
 40
4.8617306
 50
98.991667
 51
129.68912
  0
ARC
  8
0
  6
CONTINUOUS
 62
     7
 10
-50.922562
 20
96.985527
 40
5.7617307
 50
278.99168
 51
310.52055
  0
ARC
  8
0
  6
CONTINUOUS
 62
     7
 10
-50.444046
 20
93.961418
 40
1.8
 50
171.00832
 51
278.99167
  0
ARC
  8
0
  6
CONTINUOUS
 62
     7
 10
-50.444046
 20
93.961418
 40
2.7
 50
171.00832
 51
278.99167
  0
ARC
  8
0
  6
CONTINUOUS
 62
     7
 10
-47.898453
 20
96.507011
 40
1.8
 50
351.00833
 51
98.991667
  0
ARC
  8
0
  6
CONTINUOUS
 62
     7
 10
-47.898453
 20
96.507011
 40
2.7
 50
351.00833
 51
98.991667
  0
ARC
  8
0
  6
CONTINUOUS
 62
     7
 10
-47.419937
 20
93.482903
 40
5.7617307
 50
139.47944
 51
171.00832
  0
ARC
  8
0
  6
CONTINUOUS
 62
     7
 10
-47.419937
 20
93.482903
 40
4.8617306
 50
140.31088
 51
171.00832
  0
ARC
  8
0
  6
CONTINUOUS
 62
     7
 10
-50.922562
 20
96.985527
 40
4.8617306
 50
278.99168
 51
351.00833
  0
ARC
  8
0
  6
CONTINUOUS
 62
     7
 10
-50.922562
 20
96.985527
 40
5.7617307
 50
319.47945
 51
351.00833
  0
ARC
  8
0
  6
CONTINUOUS
 62
     7
 10
-52.114578
 20
98.177544
 40
0.5625
 50
81.869899
 51
188.1301
  0
ARC
  8
0
  6
CONTINUOUS
 62
     7
 10
-49.409897
 20
95.472862
 40
0.5625
 50
261.86989
 51
8.1300997
  0
ARC
  8
0
  6
CONTINUOUS
 62
     7
 10
-46.227921
 20
92.290886
 40
0.5625
 50
261.86989
 51
8.1300997
  0
ARC
  8
0
  6
CONTINUOUS
 62
     7
 10
-47.419937
 20
93.482903
 40
5.7617307
 50
98.991667
 51
130.52054
  0
ARC
  8
0
  6
CONTINUOUS
 62
     7
 10
-54.003983
 20
176.78447
 40
16.5
 50
90.000003
 51
120.41734
  0
ARC
  8
0
  6
CONTINUOUS
 62
     7
 10
-150.80136
 20
100.06698
 40
16.5
 50
37.3736
 51
142.6264
  0
ARC
  8
0
  6
CONTINUOUS
 62
     7
 10
-71.176735
 20
153.78447
 40
8
 50
327.60763
 51
32.392367
  0
ARC
  8
0
  6
CONTINUOUS
 62
     7
 10
-65.265938
 20
157.53447
 40
1
 50
32.392367
 51
90.000003
  0
ARC
  8
0
  6
CONTINUOUS
 62
     7
 10
-65.265938
 20
150.03447
 40
1
 50
270
 51
327.60763
  0
CIRCLE
  8
0
  6
CONTINUOUS
 62
     7
 10
-150.80136
 20
100.06698
 40
9.0605021
  0
CIRCLE
  8
0
  6
CONTINUOUS
 62
     7
 10
-150.80136
 20
100.06698
 40
9.0605021
  0
CIRCLE
  8
0
  6
CONTINUOUS
 62
     7
 10
-150.80136
 20
100.06698
 40
10.259975
  0
CIRCLE
  8
0
  6
CONTINUOUS
 62
     7
 10
-150.80136
 20
100.06698
 40
10.816238
  0
CIRCLE
  8
0
  6
CONTINUOUS
 62
     7
 10
-150.80136
 20
100.06698
 40
7
  0
ARC
  8
0
  6
CONTINUOUS
 62
     7
 10
-65.265938
 20
103.81698
 40
1
 50
32.392367
 51
90.000003
  0
ARC
  8
0
  6
CONTINUOUS
 62
     7
 10
-65.265938
 20
96.316978
 40
1
 50
270
 51
327.60763
  0
ARC
  8
0
  6
CONTINUOUS
 62
     7
 10
-71.176735
 20
100.06698
 40
8
 50
327.60763
 51
32.392367
  0
CIRCLE
  8
0
  6
CONTINUOUS
 62
     7
 10
-127.80136
 20
100.06698
 40
2.5
  0
CIRCLE
  8
0
  6
CONTINUOUS
 62
     7
 10
-173.80136
 20
100.06698
 40
2.5
  0
ARC
  8
0
  6
CONTINUOUS
 62
     7
 10
-65.265938
 20
203.53447
 40
1
 50
32.392367
 51
90.000003
  0
ARC
  8
0
  6
CONTINUOUS
 62
     7
 10
-71.176735
 20
199.78447
 40
8
 50
327.60763
 51
32.392367
  0
ARC
  8
0
  6
CONTINUOUS
 62
     7
 10
-65.265938
 20
196.03447
 40
1
 50
270
 51
327.60763
  0
ARC
  8
0
  6
CONTINUOUS
 62
     7
 10
-54.003983
 20
176.78447
 40
16.5
 50
239.58266
 51
270
  0
ARC
  8
0
  6
CONTINUOUS
 62
     7
 10
-56.251987
 20
172.28447
 40
3
 50
0
 51
90.000003
  0
ARC
  8
0
  6
CONTINUOUS
 62
     7
 10
-56.251987
 20
181.28447
 40
3
 50
270
 51
0
  0
ARC
  8
0
  6
CONTINUOUS
 62
     7
 10
-63.876732
 20
159.96844
 40
3
 50
59.582657
 51
180.00001
  0
ARC
  8
0
  6
CONTINUOUS
 62
     7
 10
-63.876732
 20
193.60051
 40
3
 50
179.99999
 51
300.41735
  0
ARC
  8
0
  6
CONTINUOUS
 62
     7
 10
-63.876732
 20
172.28447
 40
3
 50
90.000003
 51
180.00001
  0
ARC
  8
0
  6
CONTINUOUS
 62
     7
 10
-63.876732
 20
181.28447
 40
3
 50
179.99999
 51
270
  0
TEXT
  8
0
  6
CONTINUOUS
 62
     7
 10
-186.56013
 20
276.28214
 40
5
 41
0.84210156
  1
ＲＣＦ－Ｋ　ＺＷＤＬ（給水栓用　台付きエルボ）
  0
TEXT
  8
0
  6
CONTINUOUS
 62
     7
 10
-178.77444
 20
232.97818
 40
5
 41
0.84633858
  1
３／４Ｘ１／２
  0
TEXT
  8
0
  6
CONTINUOUS
 62
     7
 10
-26.262404
 20
160.84486
 40
3.2
 41
0.84447575
  1
１／２　器具側　１３
 50
90.000003
  0
TEXT
  8
0
  6
CONTINUOUS
 62
     7
 10
-26.262404
 20
84.12736
 40
3.2
 41
0.84447575
  1
１／２　器具側　１３
 50
90.000003
  0
POINT
  8
1
  6
CONTINUOUS
 62
     7
 10
-210
 20
0
  0
POINT
  8
1
  6
CONTINUOUS
 62
     7
 10
0
 20
0
  0
POINT
  8
1
  6
CONTINUOUS
 62
     7
 10
0
 20
0
  0
POINT
  8
1
  6
CONTINUOUS
 62
     7
 10
-210
 20
297
  0
POINT
  8
1
  6
CONTINUOUS
 62
     7
 10
-210
 20
0
  0
POINT
  8
1
  6
CONTINUOUS
 62
     7
 10
0
 20
0
  0
POINT
  8
1
  6
CONTINUOUS
 62
     7
 10
0
 20
297
  0
LINE
  8
1
  6
CONTINUOUS
 62
     7
 10
-210
 20
0
 11
0
 21
0
  0
LINE
  8
1
  6
CONTINUOUS
 62
     7
 10
-210
 20
297
 11
0
 21
297
  0
LINE
  8
1
  6
CONTINUOUS
 62
     7
 10
0
 20
297
 11
0
 21
0
  0
LINE
  8
1
  6
CONTINUOUS
 62
     7
 10
-210
 20
297
 11
-210
 21
0
  0
ENDSEC
  0
EOF
