  0
SECTION
  2
HEADER
  9
$EXTMAX
 10
0
 20
297
  9
$EXTMIN
 10
-210
 20
0
  0
ENDSEC
  0
SECTION
  2
TABLES
  0
TABLE
  2
LTYPE
 70
    22
  0
LTYPE
  2
CONTINUOUS
 70
    64
  3
Solid line
 72
    65
 73
     0
 40
0.000000
  0
LTYPE
  2
DASHED
 70
    64
  3
__ __ __ __ __ __ __ __ __ __ __ __ __ __ __
 72
    65
 73
     2
 40
3.500000
 49
2.000000
 49
-1.500000
  0
LTYPE
  2
CENTER
 70
    64
  3
____ _ ____ _ ____ _ ____ _ ____ _ ____ _ ____
 72
    65
 73
     4
 40
17.500000
 49
13.000000
 49
-1.500000
 49
1.500000
 49
-1.500000
  0
LTYPE
  2
PHANTOM
 70
    64
  3
_____ _ _ _____ _ _ _____ _ _ _____ _ _ ____  
 72
    65
 73
     6
 40
15.500000
 49
8.000000
 49
-1.500000
 49
1.500000
 49
-1.500000
 49
1.500000
 49
-1.500000
  0
LTYPE
  2
DOT
 70
    64
  3
. . . . . . . . . . . . . . . . . . . . . . . .
 72
    65
 73
     2
 40
0.25
 49
0.0
 49
-0.25
  0
ENDTAB
  0
TABLE
  2
LAYER
 70
     2
  0
LAYER
  2
0
 70
     0
 62
     7
  6
CONTINUOUS
  0
LAYER
  2
1
 70
     0
 62
     7
  6
CONTINUOUS
  0
ENDTAB
  0
TABLE
  2
STYLE
 70
     1
  0
STYLE
  2
STANDARD
 70
     0
 40
0.000000
 41
1.000000
 50
0.000000
 71
     0
 42
0.200000
  3
txt
  4
BIGFONT
  0
ENDTAB
  0
TABLE
  2
VIEW
 70
     0
  0
ENDTAB
  0
ENDSEC
  0
SECTION
  2
BLOCKS
  0
ENDSEC
  0
SECTION
  2
ENTITIES
  0
POINT
  8
0
  6
CONTINUOUS
 62
     7
 10
-140.13861
 20
226.18094
  0
POINT
  8
0
  6
CONTINUOUS
 62
     7
 10
-139.125
 20
157.20261
  0
POINT
  8
0
  6
CONTINUOUS
 62
     7
 10
-138.60001
 20
70.699997
  0
POINT
  8
0
  6
CONTINUOUS
 62
     7
 10
-140.13861
 20
226.18094
  0
POINT
  8
0
  6
CONTINUOUS
 62
     7
 10
-139.125
 20
157.20261
  0
POINT
  8
0
  6
CONTINUOUS
 62
     7
 10
-138.60001
 20
70.699997
  0
LINE
  8
0
  6
CONTINUOUS
 62
     7
 10
-153.63861
 20
199.18094
 11
-126.6386
 21
199.18094
  0
LINE
  8
0
  6
CONTINUOUS
 62
     7
 10
-153.63861
 20
212.68094
 11
-153.63861
 21
199.18094
  0
LINE
  8
0
  6
CENTER
 62
     7
 10
-140.13861
 20
242.51801
 11
-140.13861
 21
194.18094
  0
LINE
  8
0
  6
CONTINUOUS
 62
     7
 10
-126.6386
 20
209.68094
 11
-126.6386
 21
199.18094
  0
LINE
  8
0
  6
CONTINUOUS
 62
     7
 10
-123.6386
 20
212.68094
 11
-113.1386
 21
212.68094
  0
LINE
  8
0
  6
CONTINUOUS
 62
     7
 10
-113.1386
 20
239.68094
 11
-113.1386
 21
212.68094
  0
LINE
  8
0
  6
CONTINUOUS
 62
     7
 10
-112.6386
 20
239.68094
 11
-112.6386
 21
212.68094
  0
LINE
  8
0
  6
CONTINUOUS
 62
     7
 10
-112.6386
 20
212.68094
 11
-110.6386
 21
212.68094
  0
LINE
  8
0
  6
CONTINUOUS
 62
     7
 10
-110.6386
 20
212.68094
 11
-110.6386
 21
239.68094
  0
LINE
  8
0
  6
CONTINUOUS
 62
     7
 10
-110.1386
 20
212.18094
 11
-110.1386
 21
240.18094
  0
LINE
  8
0
  6
CONTINUOUS
 62
     7
 10
-100.1386
 20
212.18094
 11
-100.1386
 21
240.18094
  0
LINE
  8
0
  6
CONTINUOUS
 62
     7
 10
-100.13858
 20
215.4272
 11
-98.01079
 21
216.65568
  0
LINE
  8
0
  6
CONTINUOUS
 62
     7
 10
-100.1386
 20
215.4272
 11
-84.338091
 21
215.92096
  0
LINE
  8
0
  6
CONTINUOUS
 62
     7
 10
-98.010792
 20
216.65568
 11
-83.138618
 21
217.12044
  0
LINE
  8
0
  6
CONTINUOUS
 62
     7
 10
-84.338091
 20
215.92097
 11
-83.138607
 21
217.12045
  0
LINE
  8
0
  6
CONTINUOUS
 62
     7
 10
-83.138603
 20
217.12044
 11
-83.138603
 21
235.24144
  0
LINE
  8
0
  6
CONTINUOUS
 62
     7
 10
-84.338091
 20
236.44094
 11
-83.138601
 21
235.24145
  0
LINE
  8
0
  6
CONTINUOUS
 62
     7
 10
-98.010775
 20
235.70619
 11
-83.138601
 21
235.24144
  0
LINE
  8
0
  6
CONTINUOUS
 62
     7
 10
-100.1386
 20
236.93469
 11
-84.338087
 21
236.44093
  0
LINE
  8
0
  6
CONTINUOUS
 62
     7
 10
-100.13861
 20
236.9347
 11
-98.010781
 21
235.7062
  0
LINE
  8
0
  6
CONTINUOUS
 62
     7
 10
-126.6386
 20
239.68094
 11
-113.1386
 21
239.68094
  0
LINE
  8
0
  6
CONTINUOUS
 62
     7
 10
-112.6386
 20
239.68094
 11
-110.6386
 21
239.68094
  0
LINE
  8
0
  6
CENTER
 62
     7
 10
-158.63861
 20
226.18094
 11
-78.138603
 21
226.18094
  0
LINE
  8
0
  6
CONTINUOUS
 62
     7
 10
-98.01078
 20
236.86821
 11
-98.01078
 21
215.4937
  0
LINE
  8
0
  6
CONTINUOUS
 62
     7
 10
-84.338089
 20
236.44093
 11
-84.338089
 21
215.92097
  0
LINE
  8
0
  6
CENTER
 62
     7
 10
-139.125
 20
176.39999
 11
-139.125
 21
122.97772
  0
LINE
  8
0
  6
CENTER
 62
     7
 10
-158.375
 20
157.20261
 11
-69.751343
 21
157.20261
  0
LINE
  8
0
  6
CONTINUOUS
 62
     7
 10
-155.45
 20
140.70261
 11
-155.45
 21
125.20261
  0
LINE
  8
0
  6
CONTINUOUS
 62
     7
 10
-155.45
 20
125.20261
 11
-122.45
 21
125.20261
  0
LINE
  8
0
  6
CONTINUOUS
 62
     7
 10
-122.45
 20
136.70261
 11
-122.45
 21
125.20261
  0
LINE
  8
0
  6
CONTINUOUS
 62
     7
 10
-118.45
 20
140.70261
 11
-106.95
 21
140.70261
  0
LINE
  8
0
  6
CONTINUOUS
 62
     7
 10
-122.45
 20
173.70261
 11
-106.95
 21
173.70261
  0
LINE
  8
0
  6
CONTINUOUS
 62
     7
 10
-76.125
 20
168.9633
 11
-76.125
 21
145.44191
  0
LINE
  8
0
  6
CONTINUOUS
 62
     7
 10
-106.95
 20
173.70261
 11
-106.95
 21
140.70261
  0
LINE
  8
0
  6
CONTINUOUS
 62
     7
 10
-106.45
 20
173.70261
 11
-106.45
 21
140.70261
  0
LINE
  8
0
  6
CONTINUOUS
 62
     7
 10
-106.45
 20
140.70261
 11
-104.625
 21
140.70261
  0
LINE
  8
0
  6
CONTINUOUS
 62
     7
 10
-104.625
 20
140.70261
 11
-104.625
 21
173.70261
  0
LINE
  8
0
  6
CONTINUOUS
 62
     7
 10
-104.125
 20
140.95261
 11
-104.125
 21
173.45261
  0
LINE
  8
0
  6
CONTINUOUS
 62
     7
 10
-93.125
 20
140.95261
 11
-93.125
 21
173.45261
  0
LINE
  8
0
  6
CONTINUOUS
 62
     7
 10
-93.125004
 20
143.74867
 11
-90.997192
 21
144.97717
  0
LINE
  8
0
  6
CONTINUOUS
 62
     7
 10
-90.99719
 20
144.97717
 11
-76.125002
 21
145.44192
  0
LINE
  8
0
  6
CONTINUOUS
 62
     7
 10
-93.125003
 20
143.74866
 11
-77.32448
 21
144.24243
  0
LINE
  8
0
  6
CONTINUOUS
 62
     7
 10
-77.324492
 20
144.24244
 11
-76.125006
 21
145.44193
  0
LINE
  8
0
  6
CONTINUOUS
 62
     7
 10
-77.324484
 20
170.16278
 11
-76.125004
 21
168.9633
  0
LINE
  8
0
  6
CONTINUOUS
 62
     7
 10
-90.997185
 20
169.42804
 11
-76.125004
 21
168.96328
  0
LINE
  8
0
  6
CONTINUOUS
 62
     7
 10
-93.124997
 20
170.65654
 11
-77.324482
 21
170.16277
  0
LINE
  8
0
  6
CONTINUOUS
 62
     7
 10
-93.124995
 20
170.65654
 11
-90.997184
 21
169.42805
  0
LINE
  8
0
  6
CONTINUOUS
 62
     7
 10
-106.45
 20
173.70261
 11
-104.625
 21
173.70261
  0
LINE
  8
0
  6
CONTINUOUS
 62
     7
 10
-90.997177
 20
170.59004
 11
-90.997177
 21
143.81516
  0
LINE
  8
0
  6
CONTINUOUS
 62
     7
 10
-77.324478
 20
170.16278
 11
-77.324478
 21
144.24243
  0
LINE
  8
0
  6
CONTINUOUS
 62
     7
 10
-118.1
 20
28.699997
 11
-159.09999
 21
28.699997
  0
LINE
  8
0
  6
CONTINUOUS
 62
     7
 10
-159.09999
 20
50.199997
 11
-159.09999
 21
28.699997
  0
LINE
  8
0
  6
CENTER
 62
     7
 10
-138.60001
 20
96.200005
 11
-138.60001
 21
25.699997
  0
LINE
  8
0
  6
CONTINUOUS
 62
     7
 10
-118.1
 20
45.199997
 11
-118.1
 21
28.699997
  0
LINE
  8
0
  6
CONTINUOUS
 62
     7
 10
-113.1
 20
50.199997
 11
-96.599998
 21
50.199997
  0
LINE
  8
0
  6
CONTINUOUS
 62
     7
 10
-96.099998
 20
50.199997
 11
-94.099998
 21
50.199997
  0
LINE
  8
0
  6
CONTINUOUS
 62
     7
 10
-81.599991
 20
50.949997
 11
-93.599998
 21
50.949997
  0
LINE
  8
0
  6
CONTINUOUS
 62
     7
 10
-81.599997
 20
53.743927
 11
-62.126705
 21
54.352493
  0
LINE
  8
0
  6
CONTINUOUS
 62
     7
 10
-81.599995
 20
53.743927
 11
-78.891693
 21
55.307571
  0
LINE
  8
0
  6
CONTINUOUS
 62
     7
 10
-78.891697
 20
55.307571
 11
-60.599995
 21
55.879211
  0
LINE
  8
0
  6
CONTINUOUS
 62
     7
 10
-62.126709
 20
54.352493
 11
-60.599995
 21
55.879211
  0
LINE
  8
0
  6
CONTINUOUS
 62
     7
 10
-60.599995
 20
55.879211
 11
-60.599995
 21
85.520798
  0
LINE
  8
0
  6
CONTINUOUS
 62
     7
 10
-62.126705
 20
87.047516
 11
-60.599995
 21
85.520798
  0
LINE
  8
0
  6
CONTINUOUS
 62
     7
 10
-78.891691
 20
86.092453
 11
-60.599995
 21
85.520798
  0
LINE
  8
0
  6
CONTINUOUS
 62
     7
 10
-81.599991
 20
87.656082
 11
-62.126701
 21
87.047516
  0
LINE
  8
0
  6
CONTINUOUS
 62
     7
 10
-81.599995
 20
87.656082
 11
-78.891689
 21
86.092453
  0
LINE
  8
0
  6
CONTINUOUS
 62
     7
 10
-81.599991
 20
90.449997
 11
-81.599991
 21
50.949997
  0
LINE
  8
0
  6
CONTINUOUS
 62
     7
 10
-81.599991
 20
90.449997
 11
-93.599998
 21
90.449997
  0
LINE
  8
0
  6
CONTINUOUS
 62
     7
 10
-93.599998
 20
90.449997
 11
-93.599998
 21
50.949997
  0
LINE
  8
0
  6
CONTINUOUS
 62
     7
 10
-94.099998
 20
91.199997
 11
-94.099998
 21
50.199997
  0
LINE
  8
0
  6
CONTINUOUS
 62
     7
 10
-96.099998
 20
91.199997
 11
-94.099998
 21
91.199997
  0
LINE
  8
0
  6
CONTINUOUS
 62
     7
 10
-96.099998
 20
50.199997
 11
-96.099998
 21
91.199997
  0
LINE
  8
0
  6
CONTINUOUS
 62
     7
 10
-96.599998
 20
50.199997
 11
-96.599998
 21
91.199997
  0
LINE
  8
0
  6
CONTINUOUS
 62
     7
 10
-118.1
 20
91.199997
 11
-96.599998
 21
91.199997
  0
LINE
  8
0
  6
CENTER
 62
     7
 10
-162.75
 20
70.699997
 11
-56.700001
 21
70.699997
  0
LINE
  8
0
  6
CONTINUOUS
 62
     7
 10
-78.891693
 20
87.571442
 11
-78.891693
 21
53.828568
  0
LINE
  8
0
  6
CONTINUOUS
 62
     7
 10
-62.126705
 20
87.047516
 11
-62.126705
 21
54.352493
  0
LINE
  8
0
  6
CONTINUOUS
 62
     7
 10
-139.04833
 20
225.72706
 11
-138.17675
 21
224.85547
  0
LINE
  8
0
  6
CONTINUOUS
 62
     7
 10
-139.68473
 20
225.09066
 11
-138.81314
 21
224.21908
  0
LINE
  8
0
  6
CONTINUOUS
 62
     7
 10
-134.19234
 20
219.59827
 11
-133.32078
 21
218.72671
  0
LINE
  8
0
  6
CONTINUOUS
 62
     7
 10
-133.55594
 20
220.23467
 11
-132.68438
 21
219.36311
  0
LINE
  8
0
  6
CONTINUOUS
 62
     7
 10
-138.17443
 20
223.58036
 11
-136.50276
 21
221.90869
  0
LINE
  8
0
  6
CONTINUOUS
 62
     7
 10
-137.53804
 20
224.21676
 11
-135.86636
 21
222.54509
  0
LINE
  8
0
  6
CONTINUOUS
 62
     7
 10
-137.15604
 20
155.87006
 11
-136.28446
 21
154.99847
  0
LINE
  8
0
  6
CONTINUOUS
 62
     7
 10
-137.79243
 20
155.23367
 11
-136.92085
 21
154.36208
  0
LINE
  8
0
  6
CONTINUOUS
 62
     7
 10
-132.30004
 20
149.74127
 11
-131.42847
 21
148.86971
  0
LINE
  8
0
  6
CONTINUOUS
 62
     7
 10
-131.66364
 20
150.37766
 11
-130.79208
 21
149.5061
  0
LINE
  8
0
  6
CONTINUOUS
 62
     7
 10
-136.28213
 20
153.72336
 11
-134.61045
 21
152.05169
  0
LINE
  8
0
  6
CONTINUOUS
 62
     7
 10
-135.64574
 20
154.35976
 11
-133.97406
 21
152.68808
  0
LINE
  8
0
  6
CONTINUOUS
 62
     7
 10
-136.41407
 20
69.362595
 11
-135.25197
 21
68.200485
  0
LINE
  8
0
  6
CONTINUOUS
 62
     7
 10
-137.2626
 20
68.514069
 11
-136.10049
 21
67.351959
  0
LINE
  8
0
  6
CONTINUOUS
 62
     7
 10
-129.93942
 20
61.190887
 11
-128.77732
 21
60.028778
  0
LINE
  8
0
  6
CONTINUOUS
 62
     7
 10
-129.09089
 20
62.039413
 11
-127.92879
 21
60.877304
  0
LINE
  8
0
  6
CONTINUOUS
 62
     7
 10
-135.24888
 20
66.500351
 11
-133.01996
 21
64.271423
  0
LINE
  8
0
  6
CONTINUOUS
 62
     7
 10
-134.40036
 20
67.348877
 11
-132.17143
 21
65.119949
  0
LINE
  8
0
  6
CONTINUOUS
 62
     7
 10
-110.1386
 20
212.18094
 11
-100.1386
 21
212.18094
  0
LINE
  8
0
  6
CONTINUOUS
 62
     7
 10
-110.1386
 20
240.18094
 11
-100.1386
 21
240.18094
  0
LINE
  8
0
  6
CONTINUOUS
 62
     7
 10
-110.1386
 20
226.18094
 11
-100.1386
 21
226.18094
  0
LINE
  8
0
  6
CONTINUOUS
 62
     7
 10
-104.125
 20
173.45261
 11
-93.125
 21
173.45261
  0
LINE
  8
0
  6
CONTINUOUS
 62
     7
 10
-104.125
 20
140.95261
 11
-93.125
 21
140.95261
  0
LINE
  8
0
  6
CONTINUOUS
 62
     7
 10
-104.125
 20
157.20261
 11
-93.125
 21
157.20261
  0
LINE
  8
0
  6
CONTINUOUS
 62
     7
 10
-81.599991
 20
70.699997
 11
-93.599998
 21
70.699997
  0
ARC
  8
0
  6
CONTINUOUS
 62
     7
 10
-123.6386
 20
209.68094
 40
3
 50
90.000003
 51
180.00001
  0
ARC
  8
0
  6
CONTINUOUS
 62
     7
 10
-126.6386
 20
212.68094
 40
27
 50
90.000003
 51
180.00001
  0
ARC
  8
0
  6
CONTINUOUS
 62
     7
 10
-122.45
 20
140.70261
 40
33
 50
90.000003
 51
180.00001
  0
ARC
  8
0
  6
CONTINUOUS
 62
     7
 10
-118.45
 20
136.70261
 40
4
 50
90.000003
 51
180.00001
  0
ARC
  8
0
  6
CONTINUOUS
 62
     7
 10
-113.1
 20
45.199997
 40
5
 50
90.000003
 51
180.00001
  0
ARC
  8
0
  6
CONTINUOUS
 62
     7
 10
-118.1
 20
50.199997
 40
41
 50
90.000003
 51
180.00001
  0
ARC
  8
0
  6
CONTINUOUS
 62
     7
 10
-130.2606
 20
62.360611
 40
7.6823077
 50
139.47946
 51
171.00833
  0
ARC
  8
0
  6
CONTINUOUS
 62
     7
 10
-134.93077
 20
67.030777
 40
7.6823077
 50
319.47945
 51
351.00832
  0
ARC
  8
0
  6
CONTINUOUS
 62
     7
 10
-134.91174
 20
223.49968
 40
1.8
 50
351.00832
 51
98.991673
  0
ARC
  8
0
  6
CONTINUOUS
 62
     7
 10
-134.91174
 20
223.49968
 40
2.7
 50
351.00832
 51
98.991673
  0
ARC
  8
0
  6
CONTINUOUS
 62
     7
 10
-137.45734
 20
220.95409
 40
1.8
 50
171.00833
 51
278.99167
  0
ARC
  8
0
  6
CONTINUOUS
 62
     7
 10
-137.45734
 20
220.95409
 40
2.7
 50
171.00833
 51
278.99167
  0
ARC
  8
0
  6
CONTINUOUS
 62
     7
 10
-134.43323
 20
220.47557
 40
5.7617307
 50
98.991673
 51
130.52056
  0
ARC
  8
0
  6
CONTINUOUS
 62
     7
 10
-134.43323
 20
220.47557
 40
4.8617306
 50
98.991673
 51
129.68912
  0
ARC
  8
0
  6
CONTINUOUS
 62
     7
 10
-137.93585
 20
223.9782
 40
4.8617306
 50
278.99167
 51
351.00832
  0
ARC
  8
0
  6
CONTINUOUS
 62
     7
 10
-137.93585
 20
223.9782
 40
5.7617307
 50
278.99167
 51
310.52055
  0
ARC
  8
0
  6
CONTINUOUS
 62
     7
 10
-139.12787
 20
225.17021
 40
0.5625
 50
81.869899
 51
188.1301
  0
ARC
  8
0
  6
CONTINUOUS
 62
     7
 10
-136.42319
 20
222.46553
 40
0.5625
 50
261.8699
 51
8.1301031
  0
ARC
  8
0
  6
CONTINUOUS
 62
     7
 10
-133.24121
 20
219.28355
 40
0.5625
 50
261.8699
 51
8.1301031
  0
ARC
  8
0
  6
CONTINUOUS
 62
     7
 10
-134.43323
 20
220.47557
 40
5.7617307
 50
139.47946
 51
171.00833
  0
ARC
  8
0
  6
CONTINUOUS
 62
     7
 10
-134.43323
 20
220.47557
 40
4.8617306
 50
140.31088
 51
171.00833
  0
ARC
  8
0
  6
CONTINUOUS
 62
     7
 10
-137.93585
 20
223.9782
 40
5.7617307
 50
319.47945
 51
351.00832
  0
ARC
  8
0
  6
CONTINUOUS
 62
     7
 10
-132.91388
 20
65.01387
 40
0.75
 50
261.8699
 51
8.1301031
  0
ARC
  8
0
  6
CONTINUOUS
 62
     7
 10
-128.67125
 20
60.771255
 40
0.75
 50
261.8699
 51
8.1301031
  0
ARC
  8
0
  6
CONTINUOUS
 62
     7
 10
-130.2606
 20
62.360611
 40
6.4823079
 50
140.31088
 51
171.00833
  0
ARC
  8
0
  6
CONTINUOUS
 62
     7
 10
-133.01945
 20
153.64267
 40
1.8
 50
351.00832
 51
98.991673
  0
ARC
  8
0
  6
CONTINUOUS
 62
     7
 10
-133.01945
 20
153.64267
 40
2.7
 50
351.00832
 51
98.991673
  0
ARC
  8
0
  6
CONTINUOUS
 62
     7
 10
-135.56503
 20
151.09708
 40
1.8
 50
171.00833
 51
278.99167
  0
ARC
  8
0
  6
CONTINUOUS
 62
     7
 10
-135.56503
 20
151.09708
 40
2.7
 50
171.00833
 51
278.99167
  0
ARC
  8
0
  6
CONTINUOUS
 62
     7
 10
-132.54094
 20
150.61856
 40
5.7617307
 50
98.991673
 51
130.52056
  0
ARC
  8
0
  6
CONTINUOUS
 62
     7
 10
-132.54094
 20
150.61856
 40
4.8617306
 50
98.991673
 51
129.68912
  0
ARC
  8
0
  6
CONTINUOUS
 62
     7
 10
-136.04356
 20
154.12119
 40
4.8617306
 50
278.99167
 51
351.00832
  0
ARC
  8
0
  6
CONTINUOUS
 62
     7
 10
-136.04356
 20
154.12119
 40
5.7617307
 50
278.99167
 51
310.52055
  0
ARC
  8
0
  6
CONTINUOUS
 62
     7
 10
-137.23558
 20
155.3132
 40
0.5625
 50
81.869899
 51
188.1301
  0
ARC
  8
0
  6
CONTINUOUS
 62
     7
 10
-134.5309
 20
152.60852
 40
0.5625
 50
261.8699
 51
8.1301031
  0
ARC
  8
0
  6
CONTINUOUS
 62
     7
 10
-131.34892
 20
149.42654
 40
0.5625
 50
261.8699
 51
8.1301031
  0
ARC
  8
0
  6
CONTINUOUS
 62
     7
 10
-132.54094
 20
150.61856
 40
5.7617307
 50
139.47946
 51
171.00833
  0
ARC
  8
0
  6
CONTINUOUS
 62
     7
 10
-132.54094
 20
150.61856
 40
4.8617306
 50
140.31088
 51
171.00833
  0
ARC
  8
0
  6
CONTINUOUS
 62
     7
 10
-136.04356
 20
154.12119
 40
5.7617307
 50
319.47945
 51
351.00832
  0
ARC
  8
0
  6
CONTINUOUS
 62
     7
 10
-134.93077
 20
67.030777
 40
6.4823079
 50
278.99167
 51
351.00832
  0
ARC
  8
0
  6
CONTINUOUS
 62
     7
 10
-136.52013
 20
68.620132
 40
0.75
 50
81.869899
 51
188.1301
  0
ARC
  8
0
  6
CONTINUOUS
 62
     7
 10
-134.93077
 20
67.030777
 40
7.6823077
 50
278.99167
 51
310.52055
  0
ARC
  8
0
  6
CONTINUOUS
 62
     7
 10
-130.89864
 20
66.392746
 40
2.4000001
 50
351.00832
 51
98.991673
  0
ARC
  8
0
  6
CONTINUOUS
 62
     7
 10
-130.89864
 20
66.392746
 40
3.5999999
 50
351.00832
 51
98.991673
  0
ARC
  8
0
  6
CONTINUOUS
 62
     7
 10
-134.29274
 20
62.998642
 40
2.4000001
 50
171.00833
 51
278.99167
  0
ARC
  8
0
  6
CONTINUOUS
 62
     7
 10
-134.29274
 20
62.998642
 40
3.5999999
 50
171.00833
 51
278.99167
  0
ARC
  8
0
  6
CONTINUOUS
 62
     7
 10
-130.2606
 20
62.360611
 40
7.6823077
 50
98.991673
 51
130.52056
  0
ARC
  8
0
  6
CONTINUOUS
 62
     7
 10
-130.2606
 20
62.360611
 40
6.4823079
 50
98.991673
 51
129.68912
  0
TEXT
  8
0
  6
CONTINUOUS
 62
     7
 10
-186.56013
 20
276.28214
 40
5
 41
0.84218304
  1
ＲＣＦ－Ｋ　ＺＰＬ（オスアダプター　エルボ）
  0
TEXT
  8
0
  6
CONTINUOUS
 62
     7
 10
-132.44327
 20
252.13529
 40
3.2
 41
1.0178573
  1
1/2
  0
TEXT
  8
0
  6
CONTINUOUS
 62
     7
 10
-122.36161
 20
183.61249
 40
3.2
 41
1.0178573
  1
3/4
  0
TEXT
  8
0
  6
CONTINUOUS
 62
     7
 10
-134.45484
 20
102.66221
 40
3.2
 41
1.0714291
  1
1
  0
POINT
  8
1
  6
CONTINUOUS
 62
     7
 10
-210
 20
0
  0
POINT
  8
1
  6
CONTINUOUS
 62
     7
 10
0
 20
0
  0
POINT
  8
1
  6
CONTINUOUS
 62
     7
 10
0
 20
0
  0
POINT
  8
1
  6
CONTINUOUS
 62
     7
 10
20
 20
297
  0
POINT
  8
1
  6
CONTINUOUS
 62
     7
 10
-210
 20
0
  0
POINT
  8
1
  6
CONTINUOUS
 62
     7
 10
0
 20
0
  0
POINT
  8
1
  6
CONTINUOUS
 62
     7
 10
0
 20
297
  0
POINT
  8
1
  6
CONTINUOUS
 62
     7
 10
20
 20
297
  0
POINT
  8
1
  6
CONTINUOUS
 62
     7
 10
-210
 20
297
  0
LINE
  8
1
  6
CONTINUOUS
 62
     7
 10
20
 20
0
 11
230
 21
0
  0
LINE
  8
1
  6
CONTINUOUS
 62
     7
 10
20
 20
297
 11
230
 21
297
  0
LINE
  8
1
  6
CONTINUOUS
 62
     7
 10
230
 20
297
 11
230
 21
0
  0
LINE
  8
1
  6
CONTINUOUS
 62
     7
 10
20
 20
297
 11
20
 21
0
  0
LINE
  8
1
  6
CONTINUOUS
 62
     7
 10
-210
 20
0
 11
0
 21
0
  0
LINE
  8
1
  6
CONTINUOUS
 62
     7
 10
-210
 20
297
 11
-210
 21
0
  0
LINE
  8
1
  6
CONTINUOUS
 62
     7
 10
0
 20
297
 11
0
 21
0
  0
LINE
  8
1
  6
CONTINUOUS
 62
     7
 10
-210
 20
297
 11
0
 21
297
  0
ENDSEC
  0
EOF
