  0
SECTION
  2
HEADER
  9
$EXTMAX
 10
1259
 20
-913.5
  9
$EXTMIN
 10
417
 20
-1507.5
  0
ENDSEC
  0
SECTION
  2
TABLES
  0
TABLE
  2
LTYPE
 70
    22
  0
LTYPE
  2
CONTINUOUS
 70
    64
  3
Solid line
 72
    65
 73
     0
 40
0.000000
  0
LTYPE
  2
DASHED
 70
    64
  3
__ __ __ __ __ __ __ __ __ __ __ __ __ __ __
 72
    65
 73
     2
 40
3.500000
 49
2.000000
 49
-1.500000
  0
LTYPE
  2
CENTER
 70
    64
  3
____ _ ____ _ ____ _ ____ _ ____ _ ____ _ ____
 72
    65
 73
     4
 40
17.500000
 49
13.000000
 49
-1.500000
 49
1.500000
 49
-1.500000
  0
LTYPE
  2
PHANTOM
 70
    64
  3
_____ _ _ _____ _ _ _____ _ _ _____ _ _ ____  
 72
    65
 73
     6
 40
15.500000
 49
8.000000
 49
-1.500000
 49
1.500000
 49
-1.500000
 49
1.500000
 49
-1.500000
  0
LTYPE
  2
DOT
 70
    64
  3
. . . . . . . . . . . . . . . . . . . . . . . .
 72
    65
 73
     2
 40
0.25
 49
0.0
 49
-0.25
  0
ENDTAB
  0
TABLE
  2
LAYER
 70
     2
  0
LAYER
  2
0
 70
     0
 62
     7
  6
CONTINUOUS
  0
LAYER
  2
1
 70
     0
 62
     7
  6
CONTINUOUS
  0
ENDTAB
  0
TABLE
  2
STYLE
 70
     1
  0
STYLE
  2
STANDARD
 70
     0
 40
0.000000
 41
1.000000
 50
0.000000
 71
     0
 42
0.200000
  3
txt
  4
BIGFONT
  0
ENDTAB
  0
TABLE
  2
VIEW
 70
     0
  0
ENDTAB
  0
ENDSEC
  0
SECTION
  2
BLOCKS
  0
ENDSEC
  0
SECTION
  2
ENTITIES
  0
POINT
  8
0
  6
CONTINUOUS
 62
     7
 10
-105.48001
 20
182.73642
  0
POINT
  8
0
  6
CONTINUOUS
 62
     7
 10
-143.11649
 20
51.493816
  0
POINT
  8
0
  6
CONTINUOUS
 62
     7
 10
-8.1164856
 20
51.493816
  0
POINT
  8
0
  6
CONTINUOUS
 62
     7
 10
141.88351
 20
51.493816
  0
POINT
  8
0
  6
CONTINUOUS
 62
     7
 10
22.599405
 20
-133.617
  0
POINT
  8
0
  6
CONTINUOUS
 62
     7
 10
-3.9800127
 20
182.73642
  0
POINT
  8
0
  6
CONTINUOUS
 62
     7
 10
-179.4006
 20
-133.617
  0
POINT
  8
0
  6
CONTINUOUS
 62
     7
 10
109.01999
 20
182.73642
  0
POINT
  8
0
  6
CONTINUOUS
 62
     7
 10
250.5994
 20
-133.617
  0
POINT
  8
0
  6
CONTINUOUS
 62
     7
 10
-105.48001
 20
182.73642
  0
POINT
  8
0
  6
CONTINUOUS
 62
     7
 10
-3.9800127
 20
182.73642
  0
POINT
  8
0
  6
CONTINUOUS
 62
     7
 10
109.01999
 20
182.73642
  0
POINT
  8
0
  6
CONTINUOUS
 62
     7
 10
-143.11649
 20
51.493816
  0
POINT
  8
0
  6
CONTINUOUS
 62
     7
 10
-8.1164856
 20
51.493816
  0
POINT
  8
0
  6
CONTINUOUS
 62
     7
 10
141.88351
 20
51.493816
  0
POINT
  8
0
  6
CONTINUOUS
 62
     7
 10
-179.4006
 20
-133.617
  0
POINT
  8
0
  6
CONTINUOUS
 62
     7
 10
22.599405
 20
-133.617
  0
POINT
  8
0
  6
CONTINUOUS
 62
     7
 10
22.599405
 20
-133.617
  0
POINT
  8
0
  6
CONTINUOUS
 62
     7
 10
250.5994
 20
-133.617
  0
LINE
  8
0
  6
CENTER
 62
     7
 10
-105.48001
 20
199.23642
 11
-105.48001
 21
151.53641
  0
LINE
  8
0
  6
CENTER
 62
     7
 10
-74.280014
 20
182.73642
 11
-136.68001
 21
182.73642
  0
LINE
  8
0
  6
CONTINUOUS
 62
     7
 10
-91.980019
 20
166.23642
 11
-91.980019
 21
155.73642
  0
LINE
  8
0
  6
CONTINUOUS
 62
     7
 10
-118.98002
 20
166.23642
 11
-118.98002
 21
155.73642
  0
LINE
  8
0
  6
CONTINUOUS
 62
     7
 10
-121.98002
 20
169.23642
 11
-132.48001
 21
169.23642
  0
LINE
  8
0
  6
CONTINUOUS
 62
     7
 10
-88.980019
 20
169.23642
 11
-78.480011
 21
169.23642
  0
LINE
  8
0
  6
CONTINUOUS
 62
     7
 10
-132.48001
 20
196.23642
 11
-78.480011
 21
196.23642
  0
LINE
  8
0
  6
CONTINUOUS
 62
     7
 10
-118.98002
 20
155.73643
 11
-91.980019
 21
155.73643
  0
LINE
  8
0
  6
CONTINUOUS
 62
     7
 10
-78.480011
 20
196.23642
 11
-78.480011
 21
169.23642
  0
LINE
  8
0
  6
CONTINUOUS
 62
     7
 10
-132.48001
 20
196.23642
 11
-132.48001
 21
169.23642
  0
LINE
  8
0
  6
CENTER
 62
     7
 10
-3.9800127
 20
202.23642
 11
-3.9800127
 21
146.53644
  0
LINE
  8
0
  6
CENTER
 62
     7
 10
32.219986
 20
182.73642
 11
-40.180008
 21
182.73642
  0
LINE
  8
0
  6
CONTINUOUS
 62
     7
 10
12.519979
 20
162.23642
 11
12.519979
 21
150.73642
  0
LINE
  8
0
  6
CONTINUOUS
 62
     7
 10
-20.480021
 20
162.23642
 11
-20.480021
 21
150.73642
  0
LINE
  8
0
  6
CONTINUOUS
 62
     7
 10
-24.480021
 20
166.23642
 11
-35.980011
 21
166.23642
  0
LINE
  8
0
  6
CONTINUOUS
 62
     7
 10
16.519979
 20
166.23642
 11
28.019987
 21
166.23642
  0
LINE
  8
0
  6
CONTINUOUS
 62
     7
 10
-35.980011
 20
199.23642
 11
28.019987
 21
199.23642
  0
LINE
  8
0
  6
CONTINUOUS
 62
     7
 10
28.019995
 20
199.23642
 11
28.019995
 21
166.23642
  0
LINE
  8
0
  6
CONTINUOUS
 62
     7
 10
-20.480021
 20
150.7364
 11
12.519979
 21
150.7364
  0
LINE
  8
0
  6
CONTINUOUS
 62
     7
 10
-35.980011
 20
199.23642
 11
-35.980011
 21
166.23642
  0
LINE
  8
0
  6
CENTER
 62
     7
 10
109.01999
 20
206.23642
 11
109.01999
 21
140.53644
  0
LINE
  8
0
  6
CENTER
 62
     7
 10
151.21999
 20
182.73642
 11
66.819992
 21
182.73642
  0
LINE
  8
0
  6
CONTINUOUS
 62
     7
 10
129.51999
 20
158.23642
 11
129.51999
 21
144.73642
  0
LINE
  8
0
  6
CONTINUOUS
 62
     7
 10
88.519989
 20
158.23642
 11
88.519989
 21
144.73642
  0
LINE
  8
0
  6
CONTINUOUS
 62
     7
 10
84.519989
 20
162.23642
 11
71.019989
 21
162.23642
  0
LINE
  8
0
  6
CONTINUOUS
 62
     7
 10
133.51999
 20
162.23642
 11
147.01999
 21
162.23642
  0
LINE
  8
0
  6
CONTINUOUS
 62
     7
 10
71.019989
 20
203.23642
 11
147.01999
 21
203.23642
  0
LINE
  8
0
  6
CONTINUOUS
 62
     7
 10
71.019989
 20
203.23642
 11
71.019989
 21
162.23642
  0
LINE
  8
0
  6
CONTINUOUS
 62
     7
 10
88.519989
 20
144.73642
 11
129.51999
 21
144.73642
  0
LINE
  8
0
  6
CONTINUOUS
 62
     7
 10
147.01999
 20
203.23642
 11
147.01999
 21
162.23642
  0
LINE
  8
0
  6
CENTER
 62
     7
 10
-143.11649
 20
79.49382
 11
-143.11649
 21
1.0938083
  0
LINE
  8
0
  6
CENTER
 62
     7
 10
-92.716492
 20
51.493816
 11
-193.51648
 21
51.493816
  0
LINE
  8
0
  6
CONTINUOUS
 62
     7
 10
-118.11649
 20
20.493818
 11
-118.11649
 21
5.4938173
  0
LINE
  8
0
  6
CONTINUOUS
 62
     7
 10
-168.11649
 20
20.493818
 11
-168.11649
 21
5.4938173
  0
LINE
  8
0
  6
CONTINUOUS
 62
     7
 10
-174.11649
 20
26.493818
 11
-189.11649
 21
26.493818
  0
LINE
  8
0
  6
CONTINUOUS
 62
     7
 10
-112.11649
 20
26.493818
 11
-97.116486
 21
26.493818
  0
LINE
  8
0
  6
CONTINUOUS
 62
     7
 10
-189.11649
 20
76.49382
 11
-97.116486
 21
76.49382
  0
LINE
  8
0
  6
CONTINUOUS
 62
     7
 10
-118.11649
 20
5.4938192
 11
-168.11649
 21
5.4938192
  0
LINE
  8
0
  6
CONTINUOUS
 62
     7
 10
-189.11649
 20
76.49382
 11
-189.11649
 21
26.493818
  0
LINE
  8
0
  6
CONTINUOUS
 62
     7
 10
-97.116486
 20
76.49382
 11
-97.116486
 21
26.493818
  0
LINE
  8
0
  6
CENTER
 62
     7
 10
-8.1164856
 20
82.49382
 11
-8.1164856
 21
-0.90617645
  0
LINE
  8
0
  6
CENTER
 62
     7
 10
44.283508
 20
51.493816
 11
-60.516491
 21
51.493816
  0
LINE
  8
0
  6
CONTINUOUS
 62
     7
 10
19.883514
 20
17.493818
 11
19.883514
 21
3.4938176
  0
LINE
  8
0
  6
CONTINUOUS
 62
     7
 10
-36.116493
 20
17.493818
 11
-36.116493
 21
3.4938176
  0
LINE
  8
0
  6
CONTINUOUS
 62
     7
 10
-42.116493
 20
23.493818
 11
-56.116482
 21
23.493818
  0
LINE
  8
0
  6
CONTINUOUS
 62
     7
 10
25.883514
 20
23.493818
 11
39.883514
 21
23.493818
  0
LINE
  8
0
  6
CONTINUOUS
 62
     7
 10
-56.116482
 20
79.49382
 11
39.883514
 21
79.49382
  0
LINE
  8
0
  6
CONTINUOUS
 62
     7
 10
39.883518
 20
79.49382
 11
39.883518
 21
23.493818
  0
LINE
  8
0
  6
CONTINUOUS
 62
     7
 10
-56.116482
 20
79.49382
 11
-56.116482
 21
23.493818
  0
LINE
  8
0
  6
CONTINUOUS
 62
     7
 10
19.883514
 20
3.4938362
 11
-36.116493
 21
3.4938362
  0
LINE
  8
0
  6
CENTER
 62
     7
 10
141.88351
 20
88.99382
 11
141.88351
 21
-10.106158
  0
LINE
  8
0
  6
CENTER
 62
     7
 10
203.48352
 20
51.493816
 11
80.283516
 21
51.493816
  0
LINE
  8
0
  6
CONTINUOUS
 62
     7
 10
176.38351
 20
9.9938173
 11
176.38351
 21
-5.5061827
  0
LINE
  8
0
  6
CONTINUOUS
 62
     7
 10
107.38351
 20
9.9938173
 11
107.38351
 21
-5.5061827
  0
LINE
  8
0
  6
CONTINUOUS
 62
     7
 10
100.38351
 20
16.993818
 11
84.883514
 21
16.993818
  0
LINE
  8
0
  6
CONTINUOUS
 62
     7
 10
183.38351
 20
16.993818
 11
198.88351
 21
16.993818
  0
LINE
  8
0
  6
CONTINUOUS
 62
     7
 10
84.883514
 20
85.99382
 11
198.88351
 21
85.99382
  0
LINE
  8
0
  6
CONTINUOUS
 62
     7
 10
176.38351
 20
-5.5061908
 11
107.38351
 21
-5.5061908
  0
LINE
  8
0
  6
CONTINUOUS
 62
     7
 10
84.883514
 20
85.99382
 11
84.883514
 21
16.993818
  0
LINE
  8
0
  6
CONTINUOUS
 62
     7
 10
198.8835
 20
85.99382
 11
198.8835
 21
16.993818
  0
LINE
  8
0
  6
CENTER
 62
     7
 10
-179.4006
 20
-87.617035
 11
-179.4006
 21
-207.61699
  0
LINE
  8
0
  6
CENTER
 62
     7
 10
-105.40063
 20
-133.617
 11
-253.40062
 21
-133.617
  0
LINE
  8
0
  6
CONTINUOUS
 62
     7
 10
-133.90059
 20
-190.61702
 11
-133.90059
 21
-202.61702
  0
LINE
  8
0
  6
CONTINUOUS
 62
     7
 10
-136.40059
 20
-184.61705
 11
-136.40059
 21
-185.74361
  0
LINE
  8
0
  6
CONTINUOUS
 62
     7
 10
-122.4006
 20
-88.117027
 11
-110.4006
 21
-88.117027
  0
LINE
  8
0
  6
CONTINUOUS
 62
     7
 10
-122.4006
 20
-179.11705
 11
-110.4006
 21
-179.11705
  0
LINE
  8
0
  6
CONTINUOUS
 62
     7
 10
-231.52721
 20
-90.617027
 11
-127.27399
 21
-90.617027
  0
LINE
  8
0
  6
CONTINUOUS
 62
     7
 10
-128.40059
 20
-176.61705
 11
-127.27399
 21
-176.61705
  0
LINE
  8
0
  6
CONTINUOUS
 62
     7
 10
-224.90062
 20
-190.61702
 11
-224.90062
 21
-202.61702
  0
LINE
  8
0
  6
CONTINUOUS
 62
     7
 10
-222.40062
 20
-184.61705
 11
-222.40062
 21
-185.74361
  0
LINE
  8
0
  6
CONTINUOUS
 62
     7
 10
-236.40062
 20
-88.117027
 11
-248.40062
 21
-88.117027
  0
LINE
  8
0
  6
CONTINUOUS
 62
     7
 10
-236.40062
 20
-179.11705
 11
-248.40062
 21
-179.11705
  0
LINE
  8
0
  6
CONTINUOUS
 62
     7
 10
-230.40062
 20
-176.61705
 11
-231.52721
 21
-176.61705
  0
LINE
  8
0
  6
CONTINUOUS
 62
     7
 10
-133.90059
 20
-202.61697
 11
-224.90062
 21
-202.61697
  0
LINE
  8
0
  6
CONTINUOUS
 62
     7
 10
-133.90059
 20
-190.61699
 11
-224.90062
 21
-190.61699
  0
LINE
  8
0
  6
CONTINUOUS
 62
     7
 10
-236.40062
 20
-88.117027
 11
-236.40062
 21
-179.11705
  0
LINE
  8
0
  6
CONTINUOUS
 62
     7
 10
-248.40062
 20
-88.117027
 11
-248.40062
 21
-179.11705
  0
LINE
  8
0
  6
CONTINUOUS
 62
     7
 10
-122.40058
 20
-88.117027
 11
-122.40058
 21
-179.11705
  0
LINE
  8
0
  6
CONTINUOUS
 62
     7
 10
-110.40058
 20
-88.117027
 11
-110.40058
 21
-179.11705
  0
LINE
  8
0
  6
CENTER
 62
     7
 10
22.599405
 20
-81.117012
 11
22.599405
 21
-217.01695
  0
LINE
  8
0
  6
CENTER
 62
     7
 10
105.59937
 20
-133.617
 11
-60.400555
 21
-133.617
  0
LINE
  8
0
  6
CONTINUOUS
 62
     7
 10
75.099403
 20
-198.61702
 11
75.099403
 21
-211.61702
  0
LINE
  8
0
  6
CONTINUOUS
 62
     7
 10
87.599403
 20
-186.11702
 11
100.5994
 21
-186.11702
  0
LINE
  8
0
  6
CONTINUOUS
 62
     7
 10
72.099403
 20
-191.11702
 11
72.099403
 21
-191.47557
  0
LINE
  8
0
  6
CONTINUOUS
 62
     7
 10
80.099403
 20
-183.11702
 11
80.45797
 21
-183.11702
  0
LINE
  8
0
  6
CONTINUOUS
 62
     7
 10
87.599403
 20
-81.117012
 11
100.5994
 21
-81.117012
  0
LINE
  8
0
  6
CONTINUOUS
 62
     7
 10
-35.259182
 20
-84.117012
 11
80.45797
 21
-84.117012
  0
LINE
  8
0
  6
CONTINUOUS
 62
     7
 10
-29.900599
 20
-198.617
 11
-29.900599
 21
-211.61702
  0
LINE
  8
0
  6
CONTINUOUS
 62
     7
 10
-42.4006
 20
-186.11702
 11
-55.4006
 21
-186.11702
  0
LINE
  8
0
  6
CONTINUOUS
 62
     7
 10
-26.900599
 20
-191.11702
 11
-26.900599
 21
-191.47557
  0
LINE
  8
0
  6
CONTINUOUS
 62
     7
 10
-34.9006
 20
-183.11702
 11
-35.259167
 21
-183.11702
  0
LINE
  8
0
  6
CONTINUOUS
 62
     7
 10
-42.4006
 20
-81.117012
 11
-55.4006
 21
-81.117012
  0
LINE
  8
0
  6
CONTINUOUS
 62
     7
 10
75.099403
 20
-211.61717
 11
-29.900599
 21
-211.61717
  0
LINE
  8
0
  6
CONTINUOUS
 62
     7
 10
75.099403
 20
-198.617
 11
-29.900599
 21
-198.617
  0
LINE
  8
0
  6
CONTINUOUS
 62
     7
 10
-55.400555
 20
-81.117012
 11
-55.400555
 21
-186.11702
  0
LINE
  8
0
  6
CONTINUOUS
 62
     7
 10
-42.400616
 20
-81.117012
 11
-42.400616
 21
-186.11702
  0
LINE
  8
0
  6
CONTINUOUS
 62
     7
 10
87.599419
 20
-81.117012
 11
87.599419
 21
-186.11702
  0
LINE
  8
0
  6
CONTINUOUS
 62
     7
 10
100.59937
 20
-81.117012
 11
100.59937
 21
-186.11702
  0
LINE
  8
0
  6
CENTER
 62
     7
 10
148.59937
 20
-133.617
 11
352.5994
 21
-133.617
  0
LINE
  8
0
  6
CENTER
 62
     7
 10
250.5994
 20
-235.617
 11
250.5994
 21
-56.697956
  0
LINE
  8
0
  6
CONTINUOUS
 62
     7
 10
331.5994
 20
-67.117058
 11
347.5994
 21
-67.117058
  0
LINE
  8
0
  6
CONTINUOUS
 62
     7
 10
331.5994
 20
-200.11705
 11
347.5994
 21
-200.11705
  0
LINE
  8
0
  6
CONTINUOUS
 62
     7
 10
176.74081
 20
-70.11705
 11
324.45798
 21
-70.11705
  0
LINE
  8
0
  6
CONTINUOUS
 62
     7
 10
324.0994
 20
-197.11705
 11
324.45798
 21
-197.11705
  0
LINE
  8
0
  6
CONTINUOUS
 62
     7
 10
317.0994
 20
-214.61699
 11
317.0994
 21
-230.61699
  0
LINE
  8
0
  6
CONTINUOUS
 62
     7
 10
314.0994
 20
-207.11705
 11
314.0994
 21
-207.47557
  0
LINE
  8
0
  6
CONTINUOUS
 62
     7
 10
169.5994
 20
-67.117058
 11
153.59937
 21
-67.117058
  0
LINE
  8
0
  6
CONTINUOUS
 62
     7
 10
169.5994
 20
-200.11705
 11
153.59937
 21
-200.11705
  0
LINE
  8
0
  6
CONTINUOUS
 62
     7
 10
177.0994
 20
-197.11705
 11
176.74081
 21
-197.11705
  0
LINE
  8
0
  6
CONTINUOUS
 62
     7
 10
184.0994
 20
-214.61699
 11
184.0994
 21
-230.61699
  0
LINE
  8
0
  6
CONTINUOUS
 62
     7
 10
187.0994
 20
-207.11705
 11
187.0994
 21
-207.47557
  0
LINE
  8
0
  6
CONTINUOUS
 62
     7
 10
153.59937
 20
-200.11705
 11
153.59937
 21
-67.117058
  0
LINE
  8
0
  6
CONTINUOUS
 62
     7
 10
169.59935
 20
-200.11705
 11
169.59935
 21
-67.117058
  0
LINE
  8
0
  6
CONTINUOUS
 62
     7
 10
331.59946
 20
-200.11705
 11
331.59946
 21
-67.117058
  0
LINE
  8
0
  6
CONTINUOUS
 62
     7
 10
347.5994
 20
-200.11705
 11
347.5994
 21
-67.117058
  0
LINE
  8
0
  6
CONTINUOUS
 62
     7
 10
317.0994
 20
-214.61697
 11
184.0994
 21
-214.61697
  0
LINE
  8
0
  6
CONTINUOUS
 62
     7
 10
317.0994
 20
-230.617
 11
184.0994
 21
-230.617
  0
LINE
  8
0
  6
CONTINUOUS
 62
     7
 10
142.63351
 20
58.993816
 11
142.63351
 21
56.939484
  0
LINE
  8
0
  6
CONTINUOUS
 62
     7
 10
141.13351
 20
58.993816
 11
141.13351
 21
56.939484
  0
LINE
  8
0
  6
CONTINUOUS
 62
     7
 10
141.13351
 20
46.048149
 11
141.13351
 21
43.993816
  0
LINE
  8
0
  6
CONTINUOUS
 62
     7
 10
142.63351
 20
46.048149
 11
142.63351
 21
43.993816
  0
LINE
  8
0
  6
CONTINUOUS
 62
     7
 10
141.13351
 20
55.434032
 11
141.13351
 21
51.493816
  0
LINE
  8
0
  6
CONTINUOUS
 62
     7
 10
142.63351
 20
55.434032
 11
142.63351
 21
51.493816
  0
LINE
  8
0
  6
CONTINUOUS
 62
     7
 10
-7.5164852
 20
57.493816
 11
-7.5164852
 21
55.850349
  0
LINE
  8
0
  6
CONTINUOUS
 62
     7
 10
-8.716486
 20
57.493816
 11
-8.716486
 21
55.850349
  0
LINE
  8
0
  6
CONTINUOUS
 62
     7
 10
-8.716486
 20
47.137283
 11
-8.716486
 21
45.493816
  0
LINE
  8
0
  6
CONTINUOUS
 62
     7
 10
-7.5164852
 20
47.137283
 11
-7.5164852
 21
45.493816
  0
LINE
  8
0
  6
CONTINUOUS
 62
     7
 10
-8.716486
 20
54.645988
 11
-8.716486
 21
51.493816
  0
LINE
  8
0
  6
CONTINUOUS
 62
     7
 10
-7.5164852
 20
54.645988
 11
-7.5164852
 21
51.493816
  0
LINE
  8
0
  6
CONTINUOUS
 62
     7
 10
-142.51648
 20
57.493816
 11
-142.51648
 21
55.850349
  0
LINE
  8
0
  6
CONTINUOUS
 62
     7
 10
-143.71649
 20
57.493816
 11
-143.71649
 21
55.850349
  0
LINE
  8
0
  6
CONTINUOUS
 62
     7
 10
-143.71649
 20
47.137283
 11
-143.71649
 21
45.493816
  0
LINE
  8
0
  6
CONTINUOUS
 62
     7
 10
-142.51648
 20
47.137283
 11
-142.51648
 21
45.493816
  0
LINE
  8
0
  6
CONTINUOUS
 62
     7
 10
-143.71649
 20
54.645988
 11
-143.71649
 21
51.493816
  0
LINE
  8
0
  6
CONTINUOUS
 62
     7
 10
-142.51648
 20
54.645988
 11
-142.51648
 21
51.493816
  0
LINE
  8
0
  6
CONTINUOUS
 62
     7
 10
109.62
 20
188.73642
 11
109.62
 21
187.09296
  0
LINE
  8
0
  6
CONTINUOUS
 62
     7
 10
108.41998
 20
188.73642
 11
108.41998
 21
187.09296
  0
LINE
  8
0
  6
CONTINUOUS
 62
     7
 10
108.41998
 20
178.37988
 11
108.41998
 21
176.73642
  0
LINE
  8
0
  6
CONTINUOUS
 62
     7
 10
109.62
 20
178.37988
 11
109.62
 21
176.73642
  0
LINE
  8
0
  6
CONTINUOUS
 62
     7
 10
108.41998
 20
185.8886
 11
108.41998
 21
182.73642
  0
LINE
  8
0
  6
CONTINUOUS
 62
     7
 10
109.62
 20
185.8886
 11
109.62
 21
182.73642
  0
LINE
  8
0
  6
CONTINUOUS
 62
     7
 10
-3.5300157
 20
187.23642
 11
-3.5300157
 21
186.00381
  0
LINE
  8
0
  6
CONTINUOUS
 62
     7
 10
-4.4300098
 20
187.23642
 11
-4.4300098
 21
186.00381
  0
LINE
  8
0
  6
CONTINUOUS
 62
     7
 10
-4.4300098
 20
179.46902
 11
-4.4300098
 21
178.23642
  0
LINE
  8
0
  6
CONTINUOUS
 62
     7
 10
-3.5300157
 20
179.46902
 11
-3.5300157
 21
178.23642
  0
LINE
  8
0
  6
CONTINUOUS
 62
     7
 10
-4.4300098
 20
185.10056
 11
-4.4300098
 21
182.73642
  0
LINE
  8
0
  6
CONTINUOUS
 62
     7
 10
-3.5300157
 20
185.10056
 11
-3.5300157
 21
182.73642
  0
LINE
  8
0
  6
CONTINUOUS
 62
     7
 10
-105.03001
 20
187.23642
 11
-105.03001
 21
186.00381
  0
LINE
  8
0
  6
CONTINUOUS
 62
     7
 10
-105.93002
 20
187.23642
 11
-105.93002
 21
186.00381
  0
LINE
  8
0
  6
CONTINUOUS
 62
     7
 10
-105.93002
 20
179.46902
 11
-105.93002
 21
178.23642
  0
LINE
  8
0
  6
CONTINUOUS
 62
     7
 10
-105.03001
 20
179.46902
 11
-105.03001
 21
178.23642
  0
LINE
  8
0
  6
CONTINUOUS
 62
     7
 10
-105.93002
 20
185.10056
 11
-105.93002
 21
182.73642
  0
LINE
  8
0
  6
CONTINUOUS
 62
     7
 10
-105.03001
 20
185.10056
 11
-105.03001
 21
182.73642
  0
LINE
  8
0
  6
CONTINUOUS
 62
     7
 10
-178.6506
 20
-126.11701
 11
-178.6506
 21
-128.17134
  0
LINE
  8
0
  6
CONTINUOUS
 62
     7
 10
-180.1506
 20
-126.11701
 11
-180.1506
 21
-128.17134
  0
LINE
  8
0
  6
CONTINUOUS
 62
     7
 10
-180.1506
 20
-139.06268
 11
-180.1506
 21
-141.117
  0
LINE
  8
0
  6
CONTINUOUS
 62
     7
 10
-178.6506
 20
-139.06268
 11
-178.6506
 21
-141.117
  0
LINE
  8
0
  6
CONTINUOUS
 62
     7
 10
-180.1506
 20
-129.67679
 11
-180.1506
 21
-133.617
  0
LINE
  8
0
  6
CONTINUOUS
 62
     7
 10
-178.6506
 20
-129.67679
 11
-178.6506
 21
-133.617
  0
LINE
  8
0
  6
CONTINUOUS
 62
     7
 10
23.499405
 20
-124.61701
 11
23.499405
 21
-127.08221
  0
LINE
  8
0
  6
CONTINUOUS
 62
     7
 10
21.699406
 20
-124.61701
 11
21.699406
 21
-127.08221
  0
LINE
  8
0
  6
CONTINUOUS
 62
     7
 10
21.699406
 20
-140.15181
 11
21.699406
 21
-142.617
  0
LINE
  8
0
  6
CONTINUOUS
 62
     7
 10
23.499405
 20
-140.15181
 11
23.499405
 21
-142.617
  0
LINE
  8
0
  6
CONTINUOUS
 62
     7
 10
21.699406
 20
-128.88875
 11
21.699406
 21
-133.617
  0
LINE
  8
0
  6
CONTINUOUS
 62
     7
 10
23.499405
 20
-128.88875
 11
23.499405
 21
-133.617
  0
LINE
  8
0
  6
CONTINUOUS
 62
     7
 10
251.49939
 20
-124.61701
 11
251.49939
 21
-127.08221
  0
LINE
  8
0
  6
CONTINUOUS
 62
     7
 10
249.6994
 20
-124.61701
 11
249.6994
 21
-127.08221
  0
LINE
  8
0
  6
CONTINUOUS
 62
     7
 10
249.6994
 20
-140.15181
 11
249.6994
 21
-142.617
  0
LINE
  8
0
  6
CONTINUOUS
 62
     7
 10
251.49939
 20
-140.15181
 11
251.49939
 21
-142.617
  0
LINE
  8
0
  6
CONTINUOUS
 62
     7
 10
249.6994
 20
-128.88875
 11
249.6994
 21
-133.617
  0
LINE
  8
0
  6
CONTINUOUS
 62
     7
 10
251.49939
 20
-128.88875
 11
251.49939
 21
-133.617
  0
ARC
  8
0
  6
CONTINUOUS
 62
     7
 10
-31.094997
 20
18.993818
 40
2.5
 50
62.964796
 51
67.585159
  0
ARC
  8
0
  6
CONTINUOUS
 62
     7
 10
-121.98002
 20
166.23642
 40
3
 50
359.99998
 51
90.000016
  0
ARC
  8
0
  6
CONTINUOUS
 62
     7
 10
-88.980019
 20
166.23642
 40
3
 50
90.000016
 51
180.00001
  0
ARC
  8
0
  6
CONTINUOUS
 62
     7
 10
-24.480021
 20
162.23642
 40
4
 50
359.99998
 51
90.000016
  0
ARC
  8
0
  6
CONTINUOUS
 62
     7
 10
16.519979
 20
162.23642
 40
4
 50
90.000016
 51
180.00001
  0
ARC
  8
0
  6
CONTINUOUS
 62
     7
 10
84.519989
 20
158.23642
 40
4
 50
359.99998
 51
90.000016
  0
ARC
  8
0
  6
CONTINUOUS
 62
     7
 10
133.51999
 20
158.23642
 40
4
 50
90.000016
 51
180.00001
  0
ARC
  8
0
  6
CONTINUOUS
 62
     7
 10
-174.11649
 20
20.493818
 40
6
 50
359.99998
 51
90.000016
  0
ARC
  8
0
  6
CONTINUOUS
 62
     7
 10
-112.11649
 20
20.493818
 40
6
 50
90.000016
 51
180.00001
  0
ARC
  8
0
  6
CONTINUOUS
 62
     7
 10
-40.616486
 20
74.472336
 40
2.5
 50
332.96479
 51
337.58515
  0
ARC
  8
0
  6
CONTINUOUS
 62
     7
 10
24.383514
 20
74.472336
 40
2.5
 50
202.41487
 51
207.03524
  0
ARC
  8
0
  6
CONTINUOUS
 62
     7
 10
-42.116493
 20
17.493818
 40
6
 50
359.99998
 51
90.000016
  0
ARC
  8
0
  6
CONTINUOUS
 62
     7
 10
25.883514
 20
17.493818
 40
6
 50
90.000016
 51
180.00001
  0
ARC
  8
0
  6
CONTINUOUS
 62
     7
 10
100.38351
 20
9.9938173
 40
7
 50
359.99998
 51
90.000016
  0
ARC
  8
0
  6
CONTINUOUS
 62
     7
 10
183.38351
 20
9.9938173
 40
7
 50
90.000016
 51
180.00001
  0
ARC
  8
0
  6
CONTINUOUS
 62
     7
 10
-130.40059
 20
-185.74361
 40
6
 50
179.99999
 51
234.31467
  0
ARC
  8
0
  6
CONTINUOUS
 62
     7
 10
-127.27399
 20
-84.617012
 40
6
 50
270
 51
324.31468
  0
ARC
  8
0
  6
CONTINUOUS
 62
     7
 10
-127.27399
 20
-182.61702
 40
6
 50
35.685358
 51
90.000016
  0
ARC
  8
0
  6
CONTINUOUS
 62
     7
 10
-128.40059
 20
-184.61705
 40
8
 50
90.000016
 51
180.00001
  0
ARC
  8
0
  6
CONTINUOUS
 62
     7
 10
-228.40062
 20
-185.74361
 40
6
 50
305.68533
 51
6.8301892E-006
  0
ARC
  8
0
  6
CONTINUOUS
 62
     7
 10
-231.52721
 20
-84.617012
 40
6
 50
215.68532
 51
270
  0
ARC
  8
0
  6
CONTINUOUS
 62
     7
 10
-231.52721
 20
-182.61702
 40
6
 50
89.999982
 51
144.31464
  0
ARC
  8
0
  6
CONTINUOUS
 62
     7
 10
-230.40062
 20
-184.61705
 40
8
 50
4.07111E-013
 51
89.999982
  0
ARC
  8
0
  6
CONTINUOUS
 62
     7
 10
82.099403
 20
-191.47557
 40
10
 50
179.99999
 51
225.57299
  0
ARC
  8
0
  6
CONTINUOUS
 62
     7
 10
80.457962
 20
-193.11699
 40
10
 50
44.42703
 51
90.000016
  0
ARC
  8
0
  6
CONTINUOUS
 62
     7
 10
80.457985
 20
-74.117012
 40
10
 50
270
 51
315.573
  0
ARC
  8
0
  6
CONTINUOUS
 62
     7
 10
80.099403
 20
-191.11702
 40
8
 50
90.000016
 51
180.00001
  0
ARC
  8
0
  6
CONTINUOUS
 62
     7
 10
-34.9006
 20
-191.11702
 40
8
 50
4.07111E-013
 51
89.999982
  0
ARC
  8
0
  6
CONTINUOUS
 62
     7
 10
-36.9006
 20
-191.47557
 40
10
 50
314.427
 51
3.256888E-013
  0
ARC
  8
0
  6
CONTINUOUS
 62
     7
 10
-35.259151
 20
-193.11699
 40
10
 50
89.999982
 51
135.57297
  0
ARC
  8
0
  6
CONTINUOUS
 62
     7
 10
-35.259182
 20
-74.117012
 40
10
 50
224.427
 51
270
  0
ARC
  8
0
  6
CONTINUOUS
 62
     7
 10
324.45798
 20
-60.117008
 40
10
 50
270
 51
315.573
  0
ARC
  8
0
  6
CONTINUOUS
 62
     7
 10
322.5994
 20
-78.224258
 40
3
 50
201.19801
 51
205.65016
  0
ARC
  8
0
  6
CONTINUOUS
 62
     7
 10
324.45798
 20
-207.11702
 40
10
 50
44.42703
 51
90.000016
  0
ARC
  8
0
  6
CONTINUOUS
 62
     7
 10
324.09943
 20
-207.47557
 40
10
 50
179.99999
 51
225.57298
  0
ARC
  8
0
  6
CONTINUOUS
 62
     7
 10
324.0994
 20
-207.11705
 40
10
 50
90.000016
 51
180.00001
  0
ARC
  8
0
  6
CONTINUOUS
 62
     7
 10
176.74081
 20
-60.117008
 40
10
 50
224.427
 51
270
  0
ARC
  8
0
  6
CONTINUOUS
 62
     7
 10
178.5994
 20
-78.224258
 40
3
 50
334.34984
 51
338.80199
  0
ARC
  8
0
  6
CONTINUOUS
 62
     7
 10
176.74081
 20
-207.11702
 40
10
 50
89.999982
 51
135.57297
  0
ARC
  8
0
  6
CONTINUOUS
 62
     7
 10
177.09937
 20
-207.47557
 40
10
 50
314.42701
 51
3.256888E-013
  0
ARC
  8
0
  6
CONTINUOUS
 62
     7
 10
177.0994
 20
-207.11705
 40
10
 50
3.256888E-013
 51
89.999982
  0
ARC
  8
0
  6
CONTINUOUS
 62
     7
 10
144.88351
 20
51.493816
 40
3
 50
306.00832
 51
53.991676
  0
ARC
  8
0
  6
CONTINUOUS
 62
     7
 10
144.88351
 20
51.493816
 40
4.5
 50
306.00832
 51
53.991676
  0
ARC
  8
0
  6
CONTINUOUS
 62
     7
 10
138.88351
 20
51.493816
 40
3
 50
126.00833
 51
233.99168
  0
ARC
  8
0
  6
CONTINUOUS
 62
     7
 10
138.88351
 20
51.493816
 40
4.5
 50
126.00833
 51
233.99168
  0
ARC
  8
0
  6
CONTINUOUS
 62
     7
 10
141.88351
 20
47.365932
 40
9.6028843
 50
53.991676
 51
85.520553
  0
ARC
  8
0
  6
CONTINUOUS
 62
     7
 10
141.88351
 20
47.365932
 40
8.1028843
 50
53.991676
 51
84.689121
  0
ARC
  8
0
  6
CONTINUOUS
 62
     7
 10
141.88351
 20
55.6217
 40
8.1028843
 50
233.99167
 51
306.00832
  0
ARC
  8
0
  6
CONTINUOUS
 62
     7
 10
141.88351
 20
55.6217
 40
9.6028843
 50
233.99167
 51
265.52055
  0
ARC
  8
0
  6
CONTINUOUS
 62
     7
 10
141.88351
 20
58.431316
 40
0.9375
 50
36.869897
 51
143.1301
  0
ARC
  8
0
  6
CONTINUOUS
 62
     7
 10
141.88351
 20
52.056316
 40
0.9375
 50
216.8699
 51
323.1301
  0
ARC
  8
0
  6
CONTINUOUS
 62
     7
 10
141.88351
 20
44.556316
 40
0.9375
 50
216.8699
 51
323.1301
  0
ARC
  8
0
  6
CONTINUOUS
 62
     7
 10
141.88351
 20
47.365932
 40
9.6028843
 50
94.479452
 51
126.00833
  0
ARC
  8
0
  6
CONTINUOUS
 62
     7
 10
141.88351
 20
47.365932
 40
8.1028843
 50
95.310878
 51
126.00833
  0
ARC
  8
0
  6
CONTINUOUS
 62
     7
 10
141.88351
 20
55.6217
 40
9.6028843
 50
274.47945
 51
306.00832
  0
ARC
  8
0
  6
CONTINUOUS
 62
     7
 10
-5.716486
 20
51.493816
 40
2.4000001
 50
306.00832
 51
53.991676
  0
ARC
  8
0
  6
CONTINUOUS
 62
     7
 10
-5.716486
 20
51.493816
 40
3.5999999
 50
306.00832
 51
53.991676
  0
ARC
  8
0
  6
CONTINUOUS
 62
     7
 10
-10.516485
 20
51.493816
 40
2.4000001
 50
126.00833
 51
233.99168
  0
ARC
  8
0
  6
CONTINUOUS
 62
     7
 10
-10.516485
 20
51.493816
 40
3.5999999
 50
126.00833
 51
233.99168
  0
ARC
  8
0
  6
CONTINUOUS
 62
     7
 10
-8.1164856
 20
48.191509
 40
7.6823077
 50
53.991676
 51
85.520553
  0
ARC
  8
0
  6
CONTINUOUS
 62
     7
 10
-8.1164856
 20
48.191509
 40
6.4823079
 50
53.991676
 51
84.689121
  0
ARC
  8
0
  6
CONTINUOUS
 62
     7
 10
-8.1164856
 20
54.796124
 40
6.4823079
 50
233.99167
 51
306.00832
  0
ARC
  8
0
  6
CONTINUOUS
 62
     7
 10
-8.1164856
 20
54.796124
 40
7.6823077
 50
233.99167
 51
265.52055
  0
ARC
  8
0
  6
CONTINUOUS
 62
     7
 10
-8.1164856
 20
57.043816
 40
0.75
 50
36.869897
 51
143.1301
  0
ARC
  8
0
  6
CONTINUOUS
 62
     7
 10
-8.1164856
 20
51.943817
 40
0.75
 50
216.8699
 51
323.1301
  0
ARC
  8
0
  6
CONTINUOUS
 62
     7
 10
-8.1164856
 20
45.943817
 40
0.75
 50
216.8699
 51
323.1301
  0
ARC
  8
0
  6
CONTINUOUS
 62
     7
 10
-8.1164856
 20
48.191509
 40
6.4823079
 50
95.310878
 51
126.00833
  0
ARC
  8
0
  6
CONTINUOUS
 62
     7
 10
-8.1164856
 20
48.191509
 40
7.6823077
 50
94.479452
 51
126.00833
  0
ARC
  8
0
  6
CONTINUOUS
 62
     7
 10
-8.1164856
 20
54.796124
 40
7.6823077
 50
274.47945
 51
306.00832
  0
ARC
  8
0
  6
CONTINUOUS
 62
     7
 10
-140.71649
 20
51.493816
 40
2.4000001
 50
306.00832
 51
53.991676
  0
ARC
  8
0
  6
CONTINUOUS
 62
     7
 10
-140.71649
 20
51.493816
 40
3.5999999
 50
306.00832
 51
53.991676
  0
ARC
  8
0
  6
CONTINUOUS
 62
     7
 10
-145.51648
 20
51.493816
 40
2.4000001
 50
126.00833
 51
233.99168
  0
ARC
  8
0
  6
CONTINUOUS
 62
     7
 10
-145.51648
 20
51.493816
 40
3.5999999
 50
126.00833
 51
233.99168
  0
ARC
  8
0
  6
CONTINUOUS
 62
     7
 10
-143.11649
 20
48.191509
 40
7.6823077
 50
53.991676
 51
85.520553
  0
ARC
  8
0
  6
CONTINUOUS
 62
     7
 10
-143.11649
 20
48.191509
 40
6.4823079
 50
53.991676
 51
84.689121
  0
ARC
  8
0
  6
CONTINUOUS
 62
     7
 10
-143.11649
 20
54.796124
 40
6.4823079
 50
233.99167
 51
306.00832
  0
ARC
  8
0
  6
CONTINUOUS
 62
     7
 10
-143.11649
 20
54.796124
 40
7.6823077
 50
233.99167
 51
265.52055
  0
ARC
  8
0
  6
CONTINUOUS
 62
     7
 10
-143.11649
 20
57.043816
 40
0.75
 50
36.869897
 51
143.1301
  0
ARC
  8
0
  6
CONTINUOUS
 62
     7
 10
-143.11649
 20
51.943817
 40
0.75
 50
216.8699
 51
323.1301
  0
ARC
  8
0
  6
CONTINUOUS
 62
     7
 10
-143.11649
 20
45.943817
 40
0.75
 50
216.8699
 51
323.1301
  0
ARC
  8
0
  6
CONTINUOUS
 62
     7
 10
-143.11649
 20
48.191509
 40
6.4823079
 50
95.310878
 51
126.00833
  0
ARC
  8
0
  6
CONTINUOUS
 62
     7
 10
-143.11649
 20
48.191509
 40
7.6823077
 50
94.479452
 51
126.00833
  0
ARC
  8
0
  6
CONTINUOUS
 62
     7
 10
-143.11649
 20
54.796124
 40
7.6823077
 50
274.47945
 51
306.00832
  0
ARC
  8
0
  6
CONTINUOUS
 62
     7
 10
111.41998
 20
182.73642
 40
2.4000001
 50
306.00832
 51
53.991676
  0
ARC
  8
0
  6
CONTINUOUS
 62
     7
 10
111.41998
 20
182.73642
 40
3.5999999
 50
306.00832
 51
53.991676
  0
ARC
  8
0
  6
CONTINUOUS
 62
     7
 10
106.62
 20
182.73642
 40
2.4000001
 50
126.00833
 51
233.99168
  0
ARC
  8
0
  6
CONTINUOUS
 62
     7
 10
106.62
 20
182.73642
 40
3.5999999
 50
126.00833
 51
233.99168
  0
ARC
  8
0
  6
CONTINUOUS
 62
     7
 10
109.01999
 20
179.43411
 40
7.6823077
 50
53.991676
 51
85.520553
  0
ARC
  8
0
  6
CONTINUOUS
 62
     7
 10
109.01999
 20
179.43411
 40
6.4823079
 50
53.991676
 51
84.689121
  0
ARC
  8
0
  6
CONTINUOUS
 62
     7
 10
109.01999
 20
186.03873
 40
6.4823079
 50
233.99167
 51
306.00832
  0
ARC
  8
0
  6
CONTINUOUS
 62
     7
 10
109.01999
 20
186.03873
 40
7.6823077
 50
233.99167
 51
265.52055
  0
ARC
  8
0
  6
CONTINUOUS
 62
     7
 10
109.01999
 20
188.28642
 40
0.75
 50
36.869897
 51
143.1301
  0
ARC
  8
0
  6
CONTINUOUS
 62
     7
 10
109.01999
 20
183.18642
 40
0.75
 50
216.8699
 51
323.1301
  0
ARC
  8
0
  6
CONTINUOUS
 62
     7
 10
109.01999
 20
177.18642
 40
0.75
 50
216.8699
 51
323.1301
  0
ARC
  8
0
  6
CONTINUOUS
 62
     7
 10
109.01999
 20
179.43411
 40
6.4823079
 50
95.310878
 51
126.00833
  0
ARC
  8
0
  6
CONTINUOUS
 62
     7
 10
109.01999
 20
179.43411
 40
7.6823077
 50
94.479452
 51
126.00833
  0
ARC
  8
0
  6
CONTINUOUS
 62
     7
 10
109.01999
 20
186.03873
 40
7.6823077
 50
274.47945
 51
306.00832
  0
ARC
  8
0
  6
CONTINUOUS
 62
     7
 10
-2.1800096
 20
182.73642
 40
1.8
 50
306.00832
 51
53.991676
  0
ARC
  8
0
  6
CONTINUOUS
 62
     7
 10
-2.1800096
 20
182.73642
 40
2.7
 50
306.00832
 51
53.991676
  0
ARC
  8
0
  6
CONTINUOUS
 62
     7
 10
-5.7800159
 20
182.73642
 40
1.8
 50
126.00833
 51
233.99168
  0
ARC
  8
0
  6
CONTINUOUS
 62
     7
 10
-5.7800159
 20
182.73642
 40
2.7
 50
126.00833
 51
233.99168
  0
ARC
  8
0
  6
CONTINUOUS
 62
     7
 10
-3.9800127
 20
180.25969
 40
5.7617307
 50
53.991676
 51
85.520553
  0
ARC
  8
0
  6
CONTINUOUS
 62
     7
 10
-3.9800127
 20
180.25969
 40
4.8617306
 50
53.991676
 51
84.689121
  0
ARC
  8
0
  6
CONTINUOUS
 62
     7
 10
-3.9800127
 20
185.21315
 40
4.8617306
 50
233.99167
 51
306.00832
  0
ARC
  8
0
  6
CONTINUOUS
 62
     7
 10
-3.9800127
 20
185.21315
 40
5.7617307
 50
233.99167
 51
265.52055
  0
ARC
  8
0
  6
CONTINUOUS
 62
     7
 10
-3.9800127
 20
186.89893
 40
0.5625
 50
36.869897
 51
143.1301
  0
ARC
  8
0
  6
CONTINUOUS
 62
     7
 10
-3.9800127
 20
183.07391
 40
0.5625
 50
216.8699
 51
323.1301
  0
ARC
  8
0
  6
CONTINUOUS
 62
     7
 10
-3.9800127
 20
178.57391
 40
0.5625
 50
216.8699
 51
323.1301
  0
ARC
  8
0
  6
CONTINUOUS
 62
     7
 10
-3.9800127
 20
180.25969
 40
5.7617307
 50
94.479452
 51
126.00833
  0
ARC
  8
0
  6
CONTINUOUS
 62
     7
 10
-3.9800127
 20
180.25969
 40
4.8617306
 50
95.310878
 51
126.00833
  0
ARC
  8
0
  6
CONTINUOUS
 62
     7
 10
-3.9800127
 20
185.21315
 40
5.7617307
 50
274.47945
 51
306.00832
  0
ARC
  8
0
  6
CONTINUOUS
 62
     7
 10
-103.68002
 20
182.73642
 40
1.8
 50
306.00832
 51
53.991676
  0
ARC
  8
0
  6
CONTINUOUS
 62
     7
 10
-103.68002
 20
182.73642
 40
2.7
 50
306.00832
 51
53.991676
  0
ARC
  8
0
  6
CONTINUOUS
 62
     7
 10
-107.28001
 20
182.73642
 40
1.8
 50
126.00833
 51
233.99168
  0
ARC
  8
0
  6
CONTINUOUS
 62
     7
 10
-107.28001
 20
182.73642
 40
2.7
 50
126.00833
 51
233.99168
  0
ARC
  8
0
  6
CONTINUOUS
 62
     7
 10
-105.48001
 20
180.25969
 40
5.7617307
 50
53.991676
 51
85.520553
  0
ARC
  8
0
  6
CONTINUOUS
 62
     7
 10
-105.48001
 20
180.25969
 40
4.8617306
 50
53.991676
 51
84.689121
  0
ARC
  8
0
  6
CONTINUOUS
 62
     7
 10
-105.48001
 20
185.21315
 40
4.8617306
 50
233.99167
 51
306.00832
  0
ARC
  8
0
  6
CONTINUOUS
 62
     7
 10
-105.48001
 20
185.21315
 40
5.7617307
 50
233.99167
 51
265.52055
  0
ARC
  8
0
  6
CONTINUOUS
 62
     7
 10
-105.48001
 20
186.89893
 40
0.5625
 50
36.869897
 51
143.1301
  0
ARC
  8
0
  6
CONTINUOUS
 62
     7
 10
-105.48001
 20
183.07391
 40
0.5625
 50
216.8699
 51
323.1301
  0
ARC
  8
0
  6
CONTINUOUS
 62
     7
 10
-105.48001
 20
178.57391
 40
0.5625
 50
216.8699
 51
323.1301
  0
ARC
  8
0
  6
CONTINUOUS
 62
     7
 10
-105.48001
 20
180.25969
 40
5.7617307
 50
94.479452
 51
126.00833
  0
ARC
  8
0
  6
CONTINUOUS
 62
     7
 10
-105.48001
 20
180.25969
 40
4.8617306
 50
95.310878
 51
126.00833
  0
ARC
  8
0
  6
CONTINUOUS
 62
     7
 10
-105.48001
 20
185.21315
 40
5.7617307
 50
274.47945
 51
306.00832
  0
ARC
  8
0
  6
CONTINUOUS
 62
     7
 10
-176.4006
 20
-133.617
 40
3
 50
306.00832
 51
53.991676
  0
ARC
  8
0
  6
CONTINUOUS
 62
     7
 10
-176.4006
 20
-133.617
 40
4.5
 50
306.00832
 51
53.991676
  0
ARC
  8
0
  6
CONTINUOUS
 62
     7
 10
-182.4006
 20
-133.617
 40
3
 50
126.00833
 51
233.99168
  0
ARC
  8
0
  6
CONTINUOUS
 62
     7
 10
-182.4006
 20
-133.617
 40
4.5
 50
126.00833
 51
233.99168
  0
ARC
  8
0
  6
CONTINUOUS
 62
     7
 10
-179.4006
 20
-137.74489
 40
9.6028843
 50
53.991676
 51
85.520553
  0
ARC
  8
0
  6
CONTINUOUS
 62
     7
 10
-179.4006
 20
-137.74489
 40
8.1028843
 50
53.991676
 51
84.689121
  0
ARC
  8
0
  6
CONTINUOUS
 62
     7
 10
-179.4006
 20
-129.48912
 40
8.1028843
 50
233.99167
 51
306.00832
  0
ARC
  8
0
  6
CONTINUOUS
 62
     7
 10
-179.4006
 20
-129.48912
 40
9.6028843
 50
233.99167
 51
265.52055
  0
ARC
  8
0
  6
CONTINUOUS
 62
     7
 10
-179.4006
 20
-126.67951
 40
0.9375
 50
36.869897
 51
143.1301
  0
ARC
  8
0
  6
CONTINUOUS
 62
     7
 10
-179.4006
 20
-133.0545
 40
0.9375
 50
216.8699
 51
323.1301
  0
ARC
  8
0
  6
CONTINUOUS
 62
     7
 10
-179.4006
 20
-140.5545
 40
0.9375
 50
216.8699
 51
323.1301
  0
ARC
  8
0
  6
CONTINUOUS
 62
     7
 10
-179.4006
 20
-137.74489
 40
9.6028843
 50
94.479452
 51
126.00833
  0
ARC
  8
0
  6
CONTINUOUS
 62
     7
 10
-179.4006
 20
-137.74489
 40
8.1028843
 50
95.310878
 51
126.00833
  0
ARC
  8
0
  6
CONTINUOUS
 62
     7
 10
-179.4006
 20
-129.48912
 40
9.6028843
 50
274.47945
 51
306.00832
  0
ARC
  8
0
  6
CONTINUOUS
 62
     7
 10
26.199406
 20
-133.617
 40
3.5999999
 50
306.00832
 51
53.991676
  0
ARC
  8
0
  6
CONTINUOUS
 62
     7
 10
26.199406
 20
-133.617
 40
5.4000001
 50
306.00832
 51
53.991676
  0
ARC
  8
0
  6
CONTINUOUS
 62
     7
 10
18.999407
 20
-133.617
 40
3.5999999
 50
126.00833
 51
233.99168
  0
ARC
  8
0
  6
CONTINUOUS
 62
     7
 10
18.999407
 20
-133.617
 40
5.4000001
 50
126.00833
 51
233.99168
  0
ARC
  8
0
  6
CONTINUOUS
 62
     7
 10
22.599405
 20
-138.57047
 40
11.523461
 50
53.991676
 51
85.520553
  0
ARC
  8
0
  6
CONTINUOUS
 62
     7
 10
22.599405
 20
-138.57047
 40
9.7234612
 50
53.991676
 51
84.689121
  0
ARC
  8
0
  6
CONTINUOUS
 62
     7
 10
22.599405
 20
-128.66354
 40
9.7234612
 50
233.99167
 51
306.00832
  0
ARC
  8
0
  6
CONTINUOUS
 62
     7
 10
22.599405
 20
-128.66354
 40
11.523461
 50
233.99167
 51
265.52055
  0
ARC
  8
0
  6
CONTINUOUS
 62
     7
 10
22.599405
 20
-125.29202
 40
1.125
 50
36.869897
 51
143.1301
  0
ARC
  8
0
  6
CONTINUOUS
 62
     7
 10
22.599405
 20
-132.942
 40
1.125
 50
216.8699
 51
323.1301
  0
ARC
  8
0
  6
CONTINUOUS
 62
     7
 10
22.599405
 20
-141.942
 40
1.125
 50
216.8699
 51
323.1301
  0
ARC
  8
0
  6
CONTINUOUS
 62
     7
 10
22.599405
 20
-138.57047
 40
11.523461
 50
94.479452
 51
126.00833
  0
ARC
  8
0
  6
CONTINUOUS
 62
     7
 10
22.599405
 20
-138.57047
 40
9.7234612
 50
95.310878
 51
126.00833
  0
ARC
  8
0
  6
CONTINUOUS
 62
     7
 10
22.599405
 20
-128.66354
 40
11.523461
 50
274.47945
 51
306.00832
  0
ARC
  8
0
  6
CONTINUOUS
 62
     7
 10
254.1994
 20
-133.617
 40
3.5999999
 50
306.00832
 51
53.991676
  0
ARC
  8
0
  6
CONTINUOUS
 62
     7
 10
254.1994
 20
-133.617
 40
5.4000001
 50
306.00832
 51
53.991676
  0
ARC
  8
0
  6
CONTINUOUS
 62
     7
 10
246.99939
 20
-133.617
 40
3.5999999
 50
126.00833
 51
233.99168
  0
ARC
  8
0
  6
CONTINUOUS
 62
     7
 10
246.99939
 20
-133.617
 40
5.4000001
 50
126.00833
 51
233.99168
  0
ARC
  8
0
  6
CONTINUOUS
 62
     7
 10
250.5994
 20
-138.57047
 40
11.523461
 50
53.991676
 51
85.520553
  0
ARC
  8
0
  6
CONTINUOUS
 62
     7
 10
250.5994
 20
-138.57047
 40
9.7234612
 50
53.991676
 51
84.689121
  0
ARC
  8
0
  6
CONTINUOUS
 62
     7
 10
250.5994
 20
-128.66354
 40
9.7234612
 50
233.99167
 51
306.00832
  0
ARC
  8
0
  6
CONTINUOUS
 62
     7
 10
250.5994
 20
-128.66354
 40
11.523461
 50
233.99167
 51
265.52055
  0
ARC
  8
0
  6
CONTINUOUS
 62
     7
 10
250.5994
 20
-125.29202
 40
1.125
 50
36.869897
 51
143.1301
  0
ARC
  8
0
  6
CONTINUOUS
 62
     7
 10
250.5994
 20
-132.942
 40
1.125
 50
216.8699
 51
323.1301
  0
ARC
  8
0
  6
CONTINUOUS
 62
     7
 10
250.5994
 20
-141.942
 40
1.125
 50
216.8699
 51
323.1301
  0
ARC
  8
0
  6
CONTINUOUS
 62
     7
 10
250.5994
 20
-138.57047
 40
11.523461
 50
94.479452
 51
126.00833
  0
ARC
  8
0
  6
CONTINUOUS
 62
     7
 10
250.5994
 20
-138.57047
 40
9.7234612
 50
95.310878
 51
126.00833
  0
ARC
  8
0
  6
CONTINUOUS
 62
     7
 10
250.5994
 20
-128.66354
 40
11.523461
 50
274.47945
 51
306.00832
  0
TEXT
  8
0
  6
CONTINUOUS
 62
     7
 10
-379.08815
 20
266.396
 40
12
 41
0.8437661
  1
ＲＣＦ－Ｋ　Ｔ（チーズ）
  0
TEXT
  8
0
  6
CONTINUOUS
 62
     7
 10
-112.68518
 20
213.99562
 40
8
 41
0.85534224
  1
１／２
  0
TEXT
  8
0
  6
CONTINUOUS
 62
     7
 10
-15.72236
 20
219.87215
 40
8
 41
0.85534224
  1
３／４
  0
TEXT
  8
0
  6
CONTINUOUS
 62
     7
 10
103.76717
 20
221.83099
 40
8
 41
0.90036054
  1
１
  0
TEXT
  8
0
  6
CONTINUOUS
 62
     7
 10
-158.71803
 20
96.464935
 40
8
 41
0.85124966
  1
１１／４
  0
TEXT
  8
0
  6
CONTINUOUS
 62
     7
 10
-20.619471
 20
99.403206
 40
8
 41
0.85124966
  1
１１／２
  0
TEXT
  8
0
  6
CONTINUOUS
 62
     7
 10
134.12926
 20
104.30032
 40
8
 41
0.90036054
  1
２
  0
TEXT
  8
0
  6
CONTINUOUS
 62
     7
 10
-186.14186
 20
-70.036865
 40
8
 41
0.85124966
  1
２１／２
  0
TEXT
  8
0
  6
CONTINUOUS
 62
     7
 10
21.495691
 20
-62.201488
 40
8
 41
0.90036054
  1
３
  0
TEXT
  8
0
  6
CONTINUOUS
 62
     7
 10
242.84514
 20
-40.654194
 40
8
 41
0.90036054
  1
４
  0
POINT
  8
1
  6
CONTINUOUS
 62
     7
 10
410
 20
-297.5
  0
LINE
  8
1
  6
CONTINUOUS
 62
     7
 10
-429
 20
-297.5
 11
410
 21
-297.5
  0
LINE
  8
1
  6
CONTINUOUS
 62
     7
 10
-429
 20
297.5
 11
-429
 21
-297.5
  0
LINE
  8
1
  6
CONTINUOUS
 62
     7
 10
410
 20
297.5
 11
410
 21
-297.5
  0
LINE
  8
1
  6
CONTINUOUS
 62
     7
 10
-429
 20
297.5
 11
410
 21
297.5
  0
ENDSEC
  0
EOF
