  0
SECTION
  2
HEADER
  9
$EXTMAX
 10
1259
 20
-913.5
  9
$EXTMIN
 10
417
 20
-1507.5
  0
ENDSEC
  0
SECTION
  2
TABLES
  0
TABLE
  2
LTYPE
 70
    22
  0
LTYPE
  2
CONTINUOUS
 70
    64
  3
Solid line
 72
    65
 73
     0
 40
0.000000
  0
LTYPE
  2
DASHED
 70
    64
  3
__ __ __ __ __ __ __ __ __ __ __ __ __ __ __
 72
    65
 73
     2
 40
3.500000
 49
2.000000
 49
-1.500000
  0
LTYPE
  2
CENTER
 70
    64
  3
____ _ ____ _ ____ _ ____ _ ____ _ ____ _ ____
 72
    65
 73
     4
 40
17.500000
 49
13.000000
 49
-1.500000
 49
1.500000
 49
-1.500000
  0
LTYPE
  2
PHANTOM
 70
    64
  3
_____ _ _ _____ _ _ _____ _ _ _____ _ _ ____  
 72
    65
 73
     6
 40
15.500000
 49
8.000000
 49
-1.500000
 49
1.500000
 49
-1.500000
 49
1.500000
 49
-1.500000
  0
LTYPE
  2
DOT
 70
    64
  3
. . . . . . . . . . . . . . . . . . . . . . . .
 72
    65
 73
     2
 40
0.25
 49
0.0
 49
-0.25
  0
ENDTAB
  0
TABLE
  2
LAYER
 70
     2
  0
LAYER
  2
0
 70
     0
 62
     7
  6
CONTINUOUS
  0
LAYER
  2
1
 70
     0
 62
     7
  6
CONTINUOUS
  0
ENDTAB
  0
TABLE
  2
STYLE
 70
     1
  0
STYLE
  2
STANDARD
 70
     0
 40
0.000000
 41
1.000000
 50
0.000000
 71
     0
 42
0.200000
  3
txt
  4
BIGFONT
  0
ENDTAB
  0
TABLE
  2
VIEW
 70
     0
  0
ENDTAB
  0
ENDSEC
  0
SECTION
  2
BLOCKS
  0
ENDSEC
  0
SECTION
  2
ENTITIES
  0
POINT
  8
0
  6
CONTINUOUS
 62
     7
 10
183.01926
 20
137.68298
  0
POINT
  8
0
  6
CONTINUOUS
 62
     7
 10
183.01926
 20
137.68298
  0
POINT
  8
0
  6
CONTINUOUS
 62
     7
 10
66.566917
 20
134.74472
  0
POINT
  8
0
  6
CONTINUOUS
 62
     7
 10
54.066914
 20
164.28348
  0
POINT
  8
0
  6
CONTINUOUS
 62
     7
 10
54.066914
 20
105.20596
  0
POINT
  8
0
  6
CONTINUOUS
 62
     7
 10
66.566917
 20
134.74472
  0
POINT
  8
0
  6
CONTINUOUS
 62
     7
 10
-33.433086
 20
134.74472
  0
POINT
  8
0
  6
CONTINUOUS
 62
     7
 10
-33.433086
 20
147.94728
  0
POINT
  8
0
  6
CONTINUOUS
 62
     7
 10
-33.433086
 20
147.94728
  0
POINT
  8
0
  6
CONTINUOUS
 62
     7
 10
-33.433086
 20
147.94728
  0
POINT
  8
0
  6
CONTINUOUS
 62
     7
 10
-33.433086
 20
147.94728
  0
POINT
  8
0
  6
CONTINUOUS
 62
     7
 10
-33.433086
 20
121.54215
  0
POINT
  8
0
  6
CONTINUOUS
 62
     7
 10
-33.433086
 20
121.54215
  0
POINT
  8
0
  6
CONTINUOUS
 62
     7
 10
-33.433086
 20
121.54215
  0
POINT
  8
0
  6
CONTINUOUS
 62
     7
 10
-33.433086
 20
121.54215
  0
POINT
  8
0
  6
CONTINUOUS
 62
     7
 10
-44.433086
 20
162.39876
  0
POINT
  8
0
  6
CONTINUOUS
 62
     7
 10
-44.433086
 20
107.09068
  0
POINT
  8
0
  6
CONTINUOUS
 62
     7
 10
-33.433086
 20
134.74472
  0
POINT
  8
0
  6
CONTINUOUS
 62
     7
 10
-128.43706
 20
133.76529
  0
POINT
  8
0
  6
CONTINUOUS
 62
     7
 10
-128.43706
 20
145.05444
  0
POINT
  8
0
  6
CONTINUOUS
 62
     7
 10
-207.98398
 20
134.74472
  0
POINT
  8
0
  6
CONTINUOUS
 62
     7
 10
-207.98398
 20
144.1205
  0
POINT
  8
0
  6
CONTINUOUS
 62
     7
 10
-282.20636
 20
135.72414
  0
POINT
  8
0
  6
CONTINUOUS
 62
     7
 10
-282.20636
 20
143.7605
  0
LINE
  8
0
  6
CONTINUOUS
 62
     7
 10
164.19925
 20
173.95845
 11
146.29317
 21
173.95845
  0
LINE
  8
0
  6
CONTINUOUS
 62
     7
 10
164.19925
 20
101.40753
 11
146.29317
 21
101.40753
  0
LINE
  8
0
  6
CONTINUOUS
 62
     7
 10
146.42282
 20
108.33554
 11
164.19925
 21
108.33554
  0
LINE
  8
0
  6
CONTINUOUS
 62
     7
 10
196.26926
 20
148.89272
 11
219.61571
 21
148.89272
  0
LINE
  8
0
  6
CONTINUOUS
 62
     7
 10
146.42282
 20
126.47325
 11
164.19925
 21
126.47325
  0
LINE
  8
0
  6
CONTINUOUS
 62
     7
 10
146.42282
 20
167.03043
 11
164.19925
 21
167.03043
  0
LINE
  8
0
  6
CONTINUOUS
 62
     7
 10
146.42282
 20
148.89272
 11
164.19925
 21
148.89272
  0
LINE
  8
0
  6
CONTINUOUS
 62
     7
 10
196.26926
 20
174.183
 11
219.61571
 21
174.183
  0
LINE
  8
0
  6
CONTINUOUS
 62
     7
 10
220.77042
 20
172.18298
 11
220.77042
 21
137.68298
  0
LINE
  8
0
  6
CONTINUOUS
 62
     7
 10
169.26926
 20
137.68298
 11
169.26926
 21
91.182968
  0
LINE
  8
0
  6
CONTINUOUS
 62
     7
 10
196.26926
 20
137.68298
 11
196.26926
 21
91.182968
  0
LINE
  8
0
  6
CONTINUOUS
 62
     7
 10
194.88765
 20
88.790016
 11
196.26924
 21
91.183006
  0
LINE
  8
0
  6
CONTINUOUS
 62
     7
 10
170.65085
 20
98.127716
 11
194.88766
 21
98.127716
  0
LINE
  8
0
  6
CONTINUOUS
 62
     7
 10
170.65085
 20
122.57445
 11
194.88766
 21
122.57445
  0
LINE
  8
0
  6
CONTINUOUS
 62
     7
 10
170.65083
 20
88.78997
 11
169.26924
 21
91.182961
  0
LINE
  8
0
  6
CONTINUOUS
 62
     7
 10
170.65085
 20
88.789993
 11
194.88766
 21
88.789993
  0
LINE
  8
0
  6
CONTINUOUS
 62
     7
 10
169.26926
 20
137.68298
 11
169.26926
 21
184.183
  0
LINE
  8
0
  6
CONTINUOUS
 62
     7
 10
196.26926
 20
137.68298
 11
196.26926
 21
184.183
  0
LINE
  8
0
  6
CONTINUOUS
 62
     7
 10
194.88765
 20
186.57596
 11
196.26924
 21
184.18297
  0
LINE
  8
0
  6
CONTINUOUS
 62
     7
 10
170.65085
 20
177.23824
 11
194.88766
 21
177.23824
  0
LINE
  8
0
  6
CONTINUOUS
 62
     7
 10
170.65085
 20
152.79152
 11
194.88766
 21
152.79152
  0
LINE
  8
0
  6
CONTINUOUS
 62
     7
 10
170.65083
 20
186.576
 11
169.26924
 21
184.18301
  0
LINE
  8
0
  6
CONTINUOUS
 62
     7
 10
170.65085
 20
186.57597
 11
194.88766
 21
186.57597
  0
LINE
  8
0
  6
CONTINUOUS
 62
     7
 10
196.26926
 20
167.03043
 11
219.61571
 21
167.03043
  0
LINE
  8
0
  6
CONTINUOUS
 62
     7
 10
219.61569
 20
174.183
 11
220.7704
 21
172.18298
  0
LINE
  8
0
  6
CONTINUOUS
 62
     7
 10
196.26926
 20
126.47325
 11
219.61571
 21
126.47325
  0
LINE
  8
0
  6
CONTINUOUS
 62
     7
 10
196.26926
 20
101.18297
 11
219.61571
 21
101.18297
  0
LINE
  8
0
  6
CONTINUOUS
 62
     7
 10
220.77042
 20
103.18298
 11
220.77042
 21
137.68298
  0
LINE
  8
0
  6
CONTINUOUS
 62
     7
 10
196.26926
 20
108.33554
 11
219.61571
 21
108.33554
  0
LINE
  8
0
  6
CONTINUOUS
 62
     7
 10
219.61571
 20
101.18298
 11
220.77042
 21
103.18298
  0
LINE
  8
0
  6
CENTER
 62
     7
 10
132.69089
 20
137.68298
 11
233.01926
 21
137.68298
  0
LINE
  8
0
  6
CONTINUOUS
 62
     7
 10
145.26811
 20
172.18298
 11
145.26811
 21
137.68298
  0
LINE
  8
0
  6
CONTINUOUS
 62
     7
 10
145.26811
 20
103.18298
 11
145.26811
 21
137.68298
  0
LINE
  8
0
  6
CONTINUOUS
 62
     7
 10
146.42282
 20
174.18301
 11
145.2681
 21
172.18298
  0
LINE
  8
0
  6
CONTINUOUS
 62
     7
 10
146.42281
 20
101.18297
 11
145.2681
 21
103.18298
  0
LINE
  8
0
  6
CENTER
 62
     7
 10
60.066914
 20
134.74472
 11
103.96691
 21
134.74472
  0
LINE
  8
0
  6
CENTER
 62
     7
 10
68.966881
 20
134.74472
 11
28.178883
 21
134.74472
  0
LINE
  8
0
  6
CONTINUOUS
 62
     7
 10
54.066914
 20
173.91972
 11
54.066914
 21
169.28348
  0
LINE
  8
0
  6
CONTINUOUS
 62
     7
 10
32.747211
 20
162.84254
 11
32.747211
 21
134.74472
  0
LINE
  8
0
  6
CONTINUOUS
 62
     7
 10
55.22567
 20
175.92674
 11
66.566917
 21
175.92674
  0
LINE
  8
0
  6
CONTINUOUS
 62
     7
 10
55.22567
 20
168.09509
 11
66.566917
 21
168.09509
  0
LINE
  8
0
  6
CONTINUOUS
 62
     7
 10
55.22567
 20
147.59158
 11
66.566917
 21
147.59158
  0
LINE
  8
0
  6
CONTINUOUS
 62
     7
 10
54.066917
 20
173.91972
 11
55.22567
 21
175.92674
  0
LINE
  8
0
  6
CONTINUOUS
 62
     7
 10
79.066917
 20
173.91972
 11
77.908157
 21
175.92676
  0
LINE
  8
0
  6
CONTINUOUS
 62
     7
 10
77.908157
 20
147.59158
 11
66.566917
 21
147.59158
  0
LINE
  8
0
  6
CONTINUOUS
 62
     7
 10
77.908157
 20
168.09509
 11
66.566917
 21
168.09509
  0
LINE
  8
0
  6
CONTINUOUS
 62
     7
 10
77.908157
 20
175.92674
 11
66.566917
 21
175.92674
  0
LINE
  8
0
  6
CONTINUOUS
 62
     7
 10
79.066917
 20
173.91972
 11
79.066917
 21
134.74472
  0
LINE
  8
0
  6
CONTINUOUS
 62
     7
 10
77.908157
 20
101.39434
 11
66.566917
 21
101.39434
  0
LINE
  8
0
  6
CONTINUOUS
 62
     7
 10
54.066917
 20
95.569717
 11
55.225677
 21
93.562691
  0
LINE
  8
0
  6
CONTINUOUS
 62
     7
 10
77.908157
 20
121.89785
 11
66.566917
 21
121.89785
  0
LINE
  8
0
  6
CONTINUOUS
 62
     7
 10
55.22567
 20
121.89785
 11
66.566917
 21
121.89785
  0
LINE
  8
0
  6
CONTINUOUS
 62
     7
 10
79.066917
 20
95.569717
 11
79.066917
 21
134.74472
  0
LINE
  8
0
  6
CONTINUOUS
 62
     7
 10
55.22567
 20
101.39434
 11
66.566917
 21
101.39434
  0
LINE
  8
0
  6
CONTINUOUS
 62
     7
 10
79.066917
 20
95.569717
 11
77.908157
 21
93.562691
  0
LINE
  8
0
  6
CONTINUOUS
 62
     7
 10
77.908157
 20
93.562691
 11
66.566917
 21
93.562691
  0
LINE
  8
0
  6
CONTINUOUS
 62
     7
 10
55.22567
 20
93.562691
 11
66.566917
 21
93.562691
  0
LINE
  8
0
  6
CONTINUOUS
 62
     7
 10
54.066914
 20
95.569717
 11
54.066914
 21
100.20596
  0
LINE
  8
0
  6
CONTINUOUS
 62
     7
 10
33.57914
 20
164.28348
 11
49.066914
 21
164.28348
  0
LINE
  8
0
  6
CONTINUOUS
 62
     7
 10
33.57914
 20
158.66077
 11
49.066914
 21
158.66077
  0
LINE
  8
0
  6
CONTINUOUS
 62
     7
 10
32.747215
 20
162.84254
 11
33.57914
 21
164.28348
  0
LINE
  8
0
  6
CONTINUOUS
 62
     7
 10
33.57914
 20
143.94029
 11
49.066914
 21
143.94029
  0
LINE
  8
0
  6
CONTINUOUS
 62
     7
 10
33.57914
 20
110.82867
 11
49.066914
 21
110.82867
  0
LINE
  8
0
  6
CONTINUOUS
 62
     7
 10
33.57914
 20
105.20596
 11
49.066914
 21
105.20596
  0
LINE
  8
0
  6
CONTINUOUS
 62
     7
 10
32.747211
 20
106.6469
 11
32.747211
 21
134.74472
  0
LINE
  8
0
  6
CONTINUOUS
 62
     7
 10
33.57914
 20
125.54915
 11
49.066914
 21
125.54915
  0
LINE
  8
0
  6
CONTINUOUS
 62
     7
 10
32.747211
 20
106.6469
 11
33.57914
 21
105.20596
  0
LINE
  8
0
  6
CONTINUOUS
 62
     7
 10
99.554688
 20
158.66077
 11
79.066917
 21
158.66077
  0
LINE
  8
0
  6
CONTINUOUS
 62
     7
 10
99.554688
 20
164.28348
 11
79.066917
 21
164.28348
  0
LINE
  8
0
  6
CONTINUOUS
 62
     7
 10
100.38662
 20
162.84254
 11
100.38662
 21
134.74472
  0
LINE
  8
0
  6
CONTINUOUS
 62
     7
 10
99.554688
 20
143.94029
 11
79.066917
 21
143.94029
  0
LINE
  8
0
  6
CONTINUOUS
 62
     7
 10
99.554688
 20
110.82867
 11
79.066917
 21
110.82867
  0
LINE
  8
0
  6
CONTINUOUS
 62
     7
 10
99.554688
 20
105.20596
 11
79.066917
 21
105.20596
  0
LINE
  8
0
  6
CONTINUOUS
 62
     7
 10
100.38661
 20
162.84254
 11
99.554688
 21
164.28348
  0
LINE
  8
0
  6
CONTINUOUS
 62
     7
 10
100.38662
 20
106.6469
 11
99.554695
 21
105.20596
  0
LINE
  8
0
  6
CONTINUOUS
 62
     7
 10
99.554688
 20
125.54915
 11
79.066917
 21
125.54915
  0
LINE
  8
0
  6
CONTINUOUS
 62
     7
 10
100.38662
 20
106.6469
 11
100.38662
 21
134.74472
  0
LINE
  8
0
  6
CONTINUOUS
 62
     7
 10
54.066914
 20
173.91972
 11
54.066914
 21
97.478516
  0
LINE
  8
0
  6
CENTER
 62
     7
 10
-74.646812
 20
134.74472
 11
0.075306818
 21
134.74472
  0
LINE
  8
0
  6
CONTINUOUS
 62
     7
 10
-64.278297
 20
113.7897
 11
-64.278297
 21
155.69972
  0
LINE
  8
0
  6
CONTINUOUS
 62
     7
 10
-44.433086
 20
134.74472
 11
-44.433086
 21
169.24477
  0
LINE
  8
0
  6
CONTINUOUS
 62
     7
 10
-43.323574
 20
174.00899
 11
-33.433086
 21
174.00899
  0
LINE
  8
0
  6
CONTINUOUS
 62
     7
 10
-43.323574
 20
166.51018
 11
-33.433086
 21
166.51018
  0
LINE
  8
0
  6
CONTINUOUS
 62
     7
 10
-43.323574
 20
146.87805
 11
-33.433086
 21
146.87805
  0
LINE
  8
0
  6
CONTINUOUS
 62
     7
 10
-44.433086
 20
172.08727
 11
-44.433086
 21
166.39876
  0
LINE
  8
0
  6
CONTINUOUS
 62
     7
 10
-44.433083
 20
172.08727
 11
-43.32357
 21
174.00899
  0
LINE
  8
0
  6
CONTINUOUS
 62
     7
 10
-22.433086
 20
134.74472
 11
-22.433086
 21
169.24477
  0
LINE
  8
0
  6
CONTINUOUS
 62
     7
 10
-23.542597
 20
174.00899
 11
-33.433086
 21
174.00899
  0
LINE
  8
0
  6
CONTINUOUS
 62
     7
 10
-23.542597
 20
166.51018
 11
-33.433086
 21
166.51018
  0
LINE
  8
0
  6
CONTINUOUS
 62
     7
 10
-23.542597
 20
146.87805
 11
-33.433086
 21
146.87805
  0
LINE
  8
0
  6
CONTINUOUS
 62
     7
 10
-22.433086
 20
172.08727
 11
-22.433086
 21
134.74472
  0
LINE
  8
0
  6
CONTINUOUS
 62
     7
 10
-22.433086
 20
172.08727
 11
-23.542599
 21
174.009
  0
LINE
  8
0
  6
CONTINUOUS
 62
     7
 10
-44.433086
 20
134.74472
 11
-44.433086
 21
100.24467
  0
LINE
  8
0
  6
CONTINUOUS
 62
     7
 10
-22.433083
 20
97.402176
 11
-23.542595
 21
95.480446
  0
LINE
  8
0
  6
CONTINUOUS
 62
     7
 10
-23.542597
 20
122.61139
 11
-33.433086
 21
122.61139
  0
LINE
  8
0
  6
CONTINUOUS
 62
     7
 10
-23.542597
 20
102.97926
 11
-33.433086
 21
102.97926
  0
LINE
  8
0
  6
CONTINUOUS
 62
     7
 10
-43.323574
 20
95.480446
 11
-33.433086
 21
95.480446
  0
LINE
  8
0
  6
CONTINUOUS
 62
     7
 10
-23.542597
 20
95.480446
 11
-33.433086
 21
95.480446
  0
LINE
  8
0
  6
CONTINUOUS
 62
     7
 10
-43.323574
 20
102.97926
 11
-33.433086
 21
102.97926
  0
LINE
  8
0
  6
CONTINUOUS
 62
     7
 10
-43.323574
 20
122.61139
 11
-33.433086
 21
122.61139
  0
LINE
  8
0
  6
CONTINUOUS
 62
     7
 10
-44.433086
 20
97.402176
 11
-44.433086
 21
103.09068
  0
LINE
  8
0
  6
CONTINUOUS
 62
     7
 10
-22.433086
 20
97.402176
 11
-22.433086
 21
134.74472
  0
LINE
  8
0
  6
CONTINUOUS
 62
     7
 10
-22.433086
 20
134.74472
 11
-22.433086
 21
100.24467
  0
LINE
  8
0
  6
CONTINUOUS
 62
     7
 10
-44.433083
 20
97.402176
 11
-43.323574
 21
95.480446
  0
LINE
  8
0
  6
CONTINUOUS
 62
     7
 10
-2.5878706
 20
161.04472
 11
-2.5878706
 21
134.74472
  0
LINE
  8
0
  6
CONTINUOUS
 62
     7
 10
-22.433086
 20
162.39876
 11
-3.3696222
 21
162.39876
  0
LINE
  8
0
  6
CONTINUOUS
 62
     7
 10
-22.433086
 20
157.11517
 11
-3.3696222
 21
157.11517
  0
LINE
  8
0
  6
CONTINUOUS
 62
     7
 10
-22.433086
 20
143.28255
 11
-3.3696222
 21
143.28255
  0
LINE
  8
0
  6
CONTINUOUS
 62
     7
 10
-3.3696282
 20
162.39876
 11
-2.5878747
 21
161.04472
  0
LINE
  8
0
  6
CONTINUOUS
 62
     7
 10
-3.3696213
 20
107.09068
 11
-2.5878716
 21
108.44471
  0
LINE
  8
0
  6
CONTINUOUS
 62
     7
 10
-22.433086
 20
112.37428
 11
-3.3696222
 21
112.37428
  0
LINE
  8
0
  6
CONTINUOUS
 62
     7
 10
-22.433086
 20
126.20689
 11
-3.3696222
 21
126.20689
  0
LINE
  8
0
  6
CONTINUOUS
 62
     7
 10
-22.433086
 20
107.09068
 11
-3.3696222
 21
107.09068
  0
LINE
  8
0
  6
CONTINUOUS
 62
     7
 10
-2.5878706
 20
108.44472
 11
-2.5878706
 21
134.74472
  0
LINE
  8
0
  6
CONTINUOUS
 62
     7
 10
-48.433086
 20
107.09068
 11
-63.496548
 21
107.09068
  0
LINE
  8
0
  6
CONTINUOUS
 62
     7
 10
-48.433086
 20
112.37428
 11
-63.496548
 21
112.37428
  0
LINE
  8
0
  6
CONTINUOUS
 62
     7
 10
-48.433086
 20
126.20689
 11
-63.496548
 21
126.20689
  0
LINE
  8
0
  6
CONTINUOUS
 62
     7
 10
-64.278297
 20
108.44472
 11
-64.278297
 21
134.74472
  0
LINE
  8
0
  6
CONTINUOUS
 62
     7
 10
-63.496548
 20
107.09068
 11
-64.278297
 21
108.44472
  0
LINE
  8
0
  6
CONTINUOUS
 62
     7
 10
-63.49654
 20
162.39876
 11
-64.278297
 21
161.04471
  0
LINE
  8
0
  6
CONTINUOUS
 62
     7
 10
-48.433086
 20
157.11517
 11
-63.496548
 21
157.11517
  0
LINE
  8
0
  6
CONTINUOUS
 62
     7
 10
-48.433086
 20
143.28255
 11
-63.496548
 21
143.28255
  0
LINE
  8
0
  6
CONTINUOUS
 62
     7
 10
-48.433086
 20
162.39876
 11
-63.496548
 21
162.39876
  0
LINE
  8
0
  6
CONTINUOUS
 62
     7
 10
-64.278297
 20
161.04472
 11
-64.278297
 21
134.74472
  0
LINE
  8
0
  6
CONTINUOUS
 62
     7
 10
-44.433086
 20
172.08727
 11
-44.433086
 21
99.229851
  0
LINE
  8
0
  6
CENTER
 62
     7
 10
-162.90829
 20
133.76529
 11
-97.237045
 21
133.76529
  0
LINE
  8
0
  6
CONTINUOUS
 62
     7
 10
-118.43706
 20
125.27396
 11
-100.72157
 21
125.27396
  0
LINE
  8
0
  6
CONTINUOUS
 62
     7
 10
-156.15254
 20
125.27396
 11
-143.33424
 21
125.27396
  0
LINE
  8
0
  6
CONTINUOUS
 62
     7
 10
-118.43706
 20
154.26529
 11
-101.43704
 21
154.26529
  0
LINE
  8
0
  6
CONTINUOUS
 62
     7
 10
-118.43706
 20
113.2653
 11
-101.43707
 21
113.2653
  0
LINE
  8
0
  6
CONTINUOUS
 62
     7
 10
-101.43704
 20
154.2653
 11
-100.72157
 21
150.3898
  0
LINE
  8
0
  6
CONTINUOUS
 62
     7
 10
-100.72157
 20
117.1408
 11
-100.72157
 21
150.38977
  0
LINE
  8
0
  6
CONTINUOUS
 62
     7
 10
-100.72159
 20
117.14079
 11
-101.43707
 21
113.26528
  0
LINE
  8
0
  6
CONTINUOUS
 62
     7
 10
-156.15254
 20
142.25665
 11
-143.33424
 21
142.25665
  0
LINE
  8
0
  6
CONTINUOUS
 62
     7
 10
-143.33427
 20
113.2653
 11
-155.43706
 21
113.2653
  0
LINE
  8
0
  6
CONTINUOUS
 62
     7
 10
-143.33424
 20
154.26529
 11
-155.43706
 21
154.26529
  0
LINE
  8
0
  6
CONTINUOUS
 62
     7
 10
-155.43704
 20
113.2653
 11
-156.15251
 21
117.1408
  0
LINE
  8
0
  6
CONTINUOUS
 62
     7
 10
-156.15254
 20
150.3898
 11
-156.15254
 21
117.1408
  0
LINE
  8
0
  6
CONTINUOUS
 62
     7
 10
-156.15257
 20
150.38979
 11
-155.4371
 21
154.2653
  0
LINE
  8
0
  6
CONTINUOUS
 62
     7
 10
-138.43706
 20
158.74751
 11
-139.87016
 21
156.2653
  0
LINE
  8
0
  6
CONTINUOUS
 62
     7
 10
-138.43706
 20
108.78307
 11
-139.87016
 21
111.26527
  0
LINE
  8
0
  6
CONTINUOUS
 62
     7
 10
-118.43706
 20
142.25665
 11
-100.72157
 21
142.25665
  0
LINE
  8
0
  6
CENTER
 62
     7
 10
-141.43706
 20
133.76529
 11
-115.43706
 21
133.76529
  0
LINE
  8
0
  6
CONTINUOUS
 62
     7
 10
-118.43706
 20
133.76529
 11
-118.43706
 21
104.2653
  0
LINE
  8
0
  6
CONTINUOUS
 62
     7
 10
-138.43706
 20
133.76529
 11
-138.43706
 21
104.26531
  0
LINE
  8
0
  6
CONTINUOUS
 62
     7
 10
-137.03375
 20
101.83472
 11
-119.84035
 21
101.83472
  0
LINE
  8
0
  6
CONTINUOUS
 62
     7
 10
-137.03377
 20
111.18697
 11
-119.84035
 21
111.18697
  0
LINE
  8
0
  6
CONTINUOUS
 62
     7
 10
-138.43707
 20
104.26529
 11
-137.03377
 21
101.8347
  0
LINE
  8
0
  6
CONTINUOUS
 62
     7
 10
-118.43709
 20
104.2653
 11
-119.84038
 21
101.83472
  0
LINE
  8
0
  6
CONTINUOUS
 62
     7
 10
-118.43706
 20
133.76529
 11
-118.43706
 21
163.26529
  0
LINE
  8
0
  6
CONTINUOUS
 62
     7
 10
-138.43706
 20
133.76529
 11
-138.43706
 21
163.26526
  0
LINE
  8
0
  6
CONTINUOUS
 62
     7
 10
-137.03375
 20
165.69586
 11
-119.84035
 21
165.69586
  0
LINE
  8
0
  6
CONTINUOUS
 62
     7
 10
-137.03377
 20
156.3436
 11
-119.84035
 21
156.3436
  0
LINE
  8
0
  6
CONTINUOUS
 62
     7
 10
-138.43707
 20
163.26527
 11
-137.03377
 21
165.69588
  0
LINE
  8
0
  6
CONTINUOUS
 62
     7
 10
-118.43707
 20
163.26529
 11
-119.84036
 21
165.69586
  0
LINE
  8
0
  6
CONTINUOUS
 62
     7
 10
-137.03377
 20
133.76529
 11
-119.84035
 21
133.76529
  0
LINE
  8
0
  6
CONTINUOUS
 62
     7
 10
-198.73398
 20
151.24474
 11
-183.73398
 21
151.24474
  0
LINE
  8
0
  6
CONTINUOUS
 62
     7
 10
-198.73398
 20
118.24472
 11
-183.73396
 21
118.24472
  0
LINE
  8
0
  6
CONTINUOUS
 62
     7
 10
-183.73396
 20
151.24474
 11
-183.01843
 21
147.96523
  0
LINE
  8
0
  6
CONTINUOUS
 62
     7
 10
-183.01846
 20
121.52422
 11
-183.01846
 21
147.96523
  0
LINE
  8
0
  6
CONTINUOUS
 62
     7
 10
-183.01843
 20
121.52423
 11
-183.73396
 21
118.24472
  0
LINE
  8
0
  6
CONTINUOUS
 62
     7
 10
-198.73398
 20
141.57924
 11
-183.01846
 21
141.57924
  0
LINE
  8
0
  6
CONTINUOUS
 62
     7
 10
-232.94949
 20
141.57924
 11
-221.51648
 21
141.57924
  0
LINE
  8
0
  6
CONTINUOUS
 62
     7
 10
-232.94949
 20
127.91014
 11
-221.51648
 21
127.91014
  0
LINE
  8
0
  6
CENTER
 62
     7
 10
-179.28938
 20
134.74472
 11
-236.43399
 21
134.74472
  0
LINE
  8
0
  6
CONTINUOUS
 62
     7
 10
-221.51648
 20
118.24472
 11
-232.23398
 21
118.24472
  0
LINE
  8
0
  6
CONTINUOUS
 62
     7
 10
-221.51648
 20
151.24474
 11
-232.23398
 21
151.24474
  0
LINE
  8
0
  6
CONTINUOUS
 62
     7
 10
-232.23402
 20
118.24472
 11
-232.94955
 21
121.52423
  0
LINE
  8
0
  6
CONTINUOUS
 62
     7
 10
-232.94949
 20
147.96523
 11
-232.94949
 21
121.52423
  0
LINE
  8
0
  6
CONTINUOUS
 62
     7
 10
-232.9496
 20
147.96524
 11
-232.23407
 21
151.24475
  0
LINE
  8
0
  6
CONTINUOUS
 62
     7
 10
-217.23399
 20
114.82722
 11
-218.05238
 21
116.24472
  0
LINE
  8
0
  6
CONTINUOUS
 62
     7
 10
-217.23398
 20
154.6622
 11
-218.05237
 21
153.24472
  0
LINE
  8
0
  6
CONTINUOUS
 62
     7
 10
-216.06851
 20
134.74472
 11
-199.89944
 21
134.74472
  0
LINE
  8
0
  6
CONTINUOUS
 62
     7
 10
-198.73402
 20
110.24477
 11
-199.89949
 21
108.22612
  0
LINE
  8
0
  6
CONTINUOUS
 62
     7
 10
-217.23398
 20
110.24475
 11
-216.06851
 21
108.22609
  0
LINE
  8
0
  6
CONTINUOUS
 62
     7
 10
-216.06851
 20
108.22609
 11
-199.89944
 21
108.22609
  0
LINE
  8
0
  6
CONTINUOUS
 62
     7
 10
-216.06851
 20
115.99321
 11
-199.89944
 21
115.99321
  0
LINE
  8
0
  6
CONTINUOUS
 62
     7
 10
-198.73398
 20
134.74472
 11
-198.73398
 21
110.24484
  0
LINE
  8
0
  6
CONTINUOUS
 62
     7
 10
-217.23398
 20
134.74472
 11
-217.23398
 21
110.24475
  0
LINE
  8
0
  6
CONTINUOUS
 62
     7
 10
-198.73401
 20
159.24467
 11
-199.89948
 21
161.26332
  0
LINE
  8
0
  6
CONTINUOUS
 62
     7
 10
-217.23399
 20
159.24472
 11
-216.06853
 21
161.26337
  0
LINE
  8
0
  6
CONTINUOUS
 62
     7
 10
-216.06851
 20
161.26335
 11
-199.89944
 21
161.26335
  0
LINE
  8
0
  6
CONTINUOUS
 62
     7
 10
-216.06851
 20
153.49623
 11
-199.89944
 21
153.49623
  0
LINE
  8
0
  6
CONTINUOUS
 62
     7
 10
-198.73398
 20
134.74472
 11
-198.73398
 21
159.24461
  0
LINE
  8
0
  6
CONTINUOUS
 62
     7
 10
-217.23398
 20
134.74472
 11
-217.23398
 21
159.24471
  0
LINE
  8
0
  6
CONTINUOUS
 62
     7
 10
-198.73398
 20
127.91014
 11
-183.01846
 21
127.91014
  0
LINE
  8
0
  6
CONTINUOUS
 62
     7
 10
-303.41064
 20
141.31607
 11
-294.11276
 21
141.31607
  0
LINE
  8
0
  6
CONTINUOUS
 62
     7
 10
-273.70639
 20
122.22414
 11
-261.70636
 21
122.22414
  0
LINE
  8
0
  6
CONTINUOUS
 62
     7
 10
-273.70639
 20
149.22414
 11
-261.70636
 21
149.22414
  0
LINE
  8
0
  6
CONTINUOUS
 62
     7
 10
-261.70636
 20
149.22415
 11
-261.00211
 21
146.20163
  0
LINE
  8
0
  6
CONTINUOUS
 62
     7
 10
-261.00211
 20
125.24664
 11
-261.70639
 21
122.22415
  0
LINE
  8
0
  6
CONTINUOUS
 62
     7
 10
-261.00211
 20
146.20164
 11
-261.00211
 21
125.24665
  0
LINE
  8
0
  6
CONTINUOUS
 62
     7
 10
-289.70743
 20
135.72414
 11
-274.70532
 21
135.72414
  0
LINE
  8
0
  6
CONTINUOUS
 62
     7
 10
-303.41064
 20
130.13226
 11
-294.11276
 21
130.13226
  0
LINE
  8
0
  6
CONTINUOUS
 62
     7
 10
-303.41061
 20
146.20164
 11
-302.70633
 21
149.22417
  0
LINE
  8
0
  6
CONTINUOUS
 62
     7
 10
-294.11276
 20
149.22414
 11
-302.70636
 21
149.22414
  0
LINE
  8
0
  6
CONTINUOUS
 62
     7
 10
-294.11276
 20
122.22414
 11
-302.70636
 21
122.22414
  0
LINE
  8
0
  6
CONTINUOUS
 62
     7
 10
-302.70636
 20
122.22413
 11
-303.41064
 21
125.24663
  0
LINE
  8
0
  6
CONTINUOUS
 62
     7
 10
-303.41064
 20
125.24665
 11
-303.41064
 21
146.20164
  0
LINE
  8
0
  6
CENTER
 62
     7
 10
-257.67685
 20
135.72414
 11
-306.90637
 21
135.72414
  0
LINE
  8
0
  6
CONTINUOUS
 62
     7
 10
-273.70639
 20
130.13226
 11
-261.00211
 21
130.13226
  0
LINE
  8
0
  6
CONTINUOUS
 62
     7
 10
-273.70639
 20
141.31607
 11
-261.00211
 21
141.31607
  0
LINE
  8
0
  6
CONTINUOUS
 62
     7
 10
-290.70639
 20
119.32417
 11
-291.51468
 21
120.72416
  0
LINE
  8
0
  6
CONTINUOUS
 62
     7
 10
-290.70639
 20
152.12411
 11
-291.51465
 21
150.72414
  0
LINE
  8
0
  6
CONTINUOUS
 62
     7
 10
-290.70639
 20
135.72414
 11
-290.70639
 21
114.72416
  0
LINE
  8
0
  6
CONTINUOUS
 62
     7
 10
-289.70743
 20
119.65142
 11
-274.70532
 21
119.65142
  0
LINE
  8
0
  6
CONTINUOUS
 62
     7
 10
-289.70743
 20
112.9939
 11
-274.70532
 21
112.9939
  0
LINE
  8
0
  6
CONTINUOUS
 62
     7
 10
-274.70532
 20
112.9939
 11
-273.70639
 21
114.72414
  0
LINE
  8
0
  6
CONTINUOUS
 62
     7
 10
-289.70743
 20
112.9939
 11
-290.70639
 21
114.72415
  0
LINE
  8
0
  6
CONTINUOUS
 62
     7
 10
-273.70639
 20
135.72414
 11
-273.70639
 21
114.72414
  0
LINE
  8
0
  6
CONTINUOUS
 62
     7
 10
-290.70639
 20
135.72414
 11
-290.70639
 21
156.72414
  0
LINE
  8
0
  6
CONTINUOUS
 62
     7
 10
-289.70743
 20
151.79686
 11
-274.70532
 21
151.79686
  0
LINE
  8
0
  6
CONTINUOUS
 62
     7
 10
-289.70743
 20
158.45439
 11
-274.70532
 21
158.45439
  0
LINE
  8
0
  6
CONTINUOUS
 62
     7
 10
-274.70535
 20
158.45439
 11
-273.70639
 21
156.72415
  0
LINE
  8
0
  6
CONTINUOUS
 62
     7
 10
-289.70743
 20
158.45439
 11
-290.70639
 21
156.72414
  0
LINE
  8
0
  6
CONTINUOUS
 62
     7
 10
-273.70639
 20
135.72414
 11
-273.70639
 21
156.72414
  0
ARC
  8
0
  6
CONTINUOUS
 62
     7
 10
164.19925
 20
95.407532
 40
6
 50
32.327934
 51
89.999996
  0
ARC
  8
0
  6
CONTINUOUS
 62
     7
 10
164.19925
 20
179.95842
 40
6
 50
270
 51
327.67207
  0
ARC
  8
0
  6
CONTINUOUS
 62
     7
 10
214.65601
 20
170.60672
 40
6.1146073
 50
324.20578
 51
35.794218
  0
ARC
  8
0
  6
CONTINUOUS
 62
     7
 10
184.58057
 20
157.96158
 40
36.189838
 50
345.4875
 51
14.512496
  0
ARC
  8
0
  6
CONTINUOUS
 62
     7
 10
165.78192
 20
137.68298
 40
54.988491
 50
0
 51
11.762537
  0
ARC
  8
0
  6
CONTINUOUS
 62
     7
 10
214.65601
 20
104.75925
 40
6.1146073
 50
324.20578
 51
35.794221
  0
ARC
  8
0
  6
CONTINUOUS
 62
     7
 10
165.78192
 20
137.68298
 40
54.988491
 50
348.23746
 51
0
  0
ARC
  8
0
  6
CONTINUOUS
 62
     7
 10
184.58057
 20
117.4044
 40
36.189838
 50
345.4875
 51
14.512499
  0
ARC
  8
0
  6
CONTINUOUS
 62
     7
 10
181.45795
 20
117.4044
 40
36.189838
 50
165.48751
 51
194.5125
  0
ARC
  8
0
  6
CONTINUOUS
 62
     7
 10
200.25659
 20
137.68298
 40
54.988491
 50
179.99999
 51
191.76253
  0
ARC
  8
0
  6
CONTINUOUS
 62
     7
 10
151.38251
 20
104.75925
 40
6.1146073
 50
144.20578
 51
215.79423
  0
ARC
  8
0
  6
CONTINUOUS
 62
     7
 10
151.38251
 20
170.60672
 40
6.1146073
 50
144.20578
 51
215.79423
  0
ARC
  8
0
  6
CONTINUOUS
 62
     7
 10
200.25659
 20
137.68298
 40
54.988491
 50
168.23746
 51
180.00001
  0
ARC
  8
0
  6
CONTINUOUS
 62
     7
 10
181.45795
 20
157.96158
 40
36.189838
 50
165.48751
 51
194.5125
  0
ARC
  8
0
  6
CONTINUOUS
 62
     7
 10
61.262718
 20
172.01093
 40
7.1958051
 50
147.03127
 51
212.96874
  0
ARC
  8
0
  6
CONTINUOUS
 62
     7
 10
99.995956
 20
157.84334
 40
45.929039
 50
167.10244
 51
192.89756
  0
ARC
  8
0
  6
CONTINUOUS
 62
     7
 10
123.9212
 20
134.91972
 40
69.8545
 50
169.54846
 51
180.14353
  0
ARC
  8
0
  6
CONTINUOUS
 62
     7
 10
9.2126322
 20
134.91972
 40
69.8545
 50
359.85646
 51
10.451535
  0
ARC
  8
0
  6
CONTINUOUS
 62
     7
 10
71.871109
 20
172.01093
 40
7.1958051
 50
327.03126
 51
32.968736
  0
ARC
  8
0
  6
CONTINUOUS
 62
     7
 10
33.137875
 20
157.84334
 40
45.929039
 50
347.10244
 51
12.89756
  0
ARC
  8
0
  6
CONTINUOUS
 62
     7
 10
123.9212
 20
134.56972
 40
69.8545
 50
179.85646
 51
190.45153
  0
ARC
  8
0
  6
CONTINUOUS
 62
     7
 10
61.262718
 20
97.478516
 40
7.1958051
 50
147.03127
 51
212.96874
  0
ARC
  8
0
  6
CONTINUOUS
 62
     7
 10
71.871109
 20
97.478516
 40
7.1958051
 50
327.03126
 51
32.968736
  0
ARC
  8
0
  6
CONTINUOUS
 62
     7
 10
99.995956
 20
111.6461
 40
45.929039
 50
167.10244
 51
192.89756
  0
ARC
  8
0
  6
CONTINUOUS
 62
     7
 10
9.2126322
 20
134.56972
 40
69.8545
 50
349.54847
 51
0.14353795
  0
ARC
  8
0
  6
CONTINUOUS
 62
     7
 10
33.137875
 20
111.6461
 40
45.929039
 50
347.10244
 51
12.89756
  0
ARC
  8
0
  6
CONTINUOUS
 62
     7
 10
37.913433
 20
161.47212
 40
5.1662192
 50
147.03127
 51
212.96874
  0
ARC
  8
0
  6
CONTINUOUS
 62
     7
 10
65.721909
 20
151.30052
 40
32.974697
 50
167.10244
 51
192.89756
  0
ARC
  8
0
  6
CONTINUOUS
 62
     7
 10
82.90274
 20
134.84254
 40
50.155624
 50
169.54924
 51
180.11175
  0
ARC
  8
0
  6
CONTINUOUS
 62
     7
 10
37.913433
 20
108.01732
 40
5.1662192
 50
147.03127
 51
212.96874
  0
ARC
  8
0
  6
CONTINUOUS
 62
     7
 10
65.721909
 20
118.18891
 40
32.974697
 50
167.10244
 51
192.89756
  0
ARC
  8
0
  6
CONTINUOUS
 62
     7
 10
82.90274
 20
134.6469
 40
50.155624
 50
179.88825
 51
190.45075
  0
ARC
  8
0
  6
CONTINUOUS
 62
     7
 10
95.220398
 20
161.47212
 40
5.1662192
 50
327.03126
 51
32.968736
  0
ARC
  8
0
  6
CONTINUOUS
 62
     7
 10
50.231087
 20
134.6469
 40
50.155624
 50
349.54924
 51
0.11174602
  0
ARC
  8
0
  6
CONTINUOUS
 62
     7
 10
67.411919
 20
118.18891
 40
32.974697
 50
347.10244
 51
12.89756
  0
ARC
  8
0
  6
CONTINUOUS
 62
     7
 10
95.220398
 20
108.01732
 40
5.1662192
 50
327.03126
 51
32.968736
  0
ARC
  8
0
  6
CONTINUOUS
 62
     7
 10
67.411919
 20
151.30052
 40
32.974697
 50
347.10244
 51
12.89756
  0
ARC
  8
0
  6
CONTINUOUS
 62
     7
 10
50.231087
 20
134.84254
 40
50.155624
 50
359.88825
 51
10.450761
  0
ARC
  8
0
  6
CONTINUOUS
 62
     7
 10
49.066914
 20
169.28348
 40
5
 50
270
 51
0
  0
ARC
  8
0
  6
CONTINUOUS
 62
     7
 10
49.066914
 20
100.20596
 40
5
 50
0
 51
90.000003
  0
ARC
  8
0
  6
CONTINUOUS
 62
     7
 10
-37.543095
 20
170.25958
 40
6.8899918
 50
147.03127
 51
212.96874
  0
ARC
  8
0
  6
CONTINUOUS
 62
     7
 10
-0.45597753
 20
156.69412
 40
43.977108
 50
167.10244
 51
192.89756
  0
ARC
  8
0
  6
CONTINUOUS
 62
     7
 10
22.465122
 20
134.74472
 40
66.898209
 50
169.55043
 51
180.00001
  0
ARC
  8
0
  6
CONTINUOUS
 62
     7
 10
-29.323078
 20
170.25958
 40
6.8899918
 50
327.03126
 51
32.968736
  0
ARC
  8
0
  6
CONTINUOUS
 62
     7
 10
-89.331291
 20
134.74472
 40
66.898209
 50
4.8684233E-014
 51
10.449569
  0
ARC
  8
0
  6
CONTINUOUS
 62
     7
 10
-66.410194
 20
156.69412
 40
43.977108
 50
347.10244
 51
12.89756
  0
ARC
  8
0
  6
CONTINUOUS
 62
     7
 10
-37.543095
 20
99.229851
 40
6.8899918
 50
147.03127
 51
212.96874
  0
ARC
  8
0
  6
CONTINUOUS
 62
     7
 10
-29.323078
 20
99.229851
 40
6.8899918
 50
327.03126
 51
32.968736
  0
ARC
  8
0
  6
CONTINUOUS
 62
     7
 10
22.465122
 20
134.74472
 40
66.898209
 50
179.99999
 51
190.44957
  0
ARC
  8
0
  6
CONTINUOUS
 62
     7
 10
-89.331291
 20
134.74472
 40
66.898209
 50
349.55043
 51
360
  0
ARC
  8
0
  6
CONTINUOUS
 62
     7
 10
-66.410194
 20
112.79533
 40
43.977108
 50
347.10244
 51
12.89756
  0
ARC
  8
0
  6
CONTINUOUS
 62
     7
 10
-0.45597753
 20
112.79533
 40
43.977108
 50
167.10244
 51
192.89756
  0
ARC
  8
0
  6
CONTINUOUS
 62
     7
 10
-7.4424925
 20
159.75696
 40
4.8546224
 50
327.03126
 51
32.968736
  0
ARC
  8
0
  6
CONTINUOUS
 62
     7
 10
-33.573723
 20
150.19885
 40
30.985853
 50
347.10244
 51
12.89756
  0
ARC
  8
0
  6
CONTINUOUS
 62
     7
 10
-49.723629
 20
134.73352
 40
47.135761
 50
0.013612336
 51
10.449587
  0
ARC
  8
0
  6
CONTINUOUS
 62
     7
 10
-33.573723
 20
119.29058
 40
30.985853
 50
347.10244
 51
12.89756
  0
ARC
  8
0
  6
CONTINUOUS
 62
     7
 10
-49.723629
 20
134.75592
 40
47.135761
 50
349.55041
 51
359.98639
  0
ARC
  8
0
  6
CONTINUOUS
 62
     7
 10
-7.4424925
 20
109.73248
 40
4.8546224
 50
327.03126
 51
32.968736
  0
ARC
  8
0
  6
CONTINUOUS
 62
     7
 10
-33.292446
 20
119.29058
 40
30.985853
 50
167.10244
 51
192.89756
  0
ARC
  8
0
  6
CONTINUOUS
 62
     7
 10
-17.142542
 20
134.75592
 40
47.135761
 50
180.01361
 51
190.44958
  0
ARC
  8
0
  6
CONTINUOUS
 62
     7
 10
-33.292446
 20
150.19885
 40
30.985853
 50
167.10244
 51
192.89756
  0
ARC
  8
0
  6
CONTINUOUS
 62
     7
 10
-17.142542
 20
134.73352
 40
47.135761
 50
169.55042
 51
179.98639
  0
ARC
  8
0
  6
CONTINUOUS
 62
     7
 10
-59.423679
 20
109.73248
 40
4.8546224
 50
147.03127
 51
212.96874
  0
ARC
  8
0
  6
CONTINUOUS
 62
     7
 10
-59.423679
 20
159.75696
 40
4.8546224
 50
147.03127
 51
212.96874
  0
ARC
  8
0
  6
CONTINUOUS
 62
     7
 10
-48.433086
 20
166.39876
 40
4
 50
270
 51
0
  0
ARC
  8
0
  6
CONTINUOUS
 62
     7
 10
-48.433086
 20
103.09068
 40
4
 50
0
 51
90.000003
  0
ARC
  8
0
  6
CONTINUOUS
 62
     7
 10
-143.33427
 20
109.2653
 40
4
 50
30.000004
 51
89.999996
  0
ARC
  8
0
  6
CONTINUOUS
 62
     7
 10
-143.33427
 20
158.26529
 40
4
 50
270
 51
330
  0
ARC
  8
0
  6
CONTINUOUS
 62
     7
 10
-221.51648
 20
114.24472
 40
4
 50
29.999997
 51
90.000003
  0
ARC
  8
0
  6
CONTINUOUS
 62
     7
 10
-221.51648
 20
155.24474
 40
4
 50
270
 51
330
  0
ARC
  8
0
  6
CONTINUOUS
 62
     7
 10
-294.11276
 20
119.22414
 40
3
 50
29.999997
 51
90.000003
  0
ARC
  8
0
  6
CONTINUOUS
 62
     7
 10
-294.11276
 20
152.22414
 40
3
 50
270
 51
330
  0
POLYLINE
  8
0
  6
CONTINUOUS
 62
     7
 66
     1
 10
0
 20
0
  0
VERTEX
  8
0
  6
CONTINUOUS
 62
     7
 10
196.26926
 20
137.68298
 42
0.015336731
  0
VERTEX
  8
0
  6
CONTINUOUS
 62
     7
 10
196.11341
 20
142.74387
 42
0.015044802
  0
VERTEX
  8
0
  6
CONTINUOUS
 62
     7
 10
195.65065
 20
147.786
 42
0.014838978
  0
VERTEX
  8
0
  6
CONTINUOUS
 62
     7
 10
194.88766
 20
152.79152
 42
0
  0
SEQEND
  8
0
  0
POLYLINE
  8
0
  6
CONTINUOUS
 62
     7
 66
     1
 10
0
 20
0
  0
VERTEX
  8
0
  6
CONTINUOUS
 62
     7
 10
196.26926
 20
137.68298
 42
-0.015336731
  0
VERTEX
  8
0
  6
CONTINUOUS
 62
     7
 10
196.11341
 20
132.6221
 42
-0.015044802
  0
VERTEX
  8
0
  6
CONTINUOUS
 62
     7
 10
195.65065
 20
127.57997
 42
-0.014838978
  0
VERTEX
  8
0
  6
CONTINUOUS
 62
     7
 10
194.88766
 20
122.57445
 42
0
  0
SEQEND
  8
0
  0
POLYLINE
  8
0
  6
CONTINUOUS
 62
     7
 66
     1
 10
0
 20
0
  0
VERTEX
  8
0
  6
CONTINUOUS
 62
     7
 10
194.88766
 20
98.127716
 42
-0.03819435
  0
VERTEX
  8
0
  6
CONTINUOUS
 62
     7
 10
195.61467
 20
96.656511
 42
-0.043407753
  0
VERTEX
  8
0
  6
CONTINUOUS
 62
     7
 10
196.09432
 20
95.088155
 42
-0.051907913
  0
VERTEX
  8
0
  6
CONTINUOUS
 62
     7
 10
196.26926
 20
93.458862
 42
0
  0
SEQEND
  8
0
  0
POLYLINE
  8
0
  6
CONTINUOUS
 62
     7
 66
     1
 10
0
 20
0
  0
VERTEX
  8
0
  6
CONTINUOUS
 62
     7
 10
194.88766
 20
122.57445
 42
-0.036545919
  0
VERTEX
  8
0
  6
CONTINUOUS
 62
     7
 10
196.11214
 20
114.45679
 42
-0.03826469
  0
VERTEX
  8
0
  6
CONTINUOUS
 62
     7
 10
196.1122
 20
106.24617
 42
-0.036549582
  0
VERTEX
  8
0
  6
CONTINUOUS
 62
     7
 10
194.88766
 20
98.127716
 42
0
  0
SEQEND
  8
0
  0
POLYLINE
  8
0
  6
CONTINUOUS
 62
     7
 66
     1
 10
0
 20
0
  0
VERTEX
  8
0
  6
CONTINUOUS
 62
     7
 10
169.26926
 20
137.68298
 42
0.015336731
  0
VERTEX
  8
0
  6
CONTINUOUS
 62
     7
 10
169.42511
 20
132.6221
 42
0.015044802
  0
VERTEX
  8
0
  6
CONTINUOUS
 62
     7
 10
169.88787
 20
127.57997
 42
0.014838978
  0
VERTEX
  8
0
  6
CONTINUOUS
 62
     7
 10
170.65085
 20
122.57445
 42
0
  0
SEQEND
  8
0
  0
POLYLINE
  8
0
  6
CONTINUOUS
 62
     7
 66
     1
 10
0
 20
0
  0
VERTEX
  8
0
  6
CONTINUOUS
 62
     7
 10
170.65085
 20
122.57445
 42
0.036545919
  0
VERTEX
  8
0
  6
CONTINUOUS
 62
     7
 10
169.42638
 20
114.45679
 42
0.03826469
  0
VERTEX
  8
0
  6
CONTINUOUS
 62
     7
 10
169.42631
 20
106.24617
 42
0.036549582
  0
VERTEX
  8
0
  6
CONTINUOUS
 62
     7
 10
170.65085
 20
98.127716
 42
0
  0
SEQEND
  8
0
  0
POLYLINE
  8
0
  6
CONTINUOUS
 62
     7
 66
     1
 10
0
 20
0
  0
VERTEX
  8
0
  6
CONTINUOUS
 62
     7
 10
170.65085
 20
98.127716
 42
0.03819435
  0
VERTEX
  8
0
  6
CONTINUOUS
 62
     7
 10
169.92384
 20
96.656511
 42
0.043407753
  0
VERTEX
  8
0
  6
CONTINUOUS
 62
     7
 10
169.44419
 20
95.088155
 42
0.051907913
  0
VERTEX
  8
0
  6
CONTINUOUS
 62
     7
 10
169.26926
 20
93.458862
 42
0
  0
SEQEND
  8
0
  0
POLYLINE
  8
0
  6
CONTINUOUS
 62
     7
 66
     1
 10
0
 20
0
  0
VERTEX
  8
0
  6
CONTINUOUS
 62
     7
 10
194.88766
 20
177.23824
 42
0.03819515
  0
VERTEX
  8
0
  6
CONTINUOUS
 62
     7
 10
195.61468
 20
178.70945
 42
0.04340727
  0
VERTEX
  8
0
  6
CONTINUOUS
 62
     7
 10
196.09432
 20
180.27782
 42
0.051907498
  0
VERTEX
  8
0
  6
CONTINUOUS
 62
     7
 10
196.26926
 20
181.90712
 42
0
  0
SEQEND
  8
0
  0
POLYLINE
  8
0
  6
CONTINUOUS
 62
     7
 66
     1
 10
0
 20
0
  0
VERTEX
  8
0
  6
CONTINUOUS
 62
     7
 10
194.88766
 20
152.79152
 42
0.036545896
  0
VERTEX
  8
0
  6
CONTINUOUS
 62
     7
 10
196.11214
 20
160.90917
 42
0.038264739
  0
VERTEX
  8
0
  6
CONTINUOUS
 62
     7
 10
196.1122
 20
169.11979
 42
0.036549563
  0
VERTEX
  8
0
  6
CONTINUOUS
 62
     7
 10
194.88766
 20
177.23824
 42
0
  0
SEQEND
  8
0
  0
POLYLINE
  8
0
  6
CONTINUOUS
 62
     7
 66
     1
 10
0
 20
0
  0
VERTEX
  8
0
  6
CONTINUOUS
 62
     7
 10
169.26926
 20
137.68298
 42
-0.015336731
  0
VERTEX
  8
0
  6
CONTINUOUS
 62
     7
 10
169.42511
 20
142.74387
 42
-0.015044802
  0
VERTEX
  8
0
  6
CONTINUOUS
 62
     7
 10
169.88787
 20
147.786
 42
-0.014838978
  0
VERTEX
  8
0
  6
CONTINUOUS
 62
     7
 10
170.65085
 20
152.79152
 42
0
  0
SEQEND
  8
0
  0
POLYLINE
  8
0
  6
CONTINUOUS
 62
     7
 66
     1
 10
0
 20
0
  0
VERTEX
  8
0
  6
CONTINUOUS
 62
     7
 10
170.65085
 20
152.79152
 42
-0.036545896
  0
VERTEX
  8
0
  6
CONTINUOUS
 62
     7
 10
169.42638
 20
160.90917
 42
-0.038264739
  0
VERTEX
  8
0
  6
CONTINUOUS
 62
     7
 10
169.42631
 20
169.11979
 42
-0.036549563
  0
VERTEX
  8
0
  6
CONTINUOUS
 62
     7
 10
170.65085
 20
177.23824
 42
0
  0
SEQEND
  8
0
  0
POLYLINE
  8
0
  6
CONTINUOUS
 62
     7
 66
     1
 10
0
 20
0
  0
VERTEX
  8
0
  6
CONTINUOUS
 62
     7
 10
170.65085
 20
177.23824
 42
-0.03819515
  0
VERTEX
  8
0
  6
CONTINUOUS
 62
     7
 10
169.92384
 20
178.70945
 42
-0.04340727
  0
VERTEX
  8
0
  6
CONTINUOUS
 62
     7
 10
169.44419
 20
180.27782
 42
-0.051907498
  0
VERTEX
  8
0
  6
CONTINUOUS
 62
     7
 10
169.26926
 20
181.90712
 42
0
  0
SEQEND
  8
0
  0
POLYLINE
  8
0
  6
CONTINUOUS
 62
     7
 66
     1
 10
0
 20
0
  0
VERTEX
  8
0
  6
CONTINUOUS
 62
     7
 10
-137.03377
 20
133.76529
 42
0.039940683
  0
VERTEX
  8
0
  6
CONTINUOUS
 62
     7
 10
-138.27674
 20
126.27387
 42
0.042210463
  0
VERTEX
  8
0
  6
CONTINUOUS
 62
     7
 10
-138.27681
 20
118.67925
 42
0.039945276
  0
VERTEX
  8
0
  6
CONTINUOUS
 62
     7
 10
-137.03377
 20
111.18697
 42
0
  0
SEQEND
  8
0
  0
POLYLINE
  8
0
  6
CONTINUOUS
 62
     7
 66
     1
 10
0
 20
0
  0
VERTEX
  8
0
  6
CONTINUOUS
 62
     7
 10
-137.03377
 20
133.76529
 42
-0.039940651
  0
VERTEX
  8
0
  6
CONTINUOUS
 62
     7
 10
-138.27674
 20
141.25671
 42
-0.042210529
  0
VERTEX
  8
0
  6
CONTINUOUS
 62
     7
 10
-138.27681
 20
148.85133
 42
-0.039945246
  0
VERTEX
  8
0
  6
CONTINUOUS
 62
     7
 10
-137.03377
 20
156.3436
 42
0
  0
SEQEND
  8
0
  0
POLYLINE
  8
0
  6
CONTINUOUS
 62
     7
 66
     1
 10
0
 20
0
  0
VERTEX
  8
0
  6
CONTINUOUS
 62
     7
 10
-137.03377
 20
111.18697
 42
0.081978575
  0
VERTEX
  8
0
  6
CONTINUOUS
 62
     7
 10
-138.25873
 20
108.14508
 42
0.10912345
  0
VERTEX
  8
0
  6
CONTINUOUS
 62
     7
 10
-138.25872
 20
104.87662
 42
0.0819784
  0
VERTEX
  8
0
  6
CONTINUOUS
 62
     7
 10
-137.03377
 20
101.83472
 42
0
  0
SEQEND
  8
0
  0
POLYLINE
  8
0
  6
CONTINUOUS
 62
     7
 66
     1
 10
0
 20
0
  0
VERTEX
  8
0
  6
CONTINUOUS
 62
     7
 10
-119.84035
 20
133.76529
 42
-0.039940683
  0
VERTEX
  8
0
  6
CONTINUOUS
 62
     7
 10
-118.59738
 20
126.27387
 42
-0.042210463
  0
VERTEX
  8
0
  6
CONTINUOUS
 62
     7
 10
-118.59731
 20
118.67925
 42
-0.039945276
  0
VERTEX
  8
0
  6
CONTINUOUS
 62
     7
 10
-119.84035
 20
111.18697
 42
0
  0
SEQEND
  8
0
  0
POLYLINE
  8
0
  6
CONTINUOUS
 62
     7
 66
     1
 10
0
 20
0
  0
VERTEX
  8
0
  6
CONTINUOUS
 62
     7
 10
-119.84035
 20
111.18697
 42
-0.081978575
  0
VERTEX
  8
0
  6
CONTINUOUS
 62
     7
 10
-118.61539
 20
108.14508
 42
-0.10912345
  0
VERTEX
  8
0
  6
CONTINUOUS
 62
     7
 10
-118.61539
 20
104.87662
 42
-0.0819784
  0
VERTEX
  8
0
  6
CONTINUOUS
 62
     7
 10
-119.84035
 20
101.83472
 42
0
  0
SEQEND
  8
0
  0
POLYLINE
  8
0
  6
CONTINUOUS
 62
     7
 66
     1
 10
0
 20
0
  0
VERTEX
  8
0
  6
CONTINUOUS
 62
     7
 10
-137.03377
 20
156.3436
 42
-0.081978534
  0
VERTEX
  8
0
  6
CONTINUOUS
 62
     7
 10
-138.25872
 20
159.3855
 42
-0.10912357
  0
VERTEX
  8
0
  6
CONTINUOUS
 62
     7
 10
-138.25872
 20
162.65397
 42
-0.081978323
  0
VERTEX
  8
0
  6
CONTINUOUS
 62
     7
 10
-137.03377
 20
165.69586
 42
0
  0
SEQEND
  8
0
  0
POLYLINE
  8
0
  6
CONTINUOUS
 62
     7
 66
     1
 10
0
 20
0
  0
VERTEX
  8
0
  6
CONTINUOUS
 62
     7
 10
-119.84035
 20
133.76529
 42
0.039940651
  0
VERTEX
  8
0
  6
CONTINUOUS
 62
     7
 10
-118.59738
 20
141.25671
 42
0.042210529
  0
VERTEX
  8
0
  6
CONTINUOUS
 62
     7
 10
-118.59731
 20
148.85133
 42
0.039945246
  0
VERTEX
  8
0
  6
CONTINUOUS
 62
     7
 10
-119.84035
 20
156.3436
 42
0
  0
SEQEND
  8
0
  0
POLYLINE
  8
0
  6
CONTINUOUS
 62
     7
 66
     1
 10
0
 20
0
  0
VERTEX
  8
0
  6
CONTINUOUS
 62
     7
 10
-119.84035
 20
156.3436
 42
0.081978534
  0
VERTEX
  8
0
  6
CONTINUOUS
 62
     7
 10
-118.61539
 20
159.3855
 42
0.10912357
  0
VERTEX
  8
0
  6
CONTINUOUS
 62
     7
 10
-118.61539
 20
162.65397
 42
0.081978323
  0
VERTEX
  8
0
  6
CONTINUOUS
 62
     7
 10
-119.84035
 20
165.69586
 42
0
  0
SEQEND
  8
0
  0
POLYLINE
  8
0
  6
CONTINUOUS
 62
     7
 66
     1
 10
0
 20
0
  0
VERTEX
  8
0
  6
CONTINUOUS
 62
     7
 10
-199.89944
 20
153.49623
 42
0.081979271
  0
VERTEX
  8
0
  6
CONTINUOUS
 62
     7
 10
-198.88209
 20
156.02255
 42
0.10912709
  0
VERTEX
  8
0
  6
CONTINUOUS
 62
     7
 10
-198.88209
 20
158.73707
 42
0.08197855
  0
VERTEX
  8
0
  6
CONTINUOUS
 62
     7
 10
-199.89944
 20
161.26335
 42
0
  0
SEQEND
  8
0
  0
POLYLINE
  8
0
  6
CONTINUOUS
 62
     7
 66
     1
 10
0
 20
0
  0
VERTEX
  8
0
  6
CONTINUOUS
 62
     7
 10
-199.89944
 20
115.99321
 42
-0.081979486
  0
VERTEX
  8
0
  6
CONTINUOUS
 62
     7
 10
-198.88209
 20
113.46689
 42
-0.10912654
  0
VERTEX
  8
0
  6
CONTINUOUS
 62
     7
 10
-198.88209
 20
110.75239
 42
-0.081978854
  0
VERTEX
  8
0
  6
CONTINUOUS
 62
     7
 10
-199.89944
 20
108.22609
 42
0
  0
SEQEND
  8
0
  0
POLYLINE
  8
0
  6
CONTINUOUS
 62
     7
 66
     1
 10
0
 20
0
  0
VERTEX
  8
0
  6
CONTINUOUS
 62
     7
 10
-216.06851
 20
115.99321
 42
0.081979486
  0
VERTEX
  8
0
  6
CONTINUOUS
 62
     7
 10
-217.08587
 20
113.46689
 42
0.10912654
  0
VERTEX
  8
0
  6
CONTINUOUS
 62
     7
 10
-217.08586
 20
110.75239
 42
0.081978854
  0
VERTEX
  8
0
  6
CONTINUOUS
 62
     7
 10
-216.06851
 20
108.22609
 42
0
  0
SEQEND
  8
0
  0
POLYLINE
  8
0
  6
CONTINUOUS
 62
     7
 66
     1
 10
0
 20
0
  0
VERTEX
  8
0
  6
CONTINUOUS
 62
     7
 10
-216.06851
 20
134.74472
 42
0.039941353
  0
VERTEX
  8
0
  6
CONTINUOUS
 62
     7
 10
-217.10083
 20
128.52302
 42
0.042211346
  0
VERTEX
  8
0
  6
CONTINUOUS
 62
     7
 10
-217.10089
 20
122.2156
 42
0.039945837
  0
VERTEX
  8
0
  6
CONTINUOUS
 62
     7
 10
-216.06851
 20
115.99321
 42
0
  0
SEQEND
  8
0
  0
POLYLINE
  8
0
  6
CONTINUOUS
 62
     7
 66
     1
 10
0
 20
0
  0
VERTEX
  8
0
  6
CONTINUOUS
 62
     7
 10
-199.89944
 20
134.74472
 42
-0.039941353
  0
VERTEX
  8
0
  6
CONTINUOUS
 62
     7
 10
-198.86713
 20
128.52302
 42
-0.042211346
  0
VERTEX
  8
0
  6
CONTINUOUS
 62
     7
 10
-198.86707
 20
122.2156
 42
-0.039945837
  0
VERTEX
  8
0
  6
CONTINUOUS
 62
     7
 10
-199.89944
 20
115.99321
 42
0
  0
SEQEND
  8
0
  0
POLYLINE
  8
0
  6
CONTINUOUS
 62
     7
 66
     1
 10
0
 20
0
  0
VERTEX
  8
0
  6
CONTINUOUS
 62
     7
 10
-216.06851
 20
153.49623
 42
-0.081979271
  0
VERTEX
  8
0
  6
CONTINUOUS
 62
     7
 10
-217.08587
 20
156.02255
 42
-0.10912709
  0
VERTEX
  8
0
  6
CONTINUOUS
 62
     7
 10
-217.08586
 20
158.73707
 42
-0.08197855
  0
VERTEX
  8
0
  6
CONTINUOUS
 62
     7
 10
-216.06851
 20
161.26335
 42
0
  0
SEQEND
  8
0
  0
POLYLINE
  8
0
  6
CONTINUOUS
 62
     7
 66
     1
 10
0
 20
0
  0
VERTEX
  8
0
  6
CONTINUOUS
 62
     7
 10
-216.06851
 20
134.74472
 42
-0.039941308
  0
VERTEX
  8
0
  6
CONTINUOUS
 62
     7
 10
-217.10083
 20
140.96642
 42
-0.042211434
  0
VERTEX
  8
0
  6
CONTINUOUS
 62
     7
 10
-217.10088
 20
147.27385
 42
-0.039945793
  0
VERTEX
  8
0
  6
CONTINUOUS
 62
     7
 10
-216.06851
 20
153.49623
 42
0
  0
SEQEND
  8
0
  0
POLYLINE
  8
0
  6
CONTINUOUS
 62
     7
 66
     1
 10
0
 20
0
  0
VERTEX
  8
0
  6
CONTINUOUS
 62
     7
 10
-199.89944
 20
134.74472
 42
0.039941308
  0
VERTEX
  8
0
  6
CONTINUOUS
 62
     7
 10
-198.86713
 20
140.96642
 42
0.042211434
  0
VERTEX
  8
0
  6
CONTINUOUS
 62
     7
 10
-198.86707
 20
147.27385
 42
0.039945793
  0
VERTEX
  8
0
  6
CONTINUOUS
 62
     7
 10
-199.89944
 20
153.49623
 42
0
  0
SEQEND
  8
0
  0
POLYLINE
  8
0
  6
CONTINUOUS
 62
     7
 66
     1
 10
0
 20
0
  0
VERTEX
  8
0
  6
CONTINUOUS
 62
     7
 10
-289.70743
 20
135.72414
 42
-0.039940417
  0
VERTEX
  8
0
  6
CONTINUOUS
 62
     7
 10
-290.59226
 20
141.05702
 42
-0.04221132
  0
VERTEX
  8
0
  6
CONTINUOUS
 62
     7
 10
-290.59231
 20
146.46337
 42
-0.039944958
  0
VERTEX
  8
0
  6
CONTINUOUS
 62
     7
 10
-289.70743
 20
151.79686
 42
0
  0
SEQEND
  8
0
  0
POLYLINE
  8
0
  6
CONTINUOUS
 62
     7
 66
     1
 10
0
 20
0
  0
VERTEX
  8
0
  6
CONTINUOUS
 62
     7
 10
-289.70743
 20
135.72414
 42
0.039940424
  0
VERTEX
  8
0
  6
CONTINUOUS
 62
     7
 10
-290.59226
 20
130.39125
 42
0.042211309
  0
VERTEX
  8
0
  6
CONTINUOUS
 62
     7
 10
-290.59231
 20
124.98491
 42
0.039944968
  0
VERTEX
  8
0
  6
CONTINUOUS
 62
     7
 10
-289.70743
 20
119.65142
 42
0
  0
SEQEND
  8
0
  0
POLYLINE
  8
0
  6
CONTINUOUS
 62
     7
 66
     1
 10
0
 20
0
  0
VERTEX
  8
0
  6
CONTINUOUS
 62
     7
 10
-289.70743
 20
119.65142
 42
0.038482404
  0
VERTEX
  8
0
  6
CONTINUOUS
 62
     7
 10
-290.23243
 20
118.60387
 42
0.043870594
  0
VERTEX
  8
0
  6
CONTINUOUS
 62
     7
 10
-290.57953
 20
117.48557
 42
0.0526984
  0
VERTEX
  8
0
  6
CONTINUOUS
 62
     7
 10
-290.70639
 20
116.32267
 42
0
  0
SEQEND
  8
0
  0
POLYLINE
  8
0
  6
CONTINUOUS
 62
     7
 66
     1
 10
0
 20
0
  0
VERTEX
  8
0
  6
CONTINUOUS
 62
     7
 10
-274.70532
 20
135.72414
 42
-0.039941686
  0
VERTEX
  8
0
  6
CONTINUOUS
 62
     7
 10
-273.82051
 20
130.39125
 42
-0.042208378
  0
VERTEX
  8
0
  6
CONTINUOUS
 62
     7
 10
-273.82046
 20
124.98491
 42
-0.039946235
  0
VERTEX
  8
0
  6
CONTINUOUS
 62
     7
 10
-274.70532
 20
119.65142
 42
0
  0
SEQEND
  8
0
  0
POLYLINE
  8
0
  6
CONTINUOUS
 62
     7
 66
     1
 10
0
 20
0
  0
VERTEX
  8
0
  6
CONTINUOUS
 62
     7
 10
-274.70532
 20
119.65142
 42
-0.038485081
  0
VERTEX
  8
0
  6
CONTINUOUS
 62
     7
 10
-274.18033
 20
118.60387
 42
-0.04387082
  0
VERTEX
  8
0
  6
CONTINUOUS
 62
     7
 10
-273.83324
 20
117.48557
 42
-0.052695517
  0
VERTEX
  8
0
  6
CONTINUOUS
 62
     7
 10
-273.70639
 20
116.32267
 42
0
  0
SEQEND
  8
0
  0
POLYLINE
  8
0
  6
CONTINUOUS
 62
     7
 66
     1
 10
0
 20
0
  0
VERTEX
  8
0
  6
CONTINUOUS
 62
     7
 10
-289.70743
 20
151.79686
 42
-0.038482972
  0
VERTEX
  8
0
  6
CONTINUOUS
 62
     7
 10
-290.23243
 20
152.84441
 42
-0.043870253
  0
VERTEX
  8
0
  6
CONTINUOUS
 62
     7
 10
-290.57953
 20
153.96272
 42
-0.052698108
  0
VERTEX
  8
0
  6
CONTINUOUS
 62
     7
 10
-290.70639
 20
155.12563
 42
0
  0
SEQEND
  8
0
  0
POLYLINE
  8
0
  6
CONTINUOUS
 62
     7
 66
     1
 10
0
 20
0
  0
VERTEX
  8
0
  6
CONTINUOUS
 62
     7
 10
-274.70532
 20
135.72414
 42
0.039941679
  0
VERTEX
  8
0
  6
CONTINUOUS
 62
     7
 10
-273.82051
 20
141.05702
 42
0.042208389
  0
VERTEX
  8
0
  6
CONTINUOUS
 62
     7
 10
-273.82046
 20
146.46337
 42
0.039946225
  0
VERTEX
  8
0
  6
CONTINUOUS
 62
     7
 10
-274.70532
 20
151.79686
 42
0
  0
SEQEND
  8
0
  0
POLYLINE
  8
0
  6
CONTINUOUS
 62
     7
 66
     1
 10
0
 20
0
  0
VERTEX
  8
0
  6
CONTINUOUS
 62
     7
 10
-274.70532
 20
151.79686
 42
0.038485648
  0
VERTEX
  8
0
  6
CONTINUOUS
 62
     7
 10
-274.18033
 20
152.84441
 42
0.043870478
  0
VERTEX
  8
0
  6
CONTINUOUS
 62
     7
 10
-273.83324
 20
153.96272
 42
0.052695224
  0
VERTEX
  8
0
  6
CONTINUOUS
 62
     7
 10
-273.70639
 20
155.12563
 42
0
  0
SEQEND
  8
0
  0
TEXT
  8
0
  6
CONTINUOUS
 62
     7
 10
-379.08815
 20
266.396
 40
12
 41
0.84326415
  1
ＲＣＦ－Ｋ　ＦＵ（ユニオン）
  0
TEXT
  8
0
  6
CONTINUOUS
 62
     7
 10
178.20291
 20
203.98769
 40
8
 41
1.0715625
  1
2
  0
TEXT
  8
0
  6
CONTINUOUS
 62
     7
 10
49.963919
 20
186.57179
 40
8
 41
1.0130114
  1
11/2
  0
TEXT
  8
0
  6
CONTINUOUS
 62
     7
 10
-50.916582
 20
184.61295
 40
8
 41
1.0130114
  1
11/4
  0
TEXT
  8
0
  6
CONTINUOUS
 62
     7
 10
-135.45954
 20
179.71584
 40
8
 41
1.0715625
  1
1
  0
TEXT
  8
0
  6
CONTINUOUS
 62
     7
 10
-220.42198
 20
175.79814
 40
8
 41
1.0178906
  1
3/4
  0
TEXT
  8
0
  6
CONTINUOUS
 62
     7
 10
-295.36855
 20
175.79814
 40
8
 41
1.0178906
  1
1/2
  0
LINE
  8
0
  6
CONTINUOUS
 62
     7
 10
175.51926
 20
138.43298
 11
177.57359
 21
138.43298
  0
LINE
  8
0
  6
CONTINUOUS
 62
     7
 10
175.51926
 20
136.93298
 11
177.57359
 21
136.93298
  0
LINE
  8
0
  6
CONTINUOUS
 62
     7
 10
188.46492
 20
136.93298
 11
190.51926
 21
136.93298
  0
LINE
  8
0
  6
CONTINUOUS
 62
     7
 10
188.46492
 20
138.43298
 11
190.51926
 21
138.43298
  0
LINE
  8
0
  6
CONTINUOUS
 62
     7
 10
179.07904
 20
136.93298
 11
183.01926
 21
136.93298
  0
LINE
  8
0
  6
CONTINUOUS
 62
     7
 10
179.07904
 20
138.43298
 11
183.01926
 21
138.43298
  0
ARC
  8
0
  6
CONTINUOUS
 62
     7
 10
183.01926
 20
140.68298
 40
3
 50
36.008327
 51
143.99168
  0
ARC
  8
0
  6
CONTINUOUS
 62
     7
 10
183.01926
 20
140.68298
 40
4.5
 50
36.008327
 51
143.99168
  0
ARC
  8
0
  6
CONTINUOUS
 62
     7
 10
183.01926
 20
134.68298
 40
3
 50
216.00833
 51
323.99168
  0
ARC
  8
0
  6
CONTINUOUS
 62
     7
 10
183.01926
 20
134.68298
 40
4.5
 50
216.00833
 51
323.99168
  0
ARC
  8
0
  6
CONTINUOUS
 62
     7
 10
187.14714
 20
137.68298
 40
9.6028843
 50
143.99168
 51
175.52056
  0
ARC
  8
0
  6
CONTINUOUS
 62
     7
 10
187.14714
 20
137.68298
 40
8.1028843
 50
143.99168
 51
174.68912
  0
ARC
  8
0
  6
CONTINUOUS
 62
     7
 10
178.89137
 20
137.68298
 40
8.1028843
 50
323.99167
 51
36.008327
  0
ARC
  8
0
  6
CONTINUOUS
 62
     7
 10
178.89137
 20
137.68298
 40
9.6028843
 50
323.99167
 51
355.52055
  0
ARC
  8
0
  6
CONTINUOUS
 62
     7
 10
176.08176
 20
137.68298
 40
0.9375
 50
126.8699
 51
233.1301
  0
ARC
  8
0
  6
CONTINUOUS
 62
     7
 10
182.45676
 20
137.68298
 40
0.9375
 50
306.86991
 51
53.130105
  0
ARC
  8
0
  6
CONTINUOUS
 62
     7
 10
189.95676
 20
137.68298
 40
0.9375
 50
306.86991
 51
53.130105
  0
ARC
  8
0
  6
CONTINUOUS
 62
     7
 10
187.14714
 20
137.68298
 40
9.6028843
 50
184.47945
 51
216.00833
  0
ARC
  8
0
  6
CONTINUOUS
 62
     7
 10
187.14714
 20
137.68298
 40
8.1028843
 50
185.31088
 51
216.00833
  0
ARC
  8
0
  6
CONTINUOUS
 62
     7
 10
178.89137
 20
137.68298
 40
9.6028843
 50
4.4794498
 51
36.008327
  0
LINE
  8
0
  6
CONTINUOUS
 62
     7
 10
60.566917
 20
135.34472
 11
62.210384
 21
135.34472
  0
LINE
  8
0
  6
CONTINUOUS
 62
     7
 10
60.566917
 20
134.14472
 11
62.210384
 21
134.14472
  0
LINE
  8
0
  6
CONTINUOUS
 62
     7
 10
70.923451
 20
134.14472
 11
72.566917
 21
134.14472
  0
LINE
  8
0
  6
CONTINUOUS
 62
     7
 10
70.923451
 20
135.34472
 11
72.566917
 21
135.34472
  0
LINE
  8
0
  6
CONTINUOUS
 62
     7
 10
63.414745
 20
134.14472
 11
66.566917
 21
134.14472
  0
LINE
  8
0
  6
CONTINUOUS
 62
     7
 10
63.414745
 20
135.34472
 11
66.566917
 21
135.34472
  0
ARC
  8
0
  6
CONTINUOUS
 62
     7
 10
66.566917
 20
137.14472
 40
2.4000001
 50
36.008327
 51
143.99168
  0
ARC
  8
0
  6
CONTINUOUS
 62
     7
 10
66.566917
 20
137.14472
 40
3.5999999
 50
36.008327
 51
143.99168
  0
ARC
  8
0
  6
CONTINUOUS
 62
     7
 10
66.566918
 20
132.34472
 40
2.4000001
 50
216.00833
 51
323.99168
  0
ARC
  8
0
  6
CONTINUOUS
 62
     7
 10
66.566918
 20
132.34472
 40
3.5999999
 50
216.00833
 51
323.99168
  0
ARC
  8
0
  6
CONTINUOUS
 62
     7
 10
69.869225
 20
134.74472
 40
7.6823077
 50
143.99168
 51
175.52056
  0
ARC
  8
0
  6
CONTINUOUS
 62
     7
 10
69.869225
 20
134.74472
 40
6.4823079
 50
143.99168
 51
174.68912
  0
ARC
  8
0
  6
CONTINUOUS
 62
     7
 10
63.26461
 20
134.74472
 40
6.4823079
 50
323.99167
 51
36.008327
  0
ARC
  8
0
  6
CONTINUOUS
 62
     7
 10
63.26461
 20
134.74472
 40
7.6823077
 50
323.99167
 51
355.52055
  0
ARC
  8
0
  6
CONTINUOUS
 62
     7
 10
61.016917
 20
134.74472
 40
0.75
 50
126.8699
 51
233.1301
  0
ARC
  8
0
  6
CONTINUOUS
 62
     7
 10
66.116917
 20
134.74472
 40
0.75
 50
306.86991
 51
53.130105
  0
ARC
  8
0
  6
CONTINUOUS
 62
     7
 10
72.116918
 20
134.74472
 40
0.75
 50
306.86991
 51
53.130105
  0
ARC
  8
0
  6
CONTINUOUS
 62
     7
 10
69.869225
 20
134.74472
 40
6.4823079
 50
185.31088
 51
216.00833
  0
ARC
  8
0
  6
CONTINUOUS
 62
     7
 10
69.869225
 20
134.74472
 40
7.6823077
 50
184.47945
 51
216.00833
  0
ARC
  8
0
  6
CONTINUOUS
 62
     7
 10
63.26461
 20
134.74472
 40
7.6823077
 50
4.4794498
 51
36.008327
  0
LINE
  8
0
  6
CONTINUOUS
 62
     7
 10
-39.433086
 20
135.34472
 11
-37.78962
 21
135.34472
  0
LINE
  8
0
  6
CONTINUOUS
 62
     7
 10
-39.433086
 20
134.14472
 11
-37.78962
 21
134.14472
  0
LINE
  8
0
  6
CONTINUOUS
 62
     7
 10
-29.076553
 20
134.14472
 11
-27.433086
 21
134.14472
  0
LINE
  8
0
  6
CONTINUOUS
 62
     7
 10
-29.076553
 20
135.34472
 11
-27.433086
 21
135.34472
  0
LINE
  8
0
  6
CONTINUOUS
 62
     7
 10
-36.585259
 20
134.14472
 11
-33.433086
 21
134.14472
  0
LINE
  8
0
  6
CONTINUOUS
 62
     7
 10
-36.585259
 20
135.34472
 11
-33.433086
 21
135.34472
  0
ARC
  8
0
  6
CONTINUOUS
 62
     7
 10
-33.433087
 20
137.14472
 40
2.4000001
 50
36.008327
 51
143.99168
  0
ARC
  8
0
  6
CONTINUOUS
 62
     7
 10
-33.433087
 20
137.14472
 40
3.5999999
 50
36.008327
 51
143.99168
  0
ARC
  8
0
  6
CONTINUOUS
 62
     7
 10
-33.433086
 20
132.34472
 40
2.4000001
 50
216.00833
 51
323.99168
  0
ARC
  8
0
  6
CONTINUOUS
 62
     7
 10
-33.433086
 20
132.34472
 40
3.5999999
 50
216.00833
 51
323.99168
  0
ARC
  8
0
  6
CONTINUOUS
 62
     7
 10
-30.130779
 20
134.74472
 40
7.6823077
 50
143.99168
 51
175.52056
  0
ARC
  8
0
  6
CONTINUOUS
 62
     7
 10
-30.130779
 20
134.74472
 40
6.4823079
 50
143.99168
 51
174.68912
  0
ARC
  8
0
  6
CONTINUOUS
 62
     7
 10
-36.735394
 20
134.74472
 40
6.4823079
 50
323.99167
 51
36.008327
  0
ARC
  8
0
  6
CONTINUOUS
 62
     7
 10
-36.735394
 20
134.74472
 40
7.6823077
 50
323.99167
 51
355.52055
  0
ARC
  8
0
  6
CONTINUOUS
 62
     7
 10
-38.983087
 20
134.74472
 40
0.75
 50
126.8699
 51
233.1301
  0
ARC
  8
0
  6
CONTINUOUS
 62
     7
 10
-33.883086
 20
134.74472
 40
0.75
 50
306.86991
 51
53.130105
  0
ARC
  8
0
  6
CONTINUOUS
 62
     7
 10
-27.883086
 20
134.74472
 40
0.75
 50
306.86991
 51
53.130105
  0
ARC
  8
0
  6
CONTINUOUS
 62
     7
 10
-30.130779
 20
134.74472
 40
6.4823079
 50
185.31088
 51
216.00833
  0
ARC
  8
0
  6
CONTINUOUS
 62
     7
 10
-30.130779
 20
134.74472
 40
7.6823077
 50
184.47945
 51
216.00833
  0
ARC
  8
0
  6
CONTINUOUS
 62
     7
 10
-36.735394
 20
134.74472
 40
7.6823077
 50
4.4794498
 51
36.008327
  0
LINE
  8
0
  6
CONTINUOUS
 62
     7
 10
-132.93706
 20
145.50444
 11
-131.70446
 21
145.50444
  0
LINE
  8
0
  6
CONTINUOUS
 62
     7
 10
-132.93706
 20
144.60444
 11
-131.70446
 21
144.60444
  0
LINE
  8
0
  6
CONTINUOUS
 62
     7
 10
-125.16966
 20
144.60444
 11
-123.93706
 21
144.60444
  0
LINE
  8
0
  6
CONTINUOUS
 62
     7
 10
-125.16966
 20
145.50444
 11
-123.93706
 21
145.50444
  0
LINE
  8
0
  6
CONTINUOUS
 62
     7
 10
-130.80119
 20
144.60444
 11
-128.43706
 21
144.60444
  0
LINE
  8
0
  6
CONTINUOUS
 62
     7
 10
-130.80119
 20
145.50444
 11
-128.43706
 21
145.50444
  0
ARC
  8
0
  6
CONTINUOUS
 62
     7
 10
-128.43706
 20
146.85444
 40
1.8
 50
36.008327
 51
143.99168
  0
ARC
  8
0
  6
CONTINUOUS
 62
     7
 10
-128.43706
 20
146.85444
 40
2.7
 50
36.008327
 51
143.99168
  0
ARC
  8
0
  6
CONTINUOUS
 62
     7
 10
-128.43706
 20
143.25444
 40
1.8
 50
216.00833
 51
323.99168
  0
ARC
  8
0
  6
CONTINUOUS
 62
     7
 10
-128.43706
 20
143.25444
 40
2.7
 50
216.00833
 51
323.99168
  0
ARC
  8
0
  6
CONTINUOUS
 62
     7
 10
-125.96033
 20
145.05444
 40
5.7617307
 50
143.99168
 51
175.52056
  0
ARC
  8
0
  6
CONTINUOUS
 62
     7
 10
-125.96033
 20
145.05444
 40
4.8617306
 50
143.99168
 51
174.68912
  0
ARC
  8
0
  6
CONTINUOUS
 62
     7
 10
-130.91379
 20
145.05444
 40
4.8617306
 50
323.99167
 51
36.008327
  0
ARC
  8
0
  6
CONTINUOUS
 62
     7
 10
-130.91379
 20
145.05444
 40
5.7617307
 50
323.99167
 51
355.52055
  0
ARC
  8
0
  6
CONTINUOUS
 62
     7
 10
-132.59956
 20
145.05444
 40
0.5625
 50
126.8699
 51
233.1301
  0
ARC
  8
0
  6
CONTINUOUS
 62
     7
 10
-128.77456
 20
145.05444
 40
0.5625
 50
306.86991
 51
53.130105
  0
ARC
  8
0
  6
CONTINUOUS
 62
     7
 10
-124.27456
 20
145.05444
 40
0.5625
 50
306.86991
 51
53.130105
  0
ARC
  8
0
  6
CONTINUOUS
 62
     7
 10
-125.96033
 20
145.05444
 40
5.7617307
 50
184.47945
 51
216.00833
  0
ARC
  8
0
  6
CONTINUOUS
 62
     7
 10
-125.96033
 20
145.05444
 40
4.8617306
 50
185.31088
 51
216.00833
  0
ARC
  8
0
  6
CONTINUOUS
 62
     7
 10
-130.91379
 20
145.05444
 40
5.7617307
 50
4.4794498
 51
36.008327
  0
LINE
  8
0
  6
CONTINUOUS
 62
     7
 10
-212.48398
 20
144.5705
 11
-211.25138
 21
144.5705
  0
LINE
  8
0
  6
CONTINUOUS
 62
     7
 10
-212.48398
 20
143.6705
 11
-211.25138
 21
143.6705
  0
LINE
  8
0
  6
CONTINUOUS
 62
     7
 10
-204.71658
 20
143.6705
 11
-203.48398
 21
143.6705
  0
LINE
  8
0
  6
CONTINUOUS
 62
     7
 10
-204.71658
 20
144.5705
 11
-203.48398
 21
144.5705
  0
LINE
  8
0
  6
CONTINUOUS
 62
     7
 10
-210.34811
 20
143.6705
 11
-207.98398
 21
143.6705
  0
LINE
  8
0
  6
CONTINUOUS
 62
     7
 10
-210.34811
 20
144.5705
 11
-207.98398
 21
144.5705
  0
ARC
  8
0
  6
CONTINUOUS
 62
     7
 10
-207.98398
 20
145.9205
 40
1.8
 50
36.008327
 51
143.99168
  0
ARC
  8
0
  6
CONTINUOUS
 62
     7
 10
-207.98398
 20
145.9205
 40
2.7
 50
36.008327
 51
143.99168
  0
ARC
  8
0
  6
CONTINUOUS
 62
     7
 10
-207.98398
 20
142.3205
 40
1.8
 50
216.00833
 51
323.99168
  0
ARC
  8
0
  6
CONTINUOUS
 62
     7
 10
-207.98398
 20
142.3205
 40
2.7
 50
216.00833
 51
323.99168
  0
ARC
  8
0
  6
CONTINUOUS
 62
     7
 10
-205.50725
 20
144.1205
 40
5.7617307
 50
143.99168
 51
175.52056
  0
ARC
  8
0
  6
CONTINUOUS
 62
     7
 10
-205.50725
 20
144.1205
 40
4.8617306
 50
143.99168
 51
174.68912
  0
ARC
  8
0
  6
CONTINUOUS
 62
     7
 10
-210.46071
 20
144.1205
 40
4.8617306
 50
323.99167
 51
36.008327
  0
ARC
  8
0
  6
CONTINUOUS
 62
     7
 10
-210.46071
 20
144.1205
 40
5.7617307
 50
323.99167
 51
355.52055
  0
ARC
  8
0
  6
CONTINUOUS
 62
     7
 10
-212.14648
 20
144.1205
 40
0.5625
 50
126.8699
 51
233.1301
  0
ARC
  8
0
  6
CONTINUOUS
 62
     7
 10
-208.32148
 20
144.1205
 40
0.5625
 50
306.86991
 51
53.130105
  0
ARC
  8
0
  6
CONTINUOUS
 62
     7
 10
-203.82148
 20
144.1205
 40
0.5625
 50
306.86991
 51
53.130105
  0
ARC
  8
0
  6
CONTINUOUS
 62
     7
 10
-205.50725
 20
144.1205
 40
5.7617307
 50
184.47945
 51
216.00833
  0
ARC
  8
0
  6
CONTINUOUS
 62
     7
 10
-205.50725
 20
144.1205
 40
4.8617306
 50
185.31088
 51
216.00833
  0
ARC
  8
0
  6
CONTINUOUS
 62
     7
 10
-210.46071
 20
144.1205
 40
5.7617307
 50
4.4794498
 51
36.008327
  0
LINE
  8
0
  6
CONTINUOUS
 62
     7
 10
-286.70636
 20
144.2105
 11
-285.47376
 21
144.2105
  0
LINE
  8
0
  6
CONTINUOUS
 62
     7
 10
-286.70636
 20
143.3105
 11
-285.47376
 21
143.3105
  0
LINE
  8
0
  6
CONTINUOUS
 62
     7
 10
-278.93896
 20
143.3105
 11
-277.70636
 21
143.3105
  0
LINE
  8
0
  6
CONTINUOUS
 62
     7
 10
-278.93896
 20
144.2105
 11
-277.70636
 21
144.2105
  0
LINE
  8
0
  6
CONTINUOUS
 62
     7
 10
-284.57049
 20
143.3105
 11
-282.20636
 21
143.3105
  0
LINE
  8
0
  6
CONTINUOUS
 62
     7
 10
-284.57049
 20
144.2105
 11
-282.20636
 21
144.2105
  0
ARC
  8
0
  6
CONTINUOUS
 62
     7
 10
-282.20636
 20
145.5605
 40
1.8
 50
36.008327
 51
143.99168
  0
ARC
  8
0
  6
CONTINUOUS
 62
     7
 10
-282.20636
 20
145.5605
 40
2.7
 50
36.008327
 51
143.99168
  0
ARC
  8
0
  6
CONTINUOUS
 62
     7
 10
-282.20636
 20
141.9605
 40
1.8
 50
216.00833
 51
323.99168
  0
ARC
  8
0
  6
CONTINUOUS
 62
     7
 10
-282.20636
 20
141.9605
 40
2.7
 50
216.00833
 51
323.99168
  0
ARC
  8
0
  6
CONTINUOUS
 62
     7
 10
-279.72963
 20
143.7605
 40
5.7617307
 50
143.99168
 51
175.52056
  0
ARC
  8
0
  6
CONTINUOUS
 62
     7
 10
-279.72963
 20
143.7605
 40
4.8617306
 50
143.99168
 51
174.68912
  0
ARC
  8
0
  6
CONTINUOUS
 62
     7
 10
-284.68309
 20
143.7605
 40
4.8617306
 50
323.99167
 51
36.008327
  0
ARC
  8
0
  6
CONTINUOUS
 62
     7
 10
-284.68309
 20
143.7605
 40
5.7617307
 50
323.99167
 51
355.52055
  0
ARC
  8
0
  6
CONTINUOUS
 62
     7
 10
-286.36886
 20
143.7605
 40
0.5625
 50
126.8699
 51
233.1301
  0
ARC
  8
0
  6
CONTINUOUS
 62
     7
 10
-282.54386
 20
143.7605
 40
0.5625
 50
306.86991
 51
53.130105
  0
ARC
  8
0
  6
CONTINUOUS
 62
     7
 10
-278.04386
 20
143.7605
 40
0.5625
 50
306.86991
 51
53.130105
  0
ARC
  8
0
  6
CONTINUOUS
 62
     7
 10
-279.72963
 20
143.7605
 40
5.7617307
 50
184.47945
 51
216.00833
  0
ARC
  8
0
  6
CONTINUOUS
 62
     7
 10
-279.72963
 20
143.7605
 40
4.8617306
 50
185.31088
 51
216.00833
  0
ARC
  8
0
  6
CONTINUOUS
 62
     7
 10
-284.68309
 20
143.7605
 40
5.7617307
 50
4.4794498
 51
36.008327
  0
POINT
  8
1
  6
CONTINUOUS
 62
     7
 10
410
 20
-297.5
  0
LINE
  8
1
  6
CONTINUOUS
 62
     7
 10
-429
 20
-297.5
 11
410
 21
-297.5
  0
LINE
  8
1
  6
CONTINUOUS
 62
     7
 10
-429
 20
297.5
 11
-429
 21
-297.5
  0
LINE
  8
1
  6
CONTINUOUS
 62
     7
 10
410
 20
297.5
 11
410
 21
-297.5
  0
LINE
  8
1
  6
CONTINUOUS
 62
     7
 10
-429
 20
297.5
 11
410
 21
297.5
  0
ENDSEC
  0
EOF
