  0
SECTION
  2
HEADER
  9
$EXTMAX
 10
0
 20
297
  9
$EXTMIN
 10
-210
 20
0
  0
ENDSEC
  0
SECTION
  2
TABLES
  0
TABLE
  2
LTYPE
 70
    22
  0
LTYPE
  2
CONTINUOUS
 70
    64
  3
Solid line
 72
    65
 73
     0
 40
0.000000
  0
LTYPE
  2
DASHED
 70
    64
  3
__ __ __ __ __ __ __ __ __ __ __ __ __ __ __
 72
    65
 73
     2
 40
3.500000
 49
2.000000
 49
-1.500000
  0
LTYPE
  2
CENTER
 70
    64
  3
____ _ ____ _ ____ _ ____ _ ____ _ ____ _ ____
 72
    65
 73
     4
 40
17.500000
 49
13.000000
 49
-1.500000
 49
1.500000
 49
-1.500000
  0
LTYPE
  2
PHANTOM
 70
    64
  3
_____ _ _ _____ _ _ _____ _ _ _____ _ _ ____  
 72
    65
 73
     6
 40
15.500000
 49
8.000000
 49
-1.500000
 49
1.500000
 49
-1.500000
 49
1.500000
 49
-1.500000
  0
LTYPE
  2
DOT
 70
    64
  3
. . . . . . . . . . . . . . . . . . . . . . . .
 72
    65
 73
     2
 40
0.25
 49
0.0
 49
-0.25
  0
ENDTAB
  0
TABLE
  2
LAYER
 70
     2
  0
LAYER
  2
0
 70
     0
 62
     7
  6
CONTINUOUS
  0
LAYER
  2
1
 70
     0
 62
     7
  6
CONTINUOUS
  0
ENDTAB
  0
TABLE
  2
STYLE
 70
     1
  0
STYLE
  2
STANDARD
 70
     0
 40
0.000000
 41
1.000000
 50
0.000000
 71
     0
 42
0.200000
  3
txt
  4
BIGFONT
  0
ENDTAB
  0
TABLE
  2
VIEW
 70
     0
  0
ENDTAB
  0
ENDSEC
  0
SECTION
  2
BLOCKS
  0
ENDSEC
  0
SECTION
  2
ENTITIES
  0
POINT
  8
0
  6
CONTINUOUS
 62
     7
 10
-85.400002
 20
230.3
  0
POINT
  8
0
  6
CONTINUOUS
 62
     7
 10
-85.050003
 20
159.25
  0
POINT
  8
0
  6
CONTINUOUS
 62
     7
 10
-89.25
 20
72.099991
  0
POINT
  8
0
  6
CONTINUOUS
 62
     7
 10
-89.25
 20
72.099991
  0
POINT
  8
0
  6
CONTINUOUS
 62
     7
 10
-85.050003
 20
159.25
  0
POINT
  8
0
  6
CONTINUOUS
 62
     7
 10
-85.400002
 20
230.3
  0
LINE
  8
0
  6
CENTER
 62
     7
 10
-89.25
 20
95.599998
 11
-89.25
 21
29.900024
  0
LINE
  8
0
  6
CENTER
 62
     7
 10
-47.050003
 20
72.099991
 11
-131.45
 21
72.099991
  0
LINE
  8
0
  6
CONTINUOUS
 62
     7
 10
-68.75
 20
47.599991
 11
-68.75
 21
43.698074
  0
LINE
  8
0
  6
CONTINUOUS
 62
     7
 10
-109.75001
 20
47.599991
 11
-109.75001
 21
43.698074
  0
LINE
  8
0
  6
CONTINUOUS
 62
     7
 10
-113.75001
 20
51.599991
 11
-117.65192
 21
51.599991
  0
LINE
  8
0
  6
CONTINUOUS
 62
     7
 10
-64.75
 20
51.599991
 11
-60.848083
 21
51.599991
  0
LINE
  8
0
  6
CONTINUOUS
 62
     7
 10
-117.65192
 20
92.599998
 11
-60.848083
 21
92.599998
  0
LINE
  8
0
  6
CONTINUOUS
 62
     7
 10
-127.25
 20
94.099998
 11
-127.25
 21
50.099991
  0
LINE
  8
0
  6
CONTINUOUS
 62
     7
 10
-111.25
 20
34.099991
 11
-67.25
 21
34.099991
  0
LINE
  8
0
  6
CONTINUOUS
 62
     7
 10
-51.25
 20
94.099998
 11
-51.25
 21
50.099991
  0
LINE
  8
0
  6
CONTINUOUS
 62
     7
 10
-120.25
 20
94.099998
 11
-120.25
 21
50.099991
  0
LINE
  8
0
  6
CONTINUOUS
 62
     7
 10
-111.25
 20
41.099991
 11
-67.25
 21
41.099991
  0
LINE
  8
0
  6
CONTINUOUS
 62
     7
 10
-58.25
 20
94.099998
 11
-58.25
 21
50.099991
  0
LINE
  8
0
  6
CONTINUOUS
 62
     7
 10
-51.25
 20
94.099998
 11
-58.25
 21
94.099998
  0
LINE
  8
0
  6
CONTINUOUS
 62
     7
 10
-51.25
 20
50.099991
 11
-58.25
 21
50.099991
  0
LINE
  8
0
  6
CONTINUOUS
 62
     7
 10
-67.25
 20
41.099991
 11
-67.25
 21
34.099991
  0
LINE
  8
0
  6
CONTINUOUS
 62
     7
 10
-111.25
 20
41.099991
 11
-111.25
 21
34.099991
  0
LINE
  8
0
  6
CONTINUOUS
 62
     7
 10
-120.25
 20
50.099991
 11
-127.25
 21
50.099991
  0
LINE
  8
0
  6
CONTINUOUS
 62
     7
 10
-120.25
 20
94.099998
 11
-127.25
 21
94.099998
  0
LINE
  8
0
  6
CENTER
 62
     7
 10
-85.050003
 20
178.75
 11
-85.050003
 21
123.05002
  0
LINE
  8
0
  6
CENTER
 62
     7
 10
-48.850002
 20
159.25
 11
-121.25
 21
159.25
  0
LINE
  8
0
  6
CONTINUOUS
 62
     7
 10
-68.550011
 20
138.75
 11
-68.550011
 21
135.65167
  0
LINE
  8
0
  6
CONTINUOUS
 62
     7
 10
-101.55001
 20
138.75
 11
-101.55001
 21
135.84807
  0
LINE
  8
0
  6
CONTINUOUS
 62
     7
 10
-105.55001
 20
142.75
 11
-108.45193
 21
142.75
  0
LINE
  8
0
  6
CONTINUOUS
 62
     7
 10
-64.550011
 20
142.75
 11
-61.648071
 21
142.75
  0
LINE
  8
0
  6
CONTINUOUS
 62
     7
 10
-108.45193
 20
175.75
 11
-61.648071
 21
175.75
  0
LINE
  8
0
  6
CONTINUOUS
 62
     7
 10
-53.049999
 20
177.25
 11
-53.049999
 21
141.25
  0
LINE
  8
0
  6
CONTINUOUS
 62
     7
 10
-103.05
 20
127.24999
 11
-67.050003
 21
127.24999
  0
LINE
  8
0
  6
CONTINUOUS
 62
     7
 10
-117.05
 20
177.25
 11
-117.05
 21
141.25
  0
LINE
  8
0
  6
CONTINUOUS
 62
     7
 10
-111.05
 20
177.25
 11
-111.05
 21
141.25
  0
LINE
  8
0
  6
CONTINUOUS
 62
     7
 10
-59.049995
 20
177.25
 11
-59.049995
 21
141.25
  0
LINE
  8
0
  6
CONTINUOUS
 62
     7
 10
-103.05
 20
133.25
 11
-67.050003
 21
133.25
  0
LINE
  8
0
  6
CONTINUOUS
 62
     7
 10
-53.049999
 20
177.25
 11
-59.049995
 21
177.25
  0
LINE
  8
0
  6
CONTINUOUS
 62
     7
 10
-53.049999
 20
141.25
 11
-59.049995
 21
141.25
  0
LINE
  8
0
  6
CONTINUOUS
 62
     7
 10
-103.05
 20
133.25
 11
-103.05
 21
127.24999
  0
LINE
  8
0
  6
CONTINUOUS
 62
     7
 10
-67.050003
 20
133.25
 11
-67.050003
 21
127.24999
  0
LINE
  8
0
  6
CONTINUOUS
 62
     7
 10
-111.05
 20
177.25
 11
-117.05
 21
177.25
  0
LINE
  8
0
  6
CONTINUOUS
 62
     7
 10
-111.05
 20
141.25
 11
-117.05
 21
141.25
  0
LINE
  8
0
  6
CENTER
 62
     7
 10
-85.400002
 20
246.8
 11
-85.400002
 21
199.09999
  0
LINE
  8
0
  6
CENTER
 62
     7
 10
-54.200005
 20
230.3
 11
-116.6
 21
230.3
  0
LINE
  8
0
  6
CONTINUOUS
 62
     7
 10
-71.900009
 20
213.8
 11
-71.900009
 21
211.8981
  0
LINE
  8
0
  6
CONTINUOUS
 62
     7
 10
-98.900009
 20
213.8
 11
-98.900009
 21
211.89809
  0
LINE
  8
0
  6
CONTINUOUS
 62
     7
 10
-101.90001
 20
216.8
 11
-103.80193
 21
216.8
  0
LINE
  8
0
  6
CONTINUOUS
 62
     7
 10
-68.900009
 20
216.8
 11
-66.998077
 21
216.8
  0
LINE
  8
0
  6
CONTINUOUS
 62
     7
 10
-103.80193
 20
243.8
 11
-66.998077
 21
243.8
  0
LINE
  8
0
  6
CONTINUOUS
 62
     7
 10
-100.4
 20
203.30002
 11
-70.400002
 21
203.30002
  0
LINE
  8
0
  6
CONTINUOUS
 62
     7
 10
-58.399998
 20
245.3
 11
-58.399998
 21
215.3
  0
LINE
  8
0
  6
CONTINUOUS
 62
     7
 10
-112.4
 20
245.3
 11
-112.4
 21
215.3
  0
LINE
  8
0
  6
CONTINUOUS
 62
     7
 10
-106.4
 20
245.3
 11
-106.4
 21
215.3
  0
LINE
  8
0
  6
CONTINUOUS
 62
     7
 10
-100.4
 20
209.30002
 11
-70.400002
 21
209.30002
  0
LINE
  8
0
  6
CONTINUOUS
 62
     7
 10
-64.400002
 20
245.3
 11
-64.400002
 21
215.3
  0
LINE
  8
0
  6
CONTINUOUS
 62
     7
 10
-58.399998
 20
245.3
 11
-64.400002
 21
245.3
  0
LINE
  8
0
  6
CONTINUOUS
 62
     7
 10
-58.399998
 20
215.3
 11
-64.400002
 21
215.3
  0
LINE
  8
0
  6
CONTINUOUS
 62
     7
 10
-70.400002
 20
209.30002
 11
-70.400002
 21
203.30002
  0
LINE
  8
0
  6
CONTINUOUS
 62
     7
 10
-100.4
 20
209.30002
 11
-100.4
 21
203.30002
  0
LINE
  8
0
  6
CONTINUOUS
 62
     7
 10
-106.4
 20
215.3
 11
-112.4
 21
215.3
  0
LINE
  8
0
  6
CONTINUOUS
 62
     7
 10
-106.4
 20
245.3
 11
-112.4
 21
245.3
  0
LINE
  8
0
  6
CONTINUOUS
 62
     7
 10
-88.649994
 20
78.099991
 11
-88.649994
 21
76.456528
  0
LINE
  8
0
  6
CONTINUOUS
 62
     7
 10
-89.850006
 20
78.099991
 11
-89.850006
 21
76.456528
  0
LINE
  8
0
  6
CONTINUOUS
 62
     7
 10
-89.850006
 20
67.743454
 11
-89.850006
 21
66.099991
  0
LINE
  8
0
  6
CONTINUOUS
 62
     7
 10
-88.649994
 20
67.743454
 11
-88.649994
 21
66.099991
  0
LINE
  8
0
  6
CONTINUOUS
 62
     7
 10
-89.850006
 20
75.252182
 11
-89.850006
 21
72.099991
  0
LINE
  8
0
  6
CONTINUOUS
 62
     7
 10
-88.649994
 20
75.252182
 11
-88.649994
 21
72.099991
  0
LINE
  8
0
  6
CONTINUOUS
 62
     7
 10
-84.599998
 20
163.75
 11
-84.599998
 21
162.5174
  0
LINE
  8
0
  6
CONTINUOUS
 62
     7
 10
-85.5
 20
163.75
 11
-85.5
 21
162.5174
  0
LINE
  8
0
  6
CONTINUOUS
 62
     7
 10
-85.5
 20
155.9826
 11
-85.5
 21
154.75
  0
LINE
  8
0
  6
CONTINUOUS
 62
     7
 10
-84.599998
 20
155.9826
 11
-84.599998
 21
154.75
  0
LINE
  8
0
  6
CONTINUOUS
 62
     7
 10
-85.5
 20
161.61414
 11
-85.5
 21
159.25
  0
LINE
  8
0
  6
CONTINUOUS
 62
     7
 10
-84.599998
 20
161.61414
 11
-84.599998
 21
159.25
  0
LINE
  8
0
  6
CONTINUOUS
 62
     7
 10
-84.949997
 20
234.8
 11
-84.949997
 21
233.5674
  0
LINE
  8
0
  6
CONTINUOUS
 62
     7
 10
-85.849998
 20
234.8
 11
-85.849998
 21
233.5674
  0
LINE
  8
0
  6
CONTINUOUS
 62
     7
 10
-85.849998
 20
227.03261
 11
-85.849998
 21
225.8
  0
LINE
  8
0
  6
CONTINUOUS
 62
     7
 10
-84.949997
 20
227.03261
 11
-84.949997
 21
225.8
  0
LINE
  8
0
  6
CONTINUOUS
 62
     7
 10
-85.849998
 20
232.66414
 11
-85.849998
 21
230.3
  0
LINE
  8
0
  6
CONTINUOUS
 62
     7
 10
-84.949997
 20
232.66414
 11
-84.949997
 21
230.3
  0
LINE
  8
0
  6
CONTINUOUS
 62
     7
 10
-98.900009
 20
210.175
 11
-71.900009
 21
210.175
  0
LINE
  8
0
  6
CONTINUOUS
 62
     7
 10
-98.900009
 20
215.175
 11
-71.900009
 21
215.175
  0
LINE
  8
0
  6
CONTINUOUS
 62
     7
 10
-101.55001
 20
134.59488
 11
-68.550011
 21
134.59488
  0
LINE
  8
0
  6
CONTINUOUS
 62
     7
 10
-101.55001
 20
139.59488
 11
-68.550011
 21
139.59488
  0
LINE
  8
0
  6
CONTINUOUS
 62
     7
 10
-109.75001
 20
43.11702
 11
-68.75
 21
43.11702
  0
LINE
  8
0
  6
CONTINUOUS
 62
     7
 10
-109.75001
 20
48.11702
 11
-68.75
 21
48.11702
  0
ARC
  8
0
  6
CONTINUOUS
 62
     7
 10
-113.75001
 20
47.599991
 40
4
 50
359.99998
 51
90.000016
  0
ARC
  8
0
  6
CONTINUOUS
 62
     7
 10
-64.75
 20
47.599991
 40
4
 50
90.000016
 51
180.00001
  0
ARC
  8
0
  6
CONTINUOUS
 62
     7
 10
-60.848083
 20
95.599998
 40
3
 50
270
 51
330
  0
ARC
  8
0
  6
CONTINUOUS
 62
     7
 10
-117.65192
 20
95.599998
 40
3
 50
210
 51
270
  0
ARC
  8
0
  6
CONTINUOUS
 62
     7
 10
-117.65192
 20
48.599991
 40
3
 50
90.000003
 51
150
  0
ARC
  8
0
  6
CONTINUOUS
 62
     7
 10
-112.75001
 20
43.698074
 40
3
 50
300.00017
 51
0
  0
ARC
  8
0
  6
CONTINUOUS
 62
     7
 10
-65.75
 20
43.698074
 40
3
 50
179.99999
 51
240.00017
  0
ARC
  8
0
  6
CONTINUOUS
 62
     7
 10
-60.848083
 20
48.599991
 40
3
 50
30.000001
 51
90.000003
  0
ARC
  8
0
  6
CONTINUOUS
 62
     7
 10
-105.55001
 20
138.75
 40
4
 50
359.99998
 51
90.000016
  0
ARC
  8
0
  6
CONTINUOUS
 62
     7
 10
-64.550011
 20
138.75
 40
4
 50
90.000016
 51
180.00001
  0
ARC
  8
0
  6
CONTINUOUS
 62
     7
 10
-104.55001
 20
135.84807
 40
3
 50
300.00017
 51
0
  0
ARC
  8
0
  6
CONTINUOUS
 62
     7
 10
-108.45193
 20
139.75
 40
3
 50
90.000003
 51
150
  0
ARC
  8
0
  6
CONTINUOUS
 62
     7
 10
-108.45193
 20
178.75
 40
3
 50
210
 51
270
  0
ARC
  8
0
  6
CONTINUOUS
 62
     7
 10
-61.648071
 20
178.75
 40
3
 50
270
 51
330
  0
ARC
  8
0
  6
CONTINUOUS
 62
     7
 10
-61.648071
 20
139.75
 40
3
 50
30.000001
 51
90.000003
  0
ARC
  8
0
  6
CONTINUOUS
 62
     7
 10
-65.550011
 20
135.84808
 40
3
 50
179.99999
 51
240.00017
  0
ARC
  8
0
  6
CONTINUOUS
 62
     7
 10
-101.90001
 20
213.8
 40
3
 50
359.99998
 51
90.000016
  0
ARC
  8
0
  6
CONTINUOUS
 62
     7
 10
-68.900009
 20
213.8
 40
3
 50
90.000016
 51
180.00001
  0
ARC
  8
0
  6
CONTINUOUS
 62
     7
 10
-66.998077
 20
246.8
 40
3
 50
270
 51
330
  0
ARC
  8
0
  6
CONTINUOUS
 62
     7
 10
-103.80193
 20
246.8
 40
3
 50
210
 51
270
  0
ARC
  8
0
  6
CONTINUOUS
 62
     7
 10
-103.80193
 20
213.8
 40
3
 50
90.000003
 51
150
  0
ARC
  8
0
  6
CONTINUOUS
 62
     7
 10
-101.90001
 20
211.89809
 40
3
 50
300.00017
 51
0
  0
ARC
  8
0
  6
CONTINUOUS
 62
     7
 10
-68.900009
 20
211.8981
 40
3
 50
179.99999
 51
240.00017
  0
ARC
  8
0
  6
CONTINUOUS
 62
     7
 10
-66.998077
 20
213.8
 40
3
 50
30.000001
 51
90.000003
  0
ARC
  8
0
  6
CONTINUOUS
 62
     7
 10
-86.850006
 20
72.099991
 40
2.4000001
 50
306.00832
 51
53.991676
  0
ARC
  8
0
  6
CONTINUOUS
 62
     7
 10
-86.850006
 20
72.099991
 40
3.5999999
 50
306.00832
 51
53.991676
  0
ARC
  8
0
  6
CONTINUOUS
 62
     7
 10
-91.649994
 20
72.099991
 40
2.4000001
 50
126.00833
 51
233.99168
  0
ARC
  8
0
  6
CONTINUOUS
 62
     7
 10
-91.649994
 20
72.099991
 40
3.5999999
 50
126.00833
 51
233.99168
  0
ARC
  8
0
  6
CONTINUOUS
 62
     7
 10
-89.25
 20
68.797684
 40
7.6823077
 50
53.991676
 51
85.520553
  0
ARC
  8
0
  6
CONTINUOUS
 62
     7
 10
-89.25
 20
68.797684
 40
6.4823079
 50
53.991676
 51
84.689121
  0
ARC
  8
0
  6
CONTINUOUS
 62
     7
 10
-89.25
 20
75.402298
 40
6.4823079
 50
233.99167
 51
306.00832
  0
ARC
  8
0
  6
CONTINUOUS
 62
     7
 10
-89.25
 20
75.402298
 40
7.6823077
 50
233.99167
 51
265.52055
  0
ARC
  8
0
  6
CONTINUOUS
 62
     7
 10
-89.25
 20
77.650009
 40
0.75
 50
36.869897
 51
143.1301
  0
ARC
  8
0
  6
CONTINUOUS
 62
     7
 10
-89.25
 20
72.550003
 40
0.75
 50
216.8699
 51
323.1301
  0
ARC
  8
0
  6
CONTINUOUS
 62
     7
 10
-89.25
 20
66.550003
 40
0.75
 50
216.8699
 51
323.1301
  0
ARC
  8
0
  6
CONTINUOUS
 62
     7
 10
-89.25
 20
68.797684
 40
6.4823079
 50
95.310878
 51
126.00833
  0
ARC
  8
0
  6
CONTINUOUS
 62
     7
 10
-89.25
 20
68.797684
 40
7.6823077
 50
94.479452
 51
126.00833
  0
ARC
  8
0
  6
CONTINUOUS
 62
     7
 10
-89.25
 20
75.402298
 40
7.6823077
 50
274.47945
 51
306.00832
  0
ARC
  8
0
  6
CONTINUOUS
 62
     7
 10
-83.25
 20
159.25
 40
1.8
 50
306.00832
 51
53.991676
  0
ARC
  8
0
  6
CONTINUOUS
 62
     7
 10
-83.25
 20
159.25
 40
2.7
 50
306.00832
 51
53.991676
  0
ARC
  8
0
  6
CONTINUOUS
 62
     7
 10
-86.849998
 20
159.25
 40
1.8
 50
126.00833
 51
233.99168
  0
ARC
  8
0
  6
CONTINUOUS
 62
     7
 10
-86.849998
 20
159.25
 40
2.7
 50
126.00833
 51
233.99168
  0
ARC
  8
0
  6
CONTINUOUS
 62
     7
 10
-85.050003
 20
156.77327
 40
5.7617307
 50
53.991676
 51
85.520553
  0
ARC
  8
0
  6
CONTINUOUS
 62
     7
 10
-85.050003
 20
156.77327
 40
4.8617306
 50
53.991676
 51
84.689121
  0
ARC
  8
0
  6
CONTINUOUS
 62
     7
 10
-85.050003
 20
161.72673
 40
4.8617306
 50
233.99167
 51
306.00832
  0
ARC
  8
0
  6
CONTINUOUS
 62
     7
 10
-85.050003
 20
161.72673
 40
5.7617307
 50
233.99167
 51
265.52055
  0
ARC
  8
0
  6
CONTINUOUS
 62
     7
 10
-85.050003
 20
163.41251
 40
0.5625
 50
36.869897
 51
143.1301
  0
ARC
  8
0
  6
CONTINUOUS
 62
     7
 10
-85.050003
 20
159.58749
 40
0.5625
 50
216.8699
 51
323.1301
  0
ARC
  8
0
  6
CONTINUOUS
 62
     7
 10
-85.050003
 20
155.08749
 40
0.5625
 50
216.8699
 51
323.1301
  0
ARC
  8
0
  6
CONTINUOUS
 62
     7
 10
-85.050003
 20
156.77327
 40
5.7617307
 50
94.479452
 51
126.00833
  0
ARC
  8
0
  6
CONTINUOUS
 62
     7
 10
-85.050003
 20
156.77327
 40
4.8617306
 50
95.310878
 51
126.00833
  0
ARC
  8
0
  6
CONTINUOUS
 62
     7
 10
-85.050003
 20
161.72673
 40
5.7617307
 50
274.47945
 51
306.00832
  0
ARC
  8
0
  6
CONTINUOUS
 62
     7
 10
-83.599998
 20
230.3
 40
1.8
 50
306.00832
 51
53.991676
  0
ARC
  8
0
  6
CONTINUOUS
 62
     7
 10
-83.599998
 20
230.3
 40
2.7
 50
306.00832
 51
53.991676
  0
ARC
  8
0
  6
CONTINUOUS
 62
     7
 10
-87.199997
 20
230.3
 40
1.8
 50
126.00833
 51
233.99168
  0
ARC
  8
0
  6
CONTINUOUS
 62
     7
 10
-87.199997
 20
230.3
 40
2.7
 50
126.00833
 51
233.99168
  0
ARC
  8
0
  6
CONTINUOUS
 62
     7
 10
-85.400002
 20
227.82327
 40
5.7617307
 50
53.991676
 51
85.520553
  0
ARC
  8
0
  6
CONTINUOUS
 62
     7
 10
-85.400002
 20
227.82327
 40
4.8617306
 50
53.991676
 51
84.689121
  0
ARC
  8
0
  6
CONTINUOUS
 62
     7
 10
-85.400002
 20
232.77673
 40
4.8617306
 50
233.99167
 51
306.00832
  0
ARC
  8
0
  6
CONTINUOUS
 62
     7
 10
-85.400002
 20
232.77673
 40
5.7617307
 50
233.99167
 51
265.52055
  0
ARC
  8
0
  6
CONTINUOUS
 62
     7
 10
-85.400002
 20
234.46251
 40
0.5625
 50
36.869897
 51
143.1301
  0
ARC
  8
0
  6
CONTINUOUS
 62
     7
 10
-85.400002
 20
230.6375
 40
0.5625
 50
216.8699
 51
323.1301
  0
ARC
  8
0
  6
CONTINUOUS
 62
     7
 10
-85.400002
 20
226.1375
 40
0.5625
 50
216.8699
 51
323.1301
  0
ARC
  8
0
  6
CONTINUOUS
 62
     7
 10
-85.400002
 20
227.82327
 40
5.7617307
 50
94.479452
 51
126.00833
  0
ARC
  8
0
  6
CONTINUOUS
 62
     7
 10
-85.400002
 20
227.82327
 40
4.8617306
 50
95.310878
 51
126.00833
  0
ARC
  8
0
  6
CONTINUOUS
 62
     7
 10
-85.400002
 20
232.77673
 40
5.7617307
 50
274.47945
 51
306.00832
  0
TEXT
  8
0
  6
CONTINUOUS
 62
     7
 10
-186.56013
 20
276.28214
 40
5
 41
0.84227241
  1
ＲＣＦ－Ｋ　ＡＴ（樹脂ねじ付き水栓チ－ズ）
  0
TEXT
  8
0
  6
CONTINUOUS
 62
     7
 10
-150.31747
 20
158.65247
 40
5
 41
1.0178573
  1
3/4
  0
TEXT
  8
0
  6
CONTINUOUS
 62
     7
 10
-143.9591
 20
79.172943
 40
5
 41
1.0714291
  1
1
  0
TEXT
  8
0
  6
CONTINUOUS
 62
     7
 10
-149.0458
 20
234.31696
 40
5
 41
1.0178573
  1
1/2
  0
TEXT
  8
0
  6
CONTINUOUS
 62
     7
 10
-97.783605
 20
211.16421
 40
3.2
 41
0.67915094
  1
１／２　器具側　１３
  0
TEXT
  8
0
  6
CONTINUOUS
 62
     7
 10
-100.6582
 20
135.3375
 40
3.2
 41
0.84447575
  1
３／４　器具側　２０
  0
TEXT
  8
0
  6
CONTINUOUS
 62
     7
 10
-104.34831
 20
43.849066
 40
3.2
 41
0.8449534
  1
１　　器具側　２５
  0
POINT
  8
1
  6
CONTINUOUS
 62
     7
 10
-210
 20
0
  0
POINT
  8
1
  6
CONTINUOUS
 62
     7
 10
0
 20
0
  0
POINT
  8
1
  6
CONTINUOUS
 62
     7
 10
0
 20
0
  0
POINT
  8
1
  6
CONTINUOUS
 62
     7
 10
-210
 20
297
  0
POINT
  8
1
  6
CONTINUOUS
 62
     7
 10
-210
 20
0
  0
POINT
  8
1
  6
CONTINUOUS
 62
     7
 10
0
 20
0
  0
POINT
  8
1
  6
CONTINUOUS
 62
     7
 10
0
 20
297
  0
LINE
  8
1
  6
CONTINUOUS
 62
     7
 10
-210
 20
0
 11
0
 21
0
  0
LINE
  8
1
  6
CONTINUOUS
 62
     7
 10
-210
 20
297
 11
0
 21
297
  0
LINE
  8
1
  6
CONTINUOUS
 62
     7
 10
0
 20
297
 11
0
 21
0
  0
LINE
  8
1
  6
CONTINUOUS
 62
     7
 10
-210
 20
297
 11
-210
 21
0
  0
ENDSEC
  0
EOF
