  0
SECTION
  2
HEADER
  9
$EXTMAX
 10
0
 20
297
  9
$EXTMIN
 10
-210
 20
0
  0
ENDSEC
  0
SECTION
  2
TABLES
  0
TABLE
  2
LTYPE
 70
    22
  0
LTYPE
  2
CONTINUOUS
 70
    64
  3
Solid line
 72
    65
 73
     0
 40
0.000000
  0
LTYPE
  2
DASHED
 70
    64
  3
__ __ __ __ __ __ __ __ __ __ __ __ __ __ __
 72
    65
 73
     2
 40
3.500000
 49
2.000000
 49
-1.500000
  0
LTYPE
  2
CENTER
 70
    64
  3
____ _ ____ _ ____ _ ____ _ ____ _ ____ _ ____
 72
    65
 73
     4
 40
17.500000
 49
13.000000
 49
-1.500000
 49
1.500000
 49
-1.500000
  0
LTYPE
  2
PHANTOM
 70
    64
  3
_____ _ _ _____ _ _ _____ _ _ _____ _ _ ____  
 72
    65
 73
     6
 40
15.500000
 49
8.000000
 49
-1.500000
 49
1.500000
 49
-1.500000
 49
1.500000
 49
-1.500000
  0
LTYPE
  2
DOT
 70
    64
  3
. . . . . . . . . . . . . . . . . . . . . . . .
 72
    65
 73
     2
 40
0.25
 49
0.0
 49
-0.25
  0
ENDTAB
  0
TABLE
  2
LAYER
 70
     2
  0
LAYER
  2
0
 70
     0
 62
     7
  6
CONTINUOUS
  0
LAYER
  2
1
 70
     0
 62
     7
  6
CONTINUOUS
  0
ENDTAB
  0
TABLE
  2
STYLE
 70
     1
  0
STYLE
  2
STANDARD
 70
     0
 40
0.000000
 41
1.000000
 50
0.000000
 71
     0
 42
0.200000
  3
txt
  4
BIGFONT
  0
ENDTAB
  0
TABLE
  2
VIEW
 70
     0
  0
ENDTAB
  0
ENDSEC
  0
SECTION
  2
BLOCKS
  0
ENDSEC
  0
SECTION
  2
ENTITIES
  0
POINT
  8
0
  6
CONTINUOUS
 62
     7
 10
-88.792664
 20
232.87134
  0
POINT
  8
0
  6
CONTINUOUS
 62
     7
 10
-91.305664
 20
158.319
  0
POINT
  8
0
  6
CONTINUOUS
 62
     7
 10
-98.007004
 20
70.363998
  0
LINE
  8
0
  6
CENTER
 62
     7
 10
-105.37428
 20
232.87134
 11
-57.59267
 21
232.87134
  0
LINE
  8
0
  6
CENTER
 62
     7
 10
-88.792664
 20
248.72067
 11
-88.792664
 21
201.67134
  0
LINE
  8
0
  6
CONTINUOUS
 62
     7
 10
-75.292664
 20
246.37134
 11
-70.390739
 21
246.37134
  0
LINE
  8
0
  6
CONTINUOUS
 62
     7
 10
-102.29266
 20
219.37134
 11
-102.29266
 21
214.46941
  0
LINE
  8
0
  6
CONTINUOUS
 62
     7
 10
-75.292664
 20
216.37134
 11
-75.292664
 21
214.46941
  0
LINE
  8
0
  6
CONTINUOUS
 62
     7
 10
-72.292664
 20
219.37134
 11
-70.390739
 21
219.37134
  0
LINE
  8
0
  6
CONTINUOUS
 62
     7
 10
-61.792667
 20
217.87134
 11
-61.792667
 21
247.87134
  0
LINE
  8
0
  6
CONTINUOUS
 62
     7
 10
-103.79266
 20
205.87134
 11
-73.792664
 21
205.87134
  0
LINE
  8
0
  6
CONTINUOUS
 62
     7
 10
-67.792664
 20
217.87134
 11
-67.792664
 21
247.87134
  0
LINE
  8
0
  6
CONTINUOUS
 62
     7
 10
-103.79266
 20
211.87134
 11
-73.792664
 21
211.87134
  0
LINE
  8
0
  6
CONTINUOUS
 62
     7
 10
-73.792664
 20
211.87134
 11
-73.792664
 21
205.87134
  0
LINE
  8
0
  6
CONTINUOUS
 62
     7
 10
-103.79266
 20
211.87134
 11
-103.79266
 21
205.87134
  0
LINE
  8
0
  6
CONTINUOUS
 62
     7
 10
-67.792664
 20
217.87134
 11
-61.792667
 21
217.87134
  0
LINE
  8
0
  6
CONTINUOUS
 62
     7
 10
-67.792664
 20
247.87134
 11
-61.792667
 21
247.87134
  0
LINE
  8
0
  6
CENTER
 62
     7
 10
-111.38075
 20
158.319
 11
-55.105671
 21
158.319
  0
LINE
  8
0
  6
CENTER
 62
     7
 10
-91.305664
 20
178.30186
 11
-91.305664
 21
122.119
  0
LINE
  8
0
  6
CONTINUOUS
 62
     7
 10
-74.805664
 20
174.819
 11
-67.90374
 21
174.819
  0
LINE
  8
0
  6
CONTINUOUS
 62
     7
 10
-107.80566
 20
141.819
 11
-107.80566
 21
134.91708
  0
LINE
  8
0
  6
CONTINUOUS
 62
     7
 10
-74.805664
 20
137.819
 11
-74.805664
 21
134.91708
  0
LINE
  8
0
  6
CONTINUOUS
 62
     7
 10
-70.805664
 20
141.819
 11
-67.90374
 21
141.819
  0
LINE
  8
0
  6
CONTINUOUS
 62
     7
 10
-109.30566
 20
126.319
 11
-73.305664
 21
126.319
  0
LINE
  8
0
  6
CONTINUOUS
 62
     7
 10
-59.305668
 20
140.319
 11
-59.305668
 21
176.319
  0
LINE
  8
0
  6
CONTINUOUS
 62
     7
 10
-65.305664
 20
176.319
 11
-59.305668
 21
176.319
  0
LINE
  8
0
  6
CONTINUOUS
 62
     7
 10
-65.305664
 20
140.319
 11
-59.305668
 21
140.319
  0
LINE
  8
0
  6
CONTINUOUS
 62
     7
 10
-73.305664
 20
132.319
 11
-73.305664
 21
126.319
  0
LINE
  8
0
  6
CONTINUOUS
 62
     7
 10
-109.30566
 20
132.319
 11
-109.30566
 21
126.319
  0
LINE
  8
0
  6
CONTINUOUS
 62
     7
 10
-109.30566
 20
132.319
 11
-73.305664
 21
132.319
  0
LINE
  8
0
  6
CONTINUOUS
 62
     7
 10
-65.305664
 20
140.319
 11
-65.305664
 21
176.319
  0
LINE
  8
0
  6
CENTER
 62
     7
 10
-120.76135
 20
70.363998
 11
-55.007
 21
70.363998
  0
LINE
  8
0
  6
CENTER
 62
     7
 10
-98.007004
 20
92.807083
 11
-98.007004
 21
27.363998
  0
LINE
  8
0
  6
CONTINUOUS
 62
     7
 10
-77.507004
 20
90.863998
 11
-69.605087
 21
90.863998
  0
LINE
  8
0
  6
CONTINUOUS
 62
     7
 10
-118.507
 20
49.863998
 11
-118.507
 21
41.962082
  0
LINE
  8
0
  6
CONTINUOUS
 62
     7
 10
-77.507004
 20
45.863998
 11
-77.507004
 21
41.962082
  0
LINE
  8
0
  6
CONTINUOUS
 62
     7
 10
-73.507004
 20
49.863998
 11
-69.605087
 21
49.863998
  0
LINE
  8
0
  6
CONTINUOUS
 62
     7
 10
-60.007
 20
48.363998
 11
-60.007
 21
92.363998
  0
LINE
  8
0
  6
CONTINUOUS
 62
     7
 10
-120.007
 20
39.363998
 11
-76.007004
 21
39.363998
  0
LINE
  8
0
  6
CONTINUOUS
 62
     7
 10
-67.007004
 20
48.363998
 11
-67.007004
 21
92.363998
  0
LINE
  8
0
  6
CONTINUOUS
 62
     7
 10
-67.007004
 20
92.363998
 11
-60.007
 21
92.363998
  0
LINE
  8
0
  6
CONTINUOUS
 62
     7
 10
-67.007004
 20
48.363998
 11
-60.007
 21
48.363998
  0
LINE
  8
0
  6
CONTINUOUS
 62
     7
 10
-76.007004
 20
39.363998
 11
-76.007004
 21
32.363998
  0
LINE
  8
0
  6
CONTINUOUS
 62
     7
 10
-120.007
 20
39.363998
 11
-120.007
 21
32.363998
  0
LINE
  8
0
  6
CONTINUOUS
 62
     7
 10
-95.821064
 20
69.026581
 11
-94.658955
 21
67.864471
  0
LINE
  8
0
  6
CONTINUOUS
 62
     7
 10
-96.66959
 20
68.178055
 11
-95.507481
 21
67.015945
  0
LINE
  8
0
  6
CONTINUOUS
 62
     7
 10
-89.346413
 20
60.854874
 11
-88.184308
 21
59.69278
  0
LINE
  8
0
  6
CONTINUOUS
 62
     7
 10
-88.497887
 20
61.7034
 11
-87.335782
 21
60.541306
  0
LINE
  8
0
  6
CONTINUOUS
 62
     7
 10
-94.655869
 20
66.164337
 11
-92.42695
 21
63.93541
  0
LINE
  8
0
  6
CONTINUOUS
 62
     7
 10
-93.807343
 20
67.012863
 11
-91.578424
 21
64.783936
  0
LINE
  8
0
  6
CONTINUOUS
 62
     7
 10
-89.336713
 20
156.98644
 11
-88.465129
 21
156.11486
  0
LINE
  8
0
  6
CONTINUOUS
 62
     7
 10
-89.973104
 20
156.35005
 11
-89.101521
 21
155.47847
  0
LINE
  8
0
  6
CONTINUOUS
 62
     7
 10
-84.480726
 20
150.85767
 11
-83.609142
 21
149.98609
  0
LINE
  8
0
  6
CONTINUOUS
 62
     7
 10
-83.844336
 20
151.49406
 11
-82.972752
 21
150.62248
  0
LINE
  8
0
  6
CONTINUOUS
 62
     7
 10
-88.46281
 20
154.83975
 11
-86.791123
 21
153.16807
  0
LINE
  8
0
  6
CONTINUOUS
 62
     7
 10
-87.826418
 20
155.47615
 11
-86.154732
 21
153.80446
  0
LINE
  8
0
  6
CONTINUOUS
 62
     7
 10
-87.702394
 20
232.41746
 11
-86.830811
 21
231.54587
  0
LINE
  8
0
  6
CONTINUOUS
 62
     7
 10
-88.338791
 20
231.78106
 11
-87.467208
 21
230.90948
  0
LINE
  8
0
  6
CONTINUOUS
 62
     7
 10
-82.846413
 20
226.28868
 11
-81.974831
 21
225.4171
  0
LINE
  8
0
  6
CONTINUOUS
 62
     7
 10
-82.210016
 20
226.92508
 11
-81.338432
 21
226.0535
  0
LINE
  8
0
  6
CONTINUOUS
 62
     7
 10
-86.828506
 20
230.27078
 11
-85.156811
 21
228.59908
  0
LINE
  8
0
  6
CONTINUOUS
 62
     7
 10
-86.19211
 20
230.90717
 11
-84.520412
 21
229.23548
  0
LINE
  8
0
  6
CONTINUOUS
 62
     7
 10
-120.007
 20
32.363998
 11
-76.007004
 21
32.363998
  0
LINE
  8
0
  6
CONTINUOUS
 62
     7
 10
-68.400787
 20
246.37134
 11
-68.400787
 21
219.37134
  0
LINE
  8
0
  6
CONTINUOUS
 62
     7
 10
-73.400787
 20
246.37134
 11
-73.400787
 21
219.37134
  0
LINE
  8
0
  6
CONTINUOUS
 62
     7
 10
-66.419968
 20
174.819
 11
-66.419968
 21
141.819
  0
LINE
  8
0
  6
CONTINUOUS
 62
     7
 10
-71.419968
 20
174.819
 11
-71.419968
 21
141.819
  0
LINE
  8
0
  6
CONTINUOUS
 62
     7
 10
-68.837837
 20
90.863998
 11
-68.837837
 21
49.863998
  0
LINE
  8
0
  6
CONTINUOUS
 62
     7
 10
-73.837837
 20
90.863998
 11
-73.837837
 21
49.863998
  0
ARC
  8
0
  6
CONTINUOUS
 62
     7
 10
-72.292664
 20
216.37134
 40
3
 50
89.999982
 51
179.99996
  0
ARC
  8
0
  6
CONTINUOUS
 62
     7
 10
-75.292664
 20
219.37134
 40
27
 50
89.999982
 51
179.99996
  0
ARC
  8
0
  6
CONTINUOUS
 62
     7
 10
-70.390739
 20
216.37134
 40
3
 50
30.000001
 51
90.000003
  0
ARC
  8
0
  6
CONTINUOUS
 62
     7
 10
-72.292664
 20
214.46941
 40
3
 50
179.99999
 51
240.00001
  0
ARC
  8
0
  6
CONTINUOUS
 62
     7
 10
-105.29266
 20
214.46941
 40
3
 50
300
 51
0
  0
ARC
  8
0
  6
CONTINUOUS
 62
     7
 10
-70.390739
 20
249.37134
 40
3
 50
270
 51
330
  0
ARC
  8
0
  6
CONTINUOUS
 62
     7
 10
-70.805664
 20
137.819
 40
4
 50
89.999982
 51
179.99996
  0
ARC
  8
0
  6
CONTINUOUS
 62
     7
 10
-74.805664
 20
141.819
 40
33
 50
89.999982
 51
179.99996
  0
ARC
  8
0
  6
CONTINUOUS
 62
     7
 10
-110.80566
 20
134.91708
 40
3
 50
300
 51
0
  0
ARC
  8
0
  6
CONTINUOUS
 62
     7
 10
-71.805664
 20
134.91708
 40
3
 50
179.99999
 51
240.00001
  0
ARC
  8
0
  6
CONTINUOUS
 62
     7
 10
-67.90374
 20
138.819
 40
3
 50
30.000001
 51
90.000003
  0
ARC
  8
0
  6
CONTINUOUS
 62
     7
 10
-67.90374
 20
177.819
 40
3
 50
270
 51
330
  0
ARC
  8
0
  6
CONTINUOUS
 62
     7
 10
-73.507004
 20
45.863998
 40
4
 50
89.999982
 51
179.99996
  0
ARC
  8
0
  6
CONTINUOUS
 62
     7
 10
-77.507004
 20
49.863998
 40
41
 50
89.999982
 51
179.99996
  0
ARC
  8
0
  6
CONTINUOUS
 62
     7
 10
-69.605087
 20
93.863998
 40
3
 50
270
 51
330
  0
ARC
  8
0
  6
CONTINUOUS
 62
     7
 10
-69.605087
 20
46.863998
 40
3
 50
30.000001
 51
90.000003
  0
ARC
  8
0
  6
CONTINUOUS
 62
     7
 10
-74.507004
 20
41.962082
 40
3
 50
179.99999
 51
240.00001
  0
ARC
  8
0
  6
CONTINUOUS
 62
     7
 10
-121.507
 20
41.962082
 40
3
 50
300
 51
0
  0
ARC
  8
0
  6
CONTINUOUS
 62
     7
 10
-90.305634
 20
66.056732
 40
2.4000001
 50
351.00832
 51
98.991673
  0
ARC
  8
0
  6
CONTINUOUS
 62
     7
 10
-90.305634
 20
66.056732
 40
3.5999999
 50
351.00832
 51
98.991673
  0
ARC
  8
0
  6
CONTINUOUS
 62
     7
 10
-93.699738
 20
62.662628
 40
2.4000001
 50
171.00833
 51
278.99167
  0
ARC
  8
0
  6
CONTINUOUS
 62
     7
 10
-93.699738
 20
62.662628
 40
3.5999999
 50
171.00833
 51
278.99167
  0
ARC
  8
0
  6
CONTINUOUS
 62
     7
 10
-89.667603
 20
62.024597
 40
7.6823077
 50
98.991673
 51
130.52056
  0
ARC
  8
0
  6
CONTINUOUS
 62
     7
 10
-89.667603
 20
62.024597
 40
6.4823079
 50
98.991673
 51
129.68912
  0
ARC
  8
0
  6
CONTINUOUS
 62
     7
 10
-94.337769
 20
66.694763
 40
6.4823079
 50
278.99167
 51
351.00832
  0
ARC
  8
0
  6
CONTINUOUS
 62
     7
 10
-94.337769
 20
66.694763
 40
7.6823077
 50
278.99167
 51
310.52055
  0
ARC
  8
0
  6
CONTINUOUS
 62
     7
 10
-95.927124
 20
68.284119
 40
0.75
 50
81.869899
 51
188.1301
  0
ARC
  8
0
  6
CONTINUOUS
 62
     7
 10
-92.320877
 20
64.677872
 40
0.75
 50
261.8699
 51
8.1301031
  0
ARC
  8
0
  6
CONTINUOUS
 62
     7
 10
-88.078247
 20
60.435242
 40
0.75
 50
261.8699
 51
8.1301031
  0
ARC
  8
0
  6
CONTINUOUS
 62
     7
 10
-89.667603
 20
62.024597
 40
6.4823079
 50
140.31088
 51
171.00833
  0
ARC
  8
0
  6
CONTINUOUS
 62
     7
 10
-89.667603
 20
62.024597
 40
7.6823077
 50
139.47946
 51
171.00833
  0
ARC
  8
0
  6
CONTINUOUS
 62
     7
 10
-94.337769
 20
66.694763
 40
7.6823077
 50
319.47945
 51
351.00832
  0
ARC
  8
0
  6
CONTINUOUS
 62
     7
 10
-85.200134
 20
154.75906
 40
1.8
 50
351.00832
 51
98.991673
  0
ARC
  8
0
  6
CONTINUOUS
 62
     7
 10
-85.200134
 20
154.75906
 40
2.7
 50
351.00832
 51
98.991673
  0
ARC
  8
0
  6
CONTINUOUS
 62
     7
 10
-87.74572
 20
152.21347
 40
1.8
 50
171.00833
 51
278.99167
  0
ARC
  8
0
  6
CONTINUOUS
 62
     7
 10
-87.74572
 20
152.21347
 40
2.7
 50
171.00833
 51
278.99167
  0
ARC
  8
0
  6
CONTINUOUS
 62
     7
 10
-84.721611
 20
151.73495
 40
5.7617307
 50
98.991673
 51
130.52056
  0
ARC
  8
0
  6
CONTINUOUS
 62
     7
 10
-84.721611
 20
151.73495
 40
4.8617306
 50
98.991673
 51
129.68912
  0
ARC
  8
0
  6
CONTINUOUS
 62
     7
 10
-88.224236
 20
155.23758
 40
4.8617306
 50
278.99167
 51
351.00832
  0
ARC
  8
0
  6
CONTINUOUS
 62
     7
 10
-88.224236
 20
155.23758
 40
5.7617307
 50
278.99167
 51
310.52055
  0
ARC
  8
0
  6
CONTINUOUS
 62
     7
 10
-89.41626
 20
156.4296
 40
0.5625
 50
81.869899
 51
188.1301
  0
ARC
  8
0
  6
CONTINUOUS
 62
     7
 10
-86.711571
 20
153.72491
 40
0.5625
 50
261.8699
 51
8.1301031
  0
ARC
  8
0
  6
CONTINUOUS
 62
     7
 10
-83.529594
 20
150.54294
 40
0.5625
 50
261.8699
 51
8.1301031
  0
ARC
  8
0
  6
CONTINUOUS
 62
     7
 10
-84.721611
 20
151.73495
 40
5.7617307
 50
139.47946
 51
171.00833
  0
ARC
  8
0
  6
CONTINUOUS
 62
     7
 10
-84.721611
 20
151.73495
 40
4.8617306
 50
140.31088
 51
171.00833
  0
ARC
  8
0
  6
CONTINUOUS
 62
     7
 10
-88.224236
 20
155.23758
 40
5.7617307
 50
319.47945
 51
351.00832
  0
ARC
  8
0
  6
CONTINUOUS
 62
     7
 10
-83.565811
 20
230.19008
 40
1.8
 50
351.00832
 51
98.991673
  0
ARC
  8
0
  6
CONTINUOUS
 62
     7
 10
-83.565811
 20
230.19008
 40
2.7
 50
351.00832
 51
98.991673
  0
ARC
  8
0
  6
CONTINUOUS
 62
     7
 10
-86.111397
 20
227.64449
 40
1.8
 50
171.00833
 51
278.99167
  0
ARC
  8
0
  6
CONTINUOUS
 62
     7
 10
-86.111397
 20
227.64449
 40
2.7
 50
171.00833
 51
278.99167
  0
ARC
  8
0
  6
CONTINUOUS
 62
     7
 10
-83.087296
 20
227.16597
 40
5.7617307
 50
98.991673
 51
130.52056
  0
ARC
  8
0
  6
CONTINUOUS
 62
     7
 10
-83.087296
 20
227.16597
 40
4.8617306
 50
98.991673
 51
129.68912
  0
ARC
  8
0
  6
CONTINUOUS
 62
     7
 10
-86.58992
 20
230.66859
 40
4.8617306
 50
278.99167
 51
351.00832
  0
ARC
  8
0
  6
CONTINUOUS
 62
     7
 10
-86.58992
 20
230.66859
 40
5.7617307
 50
278.99167
 51
310.52055
  0
ARC
  8
0
  6
CONTINUOUS
 62
     7
 10
-87.781937
 20
231.86061
 40
0.5625
 50
81.869899
 51
188.1301
  0
ARC
  8
0
  6
CONTINUOUS
 62
     7
 10
-85.077255
 20
229.15593
 40
0.5625
 50
261.8699
 51
8.1301031
  0
ARC
  8
0
  6
CONTINUOUS
 62
     7
 10
-81.895271
 20
225.97395
 40
0.5625
 50
261.8699
 51
8.1301031
  0
ARC
  8
0
  6
CONTINUOUS
 62
     7
 10
-83.087296
 20
227.16597
 40
5.7617307
 50
139.47946
 51
171.00833
  0
ARC
  8
0
  6
CONTINUOUS
 62
     7
 10
-83.087296
 20
227.16597
 40
4.8617306
 50
140.31088
 51
171.00833
  0
ARC
  8
0
  6
CONTINUOUS
 62
     7
 10
-86.58992
 20
230.66859
 40
5.7617307
 50
319.47945
 51
351.00832
  0
TEXT
  8
0
  6
CONTINUOUS
 62
     7
 10
-186.56013
 20
276.28214
 40
5
 41
0.84227241
  1
ＲＣＦ－Ｋ　ＡＬ（樹脂ねじ付き水栓エルボ）
  0
TEXT
  8
0
  6
CONTINUOUS
 62
     7
 10
-150.31747
 20
158.65247
 40
5
 41
1.0178573
  1
3/4
  0
TEXT
  8
0
  6
CONTINUOUS
 62
     7
 10
-143.9591
 20
79.172943
 40
5
 41
1.0714291
  1
1
  0
TEXT
  8
0
  6
CONTINUOUS
 62
     7
 10
-149.0458
 20
234.31696
 40
5
 41
1.0178573
  1
1/2
  0
TEXT
  8
0
  6
CONTINUOUS
 62
     7
 10
-69.296583
 20
219.94801
 40
3.2
 41
0.67915094
  1
１／２　器具側　１３
 50
90.000003
  0
TEXT
  8
0
  6
CONTINUOUS
 62
     7
 10
-67.141989
 20
142.83201
 40
3.2
 41
0.84447575
  1
３／４　器具側　２０
 50
90.000003
  0
TEXT
  8
0
  6
CONTINUOUS
 62
     7
 10
-69.757574
 20
54.659923
 40
3.2
 41
0.8449534
  1
１　　器具側　２５
 50
90.000003
  0
POINT
  8
1
  6
CONTINUOUS
 62
     7
 10
-210
 20
0
  0
POINT
  8
1
  6
CONTINUOUS
 62
     7
 10
0
 20
0
  0
POINT
  8
1
  6
CONTINUOUS
 62
     7
 10
0
 20
0
  0
POINT
  8
1
  6
CONTINUOUS
 62
     7
 10
-210
 20
297
  0
POINT
  8
1
  6
CONTINUOUS
 62
     7
 10
-210
 20
0
  0
POINT
  8
1
  6
CONTINUOUS
 62
     7
 10
0
 20
0
  0
POINT
  8
1
  6
CONTINUOUS
 62
     7
 10
0
 20
297
  0
LINE
  8
1
  6
CONTINUOUS
 62
     7
 10
-210
 20
0
 11
0
 21
0
  0
LINE
  8
1
  6
CONTINUOUS
 62
     7
 10
-210
 20
297
 11
0
 21
297
  0
LINE
  8
1
  6
CONTINUOUS
 62
     7
 10
0
 20
297
 11
0
 21
0
  0
LINE
  8
1
  6
CONTINUOUS
 62
     7
 10
-210
 20
297
 11
-210
 21
0
  0
ENDSEC
  0
EOF
