  0
SECTION
  2
HEADER
  9
$EXTMAX
 10
297.25922
 20
211.66544
  9
$EXTMIN
 10
-297.25922
 20
-210.82214
  0
ENDSEC
  0
SECTION
  2
TABLES
  0
TABLE
  2
LTYPE
 70
    22
  0
LTYPE
  2
CONTINUOUS
 70
    64
  3
Solid line
 72
    65
 73
     0
 40
0.000000
  0
LTYPE
  2
DASHED
 70
    64
  3
__ __ __ __ __ __ __ __ __ __ __ __ __ __ __
 72
    65
 73
     2
 40
3.500000
 49
2.000000
 49
-1.500000
  0
LTYPE
  2
CENTER
 70
    64
  3
____ _ ____ _ ____ _ ____ _ ____ _ ____ _ ____
 72
    65
 73
     4
 40
17.500000
 49
13.000000
 49
-1.500000
 49
1.500000
 49
-1.500000
  0
LTYPE
  2
PHANTOM
 70
    64
  3
_____ _ _ _____ _ _ _____ _ _ _____ _ _ ____  
 72
    65
 73
     6
 40
15.500000
 49
8.000000
 49
-1.500000
 49
1.500000
 49
-1.500000
 49
1.500000
 49
-1.500000
  0
LTYPE
  2
DOT
 70
    64
  3
. . . . . . . . . . . . . . . . . . . . . . . .
 72
    65
 73
     2
 40
0.25
 49
0.0
 49
-0.25
  0
ENDTAB
  0
TABLE
  2
LAYER
 70
     1
  0
LAYER
  2
0
 70
     0
 62
     7
  6
CONTINUOUS
  0
ENDTAB
  0
TABLE
  2
STYLE
 70
     1
  0
STYLE
  2
STANDARD
 70
     0
 40
0.000000
 41
1.000000
 50
0.000000
 71
     0
 42
0.200000
  3
txt
  4
BIGFONT
  0
ENDTAB
  0
TABLE
  2
VIEW
 70
     0
  0
ENDTAB
  0
ENDSEC
  0
SECTION
  2
BLOCKS
  0
ENDSEC
  0
SECTION
  2
ENTITIES
  0
POINT
  8
0
  6
CONTINUOUS
 62
     7
 10
-125.37047
 20
27.954624
  0
POINT
  8
0
  6
CONTINUOUS
 62
     7
 10
-297
 20
-210
  0
POINT
  8
0
  6
CONTINUOUS
 62
     7
 10
297
 20
-210
  0
POINT
  8
0
  6
CONTINUOUS
 62
     7
 10
-297
 20
210
  0
POINT
  8
0
  6
CONTINUOUS
 62
     7
 10
297
 20
210
  0
POINT
  8
0
  6
CONTINUOUS
 62
     7
 10
-260.87222
 20
140.79535
  0
POINT
  8
0
  6
CONTINUOUS
 62
     7
 10
-210.65729
 20
136.63005
  0
POINT
  8
0
  6
CONTINUOUS
 62
     7
 10
-158.24399
 20
134.77881
  0
POINT
  8
0
  6
CONTINUOUS
 62
     7
 10
-100.85546
 20
132.92757
  0
POINT
  8
0
  6
CONTINUOUS
 62
     7
 10
-38.723137
 20
131.77054
  0
POINT
  8
0
  6
CONTINUOUS
 62
     7
 10
26.764566
 20
131.07632
  0
POINT
  8
0
  6
CONTINUOUS
 62
     7
 10
91.326645
 20
128.76227
  0
POINT
  8
0
  6
CONTINUOUS
 62
     7
 10
159.0127
 20
126.91103
  0
POINT
  8
0
  6
CONTINUOUS
 62
     7
 10
235.37645
 20
126.91103
  0
POINT
  8
0
  6
CONTINUOUS
 62
     7
 10
-242.0891
 20
20.252905
  0
POINT
  8
0
  6
CONTINUOUS
 62
     7
 10
-160.45476
 20
18.509087
  0
POINT
  8
0
  6
CONTINUOUS
 62
     7
 10
-71.426399
 20
23.159269
  0
POINT
  8
0
  6
CONTINUOUS
 62
     7
 10
18.345764
 20
20.252905
  0
POINT
  8
0
  6
CONTINUOUS
 62
     7
 10
109.0932
 20
17.346542
  0
POINT
  8
0
  6
CONTINUOUS
 62
     7
 10
206.535
 20
13.277634
  0
POINT
  8
0
  6
CONTINUOUS
 62
     7
 10
-227.78874
 20
-116.34616
  0
POINT
  8
0
  6
CONTINUOUS
 62
     7
 10
-127.22858
 20
-119.25253
  0
POINT
  8
0
  6
CONTINUOUS
 62
     7
 10
-21.436956
 20
-122.15889
  0
POINT
  8
0
  6
CONTINUOUS
 62
     7
 10
89.004845
 20
-126.2278
  0
POINT
  8
0
  6
CONTINUOUS
 62
     7
 10
202.06236
 20
-130.29671
  0
LINE
  8
0
  6
CONTINUOUS
 62
     7
 10
287
 20
200
 11
287
 21
-200
  0
LINE
  8
0
  6
CONTINUOUS
 62
     7
 10
-287
 20
200
 11
287
 21
200
  0
LINE
  8
0
  6
CONTINUOUS
 62
     7
 10
-287
 20
200
 11
-287
 21
-200
  0
LINE
  8
0
  6
CONTINUOUS
 62
     7
 10
-287
 20
-200
 11
287
 21
-200
  0
LINE
  8
0
  6
CONTINUOUS
 62
     7
 10
-272.37222
 20
160.79536
 11
-272.37222
 21
120.79536
  0
LINE
  8
0
  6
CENTER
 62
     7
 10
-260.87222
 20
163.79536
 11
-260.87222
 21
117.79536
  0
LINE
  8
0
  6
CENTER
 62
     7
 10
-275.37222
 20
140.79535
 11
-235.87224
 21
140.79535
  0
LINE
  8
0
  6
CONTINUOUS
 62
     7
 10
-249.37222
 20
128.29535
 11
-249.37222
 21
120.79536
  0
LINE
  8
0
  6
CONTINUOUS
 62
     7
 10
-246.37222
 20
131.29535
 11
-238.87224
 21
131.29535
  0
LINE
  8
0
  6
CONTINUOUS
 62
     7
 10
-246.37222
 20
150.29535
 11
-238.87224
 21
150.29535
  0
LINE
  8
0
  6
CONTINUOUS
 62
     7
 10
-249.37222
 20
153.29535
 11
-249.37222
 21
160.79533
  0
LINE
  8
0
  6
CONTINUOUS
 62
     7
 10
-238.87224
 20
150.29535
 11
-238.87224
 21
131.29535
  0
LINE
  8
0
  6
CONTINUOUS
 62
     7
 10
-272.37222
 20
120.79536
 11
-249.37222
 21
120.79536
  0
LINE
  8
0
  6
CONTINUOUS
 62
     7
 10
-272.37222
 20
160.79536
 11
-249.37222
 21
160.79536
  0
LINE
  8
0
  6
CONTINUOUS
 62
     7
 10
-224.15729
 20
160.63004
 11
-224.15729
 21
112.63006
  0
LINE
  8
0
  6
CONTINUOUS
 62
     7
 10
-197.15729
 20
124.13005
 11
-197.15729
 21
112.63006
  0
LINE
  8
0
  6
CONTINUOUS
 62
     7
 10
-194.15729
 20
127.13005
 11
-186.65729
 21
127.13005
  0
LINE
  8
0
  6
CONTINUOUS
 62
     7
 10
-194.15729
 20
146.13005
 11
-186.65729
 21
146.13005
  0
LINE
  8
0
  6
CONTINUOUS
 62
     7
 10
-197.15729
 20
149.13005
 11
-197.15729
 21
160.63004
  0
LINE
  8
0
  6
CENTER
 62
     7
 10
-210.65729
 20
163.63004
 11
-210.65729
 21
109.63006
  0
LINE
  8
0
  6
CENTER
 62
     7
 10
-227.15729
 20
136.63005
 11
-183.65729
 21
136.63005
  0
LINE
  8
0
  6
CONTINUOUS
 62
     7
 10
-224.15729
 20
112.63006
 11
-197.15729
 21
112.63006
  0
LINE
  8
0
  6
CONTINUOUS
 62
     7
 10
-224.15729
 20
160.63004
 11
-197.15729
 21
160.63004
  0
LINE
  8
0
  6
CONTINUOUS
 62
     7
 10
-186.65729
 20
146.13005
 11
-186.65729
 21
127.13005
  0
LINE
  8
0
  6
CONTINUOUS
 62
     7
 10
-171.74397
 20
160.77879
 11
-171.74397
 21
108.77882
  0
LINE
  8
0
  6
CONTINUOUS
 62
     7
 10
-144.74396
 20
120.27881
 11
-144.74396
 21
108.77882
  0
LINE
  8
0
  6
CONTINUOUS
 62
     7
 10
-141.74396
 20
123.27881
 11
-133.24399
 21
123.27881
  0
LINE
  8
0
  6
CONTINUOUS
 62
     7
 10
-141.74396
 20
146.27881
 11
-133.24399
 21
146.27881
  0
LINE
  8
0
  6
CONTINUOUS
 62
     7
 10
-144.74396
 20
149.27881
 11
-144.74396
 21
160.77879
  0
LINE
  8
0
  6
CENTER
 62
     7
 10
-158.24399
 20
163.77879
 11
-158.24399
 21
105.77882
  0
LINE
  8
0
  6
CENTER
 62
     7
 10
-174.74397
 20
134.77881
 11
-130.24397
 21
134.77881
  0
LINE
  8
0
  6
CONTINUOUS
 62
     7
 10
-171.74397
 20
108.77882
 11
-144.74396
 21
108.77882
  0
LINE
  8
0
  6
CONTINUOUS
 62
     7
 10
-171.74397
 20
160.77879
 11
-144.74396
 21
160.77879
  0
LINE
  8
0
  6
CONTINUOUS
 62
     7
 10
-133.24397
 20
146.27881
 11
-133.24397
 21
123.27881
  0
LINE
  8
0
  6
CONTINUOUS
 62
     7
 10
-117.35545
 20
160.92755
 11
-117.35545
 21
104.92757
  0
LINE
  8
0
  6
CONTINUOUS
 62
     7
 10
-84.355461
 20
117.92756
 11
-84.355461
 21
104.92757
  0
LINE
  8
0
  6
CENTER
 62
     7
 10
-100.85546
 20
163.92755
 11
-100.85546
 21
101.92757
  0
LINE
  8
0
  6
CONTINUOUS
 62
     7
 10
-80.855461
 20
121.42756
 11
-72.855469
 21
121.42756
  0
LINE
  8
0
  6
CONTINUOUS
 62
     7
 10
-80.855461
 20
144.42757
 11
-72.855469
 21
144.42757
  0
LINE
  8
0
  6
CONTINUOUS
 62
     7
 10
-84.355461
 20
147.92757
 11
-84.355461
 21
160.92755
  0
LINE
  8
0
  6
CENTER
 62
     7
 10
-120.35545
 20
132.92757
 11
-69.855453
 21
132.92757
  0
LINE
  8
0
  6
CONTINUOUS
 62
     7
 10
-117.35545
 20
104.92757
 11
-84.355461
 21
104.92757
  0
LINE
  8
0
  6
CONTINUOUS
 62
     7
 10
-117.35545
 20
160.92755
 11
-84.355461
 21
160.92755
  0
LINE
  8
0
  6
CONTINUOUS
 62
     7
 10
-72.855453
 20
144.42757
 11
-72.855453
 21
121.42756
  0
LINE
  8
0
  6
CONTINUOUS
 62
     7
 10
-55.223129
 20
160.77052
 11
-55.223129
 21
102.77056
  0
LINE
  8
0
  6
CENTER
 62
     7
 10
-58.223129
 20
131.77054
 11
-5.7231321
 21
131.77054
  0
LINE
  8
0
  6
CENTER
 62
     7
 10
-38.723137
 20
163.77052
 11
-38.723137
 21
99.770561
  0
LINE
  8
0
  6
CONTINUOUS
 62
     7
 10
-22.223131
 20
148.77054
 11
-22.223131
 21
160.77052
  0
LINE
  8
0
  6
CONTINUOUS
 62
     7
 10
-18.723131
 20
145.27054
 11
-8.7231379
 21
145.27054
  0
LINE
  8
0
  6
CONTINUOUS
 62
     7
 10
-18.723131
 20
118.27055
 11
-8.7231379
 21
118.27055
  0
LINE
  8
0
  6
CONTINUOUS
 62
     7
 10
-22.223131
 20
114.77055
 11
-22.223131
 21
102.77056
  0
LINE
  8
0
  6
CONTINUOUS
 62
     7
 10
-55.223129
 20
102.77056
 11
-22.223131
 21
102.77056
  0
LINE
  8
0
  6
CONTINUOUS
 62
     7
 10
-55.223129
 20
160.77052
 11
-22.223131
 21
160.77052
  0
LINE
  8
0
  6
CONTINUOUS
 62
     7
 10
-8.723134
 20
145.27054
 11
-8.723134
 21
118.27055
  0
LINE
  8
0
  6
CONTINUOUS
 62
     7
 10
6.2645617
 20
161.07631
 11
6.2645617
 21
101.07634
  0
LINE
  8
0
  6
CONTINUOUS
 62
     7
 10
47.264572
 20
116.07632
 11
47.264572
 21
101.07634
  0
LINE
  8
0
  6
CENTER
 62
     7
 10
26.764566
 20
164.07631
 11
26.764566
 21
98.07634
  0
LINE
  8
0
  6
CONTINUOUS
 62
     7
 10
50.764572
 20
119.57632
 11
57.764565
 21
119.57632
  0
LINE
  8
0
  6
CONTINUOUS
 62
     7
 10
50.764572
 20
142.57632
 11
57.764565
 21
142.57632
  0
LINE
  8
0
  6
CONTINUOUS
 62
     7
 10
47.264572
 20
146.07632
 11
47.264572
 21
161.07631
  0
LINE
  8
0
  6
CENTER
 62
     7
 10
3.2645619
 20
131.07632
 11
60.764572
 21
131.07632
  0
LINE
  8
0
  6
CONTINUOUS
 62
     7
 10
6.2645617
 20
101.07634
 11
47.264572
 21
101.07634
  0
LINE
  8
0
  6
CONTINUOUS
 62
     7
 10
6.2645617
 20
161.07631
 11
47.264572
 21
161.07631
  0
LINE
  8
0
  6
CONTINUOUS
 62
     7
 10
57.764565
 20
142.57632
 11
57.764565
 21
119.57632
  0
LINE
  8
0
  6
CENTER
 62
     7
 10
91.326645
 20
163.76225
 11
91.326645
 21
93.762283
  0
LINE
  8
0
  6
CENTER
 62
     7
 10
67.826645
 20
128.76227
 11
127.32664
 21
128.76227
  0
LINE
  8
0
  6
CONTINUOUS
 62
     7
 10
70.826645
 20
160.76225
 11
70.826645
 21
96.762283
  0
LINE
  8
0
  6
CONTINUOUS
 62
     7
 10
111.82666
 20
111.76227
 11
111.82666
 21
96.762283
  0
LINE
  8
0
  6
CONTINUOUS
 62
     7
 10
115.32666
 20
115.26227
 11
124.32664
 21
115.26227
  0
LINE
  8
0
  6
CONTINUOUS
 62
     7
 10
115.32666
 20
142.26227
 11
124.32664
 21
142.26227
  0
LINE
  8
0
  6
CONTINUOUS
 62
     7
 10
111.82666
 20
145.76227
 11
111.82666
 21
160.76225
  0
LINE
  8
0
  6
CONTINUOUS
 62
     7
 10
70.826645
 20
96.762283
 11
111.82666
 21
96.762283
  0
LINE
  8
0
  6
CONTINUOUS
 62
     7
 10
70.826645
 20
160.76225
 11
111.82666
 21
160.76225
  0
LINE
  8
0
  6
CONTINUOUS
 62
     7
 10
124.32664
 20
142.26227
 11
124.32664
 21
115.26227
  0
LINE
  8
0
  6
CONTINUOUS
 62
     7
 10
138.5127
 20
160.91101
 11
138.5127
 21
92.911034
  0
LINE
  8
0
  6
CONTINUOUS
 62
     7
 10
179.5127
 20
106.91102
 11
179.5127
 21
92.911034
  0
LINE
  8
0
  6
CENTER
 62
     7
 10
159.0127
 20
163.91101
 11
159.0127
 21
89.911034
  0
LINE
  8
0
  6
CONTINUOUS
 62
     7
 10
183.0127
 20
110.41102
 11
194.0127
 21
110.41102
  0
LINE
  8
0
  6
CONTINUOUS
 62
     7
 10
183.0127
 20
143.41103
 11
194.0127
 21
143.41103
  0
LINE
  8
0
  6
CONTINUOUS
 62
     7
 10
179.5127
 20
146.91103
 11
179.5127
 21
160.91101
  0
LINE
  8
0
  6
CENTER
 62
     7
 10
135.5127
 20
126.91103
 11
197.0127
 21
126.91103
  0
LINE
  8
0
  6
CONTINUOUS
 62
     7
 10
138.5127
 20
160.91101
 11
179.5127
 21
160.91101
  0
LINE
  8
0
  6
CONTINUOUS
 62
     7
 10
138.5127
 20
92.911034
 11
179.5127
 21
92.911034
  0
LINE
  8
0
  6
CONTINUOUS
 62
     7
 10
194.0127
 20
143.41103
 11
194.0127
 21
110.41102
  0
LINE
  8
0
  6
CONTINUOUS
 62
     7
 10
210.37645
 20
160.91101
 11
210.37645
 21
92.911041
  0
LINE
  8
0
  6
CENTER
 62
     7
 10
207.37645
 20
126.91103
 11
276.37646
 21
126.91103
  0
LINE
  8
0
  6
CENTER
 62
     7
 10
235.37645
 20
163.91101
 11
235.37645
 21
89.911041
  0
LINE
  8
0
  6
CONTINUOUS
 62
     7
 10
260.37646
 20
144.41103
 11
260.37646
 21
160.91101
  0
LINE
  8
0
  6
CONTINUOUS
 62
     7
 10
264.37646
 20
140.41103
 11
273.37646
 21
140.41103
  0
LINE
  8
0
  6
CONTINUOUS
 62
     7
 10
264.37646
 20
113.41103
 11
273.37646
 21
113.41103
  0
LINE
  8
0
  6
CONTINUOUS
 62
     7
 10
260.37646
 20
109.41103
 11
260.37646
 21
92.911041
  0
LINE
  8
0
  6
CONTINUOUS
 62
     7
 10
210.37645
 20
92.911041
 11
260.37646
 21
92.911041
  0
LINE
  8
0
  6
CONTINUOUS
 62
     7
 10
210.37645
 20
160.91101
 11
260.37646
 21
160.91101
  0
LINE
  8
0
  6
CONTINUOUS
 62
     7
 10
273.37646
 20
140.41103
 11
273.37646
 21
113.41103
  0
LINE
  8
0
  6
CONTINUOUS
 62
     7
 10
-267.08911
 20
58.252892
 11
-267.08911
 21
-17.74708
  0
LINE
  8
0
  6
CONTINUOUS
 62
     7
 10
-217.0891
 20
-0.24709459
 11
-217.0891
 21
-17.74708
  0
LINE
  8
0
  6
CONTINUOUS
 62
     7
 10
-213.0891
 20
3.7529054
 11
-202.0891
 21
3.7529054
  0
LINE
  8
0
  6
CONTINUOUS
 62
     7
 10
-213.0891
 20
36.752907
 11
-202.0891
 21
36.752907
  0
LINE
  8
0
  6
CONTINUOUS
 62
     7
 10
-217.0891
 20
40.752907
 11
-217.0891
 21
58.252892
  0
LINE
  8
0
  6
CENTER
 62
     7
 10
-242.0891
 20
61.252892
 11
-242.0891
 21
-20.74708
  0
LINE
  8
0
  6
CENTER
 62
     7
 10
-270.08911
 20
20.252905
 11
-199.0891
 21
20.252905
  0
LINE
  8
0
  6
CONTINUOUS
 62
     7
 10
-267.08911
 20
58.252892
 11
-217.0891
 21
58.252892
  0
LINE
  8
0
  6
CONTINUOUS
 62
     7
 10
-267.08911
 20
-17.74708
 11
-217.0891
 21
-17.74708
  0
LINE
  8
0
  6
CONTINUOUS
 62
     7
 10
-202.0891
 20
36.752907
 11
-202.0891
 21
3.7529054
  0
LINE
  8
0
  6
CONTINUOUS
 62
     7
 10
-185.45473
 20
58.509071
 11
-185.45473
 21
-21.490898
  0
LINE
  8
0
  6
CONTINUOUS
 62
     7
 10
-135.45473
 20
-5.9909124
 11
-135.45473
 21
-21.490898
  0
LINE
  8
0
  6
CONTINUOUS
 62
     7
 10
-131.45473
 20
-1.9909124
 11
-118.45475
 21
-1.9909124
  0
LINE
  8
0
  6
CONTINUOUS
 62
     7
 10
-131.45473
 20
39.009087
 11
-118.45475
 21
39.009087
  0
LINE
  8
0
  6
CONTINUOUS
 62
     7
 10
-135.45473
 20
43.009087
 11
-135.45473
 21
58.509071
  0
LINE
  8
0
  6
CENTER
 62
     7
 10
-188.45473
 20
18.509087
 11
-115.45475
 21
18.509087
  0
LINE
  8
0
  6
CENTER
 62
     7
 10
-160.45476
 20
61.509071
 11
-160.45476
 21
-24.490898
  0
LINE
  8
0
  6
CONTINUOUS
 62
     7
 10
-185.45473
 20
58.509071
 11
-135.45473
 21
58.509071
  0
LINE
  8
0
  6
CONTINUOUS
 62
     7
 10
-185.45473
 20
-21.490898
 11
-135.45473
 21
-21.490898
  0
LINE
  8
0
  6
CONTINUOUS
 62
     7
 10
-118.45475
 20
39.009087
 11
-118.45475
 21
-1.9909124
  0
LINE
  8
0
  6
CONTINUOUS
 62
     7
 10
-99.426369
 20
58.159252
 11
-99.426369
 21
-11.840716
  0
LINE
  8
0
  6
CONTINUOUS
 62
     7
 10
-43.42638
 20
5.6592684
 11
-43.42638
 21
-11.840716
  0
LINE
  8
0
  6
CONTINUOUS
 62
     7
 10
-39.42638
 20
9.6592684
 11
-29.426403
 21
9.6592684
  0
LINE
  8
0
  6
CONTINUOUS
 62
     7
 10
-39.42638
 20
36.659267
 11
-29.426403
 21
36.659267
  0
LINE
  8
0
  6
CONTINUOUS
 62
     7
 10
-43.42638
 20
40.659267
 11
-43.42638
 21
58.159252
  0
LINE
  8
0
  6
CENTER
 62
     7
 10
-102.42637
 20
23.159269
 11
-26.426399
 21
23.159269
  0
LINE
  8
0
  6
CENTER
 62
     7
 10
-71.426399
 20
61.159252
 11
-71.426399
 21
-14.840716
  0
LINE
  8
0
  6
CONTINUOUS
 62
     7
 10
-99.426369
 20
-11.840716
 11
-43.42638
 21
-11.840716
  0
LINE
  8
0
  6
CONTINUOUS
 62
     7
 10
-99.426369
 20
58.159252
 11
-43.42638
 21
58.159252
  0
LINE
  8
0
  6
CONTINUOUS
 62
     7
 10
-29.426399
 20
36.659267
 11
-29.426399
 21
9.6592684
  0
LINE
  8
0
  6
CONTINUOUS
 62
     7
 10
-9.6542053
 20
58.252892
 11
-9.6542053
 21
-17.74708
  0
LINE
  8
0
  6
CENTER
 62
     7
 10
18.345764
 20
61.252892
 11
18.345764
 21
-20.74708
  0
LINE
  8
0
  6
CONTINUOUS
 62
     7
 10
46.345787
 20
-1.2470946
 11
46.345787
 21
-17.74708
  0
LINE
  8
0
  6
CONTINUOUS
 62
     7
 10
51.345787
 20
3.7529054
 11
61.345764
 21
3.7529054
  0
LINE
  8
0
  6
CONTINUOUS
 62
     7
 10
51.345787
 20
36.752907
 11
61.345764
 21
36.752907
  0
LINE
  8
0
  6
CONTINUOUS
 62
     7
 10
46.345787
 20
41.752907
 11
46.345787
 21
58.252892
  0
LINE
  8
0
  6
CENTER
 62
     7
 10
-12.654205
 20
20.252905
 11
64.345764
 21
20.252905
  0
LINE
  8
0
  6
CONTINUOUS
 62
     7
 10
-9.6542053
 20
58.252892
 11
46.345787
 21
58.252892
  0
LINE
  8
0
  6
CONTINUOUS
 62
     7
 10
-9.6542053
 20
-17.74708
 11
46.345787
 21
-17.74708
  0
LINE
  8
0
  6
CONTINUOUS
 62
     7
 10
61.345768
 20
36.752907
 11
61.345768
 21
3.7529054
  0
LINE
  8
0
  6
CONTINUOUS
 62
     7
 10
81.093231
 20
58.346527
 11
81.093231
 21
-23.653442
  0
LINE
  8
0
  6
CONTINUOUS
 62
     7
 10
137.09323
 20
-8.1534576
 11
137.09323
 21
-23.653442
  0
LINE
  8
0
  6
CONTINUOUS
 62
     7
 10
142.09323
 20
-3.1534576
 11
154.0932
 21
-3.1534576
  0
LINE
  8
0
  6
CONTINUOUS
 62
     7
 10
142.09323
 20
37.846542
 11
154.0932
 21
37.846542
  0
LINE
  8
0
  6
CONTINUOUS
 62
     7
 10
137.09323
 20
42.846542
 11
137.09323
 21
58.346527
  0
LINE
  8
0
  6
CENTER
 62
     7
 10
78.093231
 20
17.346542
 11
157.0932
 21
17.346542
  0
LINE
  8
0
  6
CENTER
 62
     7
 10
109.0932
 20
61.346527
 11
109.0932
 21
-26.653442
  0
LINE
  8
0
  6
CONTINUOUS
 62
     7
 10
81.093231
 20
-23.653442
 11
137.09323
 21
-23.653442
  0
LINE
  8
0
  6
CONTINUOUS
 62
     7
 10
81.093231
 20
58.346527
 11
137.09323
 21
58.346527
  0
LINE
  8
0
  6
CONTINUOUS
 62
     7
 10
154.0932
 20
37.846542
 11
154.0932
 21
-3.1534576
  0
LINE
  8
0
  6
CONTINUOUS
 62
     7
 10
178.53503
 20
58.277618
 11
178.53503
 21
-31.722351
  0
LINE
  8
0
  6
CONTINUOUS
 62
     7
 10
234.53502
 20
-16.722366
 11
234.53502
 21
-31.722351
  0
LINE
  8
0
  6
CONTINUOUS
 62
     7
 10
239.53502
 20
-11.722366
 11
254.535
 21
-11.722366
  0
LINE
  8
0
  6
CONTINUOUS
 62
     7
 10
239.53502
 20
38.277634
 11
254.535
 21
38.277634
  0
LINE
  8
0
  6
CONTINUOUS
 62
     7
 10
234.53502
 20
43.277634
 11
234.53502
 21
58.277618
  0
LINE
  8
0
  6
CENTER
 62
     7
 10
206.535
 20
61.277618
 11
206.535
 21
-34.722351
  0
LINE
  8
0
  6
CENTER
 62
     7
 10
175.53503
 20
13.277634
 11
257.535
 21
13.277634
  0
LINE
  8
0
  6
CONTINUOUS
 62
     7
 10
178.53503
 20
58.277618
 11
234.53502
 21
58.277618
  0
LINE
  8
0
  6
CONTINUOUS
 62
     7
 10
178.53503
 20
-31.722351
 11
234.53502
 21
-31.722351
  0
LINE
  8
0
  6
CONTINUOUS
 62
     7
 10
254.535
 20
38.277634
 11
254.535
 21
-11.722366
  0
LINE
  8
0
  6
CONTINUOUS
 62
     7
 10
-262.28873
 20
-78.346176
 11
-262.28873
 21
-154.34615
  0
LINE
  8
0
  6
CONTINUOUS
 62
     7
 10
-193.28873
 20
-134.84616
 11
-193.28873
 21
-154.34615
  0
LINE
  8
0
  6
CONTINUOUS
 62
     7
 10
-188.28873
 20
-129.84616
 11
-179.78874
 21
-129.84616
  0
LINE
  8
0
  6
CONTINUOUS
 62
     7
 10
-188.28873
 20
-102.84616
 11
-179.78874
 21
-102.84616
  0
LINE
  8
0
  6
CONTINUOUS
 62
     7
 10
-193.28873
 20
-97.846161
 11
-193.28873
 21
-78.346176
  0
LINE
  8
0
  6
CENTER
 62
     7
 10
-227.78874
 20
-75.346176
 11
-227.78874
 21
-157.34615
  0
LINE
  8
0
  6
CENTER
 62
     7
 10
-265.28873
 20
-116.34616
 11
-176.78874
 21
-116.34616
  0
LINE
  8
0
  6
CONTINUOUS
 62
     7
 10
-262.28873
 20
-78.346176
 11
-193.28873
 21
-78.346176
  0
LINE
  8
0
  6
CONTINUOUS
 62
     7
 10
-262.28873
 20
-154.34615
 11
-193.28873
 21
-154.34615
  0
LINE
  8
0
  6
CONTINUOUS
 62
     7
 10
-179.78874
 20
-102.84616
 11
-179.78874
 21
-129.84616
  0
LINE
  8
0
  6
CONTINUOUS
 62
     7
 10
-161.72855
 20
-78.252541
 11
-161.72855
 21
-160.2525
  0
LINE
  8
0
  6
CONTINUOUS
 62
     7
 10
-92.728554
 20
-141.75252
 11
-92.728554
 21
-160.2525
  0
LINE
  8
0
  6
CONTINUOUS
 62
     7
 10
-86.728554
 20
-135.75252
 11
-78.228577
 21
-135.75252
  0
LINE
  8
0
  6
CONTINUOUS
 62
     7
 10
-86.728554
 20
-102.75253
 11
-78.228577
 21
-102.75253
  0
LINE
  8
0
  6
CONTINUOUS
 62
     7
 10
-92.728554
 20
-96.752525
 11
-92.728554
 21
-78.252541
  0
LINE
  8
0
  6
CENTER
 62
     7
 10
-127.22858
 20
-75.252541
 11
-127.22858
 21
-163.2525
  0
LINE
  8
0
  6
CENTER
 62
     7
 10
-164.72855
 20
-119.25253
 11
-75.228569
 21
-119.25253
  0
LINE
  8
0
  6
CONTINUOUS
 62
     7
 10
-78.228569
 20
-102.75253
 11
-78.228569
 21
-135.75252
  0
LINE
  8
0
  6
CONTINUOUS
 62
     7
 10
-161.72855
 20
-160.2525
 11
-92.728554
 21
-160.2525
  0
LINE
  8
0
  6
CONTINUOUS
 62
     7
 10
-161.72855
 20
-78.252541
 11
-92.728554
 21
-78.252541
  0
LINE
  8
0
  6
CONTINUOUS
 62
     7
 10
-55.936958
 20
-78.158905
 11
-55.936958
 21
-166.15887
  0
LINE
  8
0
  6
CONTINUOUS
 62
     7
 10
13.063051
 20
-148.65889
 11
13.063051
 21
-166.15887
  0
LINE
  8
0
  6
CONTINUOUS
 62
     7
 10
19.063051
 20
-142.65889
 11
29.563044
 21
-142.65889
  0
LINE
  8
0
  6
CONTINUOUS
 62
     7
 10
19.063051
 20
-101.65889
 11
29.563044
 21
-101.65889
  0
LINE
  8
0
  6
CONTINUOUS
 62
     7
 10
13.063051
 20
-95.65889
 11
13.063051
 21
-78.158905
  0
LINE
  8
0
  6
CENTER
 62
     7
 10
-21.436956
 20
-75.158897
 11
-21.436956
 21
-169.15887
  0
LINE
  8
0
  6
CENTER
 62
     7
 10
-58.936958
 20
-122.15889
 11
32.563046
 21
-122.15889
  0
LINE
  8
0
  6
CONTINUOUS
 62
     7
 10
-55.936958
 20
-78.158897
 11
13.063051
 21
-78.158897
  0
LINE
  8
0
  6
CONTINUOUS
 62
     7
 10
-55.936958
 20
-166.15887
 11
13.063051
 21
-166.15887
  0
LINE
  8
0
  6
CONTINUOUS
 62
     7
 10
29.563047
 20
-101.65889
 11
29.563047
 21
-142.65889
  0
LINE
  8
0
  6
CENTER
 62
     7
 10
89.004845
 20
-75.227776
 11
89.004845
 21
-177.22781
  0
LINE
  8
0
  6
CONTINUOUS
 62
     7
 10
54.504848
 20
-174.2278
 11
54.504848
 21
-78.227798
  0
LINE
  8
0
  6
CENTER
 62
     7
 10
146.00485
 20
-126.2278
 11
51.504848
 21
-126.2278
  0
LINE
  8
0
  6
CONTINUOUS
 62
     7
 10
123.50484
 20
-157.2278
 11
123.50484
 21
-174.2278
  0
LINE
  8
0
  6
CONTINUOUS
 62
     7
 10
129.50484
 20
-151.2278
 11
143.00484
 21
-151.2278
  0
LINE
  8
0
  6
CONTINUOUS
 62
     7
 10
129.50484
 20
-101.2278
 11
143.00484
 21
-101.2278
  0
LINE
  8
0
  6
CONTINUOUS
 62
     7
 10
123.50484
 20
-95.227798
 11
123.50484
 21
-78.227798
  0
LINE
  8
0
  6
CONTINUOUS
 62
     7
 10
123.50484
 20
-78.227776
 11
54.504848
 21
-78.227776
  0
LINE
  8
0
  6
CONTINUOUS
 62
     7
 10
123.50484
 20
-174.22781
 11
54.504848
 21
-174.22781
  0
LINE
  8
0
  6
CONTINUOUS
 62
     7
 10
143.00485
 20
-101.2278
 11
143.00485
 21
-151.2278
  0
LINE
  8
0
  6
CONTINUOUS
 62
     7
 10
167.56236
 20
-182.29671
 11
167.56236
 21
-78.296707
  0
LINE
  8
0
  6
CONTINUOUS
 62
     7
 10
236.56236
 20
-164.29672
 11
236.56236
 21
-182.29671
  0
LINE
  8
0
  6
CONTINUOUS
 62
     7
 10
242.56236
 20
-158.29672
 11
257.06235
 21
-158.29672
  0
LINE
  8
0
  6
CONTINUOUS
 62
     7
 10
242.56236
 20
-102.29677
 11
257.06235
 21
-102.29677
  0
LINE
  8
0
  6
CONTINUOUS
 62
     7
 10
236.56236
 20
-96.296768
 11
236.56236
 21
-78.296707
  0
LINE
  8
0
  6
CENTER
 62
     7
 10
202.06236
 20
-75.296707
 11
202.06236
 21
-185.29669
  0
LINE
  8
0
  6
CENTER
 62
     7
 10
260.06238
 20
-130.29671
 11
164.56236
 21
-130.29671
  0
LINE
  8
0
  6
CONTINUOUS
 62
     7
 10
236.56236
 20
-78.296707
 11
167.56236
 21
-78.296707
  0
LINE
  8
0
  6
CONTINUOUS
 62
     7
 10
236.56236
 20
-182.29669
 11
167.56236
 21
-182.29669
  0
LINE
  8
0
  6
CONTINUOUS
 62
     7
 10
257.06238
 20
-102.29677
 11
257.06238
 21
-158.29672
  0
LINE
  8
0
  6
CONTINUOUS
 62
     7
 10
-265.37222
 20
141.24535
 11
-264.13962
 21
141.24535
  0
LINE
  8
0
  6
CONTINUOUS
 62
     7
 10
-265.37222
 20
140.34535
 11
-264.13962
 21
140.34535
  0
LINE
  8
0
  6
CONTINUOUS
 62
     7
 10
-257.60483
 20
140.34535
 11
-256.37222
 21
140.34535
  0
LINE
  8
0
  6
CONTINUOUS
 62
     7
 10
-257.60483
 20
141.24535
 11
-256.37222
 21
141.24535
  0
LINE
  8
0
  6
CONTINUOUS
 62
     7
 10
-263.23636
 20
140.34535
 11
-260.87222
 21
140.34535
  0
LINE
  8
0
  6
CONTINUOUS
 62
     7
 10
-263.23636
 20
141.24535
 11
-260.87222
 21
141.24535
  0
LINE
  8
0
  6
CONTINUOUS
 62
     7
 10
-215.15729
 20
137.08005
 11
-213.92468
 21
137.08005
  0
LINE
  8
0
  6
CONTINUOUS
 62
     7
 10
-215.15729
 20
136.18005
 11
-213.92468
 21
136.18005
  0
LINE
  8
0
  6
CONTINUOUS
 62
     7
 10
-207.38989
 20
136.18005
 11
-206.15729
 21
136.18005
  0
LINE
  8
0
  6
CONTINUOUS
 62
     7
 10
-207.38989
 20
137.08005
 11
-206.15729
 21
137.08005
  0
LINE
  8
0
  6
CONTINUOUS
 62
     7
 10
-213.02142
 20
136.18005
 11
-210.65729
 21
136.18005
  0
LINE
  8
0
  6
CONTINUOUS
 62
     7
 10
-213.02142
 20
137.08005
 11
-210.65729
 21
137.08005
  0
LINE
  8
0
  6
CONTINUOUS
 62
     7
 10
-162.74399
 20
135.22881
 11
-161.51138
 21
135.22881
  0
LINE
  8
0
  6
CONTINUOUS
 62
     7
 10
-162.74399
 20
134.32881
 11
-161.51138
 21
134.32881
  0
LINE
  8
0
  6
CONTINUOUS
 62
     7
 10
-154.97659
 20
134.32881
 11
-153.74399
 21
134.32881
  0
LINE
  8
0
  6
CONTINUOUS
 62
     7
 10
-154.97659
 20
135.22881
 11
-153.74399
 21
135.22881
  0
LINE
  8
0
  6
CONTINUOUS
 62
     7
 10
-160.60812
 20
134.32881
 11
-158.24399
 21
134.32881
  0
LINE
  8
0
  6
CONTINUOUS
 62
     7
 10
-160.60812
 20
135.22881
 11
-158.24399
 21
135.22881
  0
LINE
  8
0
  6
CONTINUOUS
 62
     7
 10
-105.35546
 20
133.37756
 11
-104.12286
 21
133.37756
  0
LINE
  8
0
  6
CONTINUOUS
 62
     7
 10
-105.35546
 20
132.47757
 11
-104.12286
 21
132.47757
  0
LINE
  8
0
  6
CONTINUOUS
 62
     7
 10
-97.588058
 20
132.47757
 11
-96.355461
 21
132.47757
  0
LINE
  8
0
  6
CONTINUOUS
 62
     7
 10
-97.588058
 20
133.37756
 11
-96.355461
 21
133.37756
  0
LINE
  8
0
  6
CONTINUOUS
 62
     7
 10
-103.21959
 20
132.47757
 11
-100.85546
 21
132.47757
  0
LINE
  8
0
  6
CONTINUOUS
 62
     7
 10
-103.21959
 20
133.37756
 11
-100.85546
 21
133.37756
  0
LINE
  8
0
  6
CONTINUOUS
 62
     7
 10
-43.223137
 20
132.22054
 11
-41.990536
 21
132.22054
  0
LINE
  8
0
  6
CONTINUOUS
 62
     7
 10
-43.223137
 20
131.32054
 11
-41.990536
 21
131.32054
  0
LINE
  8
0
  6
CONTINUOUS
 62
     7
 10
-35.455738
 20
131.32054
 11
-34.223137
 21
131.32054
  0
LINE
  8
0
  6
CONTINUOUS
 62
     7
 10
-35.455738
 20
132.22054
 11
-34.223137
 21
132.22054
  0
LINE
  8
0
  6
CONTINUOUS
 62
     7
 10
-41.087265
 20
131.32054
 11
-38.723137
 21
131.32054
  0
LINE
  8
0
  6
CONTINUOUS
 62
     7
 10
-41.087265
 20
132.22054
 11
-38.723137
 21
132.22054
  0
LINE
  8
0
  6
CONTINUOUS
 62
     7
 10
20.764566
 20
131.67633
 11
22.408033
 21
131.67633
  0
LINE
  8
0
  6
CONTINUOUS
 62
     7
 10
20.764566
 20
130.47632
 11
22.408033
 21
130.47632
  0
LINE
  8
0
  6
CONTINUOUS
 62
     7
 10
31.121099
 20
130.47632
 11
32.764565
 21
130.47632
  0
LINE
  8
0
  6
CONTINUOUS
 62
     7
 10
31.121099
 20
131.67633
 11
32.764565
 21
131.67633
  0
LINE
  8
0
  6
CONTINUOUS
 62
     7
 10
23.612394
 20
130.47632
 11
26.764566
 21
130.47632
  0
LINE
  8
0
  6
CONTINUOUS
 62
     7
 10
23.612394
 20
131.67633
 11
26.764566
 21
131.67633
  0
LINE
  8
0
  6
CONTINUOUS
 62
     7
 10
85.326645
 20
129.36227
 11
86.970108
 21
129.36227
  0
LINE
  8
0
  6
CONTINUOUS
 62
     7
 10
85.326645
 20
128.16226
 11
86.970108
 21
128.16226
  0
LINE
  8
0
  6
CONTINUOUS
 62
     7
 10
95.683182
 20
128.16226
 11
97.326645
 21
128.16226
  0
LINE
  8
0
  6
CONTINUOUS
 62
     7
 10
95.683182
 20
129.36227
 11
97.326645
 21
129.36227
  0
LINE
  8
0
  6
CONTINUOUS
 62
     7
 10
88.174469
 20
128.16226
 11
91.326645
 21
128.16226
  0
LINE
  8
0
  6
CONTINUOUS
 62
     7
 10
88.174469
 20
129.36227
 11
91.326645
 21
129.36227
  0
LINE
  8
0
  6
CONTINUOUS
 62
     7
 10
153.0127
 20
127.51102
 11
154.65616
 21
127.51102
  0
LINE
  8
0
  6
CONTINUOUS
 62
     7
 10
153.0127
 20
126.31103
 11
154.65616
 21
126.31103
  0
LINE
  8
0
  6
CONTINUOUS
 62
     7
 10
163.36923
 20
126.31103
 11
165.0127
 21
126.31103
  0
LINE
  8
0
  6
CONTINUOUS
 62
     7
 10
163.36923
 20
127.51102
 11
165.0127
 21
127.51102
  0
LINE
  8
0
  6
CONTINUOUS
 62
     7
 10
155.86052
 20
126.31103
 11
159.0127
 21
126.31103
  0
LINE
  8
0
  6
CONTINUOUS
 62
     7
 10
155.86052
 20
127.51102
 11
159.0127
 21
127.51102
  0
LINE
  8
0
  6
CONTINUOUS
 62
     7
 10
229.37645
 20
127.51102
 11
231.01991
 21
127.51102
  0
LINE
  8
0
  6
CONTINUOUS
 62
     7
 10
229.37645
 20
126.31103
 11
231.01991
 21
126.31103
  0
LINE
  8
0
  6
CONTINUOUS
 62
     7
 10
239.73299
 20
126.31103
 11
241.37645
 21
126.31103
  0
LINE
  8
0
  6
CONTINUOUS
 62
     7
 10
239.73299
 20
127.51102
 11
241.37645
 21
127.51102
  0
LINE
  8
0
  6
CONTINUOUS
 62
     7
 10
232.22427
 20
126.31103
 11
235.37645
 21
126.31103
  0
LINE
  8
0
  6
CONTINUOUS
 62
     7
 10
232.22427
 20
127.51102
 11
235.37645
 21
127.51102
  0
LINE
  8
0
  6
CONTINUOUS
 62
     7
 10
-248.0891
 20
20.852905
 11
-246.44563
 21
20.852905
  0
LINE
  8
0
  6
CONTINUOUS
 62
     7
 10
-248.0891
 20
19.652905
 11
-246.44563
 21
19.652905
  0
LINE
  8
0
  6
CONTINUOUS
 62
     7
 10
-237.73256
 20
19.652905
 11
-236.0891
 21
19.652905
  0
LINE
  8
0
  6
CONTINUOUS
 62
     7
 10
-237.73256
 20
20.852905
 11
-236.0891
 21
20.852905
  0
LINE
  8
0
  6
CONTINUOUS
 62
     7
 10
-245.24127
 20
19.652905
 11
-242.0891
 21
19.652905
  0
LINE
  8
0
  6
CONTINUOUS
 62
     7
 10
-245.24127
 20
20.852905
 11
-242.0891
 21
20.852905
  0
LINE
  8
0
  6
CONTINUOUS
 62
     7
 10
-166.45476
 20
19.109087
 11
-164.81129
 21
19.109087
  0
LINE
  8
0
  6
CONTINUOUS
 62
     7
 10
-166.45476
 20
17.909086
 11
-164.81129
 21
17.909086
  0
LINE
  8
0
  6
CONTINUOUS
 62
     7
 10
-156.09822
 20
17.909086
 11
-154.45476
 21
17.909086
  0
LINE
  8
0
  6
CONTINUOUS
 62
     7
 10
-156.09822
 20
19.109087
 11
-154.45476
 21
19.109087
  0
LINE
  8
0
  6
CONTINUOUS
 62
     7
 10
-163.60693
 20
17.909086
 11
-160.45476
 21
17.909086
  0
LINE
  8
0
  6
CONTINUOUS
 62
     7
 10
-163.60693
 20
19.109087
 11
-160.45476
 21
19.109087
  0
LINE
  8
0
  6
CONTINUOUS
 62
     7
 10
-77.426399
 20
23.75927
 11
-75.782936
 21
23.75927
  0
LINE
  8
0
  6
CONTINUOUS
 62
     7
 10
-77.426399
 20
22.559269
 11
-75.782936
 21
22.559269
  0
LINE
  8
0
  6
CONTINUOUS
 62
     7
 10
-67.069862
 20
22.559269
 11
-65.426399
 21
22.559269
  0
LINE
  8
0
  6
CONTINUOUS
 62
     7
 10
-67.069862
 20
23.75927
 11
-65.426399
 21
23.75927
  0
LINE
  8
0
  6
CONTINUOUS
 62
     7
 10
-74.578575
 20
22.559269
 11
-71.426399
 21
22.559269
  0
LINE
  8
0
  6
CONTINUOUS
 62
     7
 10
-74.578575
 20
23.75927
 11
-71.426399
 21
23.75927
  0
LINE
  8
0
  6
CONTINUOUS
 62
     7
 10
12.345764
 20
20.852905
 11
13.989231
 21
20.852905
  0
LINE
  8
0
  6
CONTINUOUS
 62
     7
 10
12.345764
 20
19.652905
 11
13.98923
 21
19.652905
  0
LINE
  8
0
  6
CONTINUOUS
 62
     7
 10
22.702297
 20
19.652905
 11
24.345764
 21
19.652905
  0
LINE
  8
0
  6
CONTINUOUS
 62
     7
 10
22.702297
 20
20.852905
 11
24.345764
 21
20.852905
  0
LINE
  8
0
  6
CONTINUOUS
 62
     7
 10
15.193592
 20
19.652905
 11
18.345764
 21
19.652905
  0
LINE
  8
0
  6
CONTINUOUS
 62
     7
 10
15.193592
 20
20.852905
 11
18.345764
 21
20.852905
  0
LINE
  8
0
  6
CONTINUOUS
 62
     7
 10
103.0932
 20
17.946543
 11
104.73666
 21
17.946543
  0
LINE
  8
0
  6
CONTINUOUS
 62
     7
 10
103.0932
 20
16.746542
 11
104.73666
 21
16.746542
  0
LINE
  8
0
  6
CONTINUOUS
 62
     7
 10
113.44974
 20
16.746542
 11
115.0932
 21
16.746542
  0
LINE
  8
0
  6
CONTINUOUS
 62
     7
 10
113.44974
 20
17.946543
 11
115.0932
 21
17.946543
  0
LINE
  8
0
  6
CONTINUOUS
 62
     7
 10
105.94102
 20
16.746542
 11
109.0932
 21
16.746542
  0
LINE
  8
0
  6
CONTINUOUS
 62
     7
 10
105.94102
 20
17.946543
 11
109.0932
 21
17.946543
  0
LINE
  8
0
  6
CONTINUOUS
 62
     7
 10
200.535
 20
13.877634
 11
202.17847
 21
13.877634
  0
LINE
  8
0
  6
CONTINUOUS
 62
     7
 10
200.535
 20
12.677633
 11
202.17847
 21
12.677633
  0
LINE
  8
0
  6
CONTINUOUS
 62
     7
 10
210.89154
 20
12.677633
 11
212.535
 21
12.677633
  0
LINE
  8
0
  6
CONTINUOUS
 62
     7
 10
210.89154
 20
13.877634
 11
212.535
 21
13.877634
  0
LINE
  8
0
  6
CONTINUOUS
 62
     7
 10
203.38283
 20
12.677633
 11
206.535
 21
12.677633
  0
LINE
  8
0
  6
CONTINUOUS
 62
     7
 10
203.38283
 20
13.877634
 11
206.535
 21
13.877634
  0
LINE
  8
0
  6
CONTINUOUS
 62
     7
 10
-235.28874
 20
-115.59616
 11
-233.23441
 21
-115.59616
  0
LINE
  8
0
  6
CONTINUOUS
 62
     7
 10
-235.28874
 20
-117.09616
 11
-233.23441
 21
-117.09616
  0
LINE
  8
0
  6
CONTINUOUS
 62
     7
 10
-222.34308
 20
-117.09616
 11
-220.28874
 21
-117.09616
  0
LINE
  8
0
  6
CONTINUOUS
 62
     7
 10
-222.34308
 20
-115.59616
 11
-220.28874
 21
-115.59616
  0
LINE
  8
0
  6
CONTINUOUS
 62
     7
 10
-231.72896
 20
-117.09616
 11
-227.78874
 21
-117.09616
  0
LINE
  8
0
  6
CONTINUOUS
 62
     7
 10
-231.72896
 20
-115.59616
 11
-227.78874
 21
-115.59616
  0
LINE
  8
0
  6
CONTINUOUS
 62
     7
 10
-134.72858
 20
-118.50253
 11
-132.67424
 21
-118.50253
  0
LINE
  8
0
  6
CONTINUOUS
 62
     7
 10
-134.72858
 20
-120.00253
 11
-132.67424
 21
-120.00253
  0
LINE
  8
0
  6
CONTINUOUS
 62
     7
 10
-121.78291
 20
-120.00253
 11
-119.72858
 21
-120.00253
  0
LINE
  8
0
  6
CONTINUOUS
 62
     7
 10
-121.78291
 20
-118.50253
 11
-119.72858
 21
-118.50253
  0
LINE
  8
0
  6
CONTINUOUS
 62
     7
 10
-131.16879
 20
-120.00253
 11
-127.22858
 21
-120.00253
  0
LINE
  8
0
  6
CONTINUOUS
 62
     7
 10
-131.16879
 20
-118.50253
 11
-127.22858
 21
-118.50253
  0
LINE
  8
0
  6
CONTINUOUS
 62
     7
 10
-28.936956
 20
-121.40889
 11
-26.882624
 21
-121.40889
  0
LINE
  8
0
  6
CONTINUOUS
 62
     7
 10
-28.936956
 20
-122.90889
 11
-26.882624
 21
-122.90889
  0
LINE
  8
0
  6
CONTINUOUS
 62
     7
 10
-15.991289
 20
-122.90889
 11
-13.936956
 21
-122.90889
  0
LINE
  8
0
  6
CONTINUOUS
 62
     7
 10
-15.991289
 20
-121.40889
 11
-13.936956
 21
-121.40889
  0
LINE
  8
0
  6
CONTINUOUS
 62
     7
 10
-25.377172
 20
-122.90889
 11
-21.436956
 21
-122.90889
  0
LINE
  8
0
  6
CONTINUOUS
 62
     7
 10
-25.377172
 20
-121.40889
 11
-21.436956
 21
-121.40889
  0
LINE
  8
0
  6
CONTINUOUS
 62
     7
 10
81.504845
 20
-125.4778
 11
83.559181
 21
-125.4778
  0
LINE
  8
0
  6
CONTINUOUS
 62
     7
 10
81.504845
 20
-126.9778
 11
83.559174
 21
-126.9778
  0
LINE
  8
0
  6
CONTINUOUS
 62
     7
 10
94.450508
 20
-126.9778
 11
96.504845
 21
-126.9778
  0
LINE
  8
0
  6
CONTINUOUS
 62
     7
 10
94.450516
 20
-125.4778
 11
96.504845
 21
-125.4778
  0
LINE
  8
0
  6
CONTINUOUS
 62
     7
 10
85.064629
 20
-126.9778
 11
89.004845
 21
-126.9778
  0
LINE
  8
0
  6
CONTINUOUS
 62
     7
 10
85.064629
 20
-125.4778
 11
89.004845
 21
-125.4778
  0
LINE
  8
0
  6
CONTINUOUS
 62
     7
 10
194.56236
 20
-129.54671
 11
196.6167
 21
-129.54671
  0
LINE
  8
0
  6
CONTINUOUS
 62
     7
 10
194.56236
 20
-131.04671
 11
196.6167
 21
-131.04671
  0
LINE
  8
0
  6
CONTINUOUS
 62
     7
 10
207.50803
 20
-131.04671
 11
209.56236
 21
-131.04671
  0
LINE
  8
0
  6
CONTINUOUS
 62
     7
 10
207.50803
 20
-129.54671
 11
209.56236
 21
-129.54671
  0
LINE
  8
0
  6
CONTINUOUS
 62
     7
 10
198.12215
 20
-131.04671
 11
202.06236
 21
-131.04671
  0
LINE
  8
0
  6
CONTINUOUS
 62
     7
 10
198.12215
 20
-129.54671
 11
202.06236
 21
-129.54671
  0
ARC
  8
0
  6
CONTINUOUS
 62
     7
 10
-246.37222
 20
128.29535
 40
3
 50
89.999982
 51
179.99996
  0
ARC
  8
0
  6
CONTINUOUS
 62
     7
 10
-246.37222
 20
153.29535
 40
3
 50
179.99998
 51
270.00003
  0
ARC
  8
0
  6
CONTINUOUS
 62
     7
 10
-194.15729
 20
124.13005
 40
3
 50
89.999982
 51
179.99996
  0
ARC
  8
0
  6
CONTINUOUS
 62
     7
 10
-194.15729
 20
149.13005
 40
3
 50
179.99998
 51
270.00003
  0
ARC
  8
0
  6
CONTINUOUS
 62
     7
 10
-141.74396
 20
120.27881
 40
3
 50
89.999982
 51
179.99996
  0
ARC
  8
0
  6
CONTINUOUS
 62
     7
 10
-141.74396
 20
149.27881
 40
3
 50
179.99998
 51
270.00003
  0
ARC
  8
0
  6
CONTINUOUS
 62
     7
 10
-80.855461
 20
117.92756
 40
3.5
 50
89.999982
 51
179.99996
  0
ARC
  8
0
  6
CONTINUOUS
 62
     7
 10
-80.855461
 20
147.92757
 40
3.5
 50
179.99998
 51
270.00003
  0
ARC
  8
0
  6
CONTINUOUS
 62
     7
 10
-18.723131
 20
148.77054
 40
3.5
 50
179.99998
 51
270.00003
  0
ARC
  8
0
  6
CONTINUOUS
 62
     7
 10
-18.723131
 20
114.77055
 40
3.5
 50
89.999982
 51
179.99996
  0
ARC
  8
0
  6
CONTINUOUS
 62
     7
 10
50.764572
 20
116.07632
 40
3.5
 50
89.999982
 51
179.99996
  0
ARC
  8
0
  6
CONTINUOUS
 62
     7
 10
50.764572
 20
146.07632
 40
3.5
 50
179.99998
 51
270.00003
  0
ARC
  8
0
  6
CONTINUOUS
 62
     7
 10
115.32666
 20
111.76227
 40
3.5
 50
89.999982
 51
179.99996
  0
ARC
  8
0
  6
CONTINUOUS
 62
     7
 10
115.32666
 20
145.76227
 40
3.5
 50
179.99998
 51
270.00003
  0
ARC
  8
0
  6
CONTINUOUS
 62
     7
 10
183.0127
 20
106.91102
 40
3.5
 50
89.999982
 51
179.99996
  0
ARC
  8
0
  6
CONTINUOUS
 62
     7
 10
183.0127
 20
146.91103
 40
3.5
 50
179.99998
 51
270.00003
  0
ARC
  8
0
  6
CONTINUOUS
 62
     7
 10
264.37646
 20
144.41103
 40
4
 50
179.99998
 51
270.00003
  0
ARC
  8
0
  6
CONTINUOUS
 62
     7
 10
264.37646
 20
109.41103
 40
4
 50
89.999982
 51
179.99996
  0
ARC
  8
0
  6
CONTINUOUS
 62
     7
 10
-213.0891
 20
-0.24709459
 40
4
 50
89.999982
 51
179.99996
  0
ARC
  8
0
  6
CONTINUOUS
 62
     7
 10
-213.0891
 20
40.752907
 40
4
 50
179.99998
 51
270.00003
  0
ARC
  8
0
  6
CONTINUOUS
 62
     7
 10
-131.45473
 20
-5.9909124
 40
4
 50
89.999982
 51
179.99996
  0
ARC
  8
0
  6
CONTINUOUS
 62
     7
 10
-131.45473
 20
43.009087
 40
4
 50
179.99998
 51
270.00003
  0
ARC
  8
0
  6
CONTINUOUS
 62
     7
 10
-39.42638
 20
5.6592684
 40
4
 50
89.999982
 51
179.99996
  0
ARC
  8
0
  6
CONTINUOUS
 62
     7
 10
-39.42638
 20
40.659267
 40
4
 50
179.99998
 51
270.00003
  0
ARC
  8
0
  6
CONTINUOUS
 62
     7
 10
51.345787
 20
-1.2470946
 40
5
 50
89.999982
 51
179.99996
  0
ARC
  8
0
  6
CONTINUOUS
 62
     7
 10
51.345787
 20
41.752907
 40
5
 50
179.99998
 51
270.00003
  0
ARC
  8
0
  6
CONTINUOUS
 62
     7
 10
142.09323
 20
-8.1534576
 40
5
 50
89.999982
 51
179.99996
  0
ARC
  8
0
  6
CONTINUOUS
 62
     7
 10
142.09323
 20
42.846542
 40
5
 50
179.99998
 51
270.00003
  0
ARC
  8
0
  6
CONTINUOUS
 62
     7
 10
239.53502
 20
-16.722366
 40
5
 50
89.999982
 51
179.99996
  0
ARC
  8
0
  6
CONTINUOUS
 62
     7
 10
239.53502
 20
43.277634
 40
5
 50
179.99998
 51
270.00003
  0
ARC
  8
0
  6
CONTINUOUS
 62
     7
 10
-188.28873
 20
-134.84616
 40
5
 50
89.999982
 51
179.99996
  0
ARC
  8
0
  6
CONTINUOUS
 62
     7
 10
-188.28873
 20
-97.846161
 40
5
 50
179.99998
 51
270.00003
  0
ARC
  8
0
  6
CONTINUOUS
 62
     7
 10
-86.728554
 20
-141.75252
 40
6
 50
89.999982
 51
179.99996
  0
ARC
  8
0
  6
CONTINUOUS
 62
     7
 10
-86.728554
 20
-96.752525
 40
6
 50
179.99998
 51
270.00003
  0
ARC
  8
0
  6
CONTINUOUS
 62
     7
 10
19.063051
 20
-148.65889
 40
6
 50
89.999982
 51
179.99996
  0
ARC
  8
0
  6
CONTINUOUS
 62
     7
 10
19.063051
 20
-95.65889
 40
6
 50
179.99998
 51
270.00003
  0
ARC
  8
0
  6
CONTINUOUS
 62
     7
 10
129.50484
 20
-157.2278
 40
6
 50
89.999982
 51
180.00002
  0
ARC
  8
0
  6
CONTINUOUS
 62
     7
 10
129.50484
 20
-95.227798
 40
6
 50
180.00002
 51
270
  0
ARC
  8
0
  6
CONTINUOUS
 62
     7
 10
242.56236
 20
-164.29672
 40
6
 50
89.999982
 51
180.00002
  0
ARC
  8
0
  6
CONTINUOUS
 62
     7
 10
242.56236
 20
-96.296768
 40
6
 50
180.00002
 51
270
  0
ARC
  8
0
  6
CONTINUOUS
 62
     7
 10
-260.87222
 20
142.59535
 40
1.8
 50
36.008324
 51
143.99167
  0
ARC
  8
0
  6
CONTINUOUS
 62
     7
 10
-260.87222
 20
142.59535
 40
2.7
 50
36.008324
 51
143.99167
  0
ARC
  8
0
  6
CONTINUOUS
 62
     7
 10
-260.87222
 20
138.99535
 40
1.8
 50
216.00833
 51
323.99168
  0
ARC
  8
0
  6
CONTINUOUS
 62
     7
 10
-260.87222
 20
138.99535
 40
2.7
 50
216.00833
 51
323.99168
  0
ARC
  8
0
  6
CONTINUOUS
 62
     7
 10
-258.39548
 20
140.79535
 40
5.7617307
 50
143.99167
 51
175.52055
  0
ARC
  8
0
  6
CONTINUOUS
 62
     7
 10
-258.39548
 20
140.79535
 40
4.8617306
 50
143.99167
 51
174.68912
  0
ARC
  8
0
  6
CONTINUOUS
 62
     7
 10
-263.34897
 20
140.79535
 40
4.8617306
 50
323.99167
 51
36.008324
  0
ARC
  8
0
  6
CONTINUOUS
 62
     7
 10
-263.34897
 20
140.79535
 40
5.7617307
 50
323.99167
 51
355.52055
  0
ARC
  8
0
  6
CONTINUOUS
 62
     7
 10
-265.03473
 20
140.79535
 40
0.5625
 50
126.8699
 51
233.13009
  0
ARC
  8
0
  6
CONTINUOUS
 62
     7
 10
-261.20972
 20
140.79535
 40
0.5625
 50
306.8699
 51
53.130102
  0
ARC
  8
0
  6
CONTINUOUS
 62
     7
 10
-256.70972
 20
140.79535
 40
0.5625
 50
306.8699
 51
53.130102
  0
ARC
  8
0
  6
CONTINUOUS
 62
     7
 10
-258.39548
 20
140.79535
 40
5.7617307
 50
184.47945
 51
216.00833
  0
ARC
  8
0
  6
CONTINUOUS
 62
     7
 10
-258.39548
 20
140.79535
 40
4.8617306
 50
185.31088
 51
216.00833
  0
ARC
  8
0
  6
CONTINUOUS
 62
     7
 10
-263.34897
 20
140.79535
 40
5.7617307
 50
4.4794472
 51
36.008324
  0
ARC
  8
0
  6
CONTINUOUS
 62
     7
 10
-210.65729
 20
138.43005
 40
1.8
 50
36.008324
 51
143.99167
  0
ARC
  8
0
  6
CONTINUOUS
 62
     7
 10
-210.65729
 20
138.43005
 40
2.7
 50
36.008324
 51
143.99167
  0
ARC
  8
0
  6
CONTINUOUS
 62
     7
 10
-210.65729
 20
134.83005
 40
1.8
 50
216.00833
 51
323.99168
  0
ARC
  8
0
  6
CONTINUOUS
 62
     7
 10
-210.65729
 20
134.83005
 40
2.7
 50
216.00833
 51
323.99168
  0
ARC
  8
0
  6
CONTINUOUS
 62
     7
 10
-208.18056
 20
136.63005
 40
5.7617307
 50
143.99167
 51
175.52055
  0
ARC
  8
0
  6
CONTINUOUS
 62
     7
 10
-208.18056
 20
136.63005
 40
4.8617306
 50
143.99167
 51
174.68912
  0
ARC
  8
0
  6
CONTINUOUS
 62
     7
 10
-213.13402
 20
136.63005
 40
4.8617306
 50
323.99167
 51
36.008324
  0
ARC
  8
0
  6
CONTINUOUS
 62
     7
 10
-213.13402
 20
136.63005
 40
5.7617307
 50
323.99167
 51
355.52055
  0
ARC
  8
0
  6
CONTINUOUS
 62
     7
 10
-214.81979
 20
136.63005
 40
0.5625
 50
126.8699
 51
233.13009
  0
ARC
  8
0
  6
CONTINUOUS
 62
     7
 10
-210.99478
 20
136.63005
 40
0.5625
 50
306.8699
 51
53.130102
  0
ARC
  8
0
  6
CONTINUOUS
 62
     7
 10
-206.49478
 20
136.63005
 40
0.5625
 50
306.8699
 51
53.130102
  0
ARC
  8
0
  6
CONTINUOUS
 62
     7
 10
-208.18056
 20
136.63005
 40
5.7617307
 50
184.47945
 51
216.00833
  0
ARC
  8
0
  6
CONTINUOUS
 62
     7
 10
-208.18056
 20
136.63005
 40
4.8617306
 50
185.31088
 51
216.00833
  0
ARC
  8
0
  6
CONTINUOUS
 62
     7
 10
-213.13402
 20
136.63005
 40
5.7617307
 50
4.4794472
 51
36.008324
  0
ARC
  8
0
  6
CONTINUOUS
 62
     7
 10
-158.24399
 20
136.57881
 40
1.8
 50
36.008324
 51
143.99167
  0
ARC
  8
0
  6
CONTINUOUS
 62
     7
 10
-158.24399
 20
136.57881
 40
2.7
 50
36.008324
 51
143.99167
  0
ARC
  8
0
  6
CONTINUOUS
 62
     7
 10
-158.24399
 20
132.97881
 40
1.8
 50
216.00833
 51
323.99168
  0
ARC
  8
0
  6
CONTINUOUS
 62
     7
 10
-158.24399
 20
132.97881
 40
2.7
 50
216.00833
 51
323.99168
  0
ARC
  8
0
  6
CONTINUOUS
 62
     7
 10
-155.76726
 20
134.77881
 40
5.7617307
 50
143.99167
 51
175.52055
  0
ARC
  8
0
  6
CONTINUOUS
 62
     7
 10
-155.76726
 20
134.77881
 40
4.8617306
 50
143.99167
 51
174.68912
  0
ARC
  8
0
  6
CONTINUOUS
 62
     7
 10
-160.72072
 20
134.77881
 40
4.8617306
 50
323.99167
 51
36.008324
  0
ARC
  8
0
  6
CONTINUOUS
 62
     7
 10
-160.72072
 20
134.77881
 40
5.7617307
 50
323.99167
 51
355.52055
  0
ARC
  8
0
  6
CONTINUOUS
 62
     7
 10
-162.40649
 20
134.77881
 40
0.5625
 50
126.8699
 51
233.13009
  0
ARC
  8
0
  6
CONTINUOUS
 62
     7
 10
-158.58148
 20
134.77881
 40
0.5625
 50
306.8699
 51
53.130102
  0
ARC
  8
0
  6
CONTINUOUS
 62
     7
 10
-154.08148
 20
134.77881
 40
0.5625
 50
306.8699
 51
53.130102
  0
ARC
  8
0
  6
CONTINUOUS
 62
     7
 10
-155.76726
 20
134.77881
 40
5.7617307
 50
184.47945
 51
216.00833
  0
ARC
  8
0
  6
CONTINUOUS
 62
     7
 10
-155.76726
 20
134.77881
 40
4.8617306
 50
185.31088
 51
216.00833
  0
ARC
  8
0
  6
CONTINUOUS
 62
     7
 10
-160.72072
 20
134.77881
 40
5.7617307
 50
4.4794472
 51
36.008324
  0
ARC
  8
0
  6
CONTINUOUS
 62
     7
 10
-100.85546
 20
134.72757
 40
1.8
 50
36.008324
 51
143.99167
  0
ARC
  8
0
  6
CONTINUOUS
 62
     7
 10
-100.85546
 20
134.72757
 40
2.7
 50
36.008324
 51
143.99167
  0
ARC
  8
0
  6
CONTINUOUS
 62
     7
 10
-100.85546
 20
131.12756
 40
1.8
 50
216.00833
 51
323.99168
  0
ARC
  8
0
  6
CONTINUOUS
 62
     7
 10
-100.85546
 20
131.12756
 40
2.7
 50
216.00833
 51
323.99168
  0
ARC
  8
0
  6
CONTINUOUS
 62
     7
 10
-98.378731
 20
132.92757
 40
5.7617307
 50
143.99167
 51
175.52055
  0
ARC
  8
0
  6
CONTINUOUS
 62
     7
 10
-98.378731
 20
132.92757
 40
4.8617306
 50
143.99167
 51
174.68912
  0
ARC
  8
0
  6
CONTINUOUS
 62
     7
 10
-103.33219
 20
132.92757
 40
4.8617306
 50
323.99167
 51
36.008324
  0
ARC
  8
0
  6
CONTINUOUS
 62
     7
 10
-103.33219
 20
132.92757
 40
5.7617307
 50
323.99167
 51
355.52055
  0
ARC
  8
0
  6
CONTINUOUS
 62
     7
 10
-105.01796
 20
132.92757
 40
0.5625
 50
126.8699
 51
233.13009
  0
ARC
  8
0
  6
CONTINUOUS
 62
     7
 10
-101.19296
 20
132.92757
 40
0.5625
 50
306.8699
 51
53.130102
  0
ARC
  8
0
  6
CONTINUOUS
 62
     7
 10
-96.692963
 20
132.92757
 40
0.5625
 50
306.8699
 51
53.130102
  0
ARC
  8
0
  6
CONTINUOUS
 62
     7
 10
-98.378731
 20
132.92757
 40
5.7617307
 50
184.47945
 51
216.00833
  0
ARC
  8
0
  6
CONTINUOUS
 62
     7
 10
-98.378731
 20
132.92757
 40
4.8617306
 50
185.31088
 51
216.00833
  0
ARC
  8
0
  6
CONTINUOUS
 62
     7
 10
-103.33219
 20
132.92757
 40
5.7617307
 50
4.4794472
 51
36.008324
  0
ARC
  8
0
  6
CONTINUOUS
 62
     7
 10
-38.723137
 20
133.57054
 40
1.8
 50
36.008324
 51
143.99167
  0
ARC
  8
0
  6
CONTINUOUS
 62
     7
 10
-38.723137
 20
133.57054
 40
2.7
 50
36.008324
 51
143.99167
  0
ARC
  8
0
  6
CONTINUOUS
 62
     7
 10
-38.723137
 20
129.97054
 40
1.8
 50
216.00833
 51
323.99168
  0
ARC
  8
0
  6
CONTINUOUS
 62
     7
 10
-38.723137
 20
129.97054
 40
2.7
 50
216.00833
 51
323.99168
  0
ARC
  8
0
  6
CONTINUOUS
 62
     7
 10
-36.246407
 20
131.77054
 40
5.7617307
 50
143.99167
 51
175.52055
  0
ARC
  8
0
  6
CONTINUOUS
 62
     7
 10
-36.246407
 20
131.77054
 40
4.8617306
 50
143.99167
 51
174.68912
  0
ARC
  8
0
  6
CONTINUOUS
 62
     7
 10
-41.199867
 20
131.77054
 40
4.8617306
 50
323.99167
 51
36.008324
  0
ARC
  8
0
  6
CONTINUOUS
 62
     7
 10
-41.199867
 20
131.77054
 40
5.7617307
 50
323.99167
 51
355.52055
  0
ARC
  8
0
  6
CONTINUOUS
 62
     7
 10
-42.885635
 20
131.77054
 40
0.5625
 50
126.8699
 51
233.13009
  0
ARC
  8
0
  6
CONTINUOUS
 62
     7
 10
-39.060638
 20
131.77054
 40
0.5625
 50
306.8699
 51
53.130102
  0
ARC
  8
0
  6
CONTINUOUS
 62
     7
 10
-34.560638
 20
131.77054
 40
0.5625
 50
306.8699
 51
53.130102
  0
ARC
  8
0
  6
CONTINUOUS
 62
     7
 10
-36.246407
 20
131.77054
 40
5.7617307
 50
184.47945
 51
216.00833
  0
ARC
  8
0
  6
CONTINUOUS
 62
     7
 10
-36.246407
 20
131.77054
 40
4.8617306
 50
185.31088
 51
216.00833
  0
ARC
  8
0
  6
CONTINUOUS
 62
     7
 10
-41.199867
 20
131.77054
 40
5.7617307
 50
4.4794472
 51
36.008324
  0
ARC
  8
0
  6
CONTINUOUS
 62
     7
 10
26.764566
 20
133.47632
 40
2.4000001
 50
36.008324
 51
143.99167
  0
ARC
  8
0
  6
CONTINUOUS
 62
     7
 10
26.764566
 20
133.47632
 40
3.5999999
 50
36.008324
 51
143.99167
  0
ARC
  8
0
  6
CONTINUOUS
 62
     7
 10
26.764566
 20
128.67633
 40
2.4000001
 50
216.00833
 51
323.99168
  0
ARC
  8
0
  6
CONTINUOUS
 62
     7
 10
26.764566
 20
128.67633
 40
3.5999999
 50
216.00833
 51
323.99168
  0
ARC
  8
0
  6
CONTINUOUS
 62
     7
 10
30.066874
 20
131.07632
 40
7.6823077
 50
143.99167
 51
175.52055
  0
ARC
  8
0
  6
CONTINUOUS
 62
     7
 10
30.066874
 20
131.07632
 40
6.4823079
 50
143.99167
 51
174.68912
  0
ARC
  8
0
  6
CONTINUOUS
 62
     7
 10
23.462259
 20
131.07632
 40
6.4823079
 50
323.99167
 51
36.008324
  0
ARC
  8
0
  6
CONTINUOUS
 62
     7
 10
23.462259
 20
131.07632
 40
7.6823077
 50
323.99167
 51
355.52055
  0
ARC
  8
0
  6
CONTINUOUS
 62
     7
 10
21.214565
 20
131.07632
 40
0.75
 50
126.8699
 51
233.13009
  0
ARC
  8
0
  6
CONTINUOUS
 62
     7
 10
26.314566
 20
131.07632
 40
0.75
 50
306.8699
 51
53.130102
  0
ARC
  8
0
  6
CONTINUOUS
 62
     7
 10
32.314568
 20
131.07632
 40
0.75
 50
306.8699
 51
53.130102
  0
ARC
  8
0
  6
CONTINUOUS
 62
     7
 10
30.066874
 20
131.07632
 40
6.4823079
 50
185.31088
 51
216.00833
  0
ARC
  8
0
  6
CONTINUOUS
 62
     7
 10
30.066874
 20
131.07632
 40
7.6823077
 50
184.47945
 51
216.00833
  0
ARC
  8
0
  6
CONTINUOUS
 62
     7
 10
23.462259
 20
131.07632
 40
7.6823077
 50
4.4794472
 51
36.008324
  0
ARC
  8
0
  6
CONTINUOUS
 62
     7
 10
91.326645
 20
131.16226
 40
2.4000001
 50
36.008324
 51
143.99167
  0
ARC
  8
0
  6
CONTINUOUS
 62
     7
 10
91.326645
 20
131.16226
 40
3.5999999
 50
36.008324
 51
143.99167
  0
ARC
  8
0
  6
CONTINUOUS
 62
     7
 10
91.326645
 20
126.36227
 40
2.4000001
 50
216.00833
 51
323.99168
  0
ARC
  8
0
  6
CONTINUOUS
 62
     7
 10
91.326645
 20
126.36227
 40
3.5999999
 50
216.00833
 51
323.99168
  0
ARC
  8
0
  6
CONTINUOUS
 62
     7
 10
94.628952
 20
128.76227
 40
7.6823077
 50
143.99167
 51
175.52055
  0
ARC
  8
0
  6
CONTINUOUS
 62
     7
 10
94.628952
 20
128.76227
 40
6.4823079
 50
143.99167
 51
174.68912
  0
ARC
  8
0
  6
CONTINUOUS
 62
     7
 10
88.024338
 20
128.76227
 40
6.4823079
 50
323.99167
 51
36.008324
  0
ARC
  8
0
  6
CONTINUOUS
 62
     7
 10
88.024338
 20
128.76227
 40
7.6823077
 50
323.99167
 51
355.52055
  0
ARC
  8
0
  6
CONTINUOUS
 62
     7
 10
85.776642
 20
128.76227
 40
0.75
 50
126.8699
 51
233.13009
  0
ARC
  8
0
  6
CONTINUOUS
 62
     7
 10
90.876648
 20
128.76227
 40
0.75
 50
306.8699
 51
53.130102
  0
ARC
  8
0
  6
CONTINUOUS
 62
     7
 10
96.876648
 20
128.76227
 40
0.75
 50
306.8699
 51
53.130102
  0
ARC
  8
0
  6
CONTINUOUS
 62
     7
 10
94.628952
 20
128.76227
 40
6.4823079
 50
185.31088
 51
216.00833
  0
ARC
  8
0
  6
CONTINUOUS
 62
     7
 10
94.628952
 20
128.76227
 40
7.6823077
 50
184.47945
 51
216.00833
  0
ARC
  8
0
  6
CONTINUOUS
 62
     7
 10
88.024338
 20
128.76227
 40
7.6823077
 50
4.4794472
 51
36.008324
  0
ARC
  8
0
  6
CONTINUOUS
 62
     7
 10
159.0127
 20
129.31102
 40
2.4000001
 50
36.008324
 51
143.99167
  0
ARC
  8
0
  6
CONTINUOUS
 62
     7
 10
159.0127
 20
129.31102
 40
3.5999999
 50
36.008324
 51
143.99167
  0
ARC
  8
0
  6
CONTINUOUS
 62
     7
 10
159.0127
 20
124.51102
 40
2.4000001
 50
216.00833
 51
323.99168
  0
ARC
  8
0
  6
CONTINUOUS
 62
     7
 10
159.0127
 20
124.51102
 40
3.5999999
 50
216.00833
 51
323.99168
  0
ARC
  8
0
  6
CONTINUOUS
 62
     7
 10
162.315
 20
126.91103
 40
7.6823077
 50
143.99167
 51
175.52055
  0
ARC
  8
0
  6
CONTINUOUS
 62
     7
 10
162.315
 20
126.91103
 40
6.4823079
 50
143.99167
 51
174.68912
  0
ARC
  8
0
  6
CONTINUOUS
 62
     7
 10
155.71039
 20
126.91103
 40
6.4823079
 50
323.99167
 51
36.008324
  0
ARC
  8
0
  6
CONTINUOUS
 62
     7
 10
155.71039
 20
126.91103
 40
7.6823077
 50
323.99167
 51
355.52055
  0
ARC
  8
0
  6
CONTINUOUS
 62
     7
 10
153.46269
 20
126.91103
 40
0.75
 50
126.8699
 51
233.13009
  0
ARC
  8
0
  6
CONTINUOUS
 62
     7
 10
158.5627
 20
126.91103
 40
0.75
 50
306.8699
 51
53.130102
  0
ARC
  8
0
  6
CONTINUOUS
 62
     7
 10
164.5627
 20
126.91103
 40
0.75
 50
306.8699
 51
53.130102
  0
ARC
  8
0
  6
CONTINUOUS
 62
     7
 10
162.315
 20
126.91103
 40
6.4823079
 50
185.31088
 51
216.00833
  0
ARC
  8
0
  6
CONTINUOUS
 62
     7
 10
162.315
 20
126.91103
 40
7.6823077
 50
184.47945
 51
216.00833
  0
ARC
  8
0
  6
CONTINUOUS
 62
     7
 10
155.71039
 20
126.91103
 40
7.6823077
 50
4.4794472
 51
36.008324
  0
ARC
  8
0
  6
CONTINUOUS
 62
     7
 10
235.37645
 20
129.31102
 40
2.4000001
 50
36.008324
 51
143.99167
  0
ARC
  8
0
  6
CONTINUOUS
 62
     7
 10
235.37645
 20
129.31102
 40
3.5999999
 50
36.008324
 51
143.99167
  0
ARC
  8
0
  6
CONTINUOUS
 62
     7
 10
235.37645
 20
124.51102
 40
2.4000001
 50
216.00833
 51
323.99168
  0
ARC
  8
0
  6
CONTINUOUS
 62
     7
 10
235.37645
 20
124.51102
 40
3.5999999
 50
216.00833
 51
323.99168
  0
ARC
  8
0
  6
CONTINUOUS
 62
     7
 10
238.67876
 20
126.91103
 40
7.6823077
 50
143.99167
 51
175.52055
  0
ARC
  8
0
  6
CONTINUOUS
 62
     7
 10
238.67876
 20
126.91103
 40
6.4823079
 50
143.99167
 51
174.68912
  0
ARC
  8
0
  6
CONTINUOUS
 62
     7
 10
232.07414
 20
126.91103
 40
6.4823079
 50
323.99167
 51
36.008324
  0
ARC
  8
0
  6
CONTINUOUS
 62
     7
 10
232.07414
 20
126.91103
 40
7.6823077
 50
323.99167
 51
355.52055
  0
ARC
  8
0
  6
CONTINUOUS
 62
     7
 10
229.82645
 20
126.91103
 40
0.75
 50
126.8699
 51
233.13009
  0
ARC
  8
0
  6
CONTINUOUS
 62
     7
 10
234.92645
 20
126.91103
 40
0.75
 50
306.8699
 51
53.130102
  0
ARC
  8
0
  6
CONTINUOUS
 62
     7
 10
240.92645
 20
126.91103
 40
0.75
 50
306.8699
 51
53.130102
  0
ARC
  8
0
  6
CONTINUOUS
 62
     7
 10
238.67876
 20
126.91103
 40
6.4823079
 50
185.31088
 51
216.00833
  0
ARC
  8
0
  6
CONTINUOUS
 62
     7
 10
238.67876
 20
126.91103
 40
7.6823077
 50
184.47945
 51
216.00833
  0
ARC
  8
0
  6
CONTINUOUS
 62
     7
 10
232.07414
 20
126.91103
 40
7.6823077
 50
4.4794472
 51
36.008324
  0
ARC
  8
0
  6
CONTINUOUS
 62
     7
 10
-242.0891
 20
22.652905
 40
2.4000001
 50
36.008324
 51
143.99167
  0
ARC
  8
0
  6
CONTINUOUS
 62
     7
 10
-242.0891
 20
22.652905
 40
3.5999999
 50
36.008324
 51
143.99167
  0
ARC
  8
0
  6
CONTINUOUS
 62
     7
 10
-242.0891
 20
17.852905
 40
2.4000001
 50
216.00833
 51
323.99168
  0
ARC
  8
0
  6
CONTINUOUS
 62
     7
 10
-242.0891
 20
17.852905
 40
3.5999999
 50
216.00833
 51
323.99168
  0
ARC
  8
0
  6
CONTINUOUS
 62
     7
 10
-238.78679
 20
20.252905
 40
7.6823077
 50
143.99167
 51
175.52055
  0
ARC
  8
0
  6
CONTINUOUS
 62
     7
 10
-238.78679
 20
20.252905
 40
6.4823079
 50
143.99167
 51
174.68912
  0
ARC
  8
0
  6
CONTINUOUS
 62
     7
 10
-245.3914
 20
20.252905
 40
6.4823079
 50
323.99167
 51
36.008324
  0
ARC
  8
0
  6
CONTINUOUS
 62
     7
 10
-245.3914
 20
20.252905
 40
7.6823077
 50
323.99167
 51
355.52055
  0
ARC
  8
0
  6
CONTINUOUS
 62
     7
 10
-247.6391
 20
20.252905
 40
0.75
 50
126.8699
 51
233.13009
  0
ARC
  8
0
  6
CONTINUOUS
 62
     7
 10
-242.53909
 20
20.252905
 40
0.75
 50
306.8699
 51
53.130102
  0
ARC
  8
0
  6
CONTINUOUS
 62
     7
 10
-236.53909
 20
20.252905
 40
0.75
 50
306.8699
 51
53.130102
  0
ARC
  8
0
  6
CONTINUOUS
 62
     7
 10
-238.78679
 20
20.252905
 40
6.4823079
 50
185.31088
 51
216.00833
  0
ARC
  8
0
  6
CONTINUOUS
 62
     7
 10
-238.78679
 20
20.252905
 40
7.6823077
 50
184.47945
 51
216.00833
  0
ARC
  8
0
  6
CONTINUOUS
 62
     7
 10
-245.3914
 20
20.252905
 40
7.6823077
 50
4.4794472
 51
36.008324
  0
ARC
  8
0
  6
CONTINUOUS
 62
     7
 10
-160.45476
 20
20.909086
 40
2.4000001
 50
36.008324
 51
143.99167
  0
ARC
  8
0
  6
CONTINUOUS
 62
     7
 10
-160.45476
 20
20.909086
 40
3.5999999
 50
36.008324
 51
143.99167
  0
ARC
  8
0
  6
CONTINUOUS
 62
     7
 10
-160.45476
 20
16.109087
 40
2.4000001
 50
216.00833
 51
323.99168
  0
ARC
  8
0
  6
CONTINUOUS
 62
     7
 10
-160.45476
 20
16.109087
 40
3.5999999
 50
216.00833
 51
323.99168
  0
ARC
  8
0
  6
CONTINUOUS
 62
     7
 10
-157.15245
 20
18.509087
 40
7.6823077
 50
143.99167
 51
175.52055
  0
ARC
  8
0
  6
CONTINUOUS
 62
     7
 10
-157.15245
 20
18.509087
 40
6.4823079
 50
143.99167
 51
174.68912
  0
ARC
  8
0
  6
CONTINUOUS
 62
     7
 10
-163.75706
 20
18.509087
 40
6.4823079
 50
323.99167
 51
36.008324
  0
ARC
  8
0
  6
CONTINUOUS
 62
     7
 10
-163.75706
 20
18.509087
 40
7.6823077
 50
323.99167
 51
355.52055
  0
ARC
  8
0
  6
CONTINUOUS
 62
     7
 10
-166.00476
 20
18.509087
 40
0.75
 50
126.8699
 51
233.13009
  0
ARC
  8
0
  6
CONTINUOUS
 62
     7
 10
-160.90475
 20
18.509087
 40
0.75
 50
306.8699
 51
53.130102
  0
ARC
  8
0
  6
CONTINUOUS
 62
     7
 10
-154.90475
 20
18.509087
 40
0.75
 50
306.8699
 51
53.130102
  0
ARC
  8
0
  6
CONTINUOUS
 62
     7
 10
-157.15245
 20
18.509087
 40
6.4823079
 50
185.31088
 51
216.00833
  0
ARC
  8
0
  6
CONTINUOUS
 62
     7
 10
-157.15245
 20
18.509087
 40
7.6823077
 50
184.47945
 51
216.00833
  0
ARC
  8
0
  6
CONTINUOUS
 62
     7
 10
-163.75706
 20
18.509087
 40
7.6823077
 50
4.4794472
 51
36.008324
  0
ARC
  8
0
  6
CONTINUOUS
 62
     7
 10
-71.426399
 20
25.559269
 40
2.4000001
 50
36.008324
 51
143.99167
  0
ARC
  8
0
  6
CONTINUOUS
 62
     7
 10
-71.426399
 20
25.559269
 40
3.5999999
 50
36.008324
 51
143.99167
  0
ARC
  8
0
  6
CONTINUOUS
 62
     7
 10
-71.426399
 20
20.75927
 40
2.4000001
 50
216.00833
 51
323.99168
  0
ARC
  8
0
  6
CONTINUOUS
 62
     7
 10
-71.426399
 20
20.75927
 40
3.5999999
 50
216.00833
 51
323.99168
  0
ARC
  8
0
  6
CONTINUOUS
 62
     7
 10
-68.124092
 20
23.159269
 40
7.6823077
 50
143.99167
 51
175.52055
  0
ARC
  8
0
  6
CONTINUOUS
 62
     7
 10
-68.124092
 20
23.159269
 40
6.4823079
 50
143.99167
 51
174.68912
  0
ARC
  8
0
  6
CONTINUOUS
 62
     7
 10
-74.728706
 20
23.159269
 40
6.4823079
 50
323.99167
 51
36.008324
  0
ARC
  8
0
  6
CONTINUOUS
 62
     7
 10
-74.728706
 20
23.159269
 40
7.6823077
 50
323.99167
 51
355.52055
  0
ARC
  8
0
  6
CONTINUOUS
 62
     7
 10
-76.976402
 20
23.159269
 40
0.75
 50
126.8699
 51
233.13009
  0
ARC
  8
0
  6
CONTINUOUS
 62
     7
 10
-71.876396
 20
23.159269
 40
0.75
 50
306.8699
 51
53.130102
  0
ARC
  8
0
  6
CONTINUOUS
 62
     7
 10
-65.876396
 20
23.159269
 40
0.75
 50
306.8699
 51
53.130102
  0
ARC
  8
0
  6
CONTINUOUS
 62
     7
 10
-68.124092
 20
23.159269
 40
6.4823079
 50
185.31088
 51
216.00833
  0
ARC
  8
0
  6
CONTINUOUS
 62
     7
 10
-68.124092
 20
23.159269
 40
7.6823077
 50
184.47945
 51
216.00833
  0
ARC
  8
0
  6
CONTINUOUS
 62
     7
 10
-74.728706
 20
23.159269
 40
7.6823077
 50
4.4794472
 51
36.008324
  0
ARC
  8
0
  6
CONTINUOUS
 62
     7
 10
18.345764
 20
22.652905
 40
2.4000001
 50
36.008324
 51
143.99167
  0
ARC
  8
0
  6
CONTINUOUS
 62
     7
 10
18.345764
 20
22.652905
 40
3.5999999
 50
36.008324
 51
143.99167
  0
ARC
  8
0
  6
CONTINUOUS
 62
     7
 10
18.345764
 20
17.852905
 40
2.4000001
 50
216.00833
 51
323.99168
  0
ARC
  8
0
  6
CONTINUOUS
 62
     7
 10
18.345764
 20
17.852905
 40
3.5999999
 50
216.00833
 51
323.99168
  0
ARC
  8
0
  6
CONTINUOUS
 62
     7
 10
21.648071
 20
20.252905
 40
7.6823077
 50
143.99167
 51
175.52055
  0
ARC
  8
0
  6
CONTINUOUS
 62
     7
 10
21.648071
 20
20.252905
 40
6.4823079
 50
143.99167
 51
174.68912
  0
ARC
  8
0
  6
CONTINUOUS
 62
     7
 10
15.043457
 20
20.252905
 40
6.4823079
 50
323.99167
 51
36.008324
  0
ARC
  8
0
  6
CONTINUOUS
 62
     7
 10
15.043457
 20
20.252905
 40
7.6823077
 50
323.99167
 51
355.52055
  0
ARC
  8
0
  6
CONTINUOUS
 62
     7
 10
12.795764
 20
20.252905
 40
0.75
 50
126.8699
 51
233.13009
  0
ARC
  8
0
  6
CONTINUOUS
 62
     7
 10
17.895763
 20
20.252905
 40
0.75
 50
306.8699
 51
53.130102
  0
ARC
  8
0
  6
CONTINUOUS
 62
     7
 10
23.895763
 20
20.252905
 40
0.75
 50
306.8699
 51
53.130102
  0
ARC
  8
0
  6
CONTINUOUS
 62
     7
 10
21.648071
 20
20.252905
 40
6.4823079
 50
185.31088
 51
216.00833
  0
ARC
  8
0
  6
CONTINUOUS
 62
     7
 10
21.648071
 20
20.252905
 40
7.6823077
 50
184.47945
 51
216.00833
  0
ARC
  8
0
  6
CONTINUOUS
 62
     7
 10
15.043457
 20
20.252905
 40
7.6823077
 50
4.4794472
 51
36.008324
  0
ARC
  8
0
  6
CONTINUOUS
 62
     7
 10
109.0932
 20
19.746542
 40
2.4000001
 50
36.008324
 51
143.99167
  0
ARC
  8
0
  6
CONTINUOUS
 62
     7
 10
109.0932
 20
19.746542
 40
3.5999999
 50
36.008324
 51
143.99167
  0
ARC
  8
0
  6
CONTINUOUS
 62
     7
 10
109.0932
 20
14.946543
 40
2.4000001
 50
216.00833
 51
323.99168
  0
ARC
  8
0
  6
CONTINUOUS
 62
     7
 10
109.0932
 20
14.946543
 40
3.5999999
 50
216.00833
 51
323.99168
  0
ARC
  8
0
  6
CONTINUOUS
 62
     7
 10
112.39551
 20
17.346542
 40
7.6823077
 50
143.99167
 51
175.52055
  0
ARC
  8
0
  6
CONTINUOUS
 62
     7
 10
112.39551
 20
17.346542
 40
6.4823079
 50
143.99167
 51
174.68912
  0
ARC
  8
0
  6
CONTINUOUS
 62
     7
 10
105.79089
 20
17.346542
 40
6.4823079
 50
323.99167
 51
36.008324
  0
ARC
  8
0
  6
CONTINUOUS
 62
     7
 10
105.79089
 20
17.346542
 40
7.6823077
 50
323.99167
 51
355.52055
  0
ARC
  8
0
  6
CONTINUOUS
 62
     7
 10
103.5432
 20
17.346542
 40
0.75
 50
126.8699
 51
233.13009
  0
ARC
  8
0
  6
CONTINUOUS
 62
     7
 10
108.6432
 20
17.346542
 40
0.75
 50
306.8699
 51
53.130102
  0
ARC
  8
0
  6
CONTINUOUS
 62
     7
 10
114.6432
 20
17.346542
 40
0.75
 50
306.8699
 51
53.130102
  0
ARC
  8
0
  6
CONTINUOUS
 62
     7
 10
112.39551
 20
17.346542
 40
6.4823079
 50
185.31088
 51
216.00833
  0
ARC
  8
0
  6
CONTINUOUS
 62
     7
 10
112.39551
 20
17.346542
 40
7.6823077
 50
184.47945
 51
216.00833
  0
ARC
  8
0
  6
CONTINUOUS
 62
     7
 10
105.79089
 20
17.346542
 40
7.6823077
 50
4.4794472
 51
36.008324
  0
ARC
  8
0
  6
CONTINUOUS
 62
     7
 10
206.535
 20
15.677633
 40
2.4000001
 50
36.008324
 51
143.99167
  0
ARC
  8
0
  6
CONTINUOUS
 62
     7
 10
206.535
 20
15.677633
 40
3.5999999
 50
36.008324
 51
143.99167
  0
ARC
  8
0
  6
CONTINUOUS
 62
     7
 10
206.535
 20
10.877634
 40
2.4000001
 50
216.00833
 51
323.99168
  0
ARC
  8
0
  6
CONTINUOUS
 62
     7
 10
206.535
 20
10.877634
 40
3.5999999
 50
216.00833
 51
323.99168
  0
ARC
  8
0
  6
CONTINUOUS
 62
     7
 10
209.83731
 20
13.277634
 40
7.6823077
 50
143.99167
 51
175.52055
  0
ARC
  8
0
  6
CONTINUOUS
 62
     7
 10
209.83731
 20
13.277634
 40
6.4823079
 50
143.99167
 51
174.68912
  0
ARC
  8
0
  6
CONTINUOUS
 62
     7
 10
203.2327
 20
13.277634
 40
6.4823079
 50
323.99167
 51
36.008324
  0
ARC
  8
0
  6
CONTINUOUS
 62
     7
 10
203.2327
 20
13.277634
 40
7.6823077
 50
323.99167
 51
355.52055
  0
ARC
  8
0
  6
CONTINUOUS
 62
     7
 10
200.985
 20
13.277634
 40
0.75
 50
126.8699
 51
233.13009
  0
ARC
  8
0
  6
CONTINUOUS
 62
     7
 10
206.08501
 20
13.277634
 40
0.75
 50
306.8699
 51
53.130102
  0
ARC
  8
0
  6
CONTINUOUS
 62
     7
 10
212.08501
 20
13.277634
 40
0.75
 50
306.8699
 51
53.130102
  0
ARC
  8
0
  6
CONTINUOUS
 62
     7
 10
209.83731
 20
13.277634
 40
6.4823079
 50
185.31088
 51
216.00833
  0
ARC
  8
0
  6
CONTINUOUS
 62
     7
 10
209.83731
 20
13.277634
 40
7.6823077
 50
184.47945
 51
216.00833
  0
ARC
  8
0
  6
CONTINUOUS
 62
     7
 10
203.2327
 20
13.277634
 40
7.6823077
 50
4.4794472
 51
36.008324
  0
ARC
  8
0
  6
CONTINUOUS
 62
     7
 10
-227.78874
 20
-113.34616
 40
3
 50
36.008324
 51
143.99167
  0
ARC
  8
0
  6
CONTINUOUS
 62
     7
 10
-227.78874
 20
-113.34616
 40
4.5
 50
36.008324
 51
143.99167
  0
ARC
  8
0
  6
CONTINUOUS
 62
     7
 10
-227.78874
 20
-119.34616
 40
3
 50
216.00833
 51
323.99168
  0
ARC
  8
0
  6
CONTINUOUS
 62
     7
 10
-227.78874
 20
-119.34616
 40
4.5
 50
216.00833
 51
323.99168
  0
ARC
  8
0
  6
CONTINUOUS
 62
     7
 10
-223.66086
 20
-116.34616
 40
9.6028843
 50
143.99167
 51
175.52055
  0
ARC
  8
0
  6
CONTINUOUS
 62
     7
 10
-223.66086
 20
-116.34616
 40
8.1028843
 50
143.99167
 51
174.68912
  0
ARC
  8
0
  6
CONTINUOUS
 62
     7
 10
-231.91663
 20
-116.34616
 40
8.1028843
 50
323.99167
 51
36.008324
  0
ARC
  8
0
  6
CONTINUOUS
 62
     7
 10
-231.91663
 20
-116.34616
 40
9.6028843
 50
323.99167
 51
355.52055
  0
ARC
  8
0
  6
CONTINUOUS
 62
     7
 10
-234.72624
 20
-116.34616
 40
0.9375
 50
126.8699
 51
233.13009
  0
ARC
  8
0
  6
CONTINUOUS
 62
     7
 10
-228.35124
 20
-116.34616
 40
0.9375
 50
306.8699
 51
53.130102
  0
ARC
  8
0
  6
CONTINUOUS
 62
     7
 10
-220.85124
 20
-116.34616
 40
0.9375
 50
306.8699
 51
53.130102
  0
ARC
  8
0
  6
CONTINUOUS
 62
     7
 10
-223.66086
 20
-116.34616
 40
9.6028843
 50
184.47945
 51
216.00833
  0
ARC
  8
0
  6
CONTINUOUS
 62
     7
 10
-223.66086
 20
-116.34616
 40
8.1028843
 50
185.31088
 51
216.00833
  0
ARC
  8
0
  6
CONTINUOUS
 62
     7
 10
-231.91663
 20
-116.34616
 40
9.6028843
 50
4.4794472
 51
36.008324
  0
ARC
  8
0
  6
CONTINUOUS
 62
     7
 10
-127.22858
 20
-116.25253
 40
3
 50
36.008324
 51
143.99167
  0
ARC
  8
0
  6
CONTINUOUS
 62
     7
 10
-127.22858
 20
-116.25253
 40
4.5
 50
36.008324
 51
143.99167
  0
ARC
  8
0
  6
CONTINUOUS
 62
     7
 10
-127.22858
 20
-122.25253
 40
3
 50
216.00833
 51
323.99168
  0
ARC
  8
0
  6
CONTINUOUS
 62
     7
 10
-127.22858
 20
-122.25253
 40
4.5
 50
216.00833
 51
323.99168
  0
ARC
  8
0
  6
CONTINUOUS
 62
     7
 10
-123.10069
 20
-119.25253
 40
9.6028843
 50
143.99167
 51
175.52055
  0
ARC
  8
0
  6
CONTINUOUS
 62
     7
 10
-123.10069
 20
-119.25253
 40
8.1028843
 50
143.99167
 51
174.68912
  0
ARC
  8
0
  6
CONTINUOUS
 62
     7
 10
-131.35646
 20
-119.25253
 40
8.1028843
 50
323.99167
 51
36.008324
  0
ARC
  8
0
  6
CONTINUOUS
 62
     7
 10
-131.35646
 20
-119.25253
 40
9.6028843
 50
323.99167
 51
355.52055
  0
ARC
  8
0
  6
CONTINUOUS
 62
     7
 10
-134.16608
 20
-119.25253
 40
0.9375
 50
126.8699
 51
233.13009
  0
ARC
  8
0
  6
CONTINUOUS
 62
     7
 10
-127.79108
 20
-119.25253
 40
0.9375
 50
306.8699
 51
53.130102
  0
ARC
  8
0
  6
CONTINUOUS
 62
     7
 10
-120.29108
 20
-119.25253
 40
0.9375
 50
306.8699
 51
53.130102
  0
ARC
  8
0
  6
CONTINUOUS
 62
     7
 10
-123.10069
 20
-119.25253
 40
9.6028843
 50
184.47945
 51
216.00833
  0
ARC
  8
0
  6
CONTINUOUS
 62
     7
 10
-123.10069
 20
-119.25253
 40
8.1028843
 50
185.31088
 51
216.00833
  0
ARC
  8
0
  6
CONTINUOUS
 62
     7
 10
-131.35646
 20
-119.25253
 40
9.6028843
 50
4.4794472
 51
36.008324
  0
ARC
  8
0
  6
CONTINUOUS
 62
     7
 10
-21.436956
 20
-119.15889
 40
3
 50
36.008324
 51
143.99167
  0
ARC
  8
0
  6
CONTINUOUS
 62
     7
 10
-21.436956
 20
-119.15889
 40
4.5
 50
36.008324
 51
143.99167
  0
ARC
  8
0
  6
CONTINUOUS
 62
     7
 10
-21.436956
 20
-125.15889
 40
3
 50
216.00833
 51
323.99168
  0
ARC
  8
0
  6
CONTINUOUS
 62
     7
 10
-21.436956
 20
-125.15889
 40
4.5
 50
216.00833
 51
323.99168
  0
ARC
  8
0
  6
CONTINUOUS
 62
     7
 10
-17.309072
 20
-122.15889
 40
9.6028843
 50
143.99167
 51
175.52055
  0
ARC
  8
0
  6
CONTINUOUS
 62
     7
 10
-17.309072
 20
-122.15889
 40
8.1028843
 50
143.99167
 51
174.68912
  0
ARC
  8
0
  6
CONTINUOUS
 62
     7
 10
-25.56484
 20
-122.15889
 40
8.1028843
 50
323.99167
 51
36.008324
  0
ARC
  8
0
  6
CONTINUOUS
 62
     7
 10
-25.56484
 20
-122.15889
 40
9.6028843
 50
323.99167
 51
355.52055
  0
ARC
  8
0
  6
CONTINUOUS
 62
     7
 10
-28.374456
 20
-122.15889
 40
0.9375
 50
126.8699
 51
233.13009
  0
ARC
  8
0
  6
CONTINUOUS
 62
     7
 10
-21.999456
 20
-122.15889
 40
0.9375
 50
306.8699
 51
53.130102
  0
ARC
  8
0
  6
CONTINUOUS
 62
     7
 10
-14.499456
 20
-122.15889
 40
0.9375
 50
306.8699
 51
53.130102
  0
ARC
  8
0
  6
CONTINUOUS
 62
     7
 10
-17.309072
 20
-122.15889
 40
9.6028843
 50
184.47945
 51
216.00833
  0
ARC
  8
0
  6
CONTINUOUS
 62
     7
 10
-17.309072
 20
-122.15889
 40
8.1028843
 50
185.31088
 51
216.00833
  0
ARC
  8
0
  6
CONTINUOUS
 62
     7
 10
-25.56484
 20
-122.15889
 40
9.6028843
 50
4.4794472
 51
36.008324
  0
ARC
  8
0
  6
CONTINUOUS
 62
     7
 10
89.004845
 20
-123.2278
 40
3
 50
36.008324
 51
143.99167
  0
ARC
  8
0
  6
CONTINUOUS
 62
     7
 10
89.004845
 20
-123.2278
 40
4.5
 50
36.008324
 51
143.99167
  0
ARC
  8
0
  6
CONTINUOUS
 62
     7
 10
89.004845
 20
-129.2278
 40
3
 50
216.00833
 51
323.99168
  0
ARC
  8
0
  6
CONTINUOUS
 62
     7
 10
89.004845
 20
-129.2278
 40
4.5
 50
216.00833
 51
323.99168
  0
ARC
  8
0
  6
CONTINUOUS
 62
     7
 10
93.132729
 20
-126.2278
 40
9.6028843
 50
143.99167
 51
175.52055
  0
ARC
  8
0
  6
CONTINUOUS
 62
     7
 10
93.132729
 20
-126.2278
 40
8.1028843
 50
143.99167
 51
174.68912
  0
ARC
  8
0
  6
CONTINUOUS
 62
     7
 10
84.876961
 20
-126.2278
 40
8.1028843
 50
323.99167
 51
36.008324
  0
ARC
  8
0
  6
CONTINUOUS
 62
     7
 10
84.876961
 20
-126.2278
 40
9.6028843
 50
323.99167
 51
355.52055
  0
ARC
  8
0
  6
CONTINUOUS
 62
     7
 10
82.067345
 20
-126.2278
 40
0.9375
 50
126.8699
 51
233.13009
  0
ARC
  8
0
  6
CONTINUOUS
 62
     7
 10
88.442345
 20
-126.2278
 40
0.9375
 50
306.8699
 51
53.130102
  0
ARC
  8
0
  6
CONTINUOUS
 62
     7
 10
95.942345
 20
-126.2278
 40
0.9375
 50
306.8699
 51
53.130102
  0
ARC
  8
0
  6
CONTINUOUS
 62
     7
 10
93.132729
 20
-126.2278
 40
9.6028843
 50
184.47945
 51
216.00833
  0
ARC
  8
0
  6
CONTINUOUS
 62
     7
 10
93.132729
 20
-126.2278
 40
8.1028843
 50
185.31088
 51
216.00833
  0
ARC
  8
0
  6
CONTINUOUS
 62
     7
 10
84.876961
 20
-126.2278
 40
9.6028843
 50
4.4794472
 51
36.008324
  0
ARC
  8
0
  6
CONTINUOUS
 62
     7
 10
202.06236
 20
-127.29671
 40
3
 50
36.008324
 51
143.99167
  0
ARC
  8
0
  6
CONTINUOUS
 62
     7
 10
202.06236
 20
-127.29671
 40
4.5
 50
36.008324
 51
143.99167
  0
ARC
  8
0
  6
CONTINUOUS
 62
     7
 10
202.06236
 20
-133.29671
 40
3
 50
216.00833
 51
323.99168
  0
ARC
  8
0
  6
CONTINUOUS
 62
     7
 10
202.06236
 20
-133.29671
 40
4.5
 50
216.00833
 51
323.99168
  0
ARC
  8
0
  6
CONTINUOUS
 62
     7
 10
206.19025
 20
-130.29671
 40
9.6028843
 50
143.99167
 51
175.52055
  0
ARC
  8
0
  6
CONTINUOUS
 62
     7
 10
206.19025
 20
-130.29671
 40
8.1028843
 50
143.99167
 51
174.68912
  0
ARC
  8
0
  6
CONTINUOUS
 62
     7
 10
197.93448
 20
-130.29671
 40
8.1028843
 50
323.99167
 51
36.008324
  0
ARC
  8
0
  6
CONTINUOUS
 62
     7
 10
197.93448
 20
-130.29671
 40
9.6028843
 50
323.99167
 51
355.52055
  0
ARC
  8
0
  6
CONTINUOUS
 62
     7
 10
195.12486
 20
-130.29671
 40
0.9375
 50
126.8699
 51
233.13009
  0
ARC
  8
0
  6
CONTINUOUS
 62
     7
 10
201.49986
 20
-130.29671
 40
0.9375
 50
306.8699
 51
53.130102
  0
ARC
  8
0
  6
CONTINUOUS
 62
     7
 10
208.99986
 20
-130.29671
 40
0.9375
 50
306.8699
 51
53.130102
  0
ARC
  8
0
  6
CONTINUOUS
 62
     7
 10
206.19025
 20
-130.29671
 40
9.6028843
 50
184.47945
 51
216.00833
  0
ARC
  8
0
  6
CONTINUOUS
 62
     7
 10
206.19025
 20
-130.29671
 40
8.1028843
 50
185.31088
 51
216.00833
  0
ARC
  8
0
  6
CONTINUOUS
 62
     7
 10
197.93448
 20
-130.29671
 40
9.6028843
 50
4.4794472
 51
36.008324
  0
TEXT
  8
0
  6
CONTINUOUS
 62
     7
 10
-277.65794
 20
173.29536
 40
5
 41
1.0071429
  1
3/8X1/4
  0
TEXT
  8
0
  6
CONTINUOUS
 62
     7
 10
-227.443
 20
173.13004
 40
5
 41
1.0071429
  1
1/2X1/4
  0
TEXT
  8
0
  6
CONTINUOUS
 62
     7
 10
-175.0297
 20
173.27879
 40
5
 41
1.0071429
  1
1/2X3/8
  0
TEXT
  8
0
  6
CONTINUOUS
 62
     7
 10
-117.64118
 20
173.42755
 40
5
 41
1.0071429
  1
3/4X3/8
  0
TEXT
  8
0
  6
CONTINUOUS
 62
     7
 10
-55.508852
 20
173.27052
 40
5
 41
1.0071429
  1
3/4X1/2
  0
TEXT
  8
0
  6
CONTINUOUS
 62
     7
 10
14.978851
 20
173.57631
 40
5
 41
1.0102042
  1
1X3/8
  0
TEXT
  8
0
  6
CONTINUOUS
 62
     7
 10
79.54093
 20
173.26225
 40
5
 41
1.0102042
  1
1X1/2
  0
TEXT
  8
0
  6
CONTINUOUS
 62
     7
 10
147.22698
 20
173.41101
 40
5
 41
1.0102042
  1
1X3/4
  0
TEXT
  8
0
  6
CONTINUOUS
 62
     7
 10
216.09073
 20
173.41101
 40
5
 41
1.0062112
  1
11/4X1/2
  0
TEXT
  8
0
  6
CONTINUOUS
 62
     7
 10
-261.37481
 20
70.752892
 40
5
 41
1.0062112
  1
11/4X3/4
  0
TEXT
  8
0
  6
CONTINUOUS
 62
     7
 10
-174.74047
 20
71.009071
 40
5
 41
1.0084034
  1
11/4X1
  0
TEXT
  8
0
  6
CONTINUOUS
 62
     7
 10
-90.712114
 20
70.659256
 40
5
 41
1.0062112
  1
11/2X1/2
  0
TEXT
  8
0
  6
CONTINUOUS
 62
     7
 10
-0.93995094
 20
70.752892
 40
5
 41
1.0062112
  1
11/2X3/4
  0
TEXT
  8
0
  6
CONTINUOUS
 62
     7
 10
94.807486
 20
70.846527
 40
5
 41
1.0084034
  1
11/2X1
  0
TEXT
  8
0
  6
CONTINUOUS
 62
     7
 10
184.74929
 20
70.777618
 40
5
 41
1.0054945
  1
11/2X11/4
  0
TEXT
  8
0
  6
CONTINUOUS
 62
     7
 10
-239.57446
 20
-65.846176
 40
5
 41
1.0102042
  1
2X1/2
  0
TEXT
  8
0
  6
CONTINUOUS
 62
     7
 10
-139.01429
 20
-65.752541
 40
5
 41
1.0102042
  1
2X3/4
  0
TEXT
  8
0
  6
CONTINUOUS
 62
     7
 10
-28.222672
 20
-65.658894
 40
5
 41
1.0178573
  1
2X1
  0
TEXT
  8
0
  6
CONTINUOUS
 62
     7
 10
74.71913
 20
-65.727776
 40
5
 41
1.0084034
  1
2X11/4
  0
TEXT
  8
0
  6
CONTINUOUS
 62
     7
 10
187.77665
 20
-65.796703
 40
5
 41
1.0084034
  1
2X11/2
  0
TEXT
  8
0
  6
CONTINUOUS
 62
     7
 10
-56.317045
 20
187.19052
 40
10
 41
0.84409467
  1
径違いチーズ（枝径小）
  0
ENDSEC
  0
EOF
