  0
SECTION
  2
HEADER
  9
$EXTMAX
 10
297.25922
 20
211.66544
  9
$EXTMIN
 10
-297.25922
 20
-210.82214
  0
ENDSEC
  0
SECTION
  2
TABLES
  0
TABLE
  2
LTYPE
 70
    22
  0
LTYPE
  2
CONTINUOUS
 70
    64
  3
Solid line
 72
    65
 73
     0
 40
0.000000
  0
LTYPE
  2
DASHED
 70
    64
  3
__ __ __ __ __ __ __ __ __ __ __ __ __ __ __
 72
    65
 73
     2
 40
3.500000
 49
2.000000
 49
-1.500000
  0
LTYPE
  2
CENTER
 70
    64
  3
____ _ ____ _ ____ _ ____ _ ____ _ ____ _ ____
 72
    65
 73
     4
 40
17.500000
 49
13.000000
 49
-1.500000
 49
1.500000
 49
-1.500000
  0
LTYPE
  2
PHANTOM
 70
    64
  3
_____ _ _ _____ _ _ _____ _ _ _____ _ _ ____  
 72
    65
 73
     6
 40
15.500000
 49
8.000000
 49
-1.500000
 49
1.500000
 49
-1.500000
 49
1.500000
 49
-1.500000
  0
LTYPE
  2
DOT
 70
    64
  3
. . . . . . . . . . . . . . . . . . . . . . . .
 72
    65
 73
     2
 40
0.25
 49
0.0
 49
-0.25
  0
ENDTAB
  0
TABLE
  2
LAYER
 70
     1
  0
LAYER
  2
0
 70
     0
 62
     7
  6
CONTINUOUS
  0
ENDTAB
  0
TABLE
  2
STYLE
 70
     1
  0
STYLE
  2
STANDARD
 70
     0
 40
0.000000
 41
1.000000
 50
0.000000
 71
     0
 42
0.200000
  3
txt
  4
BIGFONT
  0
ENDTAB
  0
TABLE
  2
VIEW
 70
     0
  0
ENDTAB
  0
ENDSEC
  0
SECTION
  2
BLOCKS
  0
BLOCK
  8
0
  2
KOZU1
 70
    64
 10
0
 20
0
  0
POINT
  8
0
  6
CONTINUOUS
 62
     7
 10
0
 20
0
  0
POINT
  8
0
  6
CONTINUOUS
 62
     7
 10
0
 20
-15.299973
  0
LINE
  8
0
  6
CENTER
 62
     7
 10
0
 20
0.89038551
 11
0
 21
-16.190357
  0
LINE
  8
0
  6
CONTINUOUS
 62
     7
 10
-4.1792116
 20
-14.351294
 11
-4.34446
 21
-9.0633154
  0
LINE
  8
0
  6
CONTINUOUS
 62
     7
 10
-4.7789464
 20
-13.751615
 11
-4.9586983
 21
-7.9995246
  0
LINE
  8
0
  6
CONTINUOUS
 62
     7
 10
-3.0109253
 20
-15.299973
 11
3.0109711
 21
-15.299973
  0
LINE
  8
0
  6
CONTINUOUS
 62
     7
 10
-3.5306194
 20
-14.999961
 11
-4.7790031
 21
-13.751589
  0
LINE
  8
0
  6
CONTINUOUS
 62
     7
 10
4.1792183
 20
-14.351298
 11
4.3444681
 21
-9.0633154
  0
LINE
  8
0
  6
CONTINUOUS
 62
     7
 10
4.7789388
 20
-13.751589
 11
4.9596229
 21
-7.9697127
  0
LINE
  8
0
  6
CONTINUOUS
 62
     7
 10
3.5305562
 20
-14.999973
 11
4.7789617
 21
-13.75158
  0
LINE
  8
0
  6
CONTINUOUS
 62
     7
 10
-3.0109382
 20
-15.30003
 11
-3.5305719
 21
-15.000019
  0
LINE
  8
0
  6
CONTINUOUS
 62
     7
 10
3.0109105
 20
-15.299932
 11
3.5305312
 21
-14.999928
  0
LINE
  8
0
  6
CONTINUOUS
 62
     7
 10
-3.4828103
 20
-6.5178509
 11
-3.2500296
 21
1.2133518E-005
  0
LINE
  8
0
  6
CONTINUOUS
 62
     7
 10
-3.25
 20
0
 11
3.25
 21
0
  0
LINE
  8
0
  6
CONTINUOUS
 62
     7
 10
3.2499766
 20
1.3976893E-006
 11
3.4827576
 21
-6.5178618
  0
LINE
  8
0
  6
CONTINUOUS
 62
     7
 10
-4.9587221
 20
-7.9994683
 11
-4.0197816
 21
-6.999958
  0
LINE
  8
0
  6
CONTINUOUS
 62
     7
 10
3.9898987
 20
-7.0000086
 11
4.9595919
 21
-7.9697018
  0
LINE
  8
0
  6
CONTINUOUS
 62
     7
 10
-4.1548114
 20
-14.375774
 11
4.1547604
 21
-14.375774
  0
LINE
  8
0
  6
CONTINUOUS
 62
     7
 10
-4.778945
 20
-13.751647
 11
4.7789369
 21
-13.751647
  0
LINE
  8
0
  6
CONTINUOUS
 62
     7
 10
-4.0185933
 20
-6.998693
 11
3.9898357
 21
-6.998693
  0
LINE
  8
0
  6
CONTINUOUS
 62
     7
 10
4.3444676
 20
-9.0633154
 11
4.9717917
 21
-7.976758
  0
LINE
  8
0
  6
CONTINUOUS
 62
     7
 10
-4.9254551
 20
-9.0633154
 11
4.9254475
 21
-9.0633154
  0
LINE
  8
0
  6
CONTINUOUS
 62
     7
 10
-4.3444676
 20
-9.0633154
 11
-4.9717917
 21
-7.976758
  0
ARC
  8
0
  6
CONTINUOUS
 62
     7
 10
-3.9824677
 20
-6.5
 40
0.5
 50
270.00002
 51
357.95381
  0
ARC
  8
0
  6
CONTINUOUS
 62
     7
 10
3.9824677
 20
-6.5
 40
0.5
 50
182.04618
 51
269.99998
  0
TEXT
  8
0
  6
CONTINUOUS
 62
     7
 10
-3.7719244
 20
2.0624393
 40
3.2
 41
1.0178906
  1
1/8
  0
ENDBLK
  8
0
  0
BLOCK
  8
0
  2
KOZU2
 70
    64
 10
0
 20
0
  0
POINT
  8
0
  6
CONTINUOUS
 62
     7
 10
0
 20
0
  0
POINT
  8
0
  6
CONTINUOUS
 62
     7
 10
0
 20
-19.300003
  0
LINE
  8
0
  6
CENTER
 62
     7
 10
0
 20
-20.919901
 11
0
 21
1.4017434
  0
LINE
  8
0
  6
CONTINUOUS
 62
     7
 10
-5.5622191
 20
-18.119009
 11
-5.7839999
 21
-11.022005
  0
LINE
  8
0
  6
CONTINUOUS
 62
     7
 10
-6.4458385
 20
-17.235455
 11
-6.6875935
 21
-9.4992704
  0
LINE
  8
0
  6
CONTINUOUS
 62
     7
 10
-4.1617126
 20
-19.300003
 11
4.1617279
 21
-19.300003
  0
LINE
  8
0
  6
CONTINUOUS
 62
     7
 10
-4.6812882
 20
-19.000004
 11
-6.4458265
 21
-17.235439
  0
LINE
  8
0
  6
CONTINUOUS
 62
     7
 10
-4.1617212
 20
-19.300043
 11
-4.6813154
 21
-19.000055
  0
LINE
  8
0
  6
CONTINUOUS
 62
     7
 10
5.5622149
 20
-18.119007
 11
5.7839966
 21
-11.022005
  0
LINE
  8
0
  6
CONTINUOUS
 62
     7
 10
6.4458194
 20
-17.235451
 11
6.6889734
 21
-9.4545364
  0
LINE
  8
0
  6
CONTINUOUS
 62
     7
 10
4.6812758
 20
-18.99996
 11
6.4457932
 21
-17.235416
  0
LINE
  8
0
  6
CONTINUOUS
 62
     7
 10
4.1616902
 20
-19.300024
 11
4.6812844
 21
-19.000036
  0
LINE
  8
0
  6
CONTINUOUS
 62
     7
 10
-4.25
 20
0
 11
4.25
 21
0
  0
LINE
  8
0
  6
CONTINUOUS
 62
     7
 10
-4.4848695
 20
-7.5156097
 11
-4.2500062
 21
8.266109E-006
  0
LINE
  8
0
  6
CONTINUOUS
 62
     7
 10
4.4848571
 20
-7.5155993
 11
4.2499943
 21
1.8736515E-005
  0
LINE
  8
0
  6
CONTINUOUS
 62
     7
 10
-6.6875849
 20
-9.4992733
 11
-5.2791762
 21
-8.0000057
  0
LINE
  8
0
  6
CONTINUOUS
 62
     7
 10
5.234446
 20
-8.0000124
 11
6.6889911
 21
-9.4545574
  0
LINE
  8
0
  6
CONTINUOUS
 62
     7
 10
-5.2791901
 20
-8
 11
-4.9846191
 21
-8
  0
LINE
  8
0
  6
CONTINUOUS
 62
     7
 10
4.9846191
 20
-8
 11
5.234436
 21
-8
  0
LINE
  8
0
  6
CONTINUOUS
 62
     7
 10
5.7839966
 20
-11.022006
 11
6.6889734
 21
-9.4545403
  0
LINE
  8
0
  6
CONTINUOUS
 62
     7
 10
-6.640008
 20
-11.022005
 11
6.6399899
 21
-11.022005
  0
LINE
  8
0
  6
CONTINUOUS
 62
     7
 10
-5.5622721
 20
-18.119007
 11
5.5622149
 21
-18.119007
  0
LINE
  8
0
  6
CONTINUOUS
 62
     7
 10
-6.4458385
 20
-17.235451
 11
6.4458194
 21
-17.235451
  0
LINE
  8
0
  6
CONTINUOUS
 62
     7
 10
-5.2791762
 20
-8.0000057
 11
5.2344394
 21
-8.0000057
  0
LINE
  8
0
  6
CONTINUOUS
 62
     7
 10
-5.7839966
 20
-11.022006
 11
-6.6889734
 21
-9.4545403
  0
ARC
  8
0
  6
CONTINUOUS
 62
     7
 10
-4.9846191
 20
-7.5
 40
0.5
 50
270.00002
 51
358.21096
  0
ARC
  8
0
  6
CONTINUOUS
 62
     7
 10
4.9846191
 20
-7.5
 40
0.5
 50
181.78901
 51
270.00002
  0
TEXT
  8
0
  6
CONTINUOUS
 62
     7
 10
-4.5265509
 20
1.9619025
 40
3.2
 41
1.0178906
  1
1/4
  0
ENDBLK
  8
0
  0
BLOCK
  8
0
  2
KOZU3
 70
    64
 10
0
 20
0
  0
POINT
  8
0
  6
CONTINUOUS
 62
     7
 10
0
 20
0
  0
POINT
  8
0
  6
CONTINUOUS
 62
     7
 10
0
 20
-21.299988
  0
LINE
  8
0
  6
CENTER
 62
     7
 10
0
 20
-23.306992
 11
0
 21
1.5841126
  0
LINE
  8
0
  6
CONTINUOUS
 62
     7
 10
-5.1129608
 20
-21.299988
 11
5.1129608
 21
-21.299988
  0
LINE
  8
0
  6
CONTINUOUS
 62
     7
 10
-7.3296056
 20
-19.302952
 11
-7.5419831
 21
-12.506847
  0
LINE
  8
0
  6
CONTINUOUS
 62
     7
 10
-8.2131891
 20
-18.419313
 11
-8.4450731
 21
-10.999015
  0
LINE
  8
0
  6
CONTINUOUS
 62
     7
 10
-5.6325917
 20
-20.999977
 11
-8.2131948
 21
-18.419357
  0
LINE
  8
0
  6
CONTINUOUS
 62
     7
 10
-5.1129646
 20
-21.299986
 11
-5.632585
 21
-20.999983
  0
LINE
  8
0
  6
CONTINUOUS
 62
     7
 10
7.3295865
 20
-19.302952
 11
7.541965
 21
-12.506847
  0
LINE
  8
0
  6
CONTINUOUS
 62
     7
 10
8.2131844
 20
-18.41934
 11
8.4469337
 21
-10.939397
  0
LINE
  8
0
  6
CONTINUOUS
 62
     7
 10
5.6325884
 20
-20.999975
 11
8.2131929
 21
-18.419355
  0
LINE
  8
0
  6
CONTINUOUS
 62
     7
 10
5.1129479
 20
-21.299976
 11
5.6325684
 21
-20.999973
  0
LINE
  8
0
  6
CONTINUOUS
 62
     7
 10
-6.5672226
 20
-9
 11
-6.4836121
 21
-9
  0
LINE
  8
0
  6
CONTINUOUS
 62
     7
 10
-8.445097
 20
-10.999008
 11
-6.5672359
 21
-8.9999847
  0
LINE
  8
0
  6
CONTINUOUS
 62
     7
 10
6.507534
 20
-9.0000114
 11
8.4469309
 21
-10.939408
  0
LINE
  8
0
  6
CONTINUOUS
 62
     7
 10
-5.6999969
 20
0
 11
5.6999893
 21
0
  0
LINE
  8
0
  6
CONTINUOUS
 62
     7
 10
-5.98388
 20
-8.5166702
 11
-5.6999884
 21
-8.3850236E-006
  0
LINE
  8
0
  6
CONTINUOUS
 62
     7
 10
5.9838867
 20
-8.5166721
 11
5.699995
 21
-9.4880879E-006
  0
LINE
  8
0
  6
CONTINUOUS
 62
     7
 10
6.4836044
 20
-9
 11
6.5075378
 21
-9
  0
LINE
  8
0
  6
CONTINUOUS
 62
     7
 10
-6.5672603
 20
-9.0000105
 11
6.507534
 21
-9.0000105
  0
LINE
  8
0
  6
CONTINUOUS
 62
     7
 10
-8.2131891
 20
-18.419312
 11
8.2131853
 21
-18.419312
  0
LINE
  8
0
  6
CONTINUOUS
 62
     7
 10
-7.3296056
 20
-19.302952
 11
7.329586
 21
-19.302952
  0
LINE
  8
0
  6
CONTINUOUS
 62
     7
 10
7.541965
 20
-12.506847
 11
8.4469337
 21
-10.939396
  0
LINE
  8
0
  6
CONTINUOUS
 62
     7
 10
-8.397953
 20
-12.506847
 11
8.3979502
 21
-12.506847
  0
LINE
  8
0
  6
CONTINUOUS
 62
     7
 10
-7.541965
 20
-12.506847
 11
-8.4469337
 21
-10.939396
  0
ARC
  8
0
  6
CONTINUOUS
 62
     7
 10
-6.4836121
 20
-8.5
 40
0.5
 50
270.00002
 51
358.09027
  0
ARC
  8
0
  6
CONTINUOUS
 62
     7
 10
6.4836044
 20
-8.5
 40
0.5
 50
181.90972
 51
270.00002
  0
TEXT
  8
0
  6
CONTINUOUS
 62
     7
 10
-5.3003515
 20
1.7317859
 40
3.2
 41
1.0178906
  1
3/8
  0
ENDBLK
  8
0
  0
BLOCK
  8
0
  2
KOZU4
 70
    64
 10
0
 20
0
  0
POINT
  8
0
  6
CONTINUOUS
 62
     7
 10
0
 20
0
  0
POINT
  8
0
  6
CONTINUOUS
 62
     7
 10
0
 20
-25.399994
  0
LINE
  8
0
  6
CENTER
 62
     7
 10
0
 20
-27.87505
 11
0
 21
2.001786
  0
LINE
  8
0
  6
CONTINUOUS
 62
     7
 10
-9.1198139
 20
-23.102692
 11
-9.4003115
 21
-14.12676
  0
LINE
  8
0
  6
CONTINUOUS
 62
     7
 10
-10.319257
 20
-21.903236
 11
-10.628762
 21
-11.999028
  0
LINE
  8
0
  6
CONTINUOUS
 62
     7
 10
-6.5296783
 20
-25.399994
 11
6.5297089
 21
-25.399994
  0
LINE
  8
0
  6
CONTINUOUS
 62
     7
 10
-7.2224708
 20
-24.999985
 11
-10.319245
 21
-21.90321
  0
LINE
  8
0
  6
CONTINUOUS
 62
     7
 10
-6.5296898
 20
-25.400034
 11
-7.2224994
 21
-25.00004
  0
LINE
  8
0
  6
CONTINUOUS
 62
     7
 10
9.1198034
 20
-23.10269
 11
9.4003019
 21
-14.12676
  0
LINE
  8
0
  6
CONTINUOUS
 62
     7
 10
10.319246
 20
-21.903206
 11
10.628753
 21
-11.999027
  0
LINE
  8
0
  6
CONTINUOUS
 62
     7
 10
7.2224517
 20
-25.000042
 11
10.31926
 21
-21.903234
  0
LINE
  8
0
  6
CONTINUOUS
 62
     7
 10
6.5296535
 20
-25.400021
 11
7.2224636
 21
-25.000027
  0
LINE
  8
0
  6
CONTINUOUS
 62
     7
 10
-6.5999985
 20
0
 11
6.6000061
 21
0
  0
LINE
  8
0
  6
CONTINUOUS
 62
     7
 10
-6.9616122
 20
-9.0399523
 11
-6.6000123
 21
1.3617565E-005
  0
LINE
  8
0
  6
CONTINUOUS
 62
     7
 10
6.9615936
 20
-9.0399485
 11
6.5999937
 21
1.7509017E-005
  0
LINE
  8
0
  6
CONTINUOUS
 62
     7
 10
7.9608078
 20
-10
 11
8.750885
 21
-10
  0
LINE
  8
0
  6
CONTINUOUS
 62
     7
 10
-10.628757
 20
-11.999028
 11
-8.7508793
 21
-10.000003
  0
LINE
  8
0
  6
CONTINUOUS
 62
     7
 10
10.628756
 20
-11.999022
 11
8.7508821
 21
-9.9999943
  0
LINE
  8
0
  6
CONTINUOUS
 62
     7
 10
-8.7508774
 20
-10
 11
-7.9608002
 21
-10
  0
LINE
  8
0
  6
CONTINUOUS
 62
     7
 10
9.4003019
 20
-14.12676
 11
10.628753
 21
-11.99902
  0
LINE
  8
0
  6
CONTINUOUS
 62
     7
 10
-8.7508707
 20
-9.9999943
 11
8.7508821
 21
-9.9999943
  0
LINE
  8
0
  6
CONTINUOUS
 62
     7
 10
-10.56227
 20
-14.12676
 11
10.562261
 21
-14.12676
  0
LINE
  8
0
  6
CONTINUOUS
 62
     7
 10
-10.319256
 20
-21.903248
 11
10.319245
 21
-21.903248
  0
LINE
  8
0
  6
CONTINUOUS
 62
     7
 10
-9.1198139
 20
-23.10269
 11
9.1198034
 21
-23.10269
  0
LINE
  8
0
  6
CONTINUOUS
 62
     7
 10
-9.4003019
 20
-14.12676
 11
-10.628753
 21
-11.99902
  0
ARC
  8
0
  6
CONTINUOUS
 62
     7
 10
-7.9608002
 20
-9
 40
1
 50
270.00002
 51
357.7097
  0
ARC
  8
0
  6
CONTINUOUS
 62
     7
 10
7.9608078
 20
-9
 40
1
 50
182.29029
 51
270.00002
  0
TEXT
  8
0
  6
CONTINUOUS
 62
     7
 10
-5.7325138
 20
2.7415379
 40
3.2
 41
1.0178906
  1
1/2
  0
ENDBLK
  8
0
  0
BLOCK
  8
0
  2
KOZU5
 70
    64
 10
0
 20
0
  0
POINT
  8
0
  6
CONTINUOUS
 62
     7
 10
0
 20
0
  0
POINT
  8
0
  6
CONTINUOUS
 62
     7
 10
0
 20
-28.399994
  0
LINE
  8
0
  6
CENTER
 62
     7
 10
0
 20
-31.399994
 11
0
 21
2.8709259
  0
LINE
  8
0
  6
CONTINUOUS
 62
     7
 10
-11.81924
 20
-26.125999
 11
-12.162966
 21
-15.126733
  0
LINE
  8
0
  6
CONTINUOUS
 62
     7
 10
-13.016386
 20
-25.00148
 11
-13.391461
 21
-12.999023
  0
LINE
  8
0
  6
CONTINUOUS
 62
     7
 10
-13.016374
 20
-25.001478
 11
-9.8244133
 21
-28.000004
  0
LINE
  8
0
  6
CONTINUOUS
 62
     7
 10
-9.1315823
 20
-28.400021
 11
-9.8243914
 21
-28.000027
  0
LINE
  8
0
  6
CONTINUOUS
 62
     7
 10
11.819261
 20
-26.125998
 11
12.162989
 21
-15.126732
  0
LINE
  8
0
  6
CONTINUOUS
 62
     7
 10
13.016384
 20
-25.001471
 11
13.391462
 21
-12.998997
  0
LINE
  8
0
  6
CONTINUOUS
 62
     7
 10
9.1315918
 20
-28.399994
 11
-9.1315765
 21
-28.399994
  0
LINE
  8
0
  6
CONTINUOUS
 62
     7
 10
13.016359
 20
-25.001446
 11
9.8243876
 21
-27.999981
  0
LINE
  8
0
  6
CONTINUOUS
 62
     7
 10
9.1315413
 20
-28.399929
 11
9.8243513
 21
-27.999935
  0
LINE
  8
0
  6
CONTINUOUS
 62
     7
 10
-13.391546
 20
-12.998991
 11
-11.513678
 21
-10.999968
  0
LINE
  8
0
  6
CONTINUOUS
 62
     7
 10
-11.513611
 20
-11
 11
-9.4643021
 21
-11
  0
LINE
  8
0
  6
CONTINUOUS
 62
     7
 10
13.391508
 20
-12.998998
 11
11.513646
 21
-10.999981
  0
LINE
  8
0
  6
CONTINUOUS
 62
     7
 10
-8.0999985
 20
0
 11
8.0999908
 21
0
  0
LINE
  8
0
  6
CONTINUOUS
 62
     7
 10
-8.4649754
 20
-10.036384
 11
-8.1000156
 21
-3.2890861E-005
  0
LINE
  8
0
  6
CONTINUOUS
 62
     7
 10
8.4649401
 20
-10.03636
 11
8.0999804
 21
6.5148138E-006
  0
LINE
  8
0
  6
CONTINUOUS
 62
     7
 10
9.4642944
 20
-11
 11
11.513634
 21
-11
  0
LINE
  8
0
  6
CONTINUOUS
 62
     7
 10
12.162988
 20
-15.126732
 11
13.391463
 21
-12.99895
  0
LINE
  8
0
  6
CONTINUOUS
 62
     7
 10
-13.324971
 20
-15.126732
 11
13.32497
 21
-15.126732
  0
LINE
  8
0
  6
CONTINUOUS
 62
     7
 10
-11.513708
 20
-11
 11
11.513664
 21
-11
  0
LINE
  8
0
  6
CONTINUOUS
 62
     7
 10
-11.81931
 20
-26.125998
 11
11.819261
 21
-26.125998
  0
LINE
  8
0
  6
CONTINUOUS
 62
     7
 10
-13.016388
 20
-25.001419
 11
13.016386
 21
-25.001419
  0
LINE
  8
0
  6
CONTINUOUS
 62
     7
 10
-12.162988
 20
-15.126732
 11
-13.391463
 21
-12.99895
  0
ARC
  8
0
  6
CONTINUOUS
 62
     7
 10
-9.4643021
 20
-10
 40
1
 50
270.00002
 51
357.91705
  0
ARC
  8
0
  6
CONTINUOUS
 62
     7
 10
9.4642944
 20
-10
 40
1
 50
182.08293
 51
270.00002
  0
TEXT
  8
0
  6
CONTINUOUS
 62
     7
 10
-5.5703286
 20
3.1894416
 40
3.2
 41
1.0178906
  1
3/4
  0
ENDBLK
  8
0
  0
BLOCK
  8
0
  2
KOZU6
 70
    64
 10
0
 20
0
  0
POINT
  8
0
  6
CONTINUOUS
 62
     7
 10
0
 20
0
  0
POINT
  8
0
  6
CONTINUOUS
 62
     7
 10
0
 20
-31.399994
  0
LINE
  8
0
  6
CENTER
 62
     7
 10
0
 20
-34.399994
 11
0
 21
3
  0
LINE
  8
0
  6
CONTINUOUS
 62
     7
 10
-14.869767
 20
-29.432854
 11
-15.236207
 21
-17.706764
  0
LINE
  8
0
  6
CONTINUOUS
 62
     7
 10
-16.393513
 20
-28.001486
 11
-16.799854
 21
-14.998554
  0
LINE
  8
0
  6
CONTINUOUS
 62
     7
 10
-12.508728
 20
-31.399994
 11
12.508728
 21
-31.399994
  0
LINE
  8
0
  6
CONTINUOUS
 62
     7
 10
-16.393518
 20
-28.001457
 11
-13.201476
 21
-31.000031
  0
LINE
  8
0
  6
CONTINUOUS
 62
     7
 10
-12.508742
 20
-31.400011
 11
-13.201486
 21
-31.000055
  0
LINE
  8
0
  6
CONTINUOUS
 62
     7
 10
14.869761
 20
-29.43272
 11
15.236197
 21
-17.706764
  0
LINE
  8
0
  6
CONTINUOUS
 62
     7
 10
16.393497
 20
-28.001469
 11
16.799839
 21
-14.998538
  0
LINE
  8
0
  6
CONTINUOUS
 62
     7
 10
16.393471
 20
-28.00136
 11
13.201418
 21
-30.999943
  0
LINE
  8
0
  6
CONTINUOUS
 62
     7
 10
12.508694
 20
-31.399946
 11
13.201425
 21
-30.999998
  0
LINE
  8
0
  6
CONTINUOUS
 62
     7
 10
-16.799908
 20
-14.998484
 11
-13.983097
 21
-11.999949
  0
LINE
  8
0
  6
CONTINUOUS
 62
     7
 10
16.799881
 20
-14.998498
 11
13.983077
 21
-11.999961
  0
LINE
  8
0
  6
CONTINUOUS
 62
     7
 10
-13.983047
 20
-12
 11
-10.467224
 21
-12
  0
LINE
  8
0
  6
CONTINUOUS
 62
     7
 10
-9.0999985
 20
0
 11
9.0999908
 21
0
  0
LINE
  8
0
  6
CONTINUOUS
 62
     7
 10
-9.4677839
 20
-11.033293
 11
-9.1000051
 21
2.2470169E-005
  0
LINE
  8
0
  6
CONTINUOUS
 62
     7
 10
9.4677753
 20
-11.033298
 11
9.0999975
 21
2.8532538E-006
  0
LINE
  8
0
  6
CONTINUOUS
 62
     7
 10
10.467216
 20
-12
 11
13.983047
 21
-12
  0
LINE
  8
0
  6
CONTINUOUS
 62
     7
 10
15.236197
 20
-17.706762
 11
16.799839
 21
-14.998454
  0
LINE
  8
0
  6
CONTINUOUS
 62
     7
 10
-13.983146
 20
-12
 11
13.983114
 21
-12
  0
LINE
  8
0
  6
CONTINUOUS
 62
     7
 10
-16.715223
 20
-17.706764
 11
16.715206
 21
-17.706764
  0
LINE
  8
0
  6
CONTINUOUS
 62
     7
 10
-16.393518
 20
-28.001335
 11
16.393499
 21
-28.001335
  0
LINE
  8
0
  6
CONTINUOUS
 62
     7
 10
-14.869909
 20
-29.43272
 11
14.869761
 21
-29.43272
  0
LINE
  8
0
  6
CONTINUOUS
 62
     7
 10
-15.236197
 20
-17.706762
 11
-16.799839
 21
-14.998454
  0
ARC
  8
0
  6
CONTINUOUS
 62
     7
 10
-10.467224
 20
-11
 40
1
 50
270.00002
 51
358.09112
  0
ARC
  8
0
  6
CONTINUOUS
 62
     7
 10
10.467216
 20
-11
 40
1
 50
181.90886
 51
270.00002
  0
TEXT
  8
0
  6
CONTINUOUS
 62
     7
 10
-1.250382
 20
3.7799996
 40
3.2
 41
1.0715625
  1
1
  0
ENDBLK
  8
0
  0
BLOCK
  8
0
  2
KOZU7
 70
    64
 10
0
 20
0
  0
POINT
  8
0
  6
CONTINUOUS
 62
     7
 10
0
 20
0
  0
POINT
  8
0
  6
CONTINUOUS
 62
     7
 10
0
 20
-35.500015
  0
LINE
  8
0
  6
CENTER
 62
     7
 10
0
 20
-38.500015
 11
0
 21
3
  0
LINE
  8
0
  6
CONTINUOUS
 62
     7
 10
-19.14431
 20
-32.913841
 11
-19.572659
 21
-19.206614
  0
LINE
  8
0
  6
CONTINUOUS
 62
     7
 10
-20.671036
 20
-31.387131
 11
-21.136309
 21
-16.498297
  0
LINE
  8
0
  6
CONTINUOUS
 62
     7
 10
-16.192108
 20
-35.500015
 11
16.192123
 21
-35.500015
  0
LINE
  8
0
  6
CONTINUOUS
 62
     7
 10
-17.058115
 20
-35.000008
 11
-20.671021
 21
-31.3871
  0
LINE
  8
0
  6
CONTINUOUS
 62
     7
 10
-16.19212
 20
-35.50005
 11
-17.05813
 21
-35.000057
  0
LINE
  8
0
  6
CONTINUOUS
 62
     7
 10
19.144314
 20
-32.913841
 11
19.572666
 21
-19.206614
  0
LINE
  8
0
  6
CONTINUOUS
 62
     7
 10
20.671032
 20
-31.38714
 11
21.136309
 21
-16.498291
  0
LINE
  8
0
  6
CONTINUOUS
 62
     7
 10
17.058138
 20
-35.000019
 11
20.671055
 21
-31.387102
  0
LINE
  8
0
  6
CONTINUOUS
 62
     7
 10
16.19211
 20
-35.500038
 11
17.058134
 21
-35.000038
  0
LINE
  8
0
  6
CONTINUOUS
 62
     7
 10
-21.136326
 20
-16.498297
 11
-17.850063
 21
-13.000005
  0
LINE
  8
0
  6
CONTINUOUS
 62
     7
 10
21.136309
 20
-16.498302
 11
17.850042
 21
-13.000017
  0
LINE
  8
0
  6
CONTINUOUS
 62
     7
 10
-17.85006
 20
-13
 11
-13.424553
 21
-13
  0
LINE
  8
0
  6
CONTINUOUS
 62
     7
 10
-11
 20
0
 11
11
 21
0
  0
LINE
  8
0
  6
CONTINUOUS
 62
     7
 10
-11.426029
 20
-11.07689
 11
-10.999995
 21
-1.2025802E-005
  0
LINE
  8
0
  6
CONTINUOUS
 62
     7
 10
11.426041
 20
-11.076875
 11
11.000007
 21
-1.2926083E-005
  0
LINE
  8
0
  6
CONTINUOUS
 62
     7
 10
13.424553
 20
-13
 11
17.850044
 21
-13
  0
LINE
  8
0
  6
CONTINUOUS
 62
     7
 10
19.572664
 20
-19.206614
 11
21.136309
 21
-16.498304
  0
LINE
  8
0
  6
CONTINUOUS
 62
     7
 10
-17.85006
 20
-13
 11
17.850027
 21
-13
  0
LINE
  8
0
  6
CONTINUOUS
 62
     7
 10
-21.051676
 20
-19.206614
 11
21.051674
 21
-19.206614
  0
LINE
  8
0
  6
CONTINUOUS
 62
     7
 10
-19.144278
 20
-32.913841
 11
19.144314
 21
-32.913841
  0
LINE
  8
0
  6
CONTINUOUS
 62
     7
 10
-20.671036
 20
-31.387125
 11
20.671032
 21
-31.387125
  0
LINE
  8
0
  6
CONTINUOUS
 62
     7
 10
-19.572664
 20
-19.206614
 11
-21.136309
 21
-16.498304
  0
ARC
  8
0
  6
CONTINUOUS
 62
     7
 10
-13.424553
 20
-11
 40
2
 50
270.00002
 51
357.79718
  0
ARC
  8
0
  6
CONTINUOUS
 62
     7
 10
13.424553
 20
-11
 40
2
 50
182.2028
 51
270.00002
  0
TEXT
  8
0
  6
CONTINUOUS
 62
     7
 10
-4.7568854
 20
4.0409101
 40
3.2
 41
1.0130114
  1
11/4
  0
ENDBLK
  8
0
  0
BLOCK
  8
0
  2
KOZU8
 70
    64
 10
0
 20
0
  0
POINT
  8
0
  6
CONTINUOUS
 62
     7
 10
0
 20
0
  0
POINT
  8
0
  6
CONTINUOUS
 62
     7
 10
0
 20
-36.5
  0
LINE
  8
0
  6
CENTER
 62
     7
 10
0
 20
-39.5
 11
0
 21
3
  0
LINE
  8
0
  6
CONTINUOUS
 62
     7
 10
-22.090824
 20
-33.913845
 11
-22.519176
 21
-20.206566
  0
LINE
  8
0
  6
CONTINUOUS
 62
     7
 10
-23.617537
 20
-32.387096
 11
-24.082811
 21
-17.49826
  0
LINE
  8
0
  6
CONTINUOUS
 62
     7
 10
-19.138626
 20
-36.5
 11
19.138611
 21
-36.5
  0
LINE
  8
0
  6
CONTINUOUS
 62
     7
 10
-20.00462
 20
-36.00005
 11
-23.617558
 21
-32.387112
  0
LINE
  8
0
  6
CONTINUOUS
 62
     7
 10
-19.138603
 20
-36.5
 11
-20.004562
 21
-36.000038
  0
LINE
  8
0
  6
CONTINUOUS
 62
     7
 10
23.617514
 20
-32.387123
 11
24.08279
 21
-17.498318
  0
LINE
  8
0
  6
CONTINUOUS
 62
     7
 10
20.004648
 20
-36.00013
 11
23.617586
 21
-32.387192
  0
LINE
  8
0
  6
CONTINUOUS
 62
     7
 10
19.138573
 20
-36.499893
 11
20.004532
 21
-35.999931
  0
LINE
  8
0
  6
CONTINUOUS
 62
     7
 10
-24.082893
 20
-17.498222
 11
-20.79661
 21
-13.999933
  0
LINE
  8
0
  6
CONTINUOUS
 62
     7
 10
24.082788
 20
-17.498306
 11
20.796513
 21
-14.00001
  0
LINE
  8
0
  6
CONTINUOUS
 62
     7
 10
-20.796532
 20
-14
 11
-14.929848
 21
-14
  0
LINE
  8
0
  6
CONTINUOUS
 62
     7
 10
-11.981148
 20
0
 11
11.981155
 21
0
  0
LINE
  8
0
  6
CONTINUOUS
 62
     7
 10
-12.931182
 20
-12.071361
 11
-12.517907
 21
-0.49966714
  0
LINE
  8
0
  6
CONTINUOUS
 62
     7
 10
12.517799
 20
-0.49968007
 11
12.931074
 21
-12.071374
  0
LINE
  8
0
  6
CONTINUOUS
 62
     7
 10
14.929848
 20
-14
 11
20.796532
 21
-14
  0
LINE
  8
0
  6
CONTINUOUS
 62
     7
 10
-12.517815
 20
-0.49971712
 11
-11.981121
 21
-4.0869469E-005
  0
LINE
  8
0
  6
CONTINUOUS
 62
     7
 10
12.517844
 20
-0.49971285
 11
11.981154
 21
-3.2805212E-005
  0
LINE
  8
0
  6
CONTINUOUS
 62
     7
 10
22.09082
 20
-33.91396
 11
22.519176
 21
-20.206566
  0
LINE
  8
0
  6
CONTINUOUS
 62
     7
 10
22.519176
 20
-20.206566
 11
24.082788
 21
-17.498308
  0
LINE
  8
0
  6
CONTINUOUS
 62
     7
 10
-20.796671
 20
-14
 11
20.796503
 21
-14
  0
LINE
  8
0
  6
CONTINUOUS
 62
     7
 10
-23.998177
 20
-20.206566
 11
23.998156
 21
-20.206566
  0
LINE
  8
0
  6
CONTINUOUS
 62
     7
 10
-22.090878
 20
-33.913792
 11
22.090986
 21
-33.913792
  0
LINE
  8
0
  6
CONTINUOUS
 62
     7
 10
-23.617535
 20
-32.387123
 11
23.617514
 21
-32.387123
  0
LINE
  8
0
  6
CONTINUOUS
 62
     7
 10
-22.519176
 20
-20.206566
 11
-24.082788
 21
-17.498308
  0
ARC
  8
0
  6
CONTINUOUS
 62
     7
 10
-14.929848
 20
-12
 40
2
 50
270.00002
 51
357.95466
  0
ARC
  8
0
  6
CONTINUOUS
 62
     7
 10
14.929848
 20
-12
 40
2
 50
182.04532
 51
270.00002
  0
TEXT
  8
0
  6
CONTINUOUS
 62
     7
 10
-6.308123
 20
3.9418658
 40
3.2
 41
1.0130114
  1
11/2
  0
ENDBLK
  8
0
  0
BLOCK
  8
0
  2
KOZU9
 70
    64
 10
0
 20
0
  0
POINT
  8
0
  6
CONTINUOUS
 62
     7
 10
0
 20
0
  0
POINT
  8
0
  6
CONTINUOUS
 62
     7
 10
0
 20
-41.5
  0
LINE
  8
0
  6
CENTER
 62
     7
 10
0
 20
-44.5
 11
0
 21
3
  0
LINE
  8
0
  6
CONTINUOUS
 62
     7
 10
-27.911474
 20
-38.433723
 11
-28.437901
 21
-21.588024
  0
LINE
  8
0
  6
CONTINUOUS
 62
     7
 10
-29.43569
 20
-37.00198
 11
-29.99831
 21
-18.998072
  0
LINE
  8
0
  6
CONTINUOUS
 62
     7
 10
-24.313675
 20
-41.5
 11
24.313683
 21
-41.5
  0
LINE
  8
0
  6
CONTINUOUS
 62
     7
 10
-29.435667
 20
-37.001907
 11
-25.179659
 21
-40.999969
  0
LINE
  8
0
  6
CONTINUOUS
 62
     7
 10
-24.313694
 20
-41.500031
 11
-25.179718
 21
-41.000031
  0
LINE
  8
0
  6
CONTINUOUS
 62
     7
 10
27.91143
 20
-38.433876
 11
28.437864
 21
-21.588024
  0
LINE
  8
0
  6
CONTINUOUS
 62
     7
 10
29.435677
 20
-37.001957
 11
30.002026
 21
-18.878784
  0
LINE
  8
0
  6
CONTINUOUS
 62
     7
 10
29.435726
 20
-37.001968
 11
25.179729
 21
-41.000015
  0
LINE
  8
0
  6
CONTINUOUS
 62
     7
 10
24.313633
 20
-41.499943
 11
25.179657
 21
-40.999943
  0
LINE
  8
0
  6
CONTINUOUS
 62
     7
 10
-15.5
 20
0
 11
15.5
 21
0
  0
LINE
  8
0
  6
CONTINUOUS
 62
     7
 10
-15.935533
 20
-13.06664
 11
-15.499978
 21
1.8875497E-006
  0
LINE
  8
0
  6
CONTINUOUS
 62
     7
 10
15.935575
 20
-13.066644
 11
15.500021
 21
-2.222888E-006
  0
LINE
  8
0
  6
CONTINUOUS
 62
     7
 10
17.934441
 20
-15
 11
26.123238
 21
-15
  0
LINE
  8
0
  6
CONTINUOUS
 62
     7
 10
-29.998331
 20
-18.998022
 11
-26.242579
 21
-14.999973
  0
LINE
  8
0
  6
CONTINUOUS
 62
     7
 10
26.12322
 20
-15.000016
 11
30.002003
 21
-18.878798
  0
LINE
  8
0
  6
CONTINUOUS
 62
     7
 10
-26.242561
 20
-15
 11
-17.934441
 21
-15
  0
LINE
  8
0
  6
CONTINUOUS
 62
     7
 10
28.437868
 20
-21.588026
 11
30.002028
 21
-18.878822
  0
LINE
  8
0
  6
CONTINUOUS
 62
     7
 10
-29.917376
 20
-21.588024
 11
29.917362
 21
-21.588024
  0
LINE
  8
0
  6
CONTINUOUS
 62
     7
 10
-26.242603
 20
-15
 11
26.123205
 21
-15
  0
LINE
  8
0
  6
CONTINUOUS
 62
     7
 10
-27.911312
 20
-38.433876
 11
27.911432
 21
-38.433876
  0
LINE
  8
0
  6
CONTINUOUS
 62
     7
 10
-29.435688
 20
-37.002018
 11
29.435675
 21
-37.002018
  0
LINE
  8
0
  6
CONTINUOUS
 62
     7
 10
-28.437868
 20
-21.588026
 11
-30.002028
 21
-18.878822
  0
ARC
  8
0
  6
CONTINUOUS
 62
     7
 10
-17.934441
 20
-13
 40
2
 50
270.00002
 51
358.09069
  0
ARC
  8
0
  6
CONTINUOUS
 62
     7
 10
17.934441
 20
-13
 40
2
 50
181.90929
 51
270.00002
  0
TEXT
  8
0
  6
CONTINUOUS
 62
     7
 10
-1.4593345
 20
3.6954545
 40
3.2
 41
1.0715625
  1
2
  0
ENDBLK
  8
0
  0
BLOCK
  8
0
  2
KOZU10
 70
    64
 10
0
 20
0
  0
POINT
  8
0
  6
CONTINUOUS
 62
     7
 10
0
 20
0
  0
POINT
  8
0
  6
CONTINUOUS
 62
     7
 10
0
 20
-48.5
  0
LINE
  8
0
  6
CENTER
 62
     7
 10
0
 20
-51.5
 11
0
 21
3
  0
LINE
  8
0
  6
CONTINUOUS
 62
     7
 10
-35.6632
 20
-44.93362
 11
-36.279682
 21
-25.206139
  0
LINE
  8
0
  6
CONTINUOUS
 62
     7
 10
-37.186924
 20
-43.502213
 11
-37.843311
 21
-22.497805
  0
LINE
  8
0
  6
CONTINUOUS
 62
     7
 10
-31.866713
 20
-48.5
 11
31.866739
 21
-48.5
  0
LINE
  8
0
  6
CONTINUOUS
 62
     7
 10
-37.186924
 20
-43.50222
 11
-31.866714
 21
-48.5
  0
LINE
  8
0
  6
CONTINUOUS
 62
     7
 10
35.663204
 20
-44.93362
 11
36.27969
 21
-25.206139
  0
LINE
  8
0
  6
CONTINUOUS
 62
     7
 10
37.186951
 20
-43.502224
 11
37.843342
 21
-22.497828
  0
LINE
  8
0
  6
CONTINUOUS
 62
     7
 10
37.186954
 20
-43.50222
 11
31.866741
 21
-48.5
  0
LINE
  8
0
  6
CONTINUOUS
 62
     7
 10
-19.02739
 20
0
 11
19.02739
 21
0
  0
LINE
  8
0
  6
CONTINUOUS
 62
     7
 10
-20.418982
 20
-15.083271
 11
-20.027008
 21
-0.97219777
  0
LINE
  8
0
  6
CONTINUOUS
 62
     7
 10
20.418985
 20
-15.083293
 11
20.027012
 21
-0.97221947
  0
LINE
  8
0
  6
CONTINUOUS
 62
     7
 10
23.417824
 20
-18
 11
33.618134
 21
-18
  0
LINE
  8
0
  6
CONTINUOUS
 62
     7
 10
-37.843315
 20
-22.497833
 11
-33.618107
 21
-18.000027
  0
LINE
  8
0
  6
CONTINUOUS
 62
     7
 10
37.843342
 20
-22.497812
 11
33.618134
 21
-18.000008
  0
LINE
  8
0
  6
CONTINUOUS
 62
     7
 10
-33.618118
 20
-18
 11
-23.417824
 21
-18
  0
LINE
  8
0
  6
CONTINUOUS
 62
     7
 10
36.27969
 20
-25.206139
 11
37.843342
 21
-22.497814
  0
LINE
  8
0
  6
CONTINUOUS
 62
     7
 10
-37.758675
 20
-25.206139
 11
37.758705
 21
-25.206139
  0
LINE
  8
0
  6
CONTINUOUS
 62
     7
 10
-23.417824
 20
-18
 11
23.417824
 21
-18
  0
LINE
  8
0
  6
CONTINUOUS
 62
     7
 10
-35.663177
 20
-44.93362
 11
35.663204
 21
-44.93362
  0
LINE
  8
0
  6
CONTINUOUS
 62
     7
 10
-37.186924
 20
-43.50222
 11
37.186954
 21
-43.50222
  0
LINE
  8
0
  6
CONTINUOUS
 62
     7
 10
-36.27969
 20
-25.206139
 11
-37.843342
 21
-22.497814
  0
ARC
  8
0
  6
CONTINUOUS
 62
     7
 10
-23.417824
 20
-15
 40
3
 50
270.00002
 51
358.40892
  0
ARC
  8
0
  6
CONTINUOUS
 62
     7
 10
23.417824
 20
-15
 40
3
 50
181.59105
 51
270.00002
  0
ARC
  8
0
  6
CONTINUOUS
 62
     7
 10
-19.02739
 20
-1
 40
1
 50
89.999982
 51
178.40867
  0
ARC
  8
0
  6
CONTINUOUS
 62
     7
 10
19.02739
 20
-1
 40
1
 50
1.5913709
 51
89.999982
  0
TEXT
  8
0
  6
CONTINUOUS
 62
     7
 10
-6.143
 20
3.4
 40
3.2
 41
1.0130114
  1
21/2
  0
ENDBLK
  8
0
  0
BLOCK
  8
0
  2
KOZU11
 70
    64
 10
0
 20
0
  0
POINT
  8
0
  6
CONTINUOUS
 62
     7
 10
0
 20
0
  0
POINT
  8
0
  6
CONTINUOUS
 62
     7
 10
0
 20
-53.5
  0
LINE
  8
0
  6
CENTER
 62
     7
 10
0
 20
-56.5
 11
0
 21
3
  0
LINE
  8
0
  6
CONTINUOUS
 62
     7
 10
-43.442139
 20
-48.354858
 11
-44.218918
 21
-23.497807
  0
LINE
  8
0
  6
CONTINUOUS
 62
     7
 10
-37.930984
 20
-53.5
 11
37.930984
 21
-53.5
  0
LINE
  8
0
  6
CONTINUOUS
 62
     7
 10
-38.796997
 20
-52.999981
 11
-43.442154
 21
-48.35482
  0
LINE
  8
0
  6
CONTINUOUS
 62
     7
 10
-37.930984
 20
-53.500008
 11
-38.797012
 21
-53.000008
  0
LINE
  8
0
  6
CONTINUOUS
 62
     7
 10
41.915447
 20
-49.881592
 11
42.655308
 21
-26.206072
  0
LINE
  8
0
  6
CONTINUOUS
 62
     7
 10
43.442154
 20
-48.35482
 11
44.218941
 21
-23.497784
  0
LINE
  8
0
  6
CONTINUOUS
 62
     7
 10
38.797024
 20
-53.000011
 11
43.442181
 21
-48.354858
  0
LINE
  8
0
  6
CONTINUOUS
 62
     7
 10
37.930946
 20
-53.499977
 11
38.796986
 21
-52.999969
  0
LINE
  8
0
  6
CONTINUOUS
 62
     7
 10
-21.52597
 20
0
 11
21.525963
 21
0
  0
LINE
  8
0
  6
CONTINUOUS
 62
     7
 10
-22.923141
 20
-16.078938
 11
-22.525637
 21
-0.97370857
  0
LINE
  8
0
  6
CONTINUOUS
 62
     7
 10
22.923105
 20
-16.078962
 11
22.525599
 21
-0.97373337
  0
LINE
  8
0
  6
CONTINUOUS
 62
     7
 10
25.922081
 20
-19
 11
39.993729
 21
-19
  0
LINE
  8
0
  6
CONTINUOUS
 62
     7
 10
-44.218884
 20
-23.497812
 11
-39.993683
 21
-19.00001
  0
LINE
  8
0
  6
CONTINUOUS
 62
     7
 10
44.218952
 20
-23.497803
 11
39.993732
 21
-18.99999
  0
LINE
  8
0
  6
CONTINUOUS
 62
     7
 10
-39.993729
 20
-19
 11
-25.922096
 21
-19
  0
LINE
  8
0
  6
CONTINUOUS
 62
     7
 10
42.655308
 20
-26.206072
 11
44.218937
 21
-23.497787
  0
LINE
  8
0
  6
CONTINUOUS
 62
     7
 10
-39.993671
 20
-19
 11
39.99374
 21
-19
  0
LINE
  8
0
  6
CONTINUOUS
 62
     7
 10
-44.134285
 20
-26.206072
 11
44.134308
 21
-26.206072
  0
LINE
  8
0
  6
CONTINUOUS
 62
     7
 10
-41.915382
 20
-49.881592
 11
41.915447
 21
-49.881592
  0
LINE
  8
0
  6
CONTINUOUS
 62
     7
 10
-43.442139
 20
-48.35482
 11
43.442158
 21
-48.35482
  0
LINE
  8
0
  6
CONTINUOUS
 62
     7
 10
-41.915447
 20
-49.881592
 11
-42.655308
 21
-26.206072
  0
LINE
  8
0
  6
CONTINUOUS
 62
     7
 10
-42.655308
 20
-26.206072
 11
-44.218937
 21
-23.497787
  0
ARC
  8
0
  6
CONTINUOUS
 62
     7
 10
-25.922096
 20
-16
 40
3
 50
270.00002
 51
358.4926
  0
ARC
  8
0
  6
CONTINUOUS
 62
     7
 10
25.922081
 20
-16
 40
3
 50
181.50739
 51
270.00002
  0
ARC
  8
0
  6
CONTINUOUS
 62
     7
 10
-21.52597
 20
-1
 40
1
 50
89.999982
 51
178.49261
  0
ARC
  8
0
  6
CONTINUOUS
 62
     7
 10
21.525963
 20
-1
 40
1
 50
1.5074127
 51
89.999982
  0
TEXT
  8
0
  6
CONTINUOUS
 62
     7
 10
-1.205045
 20
6.5907167
 40
3.2
 41
1.0715625
  1
3
  0
ENDBLK
  8
0
  0
BLOCK
  8
0
  2
KOZU12
 70
    64
 10
0
 20
0
  0
POINT
  8
0
  6
CONTINUOUS
 62
     7
 10
0
 20
0
  0
POINT
  8
0
  6
CONTINUOUS
 62
     7
 10
0
 20
-62.600006
  0
LINE
  8
0
  6
CENTER
 62
     7
 10
0
 20
-67.600014
 11
0
 21
5
  0
LINE
  8
0
  6
CONTINUOUS
 62
     7
 10
-54.338062
 20
-58.933613
 11
-55.271236
 21
-29.072004
  0
LINE
  8
0
  6
CONTINUOUS
 62
     7
 10
-55.861832
 20
-57.50219
 11
-56.830719
 21
-26.497795
  0
LINE
  8
0
  6
CONTINUOUS
 62
     7
 10
-50.034599
 20
-62.600006
 11
50.034592
 21
-62.600006
  0
LINE
  8
0
  6
CONTINUOUS
 62
     7
 10
-55.86179
 20
-57.502155
 11
-51.073784
 21
-61.999977
  0
LINE
  8
0
  6
CONTINUOUS
 62
     7
 10
-50.034573
 20
-62.600025
 11
-51.073799
 21
-62.000027
  0
LINE
  8
0
  6
CONTINUOUS
 62
     7
 10
54.338066
 20
-58.933613
 11
55.27124
 21
-29.072004
  0
LINE
  8
0
  6
CONTINUOUS
 62
     7
 10
55.861813
 20
-57.50219
 11
56.834896
 21
-26.363626
  0
LINE
  8
0
  6
CONTINUOUS
 62
     7
 10
55.861809
 20
-57.50222
 11
51.073826
 21
-62.000023
  0
LINE
  8
0
  6
CONTINUOUS
 62
     7
 10
50.034561
 20
-62.599979
 11
51.073788
 21
-61.999981
  0
LINE
  8
0
  6
CONTINUOUS
 62
     7
 10
-27.522453
 20
0
 11
27.522438
 21
0
  0
LINE
  8
0
  6
CONTINUOUS
 62
     7
 10
-28.933374
 20
-19.068146
 11
-28.522217
 21
-0.97726798
  0
LINE
  8
0
  6
CONTINUOUS
 62
     7
 10
28.933327
 20
-19.068193
 11
28.522171
 21
-0.97731435
  0
LINE
  8
0
  6
CONTINUOUS
 62
     7
 10
31.932556
 20
-22
 11
52.471252
 21
-22
  0
LINE
  8
0
  6
CONTINUOUS
 62
     7
 10
-56.830654
 20
-26.497864
 11
-52.605434
 21
-22.000061
  0
LINE
  8
0
  6
CONTINUOUS
 62
     7
 10
52.471237
 20
-22.000031
 11
56.834866
 21
-26.363653
  0
LINE
  8
0
  6
CONTINUOUS
 62
     7
 10
-52.605492
 20
-22
 11
-31.932571
 21
-22
  0
LINE
  8
0
  6
CONTINUOUS
 62
     7
 10
55.27124
 20
-29.072004
 11
56.834892
 21
-26.363682
  0
LINE
  8
0
  6
CONTINUOUS
 62
     7
 10
-56.750275
 20
-29.072004
 11
56.750259
 21
-29.072004
  0
LINE
  8
0
  6
CONTINUOUS
 62
     7
 10
-52.605377
 20
-22
 11
52.47121
 21
-22
  0
LINE
  8
0
  6
CONTINUOUS
 62
     7
 10
-54.337982
 20
-58.933613
 11
54.338066
 21
-58.933613
  0
LINE
  8
0
  6
CONTINUOUS
 62
     7
 10
-55.861729
 20
-57.502216
 11
55.861813
 21
-57.502216
  0
LINE
  8
0
  6
CONTINUOUS
 62
     7
 10
-55.27124
 20
-29.072004
 11
-56.834892
 21
-26.363682
  0
ARC
  8
0
  6
CONTINUOUS
 62
     7
 10
-31.932571
 20
-19
 40
3
 50
270.00002
 51
358.69811
  0
ARC
  8
0
  6
CONTINUOUS
 62
     7
 10
31.932556
 20
-19
 40
3
 50
181.30187
 51
270.00002
  0
ARC
  8
0
  6
CONTINUOUS
 62
     7
 10
-27.522453
 20
-1
 40
1
 50
89.999982
 51
178.69813
  0
ARC
  8
0
  6
CONTINUOUS
 62
     7
 10
27.522438
 20
-1
 40
1
 50
1.3018931
 51
89.999982
  0
TEXT
  8
0
  6
CONTINUOUS
 62
     7
 10
-2.0183291
 20
7.7005523
 40
3.2
 41
1.0715625
  1
4
  0
ENDBLK
  8
0
  0
BLOCK
  8
0
  2
KOZU13
 70
    64
 10
0
 20
0
  0
POINT
  8
0
  6
CONTINUOUS
 62
     7
 10
0
 20
0
  0
POINT
  8
0
  6
CONTINUOUS
 62
     7
 10
0
 20
-69.600052
  0
LINE
  8
0
  6
CENTER
 62
     7
 10
0
 20
-74.600082
 11
0
 21
4.9999542
  0
LINE
  8
0
  6
CONTINUOUS
 62
     7
 10
-66.938744
 20
-65.933632
 11
-67.992729
 21
-32.206116
  0
LINE
  8
0
  6
CONTINUOUS
 62
     7
 10
-68.462456
 20
-64.502274
 11
-69.556335
 21
-29.497843
  0
LINE
  8
0
  6
CONTINUOUS
 62
     7
 10
-62.635262
 20
-69.600052
 11
62.635124
 21
-69.600052
  0
LINE
  8
0
  6
CONTINUOUS
 62
     7
 10
-68.462395
 20
-64.50222
 11
-63.674419
 21
-69.000031
  0
LINE
  8
0
  6
CONTINUOUS
 62
     7
 10
-62.635231
 20
-69.600037
 11
-63.674473
 21
-69.000031
  0
LINE
  8
0
  6
CONTINUOUS
 62
     7
 10
66.93869
 20
-65.933632
 11
67.992676
 21
-32.206116
  0
LINE
  8
0
  6
CONTINUOUS
 62
     7
 10
68.462387
 20
-64.502251
 11
69.556274
 21
-29.497841
  0
LINE
  8
0
  6
CONTINUOUS
 62
     7
 10
68.462395
 20
-64.502251
 11
63.674431
 21
-69.000046
  0
LINE
  8
0
  6
CONTINUOUS
 62
     7
 10
62.63517
 20
-69.600113
 11
63.674412
 21
-69.000107
  0
LINE
  8
0
  6
CONTINUOUS
 62
     7
 10
-31.539223
 20
0
 11
31.539162
 21
0
  0
LINE
  8
0
  6
CONTINUOUS
 62
     7
 10
-33.346363
 20
-21.159903
 11
-32.538372
 21
-0.96008265
  0
LINE
  8
0
  6
CONTINUOUS
 62
     7
 10
33.346371
 20
-21.159918
 11
32.53838
 21
-0.96009952
  0
LINE
  8
0
  6
CONTINUOUS
 62
     7
 10
-69.556274
 20
-29.497929
 11
-65.331062
 21
-25.000132
  0
LINE
  8
0
  6
CONTINUOUS
 62
     7
 10
69.556252
 20
-29.497864
 11
65.331039
 21
-25.000055
  0
LINE
  8
0
  6
CONTINUOUS
 62
     7
 10
-65.331154
 20
-25
 11
-37.343239
 21
-25
  0
LINE
  8
0
  6
CONTINUOUS
 62
     7
 10
37.343147
 20
-25
 11
65.331062
 21
-25
  0
LINE
  8
0
  6
CONTINUOUS
 62
     7
 10
67.992683
 20
-32.20612
 11
69.556274
 21
-29.497892
  0
LINE
  8
0
  6
CONTINUOUS
 62
     7
 10
-69.47171
 20
-32.206116
 11
69.471642
 21
-32.206116
  0
LINE
  8
0
  6
CONTINUOUS
 62
     7
 10
-65.330933
 20
-25
 11
65.330986
 21
-25
  0
LINE
  8
0
  6
CONTINUOUS
 62
     7
 10
-66.938637
 20
-65.933632
 11
66.938675
 21
-65.933632
  0
LINE
  8
0
  6
CONTINUOUS
 62
     7
 10
-68.462456
 20
-64.502251
 11
68.462387
 21
-64.502251
  0
LINE
  8
0
  6
CONTINUOUS
 62
     7
 10
-67.992683
 20
-32.20612
 11
-69.556274
 21
-29.497892
  0
ARC
  8
0
  6
CONTINUOUS
 62
     7
 10
-31.539253
 20
-1.0000458
 40
1
 50
89.999996
 51
177.70971
  0
ARC
  8
0
  6
CONTINUOUS
 62
     7
 10
31.539154
 20
-1.0000305
 40
1
 50
2.2903264
 51
89.999996
  0
ARC
  8
0
  6
CONTINUOUS
 62
     7
 10
-37.343239
 20
-21.000046
 40
4
 50
270.00002
 51
357.70948
  0
ARC
  8
0
  6
CONTINUOUS
 62
     7
 10
37.343166
 20
-21.000031
 40
4
 50
182.29053
 51
270.00002
  0
TEXT
  8
0
  6
CONTINUOUS
 62
     7
 10
-1.0369683
 20
10.807814
 40
3.2
 41
1.0715625
  1
5
  0
ENDBLK
  8
0
  0
BLOCK
  8
0
  2
KOZU14
 70
    64
 10
0
 20
0
  0
POINT
  8
0
  6
CONTINUOUS
 62
     7
 10
0
 20
0
  0
POINT
  8
0
  6
CONTINUOUS
 62
     7
 10
1.5258789E-005
 20
-72.600006
  0
LINE
  8
0
  6
CENTER
 62
     7
 10
0
 20
-78.600006
 11
0
 21
5
  0
LINE
  8
0
  6
CONTINUOUS
 62
     7
 10
-79.654312
 20
-68.43383
 11
-80.692673
 21
-35.206108
  0
LINE
  8
0
  6
CONTINUOUS
 62
     7
 10
-81.178032
 20
-67.002441
 11
-82.256302
 21
-32.497814
  0
LINE
  8
0
  6
CONTINUOUS
 62
     7
 10
-81.178017
 20
-67.002449
 11
-75.858055
 21
-71.999985
  0
LINE
  8
0
  6
CONTINUOUS
 62
     7
 10
-74.81884
 20
-72.600006
 11
-75.858055
 21
-72.000015
  0
LINE
  8
0
  6
CONTINUOUS
 62
     7
 10
79.654305
 20
-68.43383
 11
80.692673
 21
-35.206108
  0
LINE
  8
0
  6
CONTINUOUS
 62
     7
 10
81.178047
 20
-67.002457
 11
82.256317
 21
-32.497799
  0
LINE
  8
0
  6
CONTINUOUS
 62
     7
 10
81.178032
 20
-67.002457
 11
75.858055
 21
-72.000015
  0
LINE
  8
0
  6
CONTINUOUS
 62
     7
 10
74.818863
 20
-72.599998
 11
75.858055
 21
-72.000023
  0
LINE
  8
0
  6
CONTINUOUS
 62
     7
 10
-82.256294
 20
-32.497822
 11
-78.03109
 21
-28.000015
  0
LINE
  8
0
  6
CONTINUOUS
 62
     7
 10
82.256317
 20
-32.497795
 11
78.03112
 21
-28.000002
  0
LINE
  8
0
  6
CONTINUOUS
 62
     7
 10
-78.031113
 20
-28
 11
-41.39476
 21
-28
  0
LINE
  8
0
  6
CONTINUOUS
 62
     7
 10
-37.017532
 20
0
 11
37.017532
 21
0
  0
LINE
  8
0
  6
CONTINUOUS
 62
     7
 10
-38.396702
 20
-25.107061
 11
-37.517239
 21
-0.48213595
  0
LINE
  8
0
  6
CONTINUOUS
 62
     7
 10
37.517193
 20
-0.48213783
 11
38.396656
 21
-25.107063
  0
LINE
  8
0
  6
CONTINUOUS
 62
     7
 10
41.39476
 20
-28
 11
78.031113
 21
-28
  0
LINE
  8
0
  6
CONTINUOUS
 62
     7
 10
-74.818832
 20
-72.600006
 11
74.818863
 21
-72.600006
  0
LINE
  8
0
  6
CONTINUOUS
 62
     7
 10
80.692673
 20
-35.206112
 11
82.256325
 21
-32.497795
  0
LINE
  8
0
  6
CONTINUOUS
 62
     7
 10
-78.031075
 20
-28
 11
78.03112
 21
-28
  0
LINE
  8
0
  6
CONTINUOUS
 62
     7
 10
-82.171669
 20
-35.206108
 11
82.171684
 21
-35.206108
  0
LINE
  8
0
  6
CONTINUOUS
 62
     7
 10
-79.654282
 20
-68.43383
 11
79.654305
 21
-68.43383
  0
LINE
  8
0
  6
CONTINUOUS
 62
     7
 10
-81.178032
 20
-67.002457
 11
81.178047
 21
-67.002457
  0
LINE
  8
0
  6
CONTINUOUS
 62
     7
 10
-80.692673
 20
-35.206112
 11
-82.256325
 21
-32.497795
  0
ARC
  8
0
  6
CONTINUOUS
 62
     7
 10
-41.39476
 20
-25
 40
3
 50
270.00002
 51
357.95466
  0
ARC
  8
0
  6
CONTINUOUS
 62
     7
 10
41.39476
 20
-25
 40
3
 50
182.04532
 51
270.00002
  0
ARC
  8
0
  6
CONTINUOUS
 62
     7
 10
-37.017532
 20
-0.5
 40
0.5
 50
89.999982
 51
177.9538
  0
ARC
  8
0
  6
CONTINUOUS
 62
     7
 10
37.017532
 20
-0.5
 40
0.5
 50
2.0462199
 51
89.999982
  0
TEXT
  8
0
  6
CONTINUOUS
 62
     7
 10
-1.0188215
 20
12.885739
 40
3.2
 41
1.0715625
  1
6
  0
ENDBLK
  8
0
  0
ENDSEC
  0
SECTION
  2
ENTITIES
  0
LINE
  8
0
  6
CONTINUOUS
 62
     7
 10
287
 20
200
 11
287
 21
-200
  0
LINE
  8
0
  6
CONTINUOUS
 62
     7
 10
-287
 20
200
 11
287
 21
200
  0
LINE
  8
0
  6
CONTINUOUS
 62
     7
 10
-287
 20
200
 11
-287
 21
-200
  0
LINE
  8
0
  6
CONTINUOUS
 62
     7
 10
-287
 20
-200
 11
287
 21
-200
  0
TEXT
  8
0
  6
CONTINUOUS
 62
     7
 10
-12.8575
 20
186
 40
8
 41
0.85537028
  1
プラグ
  0
INSERT
  8
0
  6
CONTINUOUS
 62
     7
  2
KOZU14
 10
145
 20
-100
  0
INSERT
  8
0
  6
CONTINUOUS
 62
     7
  2
KOZU13
 10
-115
 20
-100
  0
INSERT
  8
0
  6
CONTINUOUS
 62
     7
  2
KOZU12
 10
185
 20
45
  0
INSERT
  8
0
  6
CONTINUOUS
 62
     7
  2
KOZU11
 10
25
 20
45
  0
INSERT
  8
0
  6
CONTINUOUS
 62
     7
  2
KOZU10
 10
-115
 20
45
  0
INSERT
  8
0
  6
CONTINUOUS
 62
     7
  2
KOZU9
 10
-240
 20
45
  0
INSERT
  8
0
  6
CONTINUOUS
 62
     7
  2
KOZU8
 10
220
 20
150
  0
INSERT
  8
0
  6
CONTINUOUS
 62
     7
  2
KOZU7
 10
120
 20
150
  0
INSERT
  8
0
  6
CONTINUOUS
 62
     7
  2
KOZU6
 10
30
 20
150
  0
INSERT
  8
0
  6
CONTINUOUS
 62
     7
  2
KOZU5
 10
-50
 20
150
  0
INSERT
  8
0
  6
CONTINUOUS
 62
     7
  2
KOZU4
 10
-110
 20
150
  0
INSERT
  8
0
  6
CONTINUOUS
 62
     7
  2
KOZU3
 10
-160
 20
150
  0
INSERT
  8
0
  6
CONTINUOUS
 62
     7
  2
KOZU2
 10
-200
 20
150
  0
INSERT
  8
0
  6
CONTINUOUS
 62
     7
  2
KOZU1
 10
-240
 20
150
  0
ENDSEC
  0
EOF
