  0
SECTION
  2
HEADER
  9
$EXTMAX
 10
297
 20
210
  9
$EXTMIN
 10
-297
 20
-210
  0
ENDSEC
  0
SECTION
  2
TABLES
  0
TABLE
  2
LTYPE
 70
    22
  0
LTYPE
  2
CONTINUOUS
 70
    64
  3
Solid line
 72
    65
 73
     0
 40
0.000000
  0
LTYPE
  2
DASHED
 70
    64
  3
__ __ __ __ __ __ __ __ __ __ __ __ __ __ __
 72
    65
 73
     2
 40
3.500000
 49
2.000000
 49
-1.500000
  0
LTYPE
  2
CENTER
 70
    64
  3
____ _ ____ _ ____ _ ____ _ ____ _ ____ _ ____
 72
    65
 73
     4
 40
17.500000
 49
13.000000
 49
-1.500000
 49
1.500000
 49
-1.500000
  0
LTYPE
  2
PHANTOM
 70
    64
  3
_____ _ _ _____ _ _ _____ _ _ _____ _ _ ____  
 72
    65
 73
     6
 40
15.500000
 49
8.000000
 49
-1.500000
 49
1.500000
 49
-1.500000
 49
1.500000
 49
-1.500000
  0
LTYPE
  2
DOT
 70
    64
  3
. . . . . . . . . . . . . . . . . . . . . . . .
 72
    65
 73
     2
 40
0.25
 49
0.0
 49
-0.25
  0
ENDTAB
  0
TABLE
  2
LAYER
 70
     1
  0
LAYER
  2
0
 70
     0
 62
     7
  6
CONTINUOUS
  0
ENDTAB
  0
TABLE
  2
STYLE
 70
     1
  0
STYLE
  2
STANDARD
 70
     0
 40
0.000000
 41
1.000000
 50
0.000000
 71
     0
 42
0.200000
  3
txt
  4
BIGFONT
  0
ENDTAB
  0
TABLE
  2
VIEW
 70
     0
  0
ENDTAB
  0
ENDSEC
  0
SECTION
  2
BLOCKS
  0
ENDSEC
  0
SECTION
  2
ENTITIES
  0
POINT
  8
0
  6
CONTINUOUS
 62
     7
 10
-193.93791
 20
121.26677
  0
POINT
  8
0
  6
CONTINUOUS
 62
     7
 10
-96.097748
 20
121.26677
  0
POINT
  8
0
  6
CONTINUOUS
 62
     7
 10
-15.419817
 20
122.54738
  0
POINT
  8
0
  6
CONTINUOUS
 62
     7
 10
107.06569
 20
122.54738
  0
POINT
  8
0
  6
CONTINUOUS
 62
     7
 10
-201.16628
 20
-84.01857
  0
POINT
  8
0
  6
CONTINUOUS
 62
     7
 10
-84.428276
 20
-84.01857
  0
POINT
  8
0
  6
CONTINUOUS
 62
     7
 10
72.73568
 20
-86.909912
  0
POINT
  8
0
  6
CONTINUOUS
 62
     7
 10
222.41545
 20
-86.909912
  0
POINT
  8
0
  6
CONTINUOUS
 62
     7
 10
-235.86238
 20
-305.2063
  0
POINT
  8
0
  6
CONTINUOUS
 62
     7
 10
-85.542297
 20
-305.2063
  0
POINT
  8
0
  6
CONTINUOUS
 62
     7
 10
48.79649
 20
-308.09766
  0
POINT
  8
0
  6
CONTINUOUS
 62
     7
 10
218.07845
 20
-308.09766
  0
POINT
  8
0
  6
CONTINUOUS
 62
     7
 10
-204.05762
 20
-519.16565
  0
POINT
  8
0
  6
CONTINUOUS
 62
     7
 10
-6.9014249
 20
-519.16565
  0
POINT
  8
0
  6
CONTINUOUS
 62
     7
 10
48.634254
 20
-798.75568
  0
POINT
  8
0
  6
CONTINUOUS
 62
     7
 10
-171.48117
 20
-798.75568
  0
POINT
  8
0
  6
CONTINUOUS
 62
     7
 10
464.56705
 20
-791.4104
  0
POINT
  8
0
  6
CONTINUOUS
 62
     7
 10
427.22723
 20
-510.67325
  0
POINT
  8
0
  6
CONTINUOUS
 62
     7
 10
402.97501
 20
140.64999
  0
POINT
  8
0
  6
CONTINUOUS
 62
     7
 10
585.34998
 20
140.64999
  0
POINT
  8
0
  6
CONTINUOUS
 62
     7
 10
377.41446
 20
-80.471954
  0
POINT
  8
0
  6
CONTINUOUS
 62
     7
 10
691.38593
 20
-74.434044
  0
POINT
  8
0
  6
CONTINUOUS
 62
     7
 10
374.39551
 20
-303.87473
  0
POINT
  8
0
  6
CONTINUOUS
 62
     7
 10
650.63
 20
-308.40317
  0
POINT
  8
0
  6
CONTINUOUS
 62
     7
 10
317
 20
-670
  0
POINT
  8
0
  6
CONTINUOUS
 62
     7
 10
911
 20
-670
  0
POINT
  8
0
  6
CONTINUOUS
 62
     7
 10
502.97501
 20
140.64999
  0
POINT
  8
0
  6
CONTINUOUS
 62
     7
 10
695.34998
 20
140.64999
  0
POINT
  8
0
  6
CONTINUOUS
 62
     7
 10
497.41446
 20
-80.471954
  0
POINT
  8
0
  6
CONTINUOUS
 62
     7
 10
831.38593
 20
-74.434044
  0
POINT
  8
0
  6
CONTINUOUS
 62
     7
 10
534.39551
 20
-303.87473
  0
POINT
  8
0
  6
CONTINUOUS
 62
     7
 10
830.63
 20
-308.40317
  0
POINT
  8
0
  6
CONTINUOUS
 62
     7
 10
627.22723
 20
-510.67325
  0
POINT
  8
0
  6
CONTINUOUS
 62
     7
 10
684.56708
 20
-791.4104
  0
LINE
  8
0
  6
CONTINUOUS
 62
     7
 10
-297
 20
-650
 11
-297
 21
-230
  0
LINE
  8
0
  6
CONTINUOUS
 62
     7
 10
-297
 20
-230
 11
297
 21
-230
  0
LINE
  8
0
  6
CONTINUOUS
 62
     7
 10
297
 20
-230
 11
297
 21
-650
  0
LINE
  8
0
  6
CONTINUOUS
 62
     7
 10
297
 20
-650
 11
-297
 21
-650
  0
LINE
  8
0
  6
CONTINUOUS
 62
     7
 10
-158.80762
 20
-571.41565
 11
-158.80762
 21
-584.32446
  0
LINE
  8
0
  6
CENTER
 62
     7
 10
-204.05762
 20
-476.40131
 11
-204.05762
 21
-632.39069
  0
LINE
  8
0
  6
CONTINUOUS
 62
     7
 10
-249.30762
 20
-564.41565
 11
-249.30762
 21
-584.32446
  0
LINE
  8
0
  6
CONTINUOUS
 62
     7
 10
-152.05762
 20
-616.16565
 11
-256.05762
 21
-616.16565
  0
LINE
  8
0
  6
CONTINUOUS
 62
     7
 10
-204.05762
 20
-588.16565
 11
-204.05762
 21
-615.16565
  0
LINE
  8
0
  6
CONTINUOUS
 62
     7
 10
-152.05762
 20
-587.16565
 11
-256.05762
 21
-587.16565
  0
LINE
  8
0
  6
CONTINUOUS
 62
     7
 10
-150.05762
 20
-589.16565
 11
-150.05762
 21
-614.16565
  0
LINE
  8
0
  6
CONTINUOUS
 62
     7
 10
-258.05762
 20
-589.16565
 11
-258.05762
 21
-614.16565
  0
LINE
  8
0
  6
CONTINUOUS
 62
     7
 10
-152.05762
 20
-587.16565
 11
-150.0576
 21
-589.16565
  0
LINE
  8
0
  6
CONTINUOUS
 62
     7
 10
-150.05762
 20
-614.16565
 11
-152.05762
 21
-616.16565
  0
LINE
  8
0
  6
CONTINUOUS
 62
     7
 10
-256.05762
 20
-587.16565
 11
-258.05762
 21
-589.16565
  0
LINE
  8
0
  6
CONTINUOUS
 62
     7
 10
-258.05762
 20
-614.16565
 11
-256.05762
 21
-616.16565
  0
LINE
  8
0
  6
CONTINUOUS
 62
     7
 10
-171.91986
 20
-588.16565
 11
-171.91986
 21
-615.16565
  0
LINE
  8
0
  6
CONTINUOUS
 62
     7
 10
-236.19537
 20
-588.16565
 11
-236.19537
 21
-615.16565
  0
LINE
  8
0
  6
CONTINUOUS
 62
     7
 10
-158.80762
 20
-473.91568
 11
-138.89886
 21
-473.91568
  0
LINE
  8
0
  6
CENTER
 62
     7
 10
-244.63458
 20
-519.16565
 11
-90.832642
 21
-519.16565
  0
LINE
  8
0
  6
CONTINUOUS
 62
     7
 10
-151.80762
 20
-564.41565
 11
-138.89886
 21
-564.41565
  0
LINE
  8
0
  6
CONTINUOUS
 62
     7
 10
-107.05762
 20
-467.16568
 11
-107.05762
 21
-571.16565
  0
LINE
  8
0
  6
CONTINUOUS
 62
     7
 10
-135.05762
 20
-519.16565
 11
-108.05762
 21
-519.16565
  0
LINE
  8
0
  6
CONTINUOUS
 62
     7
 10
-136.05762
 20
-467.16568
 11
-136.05762
 21
-571.16565
  0
LINE
  8
0
  6
CONTINUOUS
 62
     7
 10
-134.05762
 20
-465.16568
 11
-109.05762
 21
-465.16568
  0
LINE
  8
0
  6
CONTINUOUS
 62
     7
 10
-134.05762
 20
-573.16565
 11
-109.05762
 21
-573.16565
  0
LINE
  8
0
  6
CONTINUOUS
 62
     7
 10
-136.0576
 20
-467.16565
 11
-134.0576
 21
-465.16565
  0
LINE
  8
0
  6
CONTINUOUS
 62
     7
 10
-109.05763
 20
-465.16571
 11
-107.05763
 21
-467.16571
  0
LINE
  8
0
  6
CONTINUOUS
 62
     7
 10
-136.05762
 20
-571.16571
 11
-134.0576
 21
-573.16571
  0
LINE
  8
0
  6
CONTINUOUS
 62
     7
 10
-109.0576
 20
-573.16571
 11
-107.0576
 21
-571.16565
  0
LINE
  8
0
  6
CONTINUOUS
 62
     7
 10
-135.05762
 20
-487.02792
 11
-108.05762
 21
-487.02792
  0
LINE
  8
0
  6
CONTINUOUS
 62
     7
 10
-135.05762
 20
-551.30347
 11
-108.05762
 21
-551.30347
  0
LINE
  8
0
  6
CENTER
 62
     7
 10
-171.48117
 20
-752.56891
 11
-171.48117
 21
-924.93066
  0
LINE
  8
0
  6
CONTINUOUS
 62
     7
 10
-119.23117
 20
-859.00568
 11
-119.23117
 21
-871.91443
  0
LINE
  8
0
  6
CONTINUOUS
 62
     7
 10
-223.73117
 20
-851.00568
 11
-223.73117
 21
-871.91443
  0
LINE
  8
0
  6
CONTINUOUS
 62
     7
 10
-171.48117
 20
-875.75568
 11
-171.48117
 21
-902.75568
  0
LINE
  8
0
  6
CONTINUOUS
 62
     7
 10
-111.98117
 20
-903.75568
 11
-230.98117
 21
-903.75568
  0
LINE
  8
0
  6
CONTINUOUS
 62
     7
 10
-111.98117
 20
-874.75568
 11
-230.98117
 21
-874.75568
  0
LINE
  8
0
  6
CONTINUOUS
 62
     7
 10
-232.98117
 20
-876.75568
 11
-232.98117
 21
-901.75568
  0
LINE
  8
0
  6
CONTINUOUS
 62
     7
 10
-109.98117
 20
-876.75568
 11
-109.98117
 21
-901.75568
  0
LINE
  8
0
  6
CONTINUOUS
 62
     7
 10
-109.98113
 20
-876.75562
 11
-111.98114
 21
-874.75562
  0
LINE
  8
0
  6
CONTINUOUS
 62
     7
 10
-230.98119
 20
-874.75562
 11
-232.98119
 21
-876.75562
  0
LINE
  8
0
  6
CONTINUOUS
 62
     7
 10
-232.98119
 20
-901.75568
 11
-230.98117
 21
-903.75568
  0
LINE
  8
0
  6
CONTINUOUS
 62
     7
 10
-109.98117
 20
-901.75568
 11
-111.98117
 21
-903.75568
  0
LINE
  8
0
  6
CONTINUOUS
 62
     7
 10
-133.47208
 20
-875.75568
 11
-133.47208
 21
-902.75568
  0
LINE
  8
0
  6
CONTINUOUS
 62
     7
 10
-209.49026
 20
-875.75568
 11
-209.49026
 21
-902.75568
  0
LINE
  8
0
  6
CENTER
 62
     7
 10
-217.20779
 20
-798.75568
 11
-46.531155
 21
-798.75568
  0
LINE
  8
0
  6
CONTINUOUS
 62
     7
 10
-119.23117
 20
-746.50568
 11
-98.322418
 21
-746.50568
  0
LINE
  8
0
  6
CONTINUOUS
 62
     7
 10
-111.23117
 20
-851.00568
 11
-98.322418
 21
-851.00568
  0
LINE
  8
0
  6
CONTINUOUS
 62
     7
 10
-94.481171
 20
-798.75568
 11
-67.481171
 21
-798.75568
  0
LINE
  8
0
  6
CONTINUOUS
 62
     7
 10
-66.481171
 20
-739.25568
 11
-66.481171
 21
-858.25568
  0
LINE
  8
0
  6
CONTINUOUS
 62
     7
 10
-95.481171
 20
-739.25568
 11
-95.481171
 21
-858.25568
  0
LINE
  8
0
  6
CONTINUOUS
 62
     7
 10
-93.481171
 20
-860.25568
 11
-68.481171
 21
-860.25568
  0
LINE
  8
0
  6
CONTINUOUS
 62
     7
 10
-93.481171
 20
-737.25568
 11
-68.481171
 21
-737.25568
  0
LINE
  8
0
  6
CONTINUOUS
 62
     7
 10
-93.48111
 20
-737.25568
 11
-95.481117
 21
-739.25568
  0
LINE
  8
0
  6
CONTINUOUS
 62
     7
 10
-95.481171
 20
-858.25568
 11
-93.481171
 21
-860.25568
  0
LINE
  8
0
  6
CONTINUOUS
 62
     7
 10
-68.481163
 20
-860.25568
 11
-66.481163
 21
-858.25568
  0
LINE
  8
0
  6
CONTINUOUS
 62
     7
 10
-68.481194
 20
-737.25574
 11
-66.481186
 21
-739.25574
  0
LINE
  8
0
  6
CONTINUOUS
 62
     7
 10
-94.481171
 20
-760.74658
 11
-67.481171
 21
-760.74658
  0
LINE
  8
0
  6
CONTINUOUS
 62
     7
 10
-94.481171
 20
-836.76477
 11
-67.481171
 21
-836.76477
  0
LINE
  8
0
  6
CONTINUOUS
 62
     7
 10
-297
 20
-210
 11
-297
 21
210
  0
LINE
  8
0
  6
CONTINUOUS
 62
     7
 10
-297
 20
210
 11
297
 21
210
  0
LINE
  8
0
  6
CONTINUOUS
 62
     7
 10
297
 20
210
 11
297
 21
-210
  0
LINE
  8
0
  6
CONTINUOUS
 62
     7
 10
297
 20
-210
 11
-297
 21
-210
  0
LINE
  8
0
  6
CENTER
 62
     7
 10
-209.47758
 20
121.26677
 11
-132.95042
 21
121.26677
  0
LINE
  8
0
  6
CONTINUOUS
 62
     7
 10
-178.43791
 20
101.76678
 11
-178.43791
 21
93.596916
  0
LINE
  8
0
  6
CONTINUOUS
 62
     7
 10
-209.43791
 20
105.76678
 11
-209.43791
 21
93.596916
  0
LINE
  8
0
  6
CONTINUOUS
 62
     7
 10
-174.93791
 20
72.266785
 11
-212.93791
 21
72.266785
  0
LINE
  8
0
  6
CONTINUOUS
 62
     7
 10
-172.93791
 20
87.766785
 11
-172.93791
 21
74.266785
  0
LINE
  8
0
  6
CONTINUOUS
 62
     7
 10
-214.93791
 20
87.766785
 11
-214.93791
 21
74.266785
  0
LINE
  8
0
  6
CONTINUOUS
 62
     7
 10
-174.93791
 20
89.766777
 11
-212.93791
 21
89.766777
  0
LINE
  8
0
  6
CONTINUOUS
 62
     7
 10
-185.23944
 20
88.766777
 11
-185.23944
 21
73.266785
  0
LINE
  8
0
  6
CONTINUOUS
 62
     7
 10
-202.6364
 20
88.766777
 11
-202.6364
 21
73.266785
  0
LINE
  8
0
  6
CONTINUOUS
 62
     7
 10
-172.93791
 20
87.766777
 11
-174.93791
 21
89.766785
  0
LINE
  8
0
  6
CONTINUOUS
 62
     7
 10
-172.93793
 20
74.266769
 11
-174.93793
 21
72.266769
  0
LINE
  8
0
  6
CONTINUOUS
 62
     7
 10
-212.93791
 20
72.266762
 11
-214.93791
 21
74.266762
  0
LINE
  8
0
  6
CONTINUOUS
 62
     7
 10
-212.93791
 20
89.766777
 11
-214.9379
 21
87.766785
  0
LINE
  8
0
  6
CENTER
 62
     7
 10
-193.93791
 20
138.71133
 11
-193.93791
 21
60.716782
  0
LINE
  8
0
  6
CONTINUOUS
 62
     7
 10
-178.43791
 20
136.76677
 11
-166.26805
 21
136.76677
  0
LINE
  8
0
  6
CONTINUOUS
 62
     7
 10
-174.43791
 20
105.76678
 11
-166.26805
 21
105.76678
  0
LINE
  8
0
  6
CONTINUOUS
 62
     7
 10
-144.93791
 20
140.26677
 11
-144.93791
 21
102.26678
  0
LINE
  8
0
  6
CONTINUOUS
 62
     7
 10
-160.43791
 20
142.26677
 11
-146.93791
 21
142.26677
  0
LINE
  8
0
  6
CONTINUOUS
 62
     7
 10
-160.43791
 20
100.26678
 11
-146.93791
 21
100.26678
  0
LINE
  8
0
  6
CONTINUOUS
 62
     7
 10
-162.43791
 20
140.26677
 11
-162.43791
 21
102.26678
  0
LINE
  8
0
  6
CONTINUOUS
 62
     7
 10
-161.43791
 20
129.96526
 11
-145.93791
 21
129.96526
  0
LINE
  8
0
  6
CONTINUOUS
 62
     7
 10
-161.43791
 20
112.56831
 11
-145.93791
 21
112.56831
  0
LINE
  8
0
  6
CONTINUOUS
 62
     7
 10
-160.43791
 20
142.26678
 11
-162.43791
 21
140.26678
  0
LINE
  8
0
  6
CONTINUOUS
 62
     7
 10
-146.9379
 20
142.26677
 11
-144.9379
 21
140.26677
  0
LINE
  8
0
  6
CONTINUOUS
 62
     7
 10
-144.93793
 20
102.26678
 11
-146.93793
 21
100.26678
  0
LINE
  8
0
  6
CONTINUOUS
 62
     7
 10
-162.43791
 20
102.26678
 11
-160.43791
 21
100.26678
  0
LINE
  8
0
  6
CENTER
 62
     7
 10
-15.419817
 20
141.45866
 11
-15.419817
 21
56.047386
  0
LINE
  8
0
  6
CONTINUOUS
 62
     7
 10
2.8301868
 20
100.29738
 11
2.8301868
 21
89.012527
  0
LINE
  8
0
  6
CONTINUOUS
 62
     7
 10
-33.669819
 20
104.29738
 11
-33.669819
 21
89.012527
  0
LINE
  8
0
  6
CONTINUOUS
 62
     7
 10
7.0801868
 20
67.547386
 11
-37.919819
 21
67.547386
  0
LINE
  8
0
  6
CONTINUOUS
 62
     7
 10
7.0801868
 20
86.047386
 11
-37.919819
 21
86.047386
  0
LINE
  8
0
  6
CONTINUOUS
 62
     7
 10
9.0801868
 20
84.047386
 11
9.0801868
 21
69.547386
  0
LINE
  8
0
  6
CONTINUOUS
 62
     7
 10
-39.919819
 20
84.047386
 11
-39.919819
 21
69.547386
  0
LINE
  8
0
  6
CONTINUOUS
 62
     7
 10
7.0801806
 20
86.047379
 11
9.0801716
 21
84.047386
  0
LINE
  8
0
  6
CONTINUOUS
 62
     7
 10
-39.919823
 20
84.047386
 11
-37.919827
 21
86.047386
  0
LINE
  8
0
  6
CONTINUOUS
 62
     7
 10
9.0801764
 20
69.547386
 11
7.0801773
 21
67.547394
  0
LINE
  8
0
  6
CONTINUOUS
 62
     7
 10
-37.91983
 20
67.547394
 11
-39.919815
 21
69.547379
  0
LINE
  8
0
  6
CONTINUOUS
 62
     7
 10
-5.2787151
 20
85.047386
 11
-5.2787151
 21
68.547386
  0
LINE
  8
0
  6
CONTINUOUS
 62
     7
 10
-25.56093
 20
85.047386
 11
-25.56093
 21
68.547386
  0
LINE
  8
0
  6
CENTER
 62
     7
 10
-32.437626
 20
122.54738
 11
55.105179
 21
122.54738
  0
LINE
  8
0
  6
CONTINUOUS
 62
     7
 10
2.8301868
 20
140.79738
 11
18.115038
 21
140.79738
  0
LINE
  8
0
  6
CONTINUOUS
 62
     7
 10
6.8301868
 20
104.29738
 11
18.115038
 21
104.29738
  0
LINE
  8
0
  6
CONTINUOUS
 62
     7
 10
39.580177
 20
145.04738
 11
39.580177
 21
100.04738
  0
LINE
  8
0
  6
CONTINUOUS
 62
     7
 10
21.080179
 20
145.04738
 11
21.080179
 21
100.04738
  0
LINE
  8
0
  6
CONTINUOUS
 62
     7
 10
23.080179
 20
147.04738
 11
37.580177
 21
147.04738
  0
LINE
  8
0
  6
CONTINUOUS
 62
     7
 10
23.080179
 20
98.047379
 11
37.580177
 21
98.047379
  0
LINE
  8
0
  6
CONTINUOUS
 62
     7
 10
21.080179
 20
145.04739
 11
23.080175
 21
147.04738
  0
LINE
  8
0
  6
CONTINUOUS
 62
     7
 10
23.080172
 20
98.047386
 11
21.08017
 21
100.04739
  0
LINE
  8
0
  6
CONTINUOUS
 62
     7
 10
37.580181
 20
147.04739
 11
39.580177
 21
145.04739
  0
LINE
  8
0
  6
CONTINUOUS
 62
     7
 10
39.580177
 20
100.04739
 11
37.580177
 21
98.047386
  0
LINE
  8
0
  6
CONTINUOUS
 62
     7
 10
22.080179
 20
132.68849
 11
38.580177
 21
132.68849
  0
LINE
  8
0
  6
CONTINUOUS
 62
     7
 10
22.080179
 20
112.40628
 11
38.580177
 21
112.40628
  0
LINE
  8
0
  6
CENTER
 62
     7
 10
-201.16628
 20
-61.195999
 11
-201.16628
 21
-154.14107
  0
LINE
  8
0
  6
CONTINUOUS
 62
     7
 10
-178.91628
 20
-110.26857
 11
-178.91628
 21
-123.55342
  0
LINE
  8
0
  6
CONTINUOUS
 62
     7
 10
-223.41628
 20
-106.26857
 11
-223.41628
 21
-123.55342
  0
LINE
  8
0
  6
CONTINUOUS
 62
     7
 10
-174.16628
 20
-145.51857
 11
-228.16628
 21
-145.51857
  0
LINE
  8
0
  6
CONTINUOUS
 62
     7
 10
-174.16628
 20
-127.01856
 11
-228.16628
 21
-127.01856
  0
LINE
  8
0
  6
CONTINUOUS
 62
     7
 10
-230.16628
 20
-129.01857
 11
-230.16628
 21
-143.51857
  0
LINE
  8
0
  6
CONTINUOUS
 62
     7
 10
-172.16628
 20
-129.01857
 11
-172.16628
 21
-143.51857
  0
LINE
  8
0
  6
CONTINUOUS
 62
     7
 10
-174.16628
 20
-127.01857
 11
-172.16629
 21
-129.01857
  0
LINE
  8
0
  6
CONTINUOUS
 62
     7
 10
-172.16629
 20
-143.51857
 11
-174.16628
 21
-145.51855
  0
LINE
  8
0
  6
CONTINUOUS
 62
     7
 10
-228.16628
 20
-127.01857
 11
-230.16628
 21
-129.01857
  0
LINE
  8
0
  6
CONTINUOUS
 62
     7
 10
-230.16628
 20
-143.51855
 11
-228.16628
 21
-145.51855
  0
LINE
  8
0
  6
CONTINUOUS
 62
     7
 10
-189.15408
 20
-128.01857
 11
-189.15408
 21
-144.51857
  0
LINE
  8
0
  6
CONTINUOUS
 62
     7
 10
-213.17847
 20
-128.01857
 11
-213.17847
 21
-144.51857
  0
LINE
  8
0
  6
CENTER
 62
     7
 10
-223.36005
 20
-84.01857
 11
-130.27377
 21
-84.01857
  0
LINE
  8
0
  6
CONTINUOUS
 62
     7
 10
-178.91628
 20
-61.76857
 11
-161.63142
 21
-61.76857
  0
LINE
  8
0
  6
CONTINUOUS
 62
     7
 10
-174.91628
 20
-106.26857
 11
-161.63142
 21
-106.26857
  0
LINE
  8
0
  6
CONTINUOUS
 62
     7
 10
-139.66628
 20
-57.01857
 11
-139.66628
 21
-111.01857
  0
LINE
  8
0
  6
CONTINUOUS
 62
     7
 10
-158.16628
 20
-57.01857
 11
-158.16628
 21
-111.01857
  0
LINE
  8
0
  6
CONTINUOUS
 62
     7
 10
-156.16628
 20
-113.01857
 11
-141.66628
 21
-113.01857
  0
LINE
  8
0
  6
CONTINUOUS
 62
     7
 10
-156.16628
 20
-55.01857
 11
-141.66628
 21
-55.01857
  0
LINE
  8
0
  6
CONTINUOUS
 62
     7
 10
-158.16628
 20
-57.01857
 11
-156.16626
 21
-55.018566
  0
LINE
  8
0
  6
CONTINUOUS
 62
     7
 10
-141.66628
 20
-55.018559
 11
-139.66628
 21
-57.018559
  0
LINE
  8
0
  6
CONTINUOUS
 62
     7
 10
-158.16628
 20
-111.01858
 11
-156.16629
 21
-113.01857
  0
LINE
  8
0
  6
CONTINUOUS
 62
     7
 10
-141.66628
 20
-113.01857
 11
-139.66628
 21
-111.01857
  0
LINE
  8
0
  6
CONTINUOUS
 62
     7
 10
-157.16628
 20
-72.006363
 11
-140.66628
 21
-72.006363
  0
LINE
  8
0
  6
CONTINUOUS
 62
     7
 10
-157.16628
 20
-96.030762
 11
-140.66628
 21
-96.030762
  0
LINE
  8
0
  6
CENTER
 62
     7
 10
72.73568
 20
-61.516521
 11
72.73568
 21
-169.42241
  0
LINE
  8
0
  6
CONTINUOUS
 62
     7
 10
98.23568
 20
-117.40991
 11
98.23568
 21
-134.14021
  0
LINE
  8
0
  6
CONTINUOUS
 62
     7
 10
47.235676
 20
-114.40991
 11
47.235676
 21
-134.14021
  0
LINE
  8
0
  6
CONTINUOUS
 62
     7
 10
103.73568
 20
-156.90991
 11
41.735676
 21
-156.90991
  0
LINE
  8
0
  6
CONTINUOUS
 62
     7
 10
103.73568
 20
-137.90991
 11
41.735676
 21
-137.90991
  0
LINE
  8
0
  6
CONTINUOUS
 62
     7
 10
105.73568
 20
-139.90991
 11
105.73568
 21
-154.90991
  0
LINE
  8
0
  6
CONTINUOUS
 62
     7
 10
39.735676
 20
-139.90991
 11
39.735676
 21
-154.90991
  0
LINE
  8
0
  6
CONTINUOUS
 62
     7
 10
103.73567
 20
-137.90991
 11
105.73567
 21
-139.90991
  0
LINE
  8
0
  6
CONTINUOUS
 62
     7
 10
105.73567
 20
-154.90991
 11
103.73567
 21
-156.90991
  0
LINE
  8
0
  6
CONTINUOUS
 62
     7
 10
41.735668
 20
-156.90991
 11
39.735664
 21
-154.90991
  0
LINE
  8
0
  6
CONTINUOUS
 62
     7
 10
41.735683
 20
-137.9099
 11
39.735683
 21
-139.9099
  0
LINE
  8
0
  6
CONTINUOUS
 62
     7
 10
86.404716
 20
-138.90991
 11
86.404716
 21
-155.90991
  0
LINE
  8
0
  6
CONTINUOUS
 62
     7
 10
59.066608
 20
-138.90991
 11
59.066608
 21
-155.90991
  0
LINE
  8
0
  6
CENTER
 62
     7
 10
46.280903
 20
-86.909912
 11
155.24817
 21
-86.909912
  0
LINE
  8
0
  6
CONTINUOUS
 62
     7
 10
100.23568
 20
-61.409912
 11
119.96598
 21
-61.409912
  0
LINE
  8
0
  6
CONTINUOUS
 62
     7
 10
103.23568
 20
-112.40991
 11
119.96598
 21
-112.40991
  0
LINE
  8
0
  6
CONTINUOUS
 62
     7
 10
142.73567
 20
-55.909912
 11
142.73567
 21
-117.90991
  0
LINE
  8
0
  6
CONTINUOUS
 62
     7
 10
123.73568
 20
-55.909912
 11
123.73568
 21
-117.90991
  0
LINE
  8
0
  6
CONTINUOUS
 62
     7
 10
125.73568
 20
-53.909912
 11
140.73567
 21
-53.909912
  0
LINE
  8
0
  6
CONTINUOUS
 62
     7
 10
125.73568
 20
-119.9099
 11
140.73567
 21
-119.9099
  0
LINE
  8
0
  6
CONTINUOUS
 62
     7
 10
123.73568
 20
-55.909893
 11
125.73567
 21
-53.909904
  0
LINE
  8
0
  6
CONTINUOUS
 62
     7
 10
140.73569
 20
-53.909897
 11
142.73569
 21
-55.909901
  0
LINE
  8
0
  6
CONTINUOUS
 62
     7
 10
142.73567
 20
-117.90991
 11
140.73567
 21
-119.90991
  0
LINE
  8
0
  6
CONTINUOUS
 62
     7
 10
123.73568
 20
-117.9099
 11
125.73568
 21
-119.9099
  0
LINE
  8
0
  6
CONTINUOUS
 62
     7
 10
124.73568
 20
-73.24086
 11
141.73567
 21
-73.24086
  0
LINE
  8
0
  6
CONTINUOUS
 62
     7
 10
124.73568
 20
-100.57895
 11
141.73567
 21
-100.57895
  0
LINE
  8
0
  6
CENTER
 62
     7
 10
-235.86238
 20
-276.37973
 11
-235.86238
 21
-393.9313
  0
LINE
  8
0
  6
CONTINUOUS
 62
     7
 10
-205.86238
 20
-340.2063
 11
-205.86238
 21
-357.87616
  0
LINE
  8
0
  6
CONTINUOUS
 62
     7
 10
-265.8624
 20
-335.2063
 11
-265.8624
 21
-357.87616
  0
LINE
  8
0
  6
CONTINUOUS
 62
     7
 10
-201.36238
 20
-382.2063
 11
-270.3624
 21
-382.2063
  0
LINE
  8
0
  6
CONTINUOUS
 62
     7
 10
-235.86238
 20
-361.2063
 11
-235.86238
 21
-381.2063
  0
LINE
  8
0
  6
CONTINUOUS
 62
     7
 10
-201.36238
 20
-360.2063
 11
-270.3624
 21
-360.2063
  0
LINE
  8
0
  6
CONTINUOUS
 62
     7
 10
-199.36238
 20
-362.2063
 11
-199.36238
 21
-380.2063
  0
LINE
  8
0
  6
CONTINUOUS
 62
     7
 10
-272.3624
 20
-362.2063
 11
-272.3624
 21
-380.2063
  0
LINE
  8
0
  6
CONTINUOUS
 62
     7
 10
-213.30415
 20
-361.2063
 11
-213.30415
 21
-381.2063
  0
LINE
  8
0
  6
CONTINUOUS
 62
     7
 10
-258.42062
 20
-361.2063
 11
-258.42062
 21
-381.2063
  0
LINE
  8
0
  6
CONTINUOUS
 62
     7
 10
-201.3624
 20
-360.20627
 11
-199.3624
 21
-362.2063
  0
LINE
  8
0
  6
CONTINUOUS
 62
     7
 10
-199.3624
 20
-380.20627
 11
-201.3624
 21
-382.20627
  0
LINE
  8
0
  6
CONTINUOUS
 62
     7
 10
-270.3624
 20
-360.2063
 11
-272.3624
 21
-362.2063
  0
LINE
  8
0
  6
CONTINUOUS
 62
     7
 10
-270.3624
 20
-382.20627
 11
-272.3624
 21
-380.20627
  0
LINE
  8
0
  6
CENTER
 62
     7
 10
-263.86078
 20
-305.2063
 11
-147.13739
 21
-305.2063
  0
LINE
  8
0
  6
CONTINUOUS
 62
     7
 10
-205.86238
 20
-275.2063
 11
-183.19252
 21
-275.2063
  0
LINE
  8
0
  6
CONTINUOUS
 62
     7
 10
-200.86238
 20
-335.2063
 11
-183.19252
 21
-335.2063
  0
LINE
  8
0
  6
CONTINUOUS
 62
     7
 10
-158.86238
 20
-270.7063
 11
-158.86238
 21
-339.7063
  0
LINE
  8
0
  6
CONTINUOUS
 62
     7
 10
-179.86238
 20
-305.2063
 11
-159.86238
 21
-305.2063
  0
LINE
  8
0
  6
CONTINUOUS
 62
     7
 10
-180.86238
 20
-270.7063
 11
-180.86238
 21
-339.7063
  0
LINE
  8
0
  6
CONTINUOUS
 62
     7
 10
-178.86238
 20
-268.7063
 11
-160.86238
 21
-268.7063
  0
LINE
  8
0
  6
CONTINUOUS
 62
     7
 10
-178.86238
 20
-341.7063
 11
-160.86238
 21
-341.7063
  0
LINE
  8
0
  6
CONTINUOUS
 62
     7
 10
-179.86238
 20
-282.64804
 11
-159.86238
 21
-282.64804
  0
LINE
  8
0
  6
CONTINUOUS
 62
     7
 10
-179.86238
 20
-327.76453
 11
-159.86238
 21
-327.76453
  0
LINE
  8
0
  6
CONTINUOUS
 62
     7
 10
-180.8624
 20
-270.7063
 11
-178.8624
 21
-268.7063
  0
LINE
  8
0
  6
CONTINUOUS
 62
     7
 10
-160.8624
 20
-268.70627
 11
-158.8624
 21
-270.70627
  0
LINE
  8
0
  6
CONTINUOUS
 62
     7
 10
-180.8624
 20
-339.7063
 11
-178.8624
 21
-341.7063
  0
LINE
  8
0
  6
CONTINUOUS
 62
     7
 10
-158.86238
 20
-339.7063
 11
-160.8624
 21
-341.7063
  0
LINE
  8
0
  6
CENTER
 62
     7
 10
48.79649
 20
-272.84827
 11
48.79649
 21
-404.74768
  0
LINE
  8
0
  6
CONTINUOUS
 62
     7
 10
85.296486
 20
-350.59766
 11
85.296486
 21
-370.76755
  0
LINE
  8
0
  6
CONTINUOUS
 62
     7
 10
12.29649
 20
-344.59766
 11
12.29649
 21
-370.76755
  0
LINE
  8
0
  6
CONTINUOUS
 62
     7
 10
90.296455
 20
-395.59766
 11
7.2964892
 21
-395.59766
  0
LINE
  8
0
  6
CONTINUOUS
 62
     7
 10
48.79649
 20
-373.09766
 11
48.79649
 21
-394.59766
  0
LINE
  8
0
  6
CONTINUOUS
 62
     7
 10
90.296455
 20
-372.09766
 11
7.2964892
 21
-372.09766
  0
LINE
  8
0
  6
CONTINUOUS
 62
     7
 10
92.296455
 20
-374.09766
 11
92.296455
 21
-393.59766
  0
LINE
  8
0
  6
CONTINUOUS
 62
     7
 10
5.2964892
 20
-374.09766
 11
5.2964892
 21
-393.59766
  0
LINE
  8
0
  6
CONTINUOUS
 62
     7
 10
90.296486
 20
-372.09766
 11
92.296486
 21
-374.09766
  0
LINE
  8
0
  6
CONTINUOUS
 62
     7
 10
92.296486
 20
-393.59769
 11
90.296478
 21
-395.59769
  0
LINE
  8
0
  6
CONTINUOUS
 62
     7
 10
7.2964783
 20
-372.09766
 11
5.2964759
 21
-374.09766
  0
LINE
  8
0
  6
CONTINUOUS
 62
     7
 10
5.2964768
 20
-393.59766
 11
7.2964792
 21
-395.59766
  0
LINE
  8
0
  6
CONTINUOUS
 62
     7
 10
75.680946
 20
-394.59766
 11
75.680946
 21
-373.09766
  0
LINE
  8
0
  6
CONTINUOUS
 62
     7
 10
21.911999
 20
-394.59766
 11
21.911999
 21
-373.09766
  0
LINE
  8
0
  6
CENTER
 62
     7
 10
9.4155388
 20
-308.09766
 11
153.44649
 21
-308.09766
  0
LINE
  8
0
  6
CONTINUOUS
 62
     7
 10
85.296486
 20
-271.59766
 11
111.46632
 21
-271.59766
  0
LINE
  8
0
  6
CONTINUOUS
 62
     7
 10
91.296455
 20
-344.59766
 11
111.46632
 21
-344.59766
  0
LINE
  8
0
  6
CONTINUOUS
 62
     7
 10
136.29646
 20
-266.59766
 11
136.29646
 21
-349.59766
  0
LINE
  8
0
  6
CONTINUOUS
 62
     7
 10
113.79646
 20
-308.09766
 11
135.29646
 21
-308.09766
  0
LINE
  8
0
  6
CONTINUOUS
 62
     7
 10
112.79646
 20
-266.59766
 11
112.79646
 21
-349.59766
  0
LINE
  8
0
  6
CONTINUOUS
 62
     7
 10
114.79646
 20
-264.59766
 11
134.29646
 21
-264.59766
  0
LINE
  8
0
  6
CONTINUOUS
 62
     7
 10
114.79646
 20
-351.59766
 11
134.29646
 21
-351.59766
  0
LINE
  8
0
  6
CONTINUOUS
 62
     7
 10
112.79648
 20
-266.59769
 11
114.79648
 21
-264.59769
  0
LINE
  8
0
  6
CONTINUOUS
 62
     7
 10
134.29646
 20
-264.59769
 11
136.29648
 21
-266.59769
  0
LINE
  8
0
  6
CONTINUOUS
 62
     7
 10
112.79649
 20
-349.59766
 11
114.79649
 21
-351.59766
  0
LINE
  8
0
  6
CONTINUOUS
 62
     7
 10
134.29648
 20
-351.59766
 11
136.29649
 21
-349.59766
  0
LINE
  8
0
  6
CONTINUOUS
 62
     7
 10
135.29646
 20
-281.2132
 11
113.79646
 21
-281.2132
  0
LINE
  8
0
  6
CONTINUOUS
 62
     7
 10
135.29646
 20
-334.98215
 11
113.79646
 21
-334.98215
  0
LINE
  8
0
  6
CONTINUOUS
 62
     7
 10
-75.097763
 20
129.96526
 11
-87.399269
 21
142.26675
  0
LINE
  8
0
  6
CONTINUOUS
 62
     7
 10
-87.399277
 20
142.26677
 11
-104.79623
 21
142.26677
  0
LINE
  8
0
  6
CONTINUOUS
 62
     7
 10
-117.09776
 20
129.96526
 11
-104.79625
 21
142.26677
  0
LINE
  8
0
  6
CONTINUOUS
 62
     7
 10
-117.09775
 20
112.56829
 11
-117.09775
 21
129.96524
  0
LINE
  8
0
  6
CONTINUOUS
 62
     7
 10
-104.79625
 20
100.26677
 11
-117.09776
 21
112.56828
  0
LINE
  8
0
  6
CONTINUOUS
 62
     7
 10
-87.399277
 20
100.26678
 11
-104.79623
 21
100.26678
  0
LINE
  8
0
  6
CONTINUOUS
 62
     7
 10
-75.097755
 20
112.56828
 11
-87.399269
 21
100.26675
  0
LINE
  8
0
  6
CONTINUOUS
 62
     7
 10
-75.097748
 20
129.96524
 11
-75.097748
 21
112.56829
  0
LINE
  8
0
  6
CENTER
 62
     7
 10
-96.097748
 20
144.55266
 11
-96.097748
 21
97.980873
  0
LINE
  8
0
  6
CONTINUOUS
 62
     7
 10
131.54851
 20
132.68849
 11
117.20682
 21
147.0302
  0
LINE
  8
0
  6
CONTINUOUS
 62
     7
 10
117.2068
 20
147.03018
 11
96.924576
 21
147.03018
  0
LINE
  8
0
  6
CONTINUOUS
 62
     7
 10
82.582893
 20
132.68848
 11
96.924591
 21
147.03018
  0
LINE
  8
0
  6
CONTINUOUS
 62
     7
 10
82.582893
 20
112.40627
 11
82.582893
 21
132.68848
  0
LINE
  8
0
  6
CONTINUOUS
 62
     7
 10
96.924576
 20
98.06456
 11
82.582878
 21
112.40626
  0
LINE
  8
0
  6
CONTINUOUS
 62
     7
 10
117.2068
 20
98.06456
 11
96.924576
 21
98.06456
  0
LINE
  8
0
  6
CONTINUOUS
 62
     7
 10
131.54851
 20
112.40627
 11
117.20681
 21
98.064568
  0
LINE
  8
0
  6
CONTINUOUS
 62
     7
 10
131.54851
 20
132.68848
 11
131.54851
 21
112.40627
  0
LINE
  8
0
  6
CENTER
 62
     7
 10
107.06569
 20
148.58327
 11
107.06569
 21
96.511475
  0
LINE
  8
0
  6
CONTINUOUS
 62
     7
 10
-55.428268
 20
-72.006378
 11
-72.416077
 21
-55.018566
  0
LINE
  8
0
  6
CONTINUOUS
 62
     7
 10
-72.416084
 20
-55.01857
 11
-96.440468
 21
-55.01857
  0
LINE
  8
0
  6
CONTINUOUS
 62
     7
 10
-113.42828
 20
-72.006378
 11
-96.440483
 21
-55.018574
  0
LINE
  8
0
  6
CONTINUOUS
 62
     7
 10
-113.42828
 20
-96.030769
 11
-113.42828
 21
-72.006378
  0
LINE
  8
0
  6
CONTINUOUS
 62
     7
 10
-96.440468
 20
-113.01857
 11
-113.42828
 21
-96.030762
  0
LINE
  8
0
  6
CONTINUOUS
 62
     7
 10
-72.416084
 20
-113.01857
 11
-96.440468
 21
-113.01857
  0
LINE
  8
0
  6
CONTINUOUS
 62
     7
 10
-55.42828
 20
-96.030777
 11
-72.416077
 21
-113.01857
  0
LINE
  8
0
  6
CONTINUOUS
 62
     7
 10
-55.428265
 20
-72.006378
 11
-55.428265
 21
-96.030769
  0
LINE
  8
0
  6
CENTER
 62
     7
 10
-84.428276
 20
-48.909683
 11
-84.428276
 21
-118.14687
  0
LINE
  8
0
  6
CONTINUOUS
 62
     7
 10
255.41547
 20
-73.240868
 11
236.0845
 21
-53.909912
  0
LINE
  8
0
  6
CONTINUOUS
 62
     7
 10
236.0845
 20
-53.909912
 11
208.7464
 21
-53.909912
  0
LINE
  8
0
  6
CONTINUOUS
 62
     7
 10
189.41547
 20
-73.240868
 11
208.74643
 21
-53.909912
  0
LINE
  8
0
  6
CONTINUOUS
 62
     7
 10
189.41545
 20
-100.57896
 11
189.41545
 21
-73.240868
  0
LINE
  8
0
  6
CONTINUOUS
 62
     7
 10
208.74643
 20
-119.90992
 11
189.41547
 21
-100.57896
  0
LINE
  8
0
  6
CONTINUOUS
 62
     7
 10
236.0845
 20
-119.90992
 11
208.7464
 21
-119.90992
  0
LINE
  8
0
  6
CONTINUOUS
 62
     7
 10
255.41547
 20
-100.57896
 11
236.0845
 21
-119.90992
  0
LINE
  8
0
  6
CONTINUOUS
 62
     7
 10
255.41545
 20
-73.240868
 11
255.41545
 21
-100.57896
  0
LINE
  8
0
  6
CENTER
 62
     7
 10
222.41545
 20
-53.024017
 11
222.41545
 21
-120.79581
  0
LINE
  8
0
  6
CENTER
 62
     7
 10
-85.542297
 20
-263.38129
 11
-85.542297
 21
-347.73129
  0
LINE
  8
0
  6
CONTINUOUS
 62
     7
 10
-47.163933
 20
-305.2063
 11
-54.493542
 21
-282.64807
  0
LINE
  8
0
  6
CONTINUOUS
 62
     7
 10
-54.493534
 20
-282.64804
 11
-73.682724
 21
-268.70627
  0
LINE
  8
0
  6
CONTINUOUS
 62
     7
 10
-97.401871
 20
-268.7063
 11
-73.682739
 21
-268.7063
  0
LINE
  8
0
  6
CONTINUOUS
 62
     7
 10
-116.59103
 20
-282.64804
 11
-97.401855
 21
-268.7063
  0
LINE
  8
0
  6
CONTINUOUS
 62
     7
 10
-123.92068
 20
-305.2063
 11
-116.59106
 21
-282.64807
  0
LINE
  8
0
  6
CONTINUOUS
 62
     7
 10
-116.59106
 20
-327.76453
 11
-123.92067
 21
-305.2063
  0
LINE
  8
0
  6
CONTINUOUS
 62
     7
 10
-97.401855
 20
-341.7063
 11
-116.59105
 21
-327.76453
  0
LINE
  8
0
  6
CONTINUOUS
 62
     7
 10
-73.682739
 20
-341.7063
 11
-97.401871
 21
-341.7063
  0
LINE
  8
0
  6
CONTINUOUS
 62
     7
 10
-54.493523
 20
-327.76453
 11
-73.682709
 21
-341.7063
  0
LINE
  8
0
  6
CONTINUOUS
 62
     7
 10
-47.163921
 20
-305.2063
 11
-54.493542
 21
-327.76456
  0
LINE
  8
0
  6
CONTINUOUS
 62
     7
 10
263.81705
 20
-308.09766
 11
255.08176
 21
-281.21317
  0
LINE
  8
0
  6
CONTINUOUS
 62
     7
 10
255.08177
 20
-281.21313
 11
232.21248
 21
-264.5976
  0
LINE
  8
0
  6
CONTINUOUS
 62
     7
 10
203.94447
 20
-264.59766
 11
232.21248
 21
-264.59766
  0
LINE
  8
0
  6
CONTINUOUS
 62
     7
 10
181.07513
 20
-281.2132
 11
203.94449
 21
-264.59763
  0
LINE
  8
0
  6
CONTINUOUS
 62
     7
 10
172.33984
 20
-308.09763
 11
181.07513
 21
-281.21317
  0
LINE
  8
0
  6
CONTINUOUS
 62
     7
 10
181.07513
 20
-334.98215
 11
172.33983
 21
-308.09763
  0
LINE
  8
0
  6
CONTINUOUS
 62
     7
 10
203.94444
 20
-351.59763
 11
181.07515
 21
-334.98212
  0
LINE
  8
0
  6
CONTINUOUS
 62
     7
 10
232.21248
 20
-351.59766
 11
203.94447
 21
-351.59766
  0
LINE
  8
0
  6
CONTINUOUS
 62
     7
 10
255.0818
 20
-334.98212
 11
232.21246
 21
-351.59766
  0
LINE
  8
0
  6
CONTINUOUS
 62
     7
 10
263.81711
 20
-308.09766
 11
255.08182
 21
-334.98215
  0
LINE
  8
0
  6
CENTER
 62
     7
 10
218.07845
 20
-254.89763
 11
218.07845
 21
-359.19763
  0
LINE
  8
0
  6
CENTER
 62
     7
 10
-6.9014249
 20
-462.35089
 11
-6.9014249
 21
-576.70227
  0
LINE
  8
0
  6
CENTER
 62
     7
 10
48.634254
 20
-737.25568
 11
48.634254
 21
-860.25568
  0
LINE
  8
0
  6
CONTINUOUS
 62
     7
 10
113.29919
 20
-798.75568
 11
100.94927
 21
-760.74658
  0
LINE
  8
0
  6
CONTINUOUS
 62
     7
 10
100.9493
 20
-760.74658
 11
68.616837
 21
-737.25568
  0
LINE
  8
0
  6
CONTINUOUS
 62
     7
 10
28.651697
 20
-737.25568
 11
68.616814
 21
-737.25568
  0
LINE
  8
0
  6
CONTINUOUS
 62
     7
 10
-3.6807842
 20
-760.74658
 11
28.651676
 21
-737.25568
  0
LINE
  8
0
  6
CONTINUOUS
 62
     7
 10
-16.030668
 20
-798.75568
 11
-3.6807573
 21
-760.74658
  0
LINE
  8
0
  6
CONTINUOUS
 62
     7
 10
-3.6807823
 20
-836.76477
 11
-16.030693
 21
-798.75568
  0
LINE
  8
0
  6
CONTINUOUS
 62
     7
 10
28.651711
 20
-860.25568
 11
-3.6807504
 21
-836.76477
  0
LINE
  8
0
  6
CONTINUOUS
 62
     7
 10
68.616814
 20
-860.25568
 11
28.651697
 21
-860.25568
  0
LINE
  8
0
  6
CONTINUOUS
 62
     7
 10
100.9493
 20
-836.76483
 11
68.616837
 21
-860.25574
  0
LINE
  8
0
  6
CONTINUOUS
 62
     7
 10
113.29919
 20
-798.75568
 11
100.94929
 21
-836.76477
  0
LINE
  8
0
  6
CENTER
 62
     7
 10
-64.226318
 20
-519.16565
 11
53.095341
 21
-519.16565
  0
LINE
  8
0
  6
CENTER
 62
     7
 10
-18.532522
 20
-798.75568
 11
117.48426
 21
-798.75568
  0
LINE
  8
0
  6
CENTER
 62
     7
 10
167.78548
 20
-308.09766
 11
269.70813
 21
-308.09766
  0
LINE
  8
0
  6
CENTER
 62
     7
 10
-128.37619
 20
-305.2063
 11
-42.686909
 21
-305.2063
  0
LINE
  8
0
  6
CENTER
 62
     7
 10
180.41127
 20
-86.909912
 11
263.92792
 21
-86.909912
  0
LINE
  8
0
  6
CENTER
 62
     7
 10
-119.97027
 20
-84.01857
 11
-47.809246
 21
-84.01857
  0
LINE
  8
0
  6
CENTER
 62
     7
 10
-123.56497
 20
121.26677
 11
-70.067795
 21
121.26677
  0
LINE
  8
0
  6
CENTER
 62
     7
 10
74.04351
 20
122.54738
 11
137.22548
 21
122.54738
  0
LINE
  8
0
  6
CONTINUOUS
 62
     7
 10
-297
 20
-1090
 11
-297
 21
-670
  0
LINE
  8
0
  6
CONTINUOUS
 62
     7
 10
-297
 20
-670
 11
297
 21
-670
  0
LINE
  8
0
  6
CONTINUOUS
 62
     7
 10
297
 20
-670
 11
297
 21
-1090
  0
LINE
  8
0
  6
CONTINUOUS
 62
     7
 10
297
 20
-1090
 11
-297
 21
-1090
  0
LINE
  8
0
  6
CONTINUOUS
 62
     7
 10
49.877525
 20
-519.16571
 11
39.033714
 21
-485.79187
  0
LINE
  8
0
  6
CONTINUOUS
 62
     7
 10
39.033691
 20
-485.79181
 11
10.644228
 21
-465.16565
  0
LINE
  8
0
  6
CONTINUOUS
 62
     7
 10
-24.447079
 20
-465.16568
 11
10.644229
 21
-465.16568
  0
LINE
  8
0
  6
CONTINUOUS
 62
     7
 10
-52.836567
 20
-485.79184
 11
-24.447102
 21
-465.16568
  0
LINE
  8
0
  6
CONTINUOUS
 62
     7
 10
-63.680359
 20
-519.16565
 11
-52.836548
 21
-485.79184
  0
LINE
  8
0
  6
CONTINUOUS
 62
     7
 10
-52.836578
 20
-552.53955
 11
-63.680389
 21
-519.16571
  0
LINE
  8
0
  6
CONTINUOUS
 62
     7
 10
-24.447113
 20
-573.16565
 11
-52.836578
 21
-552.53949
  0
LINE
  8
0
  6
CONTINUOUS
 62
     7
 10
10.644229
 20
-573.16565
 11
-24.447079
 21
-573.16565
  0
LINE
  8
0
  6
CONTINUOUS
 62
     7
 10
39.033707
 20
-552.53955
 11
10.64424
 21
-573.16565
  0
LINE
  8
0
  6
CONTINUOUS
 62
     7
 10
49.877548
 20
-519.16571
 11
39.033737
 21
-552.53949
  0
LINE
  8
0
  6
CONTINUOUS
 62
     7
 10
317
 20
-1090
 11
317
 21
-670
  0
LINE
  8
0
  6
CONTINUOUS
 62
     7
 10
317
 20
-670
 11
911
 21
-670
  0
LINE
  8
0
  6
CONTINUOUS
 62
     7
 10
911
 20
-670
 11
911
 21
-1090
  0
LINE
  8
0
  6
CONTINUOUS
 62
     7
 10
911
 20
-1090
 11
317
 21
-1090
  0
LINE
  8
0
  6
CONTINUOUS
 62
     7
 10
476.22723
 20
-580.67322
 11
427.22723
 21
-580.67322
  0
LINE
  8
0
  6
CONTINUOUS
 62
     7
 10
476.22723
 20
-580.67322
 11
476.22723
 21
-585.67322
  0
LINE
  8
0
  6
CONTINUOUS
 62
     7
 10
472.47723
 20
-562.92322
 11
472.47723
 21
-575.83203
  0
LINE
  8
0
  6
CENTER
 62
     7
 10
427.22723
 20
-510.67325
 11
427.22723
 21
-623.89825
  0
LINE
  8
0
  6
CONTINUOUS
 62
     7
 10
378.22723
 20
-580.67322
 11
427.22723
 21
-580.67322
  0
LINE
  8
0
  6
CONTINUOUS
 62
     7
 10
378.22723
 20
-580.67322
 11
378.22723
 21
-585.67322
  0
LINE
  8
0
  6
CONTINUOUS
 62
     7
 10
381.97723
 20
-555.92322
 11
381.97723
 21
-575.83203
  0
LINE
  8
0
  6
CONTINUOUS
 62
     7
 10
479.22723
 20
-614.67322
 11
375.22723
 21
-614.67322
  0
LINE
  8
0
  6
CONTINUOUS
 62
     7
 10
427.22723
 20
-586.67322
 11
427.22723
 21
-613.67322
  0
LINE
  8
0
  6
CONTINUOUS
 62
     7
 10
467.62726
 20
-616.67322
 11
386.82724
 21
-616.67322
  0
LINE
  8
0
  6
CONTINUOUS
 62
     7
 10
479.22723
 20
-585.67322
 11
375.22723
 21
-585.67322
  0
LINE
  8
0
  6
CONTINUOUS
 62
     7
 10
481.22723
 20
-587.67322
 11
481.22723
 21
-612.67322
  0
LINE
  8
0
  6
CONTINUOUS
 62
     7
 10
373.22723
 20
-587.67322
 11
373.22723
 21
-612.67322
  0
LINE
  8
0
  6
CONTINUOUS
 62
     7
 10
479.22723
 20
-585.67322
 11
481.22723
 21
-587.67328
  0
LINE
  8
0
  6
CONTINUOUS
 62
     7
 10
481.22723
 20
-612.67328
 11
479.22726
 21
-614.67322
  0
LINE
  8
0
  6
CONTINUOUS
 62
     7
 10
375.22723
 20
-585.67322
 11
373.22723
 21
-587.67322
  0
LINE
  8
0
  6
CONTINUOUS
 62
     7
 10
373.22723
 20
-612.67322
 11
375.22723
 21
-614.67322
  0
LINE
  8
0
  6
CONTINUOUS
 62
     7
 10
459.36499
 20
-586.67322
 11
459.36499
 21
-613.67322
  0
LINE
  8
0
  6
CONTINUOUS
 62
     7
 10
395.08948
 20
-586.67322
 11
395.08948
 21
-613.67322
  0
LINE
  8
0
  6
CONTINUOUS
 62
     7
 10
467.62723
 20
-616.67328
 11
468.16312
 21
-614.67328
  0
LINE
  8
0
  6
CONTINUOUS
 62
     7
 10
386.82724
 20
-616.67322
 11
386.29135
 21
-614.67322
  0
LINE
  8
0
  6
CONTINUOUS
 62
     7
 10
497.22723
 20
-461.67322
 11
497.22723
 21
-510.67325
  0
LINE
  8
0
  6
CONTINUOUS
 62
     7
 10
497.22723
 20
-461.67322
 11
502.22723
 21
-461.67322
  0
LINE
  8
0
  6
CONTINUOUS
 62
     7
 10
472.47723
 20
-465.42322
 11
492.38599
 21
-465.42322
  0
LINE
  8
0
  6
CENTER
 62
     7
 10
427.22723
 20
-510.67325
 11
540.45221
 21
-510.67325
  0
LINE
  8
0
  6
CONTINUOUS
 62
     7
 10
497.22723
 20
-559.67322
 11
497.22723
 21
-510.67325
  0
LINE
  8
0
  6
CONTINUOUS
 62
     7
 10
497.22723
 20
-559.67322
 11
502.22723
 21
-559.67322
  0
LINE
  8
0
  6
CONTINUOUS
 62
     7
 10
479.47723
 20
-555.92322
 11
492.38599
 21
-555.92322
  0
LINE
  8
0
  6
CONTINUOUS
 62
     7
 10
531.22723
 20
-458.67322
 11
531.22723
 21
-562.67322
  0
LINE
  8
0
  6
CONTINUOUS
 62
     7
 10
503.22723
 20
-510.67325
 11
530.22723
 21
-510.67325
  0
LINE
  8
0
  6
CONTINUOUS
 62
     7
 10
533.22723
 20
-470.27322
 11
533.22723
 21
-551.07324
  0
LINE
  8
0
  6
CONTINUOUS
 62
     7
 10
502.22723
 20
-458.67322
 11
502.22723
 21
-562.67322
  0
LINE
  8
0
  6
CONTINUOUS
 62
     7
 10
504.22723
 20
-456.67322
 11
529.22723
 21
-456.67322
  0
LINE
  8
0
  6
CONTINUOUS
 62
     7
 10
504.22723
 20
-564.67322
 11
529.22723
 21
-564.67322
  0
LINE
  8
0
  6
CONTINUOUS
 62
     7
 10
502.22723
 20
-458.67322
 11
504.22723
 21
-456.67325
  0
LINE
  8
0
  6
CONTINUOUS
 62
     7
 10
529.22723
 20
-456.67325
 11
531.22723
 21
-458.67325
  0
LINE
  8
0
  6
CONTINUOUS
 62
     7
 10
502.22723
 20
-562.67328
 11
504.22723
 21
-564.67328
  0
LINE
  8
0
  6
CONTINUOUS
 62
     7
 10
529.22723
 20
-564.67328
 11
531.22723
 21
-562.67328
  0
LINE
  8
0
  6
CONTINUOUS
 62
     7
 10
503.22723
 20
-478.53546
 11
530.22723
 21
-478.53546
  0
LINE
  8
0
  6
CONTINUOUS
 62
     7
 10
503.22723
 20
-542.81097
 11
530.22723
 21
-542.81097
  0
LINE
  8
0
  6
CONTINUOUS
 62
     7
 10
533.22723
 20
-470.27322
 11
531.22723
 21
-469.73734
  0
LINE
  8
0
  6
CONTINUOUS
 62
     7
 10
533.22723
 20
-551.07324
 11
531.22723
 21
-551.60913
  0
LINE
  8
0
  6
CENTER
 62
     7
 10
464.56705
 20
-791.4104
 11
464.56705
 21
-917.58539
  0
LINE
  8
0
  6
CONTINUOUS
 62
     7
 10
520.56708
 20
-869.4104
 11
464.56705
 21
-869.4104
  0
LINE
  8
0
  6
CONTINUOUS
 62
     7
 10
520.56708
 20
-869.4104
 11
520.56708
 21
-874.4104
  0
LINE
  8
0
  6
CONTINUOUS
 62
     7
 10
516.81708
 20
-851.6604
 11
516.81708
 21
-864.56915
  0
LINE
  8
0
  6
CONTINUOUS
 62
     7
 10
412.31705
 20
-843.6604
 11
412.31705
 21
-864.56915
  0
LINE
  8
0
  6
CONTINUOUS
 62
     7
 10
408.56705
 20
-869.4104
 11
408.56705
 21
-874.4104
  0
LINE
  8
0
  6
CONTINUOUS
 62
     7
 10
408.56705
 20
-869.4104
 11
464.56705
 21
-869.4104
  0
LINE
  8
0
  6
CONTINUOUS
 62
     7
 10
464.56705
 20
-875.4104
 11
464.56705
 21
-902.4104
  0
LINE
  8
0
  6
CONTINUOUS
 62
     7
 10
524.06708
 20
-903.4104
 11
405.06705
 21
-903.4104
  0
LINE
  8
0
  6
CONTINUOUS
 62
     7
 10
524.06708
 20
-874.4104
 11
405.06705
 21
-874.4104
  0
LINE
  8
0
  6
CONTINUOUS
 62
     7
 10
403.06705
 20
-876.4104
 11
403.06705
 21
-901.4104
  0
LINE
  8
0
  6
CONTINUOUS
 62
     7
 10
526.06708
 20
-876.4104
 11
526.06708
 21
-901.4104
  0
LINE
  8
0
  6
CONTINUOUS
 62
     7
 10
526.06708
 20
-876.41034
 11
524.06708
 21
-874.41034
  0
LINE
  8
0
  6
CONTINUOUS
 62
     7
 10
405.06708
 20
-874.4104
 11
403.06708
 21
-876.4104
  0
LINE
  8
0
  6
CONTINUOUS
 62
     7
 10
403.06708
 20
-901.4104
 11
405.06708
 21
-903.4104
  0
LINE
  8
0
  6
CONTINUOUS
 62
     7
 10
526.06708
 20
-901.41034
 11
524.06708
 21
-903.41034
  0
LINE
  8
0
  6
CONTINUOUS
 62
     7
 10
511.41708
 20
-905.4104
 11
417.71707
 21
-905.4104
  0
LINE
  8
0
  6
CONTINUOUS
 62
     7
 10
511.41708
 20
-905.4104
 11
511.95297
 21
-903.4104
  0
LINE
  8
0
  6
CONTINUOUS
 62
     7
 10
417.71707
 20
-905.4104
 11
417.18118
 21
-903.4104
  0
LINE
  8
0
  6
CONTINUOUS
 62
     7
 10
502.57614
 20
-875.4104
 11
502.57614
 21
-902.4104
  0
LINE
  8
0
  6
CONTINUOUS
 62
     7
 10
426.55795
 20
-875.4104
 11
426.55795
 21
-902.4104
  0
LINE
  8
0
  6
CENTER
 62
     7
 10
464.56705
 20
-791.4104
 11
589.51709
 21
-791.4104
  0
LINE
  8
0
  6
CONTINUOUS
 62
     7
 10
542.56708
 20
-735.4104
 11
542.56708
 21
-791.4104
  0
LINE
  8
0
  6
CONTINUOUS
 62
     7
 10
542.56708
 20
-735.4104
 11
547.56708
 21
-735.4104
  0
LINE
  8
0
  6
CONTINUOUS
 62
     7
 10
516.81708
 20
-739.1604
 11
537.72583
 21
-739.1604
  0
LINE
  8
0
  6
CONTINUOUS
 62
     7
 10
524.81708
 20
-843.6604
 11
537.72583
 21
-843.6604
  0
LINE
  8
0
  6
CONTINUOUS
 62
     7
 10
542.56708
 20
-847.4104
 11
547.56708
 21
-847.4104
  0
LINE
  8
0
  6
CONTINUOUS
 62
     7
 10
542.56708
 20
-847.4104
 11
542.56708
 21
-791.4104
  0
LINE
  8
0
  6
CONTINUOUS
 62
     7
 10
548.56708
 20
-791.4104
 11
575.56708
 21
-791.4104
  0
LINE
  8
0
  6
CONTINUOUS
 62
     7
 10
576.56708
 20
-731.9104
 11
576.56708
 21
-850.9104
  0
LINE
  8
0
  6
CONTINUOUS
 62
     7
 10
547.56708
 20
-731.9104
 11
547.56708
 21
-850.9104
  0
LINE
  8
0
  6
CONTINUOUS
 62
     7
 10
549.56708
 20
-852.9104
 11
574.56708
 21
-852.9104
  0
LINE
  8
0
  6
CONTINUOUS
 62
     7
 10
549.56708
 20
-729.9104
 11
574.56708
 21
-729.9104
  0
LINE
  8
0
  6
CONTINUOUS
 62
     7
 10
549.56708
 20
-729.9104
 11
547.56708
 21
-731.9104
  0
LINE
  8
0
  6
CONTINUOUS
 62
     7
 10
547.56708
 20
-850.9104
 11
549.56708
 21
-852.9104
  0
LINE
  8
0
  6
CONTINUOUS
 62
     7
 10
574.56708
 20
-852.9104
 11
576.56708
 21
-850.91034
  0
LINE
  8
0
  6
CONTINUOUS
 62
     7
 10
574.56708
 20
-729.9104
 11
576.56708
 21
-731.9104
  0
LINE
  8
0
  6
CONTINUOUS
 62
     7
 10
578.56708
 20
-744.56042
 11
578.56708
 21
-838.26038
  0
LINE
  8
0
  6
CONTINUOUS
 62
     7
 10
578.56708
 20
-744.56036
 11
576.56708
 21
-744.02448
  0
LINE
  8
0
  6
CONTINUOUS
 62
     7
 10
578.56708
 20
-838.26038
 11
576.56708
 21
-838.79626
  0
LINE
  8
0
  6
CONTINUOUS
 62
     7
 10
548.56708
 20
-753.40131
 11
575.56708
 21
-753.40131
  0
LINE
  8
0
  6
CONTINUOUS
 62
     7
 10
548.56708
 20
-829.41949
 11
575.56708
 21
-829.41949
  0
LINE
  8
0
  6
CONTINUOUS
 62
     7
 10
317
 20
-650
 11
317
 21
-230
  0
LINE
  8
0
  6
CONTINUOUS
 62
     7
 10
317
 20
-230
 11
911
 21
-230
  0
LINE
  8
0
  6
CONTINUOUS
 62
     7
 10
911
 20
-230
 11
911
 21
-650
  0
LINE
  8
0
  6
CONTINUOUS
 62
     7
 10
911
 20
-650
 11
317
 21
-650
  0
LINE
  8
0
  6
CENTER
 62
     7
 10
402.97501
 20
140.64999
 11
463.96249
 21
140.64999
  0
LINE
  8
0
  6
CONTINUOUS
 62
     7
 10
420.97501
 20
108.64999
 11
420.97501
 21
104.15
  0
LINE
  8
0
  6
CONTINUOUS
 62
     7
 10
420.97501
 20
108.64999
 11
384.97501
 21
108.64999
  0
LINE
  8
0
  6
CONTINUOUS
 62
     7
 10
418.47501
 20
121.14999
 11
418.47501
 21
112.98013
  0
LINE
  8
0
  6
CONTINUOUS
 62
     7
 10
387.47501
 20
125.14999
 11
387.47501
 21
112.98013
  0
LINE
  8
0
  6
CONTINUOUS
 62
     7
 10
384.97501
 20
108.64999
 11
384.97501
 21
104.15
  0
LINE
  8
0
  6
CONTINUOUS
 62
     7
 10
421.97501
 20
86.650002
 11
383.97501
 21
86.650002
  0
LINE
  8
0
  6
CONTINUOUS
 62
     7
 10
423.97501
 20
102.15
 11
423.97501
 21
88.650002
  0
LINE
  8
0
  6
CONTINUOUS
 62
     7
 10
381.97501
 20
102.15
 11
381.97501
 21
88.650002
  0
LINE
  8
0
  6
CONTINUOUS
 62
     7
 10
421.97501
 20
104.15
 11
383.97501
 21
104.15
  0
LINE
  8
0
  6
CONTINUOUS
 62
     7
 10
411.67346
 20
103.15
 11
411.67346
 21
87.650002
  0
LINE
  8
0
  6
CONTINUOUS
 62
     7
 10
394.27652
 20
103.15
 11
394.27652
 21
87.650002
  0
LINE
  8
0
  6
CONTINUOUS
 62
     7
 10
423.97501
 20
102.14999
 11
421.97501
 21
104.14999
  0
LINE
  8
0
  6
CONTINUOUS
 62
     7
 10
423.97501
 20
88.650002
 11
421.97501
 21
86.649994
  0
LINE
  8
0
  6
CONTINUOUS
 62
     7
 10
383.97501
 20
86.650002
 11
381.97501
 21
88.650002
  0
LINE
  8
0
  6
CONTINUOUS
 62
     7
 10
383.97501
 20
104.14999
 11
381.97501
 21
102.14999
  0
LINE
  8
0
  6
CONTINUOUS
 62
     7
 10
415.72501
 20
84.650002
 11
390.22501
 21
84.650002
  0
LINE
  8
0
  6
CONTINUOUS
 62
     7
 10
416.26089
 20
86.650009
 11
415.72501
 21
84.650002
  0
LINE
  8
0
  6
CONTINUOUS
 62
     7
 10
389.68909
 20
86.649994
 11
390.22501
 21
84.649994
  0
LINE
  8
0
  6
CENTER
 62
     7
 10
402.97501
 20
140.64999
 11
402.97501
 21
80.099998
  0
LINE
  8
0
  6
CONTINUOUS
 62
     7
 10
434.97501
 20
158.64999
 11
439.47501
 21
158.64999
  0
LINE
  8
0
  6
CONTINUOUS
 62
     7
 10
434.97501
 20
158.64999
 11
434.97501
 21
122.64999
  0
LINE
  8
0
  6
CONTINUOUS
 62
     7
 10
418.47501
 20
156.14999
 11
430.64487
 21
156.14999
  0
LINE
  8
0
  6
CONTINUOUS
 62
     7
 10
422.47501
 20
125.14999
 11
430.64487
 21
125.14999
  0
LINE
  8
0
  6
CONTINUOUS
 62
     7
 10
434.97501
 20
122.64999
 11
439.47501
 21
122.64999
  0
LINE
  8
0
  6
CONTINUOUS
 62
     7
 10
456.97501
 20
159.64999
 11
456.97501
 21
121.64999
  0
LINE
  8
0
  6
CONTINUOUS
 62
     7
 10
441.47501
 20
161.64999
 11
454.97501
 21
161.64999
  0
LINE
  8
0
  6
CONTINUOUS
 62
     7
 10
441.47501
 20
119.64999
 11
454.97501
 21
119.64999
  0
LINE
  8
0
  6
CONTINUOUS
 62
     7
 10
439.47501
 20
159.64999
 11
439.47501
 21
121.64999
  0
LINE
  8
0
  6
CONTINUOUS
 62
     7
 10
440.47501
 20
149.34848
 11
455.97501
 21
149.34848
  0
LINE
  8
0
  6
CONTINUOUS
 62
     7
 10
440.47501
 20
131.95152
 11
455.97501
 21
131.95152
  0
LINE
  8
0
  6
CONTINUOUS
 62
     7
 10
441.47501
 20
161.64998
 11
439.47501
 21
159.65001
  0
LINE
  8
0
  6
CONTINUOUS
 62
     7
 10
454.97501
 20
161.64999
 11
456.97501
 21
159.64999
  0
LINE
  8
0
  6
CONTINUOUS
 62
     7
 10
456.97498
 20
121.65
 11
454.97498
 21
119.65
  0
LINE
  8
0
  6
CONTINUOUS
 62
     7
 10
439.47501
 20
121.64999
 11
441.47501
 21
119.64999
  0
LINE
  8
0
  6
CONTINUOUS
 62
     7
 10
458.97501
 20
153.39999
 11
458.97501
 21
127.89999
  0
LINE
  8
0
  6
CONTINUOUS
 62
     7
 10
456.97501
 20
153.93591
 11
458.97501
 21
153.40001
  0
LINE
  8
0
  6
CONTINUOUS
 62
     7
 10
456.97501
 20
127.3641
 11
458.97501
 21
127.9
  0
LINE
  8
0
  6
CENTER
 62
     7
 10
585.34998
 20
140.64999
 11
585.34998
 21
74.150002
  0
LINE
  8
0
  6
CONTINUOUS
 62
     7
 10
606.34998
 20
102.65
 11
564.34998
 21
102.65
  0
LINE
  8
0
  6
CONTINUOUS
 62
     7
 10
603.59998
 20
118.39999
 11
603.59998
 21
107.11514
  0
LINE
  8
0
  6
CONTINUOUS
 62
     7
 10
606.34998
 20
102.65
 11
606.34998
 21
99.150002
  0
LINE
  8
0
  6
CONTINUOUS
 62
     7
 10
567.09998
 20
122.39999
 11
567.09998
 21
107.11514
  0
LINE
  8
0
  6
CONTINUOUS
 62
     7
 10
564.34998
 20
102.65
 11
564.34998
 21
99.150002
  0
LINE
  8
0
  6
CONTINUOUS
 62
     7
 10
607.84998
 20
80.650002
 11
562.84998
 21
80.650002
  0
LINE
  8
0
  6
CONTINUOUS
 62
     7
 10
607.84998
 20
99.150002
 11
562.84998
 21
99.150002
  0
LINE
  8
0
  6
CONTINUOUS
 62
     7
 10
609.84998
 20
97.150002
 11
609.84998
 21
82.650002
  0
LINE
  8
0
  6
CONTINUOUS
 62
     7
 10
560.84998
 20
97.150002
 11
560.84998
 21
82.650002
  0
LINE
  8
0
  6
CONTINUOUS
 62
     7
 10
607.84998
 20
99.149994
 11
609.84998
 21
97.149986
  0
LINE
  8
0
  6
CONTINUOUS
 62
     7
 10
560.85004
 20
97.149994
 11
562.85004
 21
99.149994
  0
LINE
  8
0
  6
CONTINUOUS
 62
     7
 10
609.85004
 20
82.650009
 11
607.85004
 21
80.650002
  0
LINE
  8
0
  6
CONTINUOUS
 62
     7
 10
562.84998
 20
80.650009
 11
560.85004
 21
82.649986
  0
LINE
  8
0
  6
CONTINUOUS
 62
     7
 10
595.49109
 20
98.150002
 11
595.49109
 21
81.650002
  0
LINE
  8
0
  6
CONTINUOUS
 62
     7
 10
575.20886
 20
98.150002
 11
575.20886
 21
81.650002
  0
LINE
  8
0
  6
CONTINUOUS
 62
     7
 10
600.84998
 20
78.650002
 11
569.84998
 21
78.650002
  0
LINE
  8
0
  6
CONTINUOUS
 62
     7
 10
601.38593
 20
80.649994
 11
600.85004
 21
78.649994
  0
LINE
  8
0
  6
CONTINUOUS
 62
     7
 10
569.31409
 20
80.649986
 11
569.84998
 21
78.650002
  0
LINE
  8
0
  6
CENTER
 62
     7
 10
585.34998
 20
140.64999
 11
655.875
 21
140.64999
  0
LINE
  8
0
  6
CONTINUOUS
 62
     7
 10
623.34998
 20
161.64999
 11
623.34998
 21
119.64999
  0
LINE
  8
0
  6
CONTINUOUS
 62
     7
 10
603.59998
 20
158.89999
 11
618.88489
 21
158.89999
  0
LINE
  8
0
  6
CONTINUOUS
 62
     7
 10
623.34998
 20
161.64999
 11
626.84998
 21
161.64999
  0
LINE
  8
0
  6
CONTINUOUS
 62
     7
 10
607.59998
 20
122.39999
 11
618.88489
 21
122.39999
  0
LINE
  8
0
  6
CONTINUOUS
 62
     7
 10
623.34998
 20
119.64999
 11
626.84998
 21
119.64999
  0
LINE
  8
0
  6
CONTINUOUS
 62
     7
 10
645.34998
 20
163.14999
 11
645.34998
 21
118.14999
  0
LINE
  8
0
  6
CONTINUOUS
 62
     7
 10
626.84998
 20
163.14999
 11
626.84998
 21
118.14999
  0
LINE
  8
0
  6
CONTINUOUS
 62
     7
 10
628.84998
 20
165.14999
 11
643.34998
 21
165.14999
  0
LINE
  8
0
  6
CONTINUOUS
 62
     7
 10
628.84998
 20
116.14999
 11
643.34998
 21
116.14999
  0
LINE
  8
0
  6
CONTINUOUS
 62
     7
 10
626.85004
 20
163.14999
 11
628.85004
 21
165.14999
  0
LINE
  8
0
  6
CONTINUOUS
 62
     7
 10
628.84998
 20
116.14999
 11
626.84998
 21
118.14999
  0
LINE
  8
0
  6
CONTINUOUS
 62
     7
 10
643.34998
 20
165.15002
 11
645.34998
 21
163.15001
  0
LINE
  8
0
  6
CONTINUOUS
 62
     7
 10
645.34998
 20
118.14999
 11
643.34998
 21
116.14999
  0
LINE
  8
0
  6
CONTINUOUS
 62
     7
 10
627.84998
 20
150.79111
 11
644.34998
 21
150.79111
  0
LINE
  8
0
  6
CONTINUOUS
 62
     7
 10
627.84998
 20
130.5089
 11
644.34998
 21
130.5089
  0
LINE
  8
0
  6
CONTINUOUS
 62
     7
 10
647.34998
 20
156.14999
 11
647.34998
 21
125.14999
  0
LINE
  8
0
  6
CONTINUOUS
 62
     7
 10
645.35004
 20
156.6859
 11
647.35004
 21
156.14999
  0
LINE
  8
0
  6
CONTINUOUS
 62
     7
 10
645.34998
 20
124.6141
 11
647.34998
 21
125.14999
  0
LINE
  8
0
  6
CENTER
 62
     7
 10
377.41446
 20
-80.471954
 11
377.41446
 21
-150.59445
  0
LINE
  8
0
  6
CONTINUOUS
 62
     7
 10
402.41446
 20
-124.47195
 11
352.41446
 21
-124.47195
  0
LINE
  8
0
  6
CONTINUOUS
 62
     7
 10
402.41446
 20
-124.47195
 11
402.41446
 21
-127.97195
  0
LINE
  8
0
  6
CONTINUOUS
 62
     7
 10
399.66446
 20
-106.72195
 11
399.66446
 21
-120.00681
  0
LINE
  8
0
  6
CONTINUOUS
 62
     7
 10
355.16446
 20
-102.72195
 11
355.16446
 21
-120.00681
  0
LINE
  8
0
  6
CONTINUOUS
 62
     7
 10
352.41446
 20
-124.47195
 11
352.41446
 21
-127.97195
  0
LINE
  8
0
  6
CONTINUOUS
 62
     7
 10
404.41446
 20
-146.47195
 11
350.41446
 21
-146.47195
  0
LINE
  8
0
  6
CONTINUOUS
 62
     7
 10
404.41446
 20
-127.97195
 11
350.41446
 21
-127.97195
  0
LINE
  8
0
  6
CONTINUOUS
 62
     7
 10
348.41446
 20
-129.97195
 11
348.41446
 21
-144.47195
  0
LINE
  8
0
  6
CONTINUOUS
 62
     7
 10
406.41446
 20
-129.97195
 11
406.41446
 21
-144.47195
  0
LINE
  8
0
  6
CONTINUOUS
 62
     7
 10
404.41446
 20
-127.97195
 11
406.41446
 21
-129.97194
  0
LINE
  8
0
  6
CONTINUOUS
 62
     7
 10
406.41446
 20
-144.47194
 11
404.41446
 21
-146.47192
  0
LINE
  8
0
  6
CONTINUOUS
 62
     7
 10
350.41446
 20
-127.97196
 11
348.41446
 21
-129.97197
  0
LINE
  8
0
  6
CONTINUOUS
 62
     7
 10
348.41443
 20
-144.47195
 11
350.41446
 21
-146.47195
  0
LINE
  8
0
  6
CONTINUOUS
 62
     7
 10
389.42664
 20
-128.97195
 11
389.42664
 21
-145.47195
  0
LINE
  8
0
  6
CONTINUOUS
 62
     7
 10
365.40228
 20
-128.97195
 11
365.40228
 21
-145.47195
  0
LINE
  8
0
  6
CONTINUOUS
 62
     7
 10
396.31445
 20
-148.47195
 11
358.51447
 21
-148.47195
  0
LINE
  8
0
  6
CONTINUOUS
 62
     7
 10
396.31445
 20
-148.47195
 11
396.85034
 21
-146.47195
  0
LINE
  8
0
  6
CONTINUOUS
 62
     7
 10
358.51447
 20
-148.47195
 11
357.97855
 21
-146.47195
  0
LINE
  8
0
  6
CENTER
 62
     7
 10
377.41446
 20
-80.471954
 11
448.30695
 21
-80.471954
  0
LINE
  8
0
  6
CONTINUOUS
 62
     7
 10
421.41446
 20
-55.471958
 11
421.41446
 21
-105.47195
  0
LINE
  8
0
  6
CONTINUOUS
 62
     7
 10
421.41446
 20
-55.471958
 11
424.91446
 21
-55.471958
  0
LINE
  8
0
  6
CONTINUOUS
 62
     7
 10
399.66446
 20
-58.221958
 11
416.94931
 21
-58.221958
  0
LINE
  8
0
  6
CONTINUOUS
 62
     7
 10
403.66446
 20
-102.72195
 11
416.94931
 21
-102.72195
  0
LINE
  8
0
  6
CONTINUOUS
 62
     7
 10
421.41446
 20
-105.47195
 11
424.91446
 21
-105.47195
  0
LINE
  8
0
  6
CONTINUOUS
 62
     7
 10
443.41446
 20
-53.471958
 11
443.41446
 21
-107.47195
  0
LINE
  8
0
  6
CONTINUOUS
 62
     7
 10
424.91446
 20
-53.471958
 11
424.91446
 21
-107.47195
  0
LINE
  8
0
  6
CONTINUOUS
 62
     7
 10
426.91446
 20
-109.47195
 11
441.41446
 21
-109.47195
  0
LINE
  8
0
  6
CONTINUOUS
 62
     7
 10
426.91446
 20
-51.471958
 11
441.41446
 21
-51.471958
  0
LINE
  8
0
  6
CONTINUOUS
 62
     7
 10
424.91446
 20
-53.471947
 11
426.91446
 21
-51.471947
  0
LINE
  8
0
  6
CONTINUOUS
 62
     7
 10
441.41446
 20
-51.471947
 11
443.41446
 21
-53.471947
  0
LINE
  8
0
  6
CONTINUOUS
 62
     7
 10
424.91446
 20
-107.47197
 11
426.91446
 21
-109.47195
  0
LINE
  8
0
  6
CONTINUOUS
 62
     7
 10
441.41446
 20
-109.47195
 11
443.41446
 21
-107.47195
  0
LINE
  8
0
  6
CONTINUOUS
 62
     7
 10
425.91446
 20
-68.459747
 11
442.41446
 21
-68.459747
  0
LINE
  8
0
  6
CONTINUOUS
 62
     7
 10
425.91446
 20
-92.484146
 11
442.41446
 21
-92.484146
  0
LINE
  8
0
  6
CONTINUOUS
 62
     7
 10
445.41446
 20
-61.571949
 11
445.41446
 21
-99.371948
  0
LINE
  8
0
  6
CONTINUOUS
 62
     7
 10
445.41446
 20
-61.571949
 11
443.41443
 21
-61.036049
  0
LINE
  8
0
  6
CONTINUOUS
 62
     7
 10
445.41446
 20
-99.371956
 11
443.41446
 21
-99.907852
  0
LINE
  8
0
  6
CENTER
 62
     7
 10
691.38593
 20
-74.434044
 11
691.38593
 21
-156.94653
  0
LINE
  8
0
  6
CONTINUOUS
 62
     7
 10
720.38593
 20
-126.43404
 11
720.38593
 21
-130.43404
  0
LINE
  8
0
  6
CONTINUOUS
 62
     7
 10
720.38593
 20
-126.43404
 11
662.38593
 21
-126.43404
  0
LINE
  8
0
  6
CONTINUOUS
 62
     7
 10
716.88593
 20
-104.93404
 11
716.88593
 21
-121.66434
  0
LINE
  8
0
  6
CONTINUOUS
 62
     7
 10
665.88593
 20
-101.93404
 11
665.88593
 21
-121.66434
  0
LINE
  8
0
  6
CONTINUOUS
 62
     7
 10
662.38593
 20
-126.43404
 11
662.38593
 21
-130.43404
  0
LINE
  8
0
  6
CONTINUOUS
 62
     7
 10
722.38593
 20
-149.43404
 11
660.38593
 21
-149.43404
  0
LINE
  8
0
  6
CONTINUOUS
 62
     7
 10
722.38593
 20
-130.43404
 11
660.38593
 21
-130.43404
  0
LINE
  8
0
  6
CONTINUOUS
 62
     7
 10
714.7359
 20
-151.43404
 11
668.03595
 21
-151.43404
  0
LINE
  8
0
  6
CONTINUOUS
 62
     7
 10
724.38593
 20
-132.43404
 11
724.38593
 21
-147.43404
  0
LINE
  8
0
  6
CONTINUOUS
 62
     7
 10
658.38593
 20
-132.43404
 11
658.38593
 21
-147.43404
  0
LINE
  8
0
  6
CONTINUOUS
 62
     7
 10
722.38593
 20
-130.43407
 11
724.38593
 21
-132.43407
  0
LINE
  8
0
  6
CONTINUOUS
 62
     7
 10
724.38593
 20
-147.43404
 11
722.38593
 21
-149.43404
  0
LINE
  8
0
  6
CONTINUOUS
 62
     7
 10
660.38586
 20
-149.43404
 11
658.38593
 21
-147.43408
  0
LINE
  8
0
  6
CONTINUOUS
 62
     7
 10
660.38593
 20
-130.43402
 11
658.38593
 21
-132.43404
  0
LINE
  8
0
  6
CONTINUOUS
 62
     7
 10
705.05493
 20
-131.43404
 11
705.05493
 21
-148.43404
  0
LINE
  8
0
  6
CONTINUOUS
 62
     7
 10
677.71686
 20
-131.43404
 11
677.71686
 21
-148.43404
  0
LINE
  8
0
  6
CONTINUOUS
 62
     7
 10
714.7359
 20
-151.43404
 11
715.27179
 21
-149.43404
  0
LINE
  8
0
  6
CONTINUOUS
 62
     7
 10
668.03589
 20
-151.43405
 11
667.5
 21
-149.43404
  0
LINE
  8
0
  6
CENTER
 62
     7
 10
691.38593
 20
-74.434044
 11
773.89844
 21
-74.434044
  0
LINE
  8
0
  6
CONTINUOUS
 62
     7
 10
743.38593
 20
-45.434044
 11
747.38593
 21
-45.434044
  0
LINE
  8
0
  6
CONTINUOUS
 62
     7
 10
743.38593
 20
-45.434044
 11
743.38593
 21
-103.43404
  0
LINE
  8
0
  6
CONTINUOUS
 62
     7
 10
718.88593
 20
-48.934044
 11
738.61621
 21
-48.934044
  0
LINE
  8
0
  6
CONTINUOUS
 62
     7
 10
721.88593
 20
-99.934044
 11
738.61621
 21
-99.934044
  0
LINE
  8
0
  6
CONTINUOUS
 62
     7
 10
743.38593
 20
-103.43404
 11
747.38593
 21
-103.43404
  0
LINE
  8
0
  6
CONTINUOUS
 62
     7
 10
766.38593
 20
-43.434044
 11
766.38593
 21
-105.43404
  0
LINE
  8
0
  6
CONTINUOUS
 62
     7
 10
747.38593
 20
-43.434044
 11
747.38593
 21
-105.43404
  0
LINE
  8
0
  6
CONTINUOUS
 62
     7
 10
768.38593
 20
-51.084038
 11
768.38593
 21
-97.784035
  0
LINE
  8
0
  6
CONTINUOUS
 62
     7
 10
749.38593
 20
-41.434044
 11
764.38593
 21
-41.434044
  0
LINE
  8
0
  6
CONTINUOUS
 62
     7
 10
749.38593
 20
-107.43404
 11
764.38593
 21
-107.43404
  0
LINE
  8
0
  6
CONTINUOUS
 62
     7
 10
747.38593
 20
-43.434055
 11
749.38593
 21
-41.434055
  0
LINE
  8
0
  6
CONTINUOUS
 62
     7
 10
764.38593
 20
-41.434013
 11
766.38593
 21
-43.434013
  0
LINE
  8
0
  6
CONTINUOUS
 62
     7
 10
766.38593
 20
-105.43404
 11
764.38593
 21
-107.43404
  0
LINE
  8
0
  6
CONTINUOUS
 62
     7
 10
747.38593
 20
-105.43404
 11
749.38593
 21
-107.43404
  0
LINE
  8
0
  6
CONTINUOUS
 62
     7
 10
748.38593
 20
-60.764992
 11
765.38593
 21
-60.764992
  0
LINE
  8
0
  6
CONTINUOUS
 62
     7
 10
748.38593
 20
-88.103081
 11
765.38593
 21
-88.103081
  0
LINE
  8
0
  6
CONTINUOUS
 62
     7
 10
768.38586
 20
-51.084023
 11
766.38593
 21
-50.548141
  0
LINE
  8
0
  6
CONTINUOUS
 62
     7
 10
768.38593
 20
-97.784035
 11
766.38593
 21
-98.319939
  0
LINE
  8
0
  6
CENTER
 62
     7
 10
374.39551
 20
-303.87473
 11
374.39551
 21
-392.5997
  0
LINE
  8
0
  6
CONTINUOUS
 62
     7
 10
406.89551
 20
-360.87473
 11
341.89551
 21
-360.87473
  0
LINE
  8
0
  6
CONTINUOUS
 62
     7
 10
406.89551
 20
-360.87473
 11
406.89551
 21
-363.87473
  0
LINE
  8
0
  6
CONTINUOUS
 62
     7
 10
404.39551
 20
-338.87473
 11
404.39551
 21
-356.54459
  0
LINE
  8
0
  6
CONTINUOUS
 62
     7
 10
344.39551
 20
-333.87473
 11
344.39551
 21
-356.54459
  0
LINE
  8
0
  6
CONTINUOUS
 62
     7
 10
341.89551
 20
-360.87473
 11
341.89551
 21
-363.87473
  0
LINE
  8
0
  6
CONTINUOUS
 62
     7
 10
408.89551
 20
-385.87473
 11
339.89551
 21
-385.87473
  0
LINE
  8
0
  6
CONTINUOUS
 62
     7
 10
374.39551
 20
-364.87473
 11
374.39551
 21
-384.87473
  0
LINE
  8
0
  6
CONTINUOUS
 62
     7
 10
408.89551
 20
-363.87473
 11
339.89551
 21
-363.87473
  0
LINE
  8
0
  6
CONTINUOUS
 62
     7
 10
410.89551
 20
-365.87473
 11
410.89551
 21
-383.87473
  0
LINE
  8
0
  6
CONTINUOUS
 62
     7
 10
337.89551
 20
-365.87473
 11
337.89551
 21
-383.87473
  0
LINE
  8
0
  6
CONTINUOUS
 62
     7
 10
400.84549
 20
-387.87473
 11
347.9455
 21
-387.87473
  0
LINE
  8
0
  6
CONTINUOUS
 62
     7
 10
396.95374
 20
-364.87473
 11
396.95374
 21
-384.87473
  0
LINE
  8
0
  6
CONTINUOUS
 62
     7
 10
351.83725
 20
-364.87473
 11
351.83725
 21
-384.87473
  0
LINE
  8
0
  6
CONTINUOUS
 62
     7
 10
408.89548
 20
-363.87469
 11
410.89548
 21
-365.87469
  0
LINE
  8
0
  6
CONTINUOUS
 62
     7
 10
410.89551
 20
-383.87473
 11
408.89551
 21
-385.87473
  0
LINE
  8
0
  6
CONTINUOUS
 62
     7
 10
339.89548
 20
-363.87473
 11
337.89551
 21
-365.87469
  0
LINE
  8
0
  6
CONTINUOUS
 62
     7
 10
339.89548
 20
-385.87469
 11
337.89551
 21
-383.87473
  0
LINE
  8
0
  6
CONTINUOUS
 62
     7
 10
400.84549
 20
-387.87473
 11
401.38141
 21
-385.87473
  0
LINE
  8
0
  6
CONTINUOUS
 62
     7
 10
347.9455
 20
-387.87473
 11
347.40958
 21
-385.87473
  0
LINE
  8
0
  6
CENTER
 62
     7
 10
374.39551
 20
-303.87473
 11
463.12048
 21
-303.87473
  0
LINE
  8
0
  6
CONTINUOUS
 62
     7
 10
431.39551
 20
-271.37473
 11
431.39551
 21
-336.37473
  0
LINE
  8
0
  6
CONTINUOUS
 62
     7
 10
431.39551
 20
-271.37473
 11
434.39551
 21
-271.37473
  0
LINE
  8
0
  6
CONTINUOUS
 62
     7
 10
404.39551
 20
-273.87473
 11
427.06537
 21
-273.87473
  0
LINE
  8
0
  6
CONTINUOUS
 62
     7
 10
409.39551
 20
-333.87473
 11
427.06537
 21
-333.87473
  0
LINE
  8
0
  6
CONTINUOUS
 62
     7
 10
431.39551
 20
-336.37473
 11
434.39551
 21
-336.37473
  0
LINE
  8
0
  6
CONTINUOUS
 62
     7
 10
456.39551
 20
-269.37473
 11
456.39551
 21
-338.37473
  0
LINE
  8
0
  6
CONTINUOUS
 62
     7
 10
435.39551
 20
-303.87473
 11
455.39551
 21
-303.87473
  0
LINE
  8
0
  6
CONTINUOUS
 62
     7
 10
434.39551
 20
-269.37473
 11
434.39551
 21
-338.37473
  0
LINE
  8
0
  6
CONTINUOUS
 62
     7
 10
436.39551
 20
-267.37473
 11
454.39551
 21
-267.37473
  0
LINE
  8
0
  6
CONTINUOUS
 62
     7
 10
436.39551
 20
-340.37473
 11
454.39551
 21
-340.37473
  0
LINE
  8
0
  6
CONTINUOUS
 62
     7
 10
458.39551
 20
-277.42471
 11
458.39551
 21
-330.32471
  0
LINE
  8
0
  6
CONTINUOUS
 62
     7
 10
435.39551
 20
-281.3165
 11
455.39551
 21
-281.3165
  0
LINE
  8
0
  6
CONTINUOUS
 62
     7
 10
435.39551
 20
-326.43295
 11
455.39551
 21
-326.43295
  0
LINE
  8
0
  6
CONTINUOUS
 62
     7
 10
434.39548
 20
-269.37473
 11
436.39551
 21
-267.37473
  0
LINE
  8
0
  6
CONTINUOUS
 62
     7
 10
454.39551
 20
-267.37473
 11
456.39551
 21
-269.37469
  0
LINE
  8
0
  6
CONTINUOUS
 62
     7
 10
434.39551
 20
-338.37476
 11
436.39551
 21
-340.37476
  0
LINE
  8
0
  6
CONTINUOUS
 62
     7
 10
456.39551
 20
-338.37473
 11
454.39551
 21
-340.37473
  0
LINE
  8
0
  6
CONTINUOUS
 62
     7
 10
458.39551
 20
-277.42471
 11
456.39551
 21
-276.88882
  0
LINE
  8
0
  6
CONTINUOUS
 62
     7
 10
458.39548
 20
-330.32471
 11
456.39551
 21
-330.86063
  0
LINE
  8
0
  6
CENTER
 62
     7
 10
650.63
 20
-308.40317
 11
650.63
 21
-413.05316
  0
LINE
  8
0
  6
CONTINUOUS
 62
     7
 10
689.63
 20
-375.40317
 11
611.63
 21
-375.40317
  0
LINE
  8
0
  6
CONTINUOUS
 62
     7
 10
689.63
 20
-375.40317
 11
689.63
 21
-380.40317
  0
LINE
  8
0
  6
CONTINUOUS
 62
     7
 10
687.13
 20
-350.90317
 11
687.13
 21
-371.07303
  0
LINE
  8
0
  6
CONTINUOUS
 62
     7
 10
614.13
 20
-344.90317
 11
614.13
 21
-371.07303
  0
LINE
  8
0
  6
CONTINUOUS
 62
     7
 10
611.63
 20
-375.40317
 11
611.63
 21
-380.40317
  0
LINE
  8
0
  6
CONTINUOUS
 62
     7
 10
692.13
 20
-403.90317
 11
609.13
 21
-403.90317
  0
LINE
  8
0
  6
CONTINUOUS
 62
     7
 10
650.63
 20
-381.40317
 11
650.63
 21
-402.90317
  0
LINE
  8
0
  6
CONTINUOUS
 62
     7
 10
692.13
 20
-380.40317
 11
609.13
 21
-380.40317
  0
LINE
  8
0
  6
CONTINUOUS
 62
     7
 10
694.13
 20
-382.40317
 11
694.13
 21
-401.90317
  0
LINE
  8
0
  6
CONTINUOUS
 62
     7
 10
607.13
 20
-382.40317
 11
607.13
 21
-401.90317
  0
LINE
  8
0
  6
CONTINUOUS
 62
     7
 10
692.13
 20
-380.40314
 11
694.13
 21
-382.40314
  0
LINE
  8
0
  6
CONTINUOUS
 62
     7
 10
694.13
 20
-401.90314
 11
692.13
 21
-403.90314
  0
LINE
  8
0
  6
CONTINUOUS
 62
     7
 10
609.13
 20
-380.40317
 11
607.13
 21
-382.4032
  0
LINE
  8
0
  6
CONTINUOUS
 62
     7
 10
607.13
 20
-401.90317
 11
609.13
 21
-403.90317
  0
LINE
  8
0
  6
CONTINUOUS
 62
     7
 10
683.08002
 20
-405.90317
 11
618.17999
 21
-405.90317
  0
LINE
  8
0
  6
CONTINUOUS
 62
     7
 10
677.51447
 20
-402.90317
 11
677.51447
 21
-381.40317
  0
LINE
  8
0
  6
CONTINUOUS
 62
     7
 10
623.74548
 20
-402.90317
 11
623.74548
 21
-381.40317
  0
LINE
  8
0
  6
CONTINUOUS
 62
     7
 10
683.07996
 20
-405.90314
 11
683.61584
 21
-403.90317
  0
LINE
  8
0
  6
CONTINUOUS
 62
     7
 10
618.17999
 20
-405.90314
 11
617.6441
 21
-403.90314
  0
LINE
  8
0
  6
CENTER
 62
     7
 10
650.63
 20
-308.40317
 11
755.28003
 21
-308.40317
  0
LINE
  8
0
  6
CONTINUOUS
 62
     7
 10
717.63
 20
-269.40317
 11
717.63
 21
-347.40317
  0
LINE
  8
0
  6
CONTINUOUS
 62
     7
 10
717.63
 20
-269.40317
 11
722.63
 21
-269.40317
  0
LINE
  8
0
  6
CONTINUOUS
 62
     7
 10
687.13
 20
-271.90317
 11
713.29987
 21
-271.90317
  0
LINE
  8
0
  6
CONTINUOUS
 62
     7
 10
693.13
 20
-344.90317
 11
713.29987
 21
-344.90317
  0
LINE
  8
0
  6
CONTINUOUS
 62
     7
 10
717.63
 20
-347.40317
 11
722.63
 21
-347.40317
  0
LINE
  8
0
  6
CONTINUOUS
 62
     7
 10
746.13
 20
-266.90317
 11
746.13
 21
-349.90317
  0
LINE
  8
0
  6
CONTINUOUS
 62
     7
 10
723.63
 20
-308.40317
 11
745.13
 21
-308.40317
  0
LINE
  8
0
  6
CONTINUOUS
 62
     7
 10
722.63
 20
-266.90317
 11
722.63
 21
-349.90317
  0
LINE
  8
0
  6
CONTINUOUS
 62
     7
 10
724.63
 20
-264.90317
 11
744.13
 21
-264.90317
  0
LINE
  8
0
  6
CONTINUOUS
 62
     7
 10
724.63
 20
-351.90317
 11
744.13
 21
-351.90317
  0
LINE
  8
0
  6
CONTINUOUS
 62
     7
 10
722.63
 20
-266.9032
 11
724.63
 21
-264.9032
  0
LINE
  8
0
  6
CONTINUOUS
 62
     7
 10
744.13
 20
-264.90317
 11
746.13
 21
-266.90317
  0
LINE
  8
0
  6
CONTINUOUS
 62
     7
 10
722.63
 20
-349.90317
 11
724.63
 21
-351.90317
  0
LINE
  8
0
  6
CONTINUOUS
 62
     7
 10
744.13
 20
-351.90317
 11
746.13
 21
-349.90317
  0
LINE
  8
0
  6
CONTINUOUS
 62
     7
 10
748.13
 20
-275.95316
 11
748.13
 21
-340.85315
  0
LINE
  8
0
  6
CONTINUOUS
 62
     7
 10
745.13
 20
-281.51868
 11
723.63
 21
-281.51868
  0
LINE
  8
0
  6
CONTINUOUS
 62
     7
 10
745.13
 20
-335.28763
 11
723.63
 21
-335.28763
  0
LINE
  8
0
  6
CONTINUOUS
 62
     7
 10
748.13
 20
-275.95316
 11
746.12994
 21
-275.41727
  0
LINE
  8
0
  6
CONTINUOUS
 62
     7
 10
748.13
 20
-340.85321
 11
746.13
 21
-341.3891
  0
LINE
  8
0
  6
CONTINUOUS
 62
     7
 10
749.23206
 20
-791.41034
 11
736.88214
 21
-753.40131
  0
LINE
  8
0
  6
CONTINUOUS
 62
     7
 10
736.88214
 20
-753.40137
 11
704.54968
 21
-729.91046
  0
LINE
  8
0
  6
CONTINUOUS
 62
     7
 10
664.58453
 20
-729.9104
 11
704.54968
 21
-729.9104
  0
LINE
  8
0
  6
CONTINUOUS
 62
     7
 10
632.25201
 20
-753.40131
 11
664.58447
 21
-729.9104
  0
LINE
  8
0
  6
CONTINUOUS
 62
     7
 10
619.9021
 20
-791.4104
 11
632.25201
 21
-753.40131
  0
LINE
  8
0
  6
CONTINUOUS
 62
     7
 10
632.25208
 20
-829.41949
 11
619.90216
 21
-791.4104
  0
LINE
  8
0
  6
CONTINUOUS
 62
     7
 10
664.58459
 20
-852.91046
 11
632.25208
 21
-829.41956
  0
LINE
  8
0
  6
CONTINUOUS
 62
     7
 10
704.54968
 20
-852.9104
 11
664.58453
 21
-852.9104
  0
LINE
  8
0
  6
CONTINUOUS
 62
     7
 10
736.88214
 20
-829.41956
 11
704.54962
 21
-852.91046
  0
LINE
  8
0
  6
CONTINUOUS
 62
     7
 10
749.23199
 20
-791.4104
 11
736.88208
 21
-829.41949
  0
LINE
  8
0
  6
CONTINUOUS
 62
     7
 10
523.97504
 20
149.34846
 11
511.67349
 21
161.64999
  0
LINE
  8
0
  6
CONTINUOUS
 62
     7
 10
511.67349
 20
161.64999
 11
494.27652
 21
161.64999
  0
LINE
  8
0
  6
CONTINUOUS
 62
     7
 10
481.97501
 20
149.34848
 11
494.27652
 21
161.64999
  0
LINE
  8
0
  6
CONTINUOUS
 62
     7
 10
481.97501
 20
131.95151
 11
481.97501
 21
149.34846
  0
LINE
  8
0
  6
CONTINUOUS
 62
     7
 10
494.27652
 20
119.64999
 11
481.97501
 21
131.95151
  0
LINE
  8
0
  6
CONTINUOUS
 62
     7
 10
511.67349
 20
119.64999
 11
494.27652
 21
119.64999
  0
LINE
  8
0
  6
CONTINUOUS
 62
     7
 10
523.97504
 20
131.95151
 11
511.67349
 21
119.64999
  0
LINE
  8
0
  6
CONTINUOUS
 62
     7
 10
523.97498
 20
149.34846
 11
523.97498
 21
131.95151
  0
LINE
  8
0
  6
CONTINUOUS
 62
     7
 10
719.83282
 20
150.79111
 11
705.49115
 21
165.1328
  0
LINE
  8
0
  6
CONTINUOUS
 62
     7
 10
705.49109
 20
165.1328
 11
685.20886
 21
165.1328
  0
LINE
  8
0
  6
CONTINUOUS
 62
     7
 10
670.86719
 20
150.79112
 11
685.20892
 21
165.13283
  0
LINE
  8
0
  6
CONTINUOUS
 62
     7
 10
670.86719
 20
130.50888
 11
670.86719
 21
150.79109
  0
LINE
  8
0
  6
CONTINUOUS
 62
     7
 10
685.20886
 20
116.16717
 11
670.86719
 21
130.50887
  0
LINE
  8
0
  6
CONTINUOUS
 62
     7
 10
705.49109
 20
116.16718
 11
685.20886
 21
116.16718
  0
LINE
  8
0
  6
CONTINUOUS
 62
     7
 10
719.83282
 20
130.5089
 11
705.49115
 21
116.16719
  0
LINE
  8
0
  6
CONTINUOUS
 62
     7
 10
719.83282
 20
150.79109
 11
719.83282
 21
130.50888
  0
LINE
  8
0
  6
CONTINUOUS
 62
     7
 10
526.41443
 20
-68.459793
 11
509.42664
 21
-51.47197
  0
LINE
  8
0
  6
CONTINUOUS
 62
     7
 10
509.42664
 20
-51.471958
 11
485.40228
 21
-51.471958
  0
LINE
  8
0
  6
CONTINUOUS
 62
     7
 10
468.41446
 20
-68.459778
 11
485.40225
 21
-51.47197
  0
LINE
  8
0
  6
CONTINUOUS
 62
     7
 10
468.41446
 20
-92.484154
 11
468.41446
 21
-68.459763
  0
LINE
  8
0
  6
CONTINUOUS
 62
     7
 10
485.40228
 20
-109.47197
 11
468.41446
 21
-92.484138
  0
LINE
  8
0
  6
CONTINUOUS
 62
     7
 10
509.42664
 20
-109.47196
 11
485.40228
 21
-109.47196
  0
LINE
  8
0
  6
CONTINUOUS
 62
     7
 10
526.41443
 20
-92.484161
 11
509.42667
 21
-109.47197
  0
LINE
  8
0
  6
CONTINUOUS
 62
     7
 10
526.41443
 20
-68.459763
 11
526.41443
 21
-92.484154
  0
LINE
  8
0
  6
CONTINUOUS
 62
     7
 10
864.38593
 20
-60.765003
 11
845.05499
 21
-41.434067
  0
LINE
  8
0
  6
CONTINUOUS
 62
     7
 10
845.05493
 20
-41.434044
 11
817.71686
 21
-41.434044
  0
LINE
  8
0
  6
CONTINUOUS
 62
     7
 10
798.38586
 20
-60.765003
 11
817.71686
 21
-41.434025
  0
LINE
  8
0
  6
CONTINUOUS
 62
     7
 10
798.38593
 20
-88.103088
 11
798.38593
 21
-60.764999
  0
LINE
  8
0
  6
CONTINUOUS
 62
     7
 10
817.71686
 20
-107.43403
 11
798.38593
 21
-88.103096
  0
LINE
  8
0
  6
CONTINUOUS
 62
     7
 10
845.05493
 20
-107.43404
 11
817.71686
 21
-107.43404
  0
LINE
  8
0
  6
CONTINUOUS
 62
     7
 10
864.38593
 20
-88.103073
 11
845.05493
 21
-107.43405
  0
LINE
  8
0
  6
CONTINUOUS
 62
     7
 10
864.38593
 20
-60.764999
 11
864.38593
 21
-88.103088
  0
LINE
  8
0
  6
CONTINUOUS
 62
     7
 10
572.77386
 20
-303.87469
 11
565.44427
 21
-281.31647
  0
LINE
  8
0
  6
CONTINUOUS
 62
     7
 10
565.44421
 20
-281.3165
 11
546.25507
 21
-267.37476
  0
LINE
  8
0
  6
CONTINUOUS
 62
     7
 10
522.53595
 20
-267.37473
 11
546.25507
 21
-267.37473
  0
LINE
  8
0
  6
CONTINUOUS
 62
     7
 10
503.34671
 20
-281.31647
 11
522.53595
 21
-267.37469
  0
LINE
  8
0
  6
CONTINUOUS
 62
     7
 10
496.01712
 20
-303.87473
 11
503.34674
 21
-281.31647
  0
LINE
  8
0
  6
CONTINUOUS
 62
     7
 10
503.34674
 20
-326.43295
 11
496.01712
 21
-303.87473
  0
LINE
  8
0
  6
CONTINUOUS
 62
     7
 10
522.53595
 20
-340.37469
 11
503.34677
 21
-326.43295
  0
LINE
  8
0
  6
CONTINUOUS
 62
     7
 10
546.25507
 20
-340.37473
 11
522.53595
 21
-340.37473
  0
LINE
  8
0
  6
CONTINUOUS
 62
     7
 10
565.44427
 20
-326.43295
 11
546.25507
 21
-340.37473
  0
LINE
  8
0
  6
CONTINUOUS
 62
     7
 10
572.77386
 20
-303.87473
 11
565.44421
 21
-326.43295
  0
LINE
  8
0
  6
CONTINUOUS
 62
     7
 10
876.36859
 20
-308.40317
 11
867.6333
 21
-281.51865
  0
LINE
  8
0
  6
CONTINUOUS
 62
     7
 10
867.6333
 20
-281.51865
 11
844.76398
 21
-264.90314
  0
LINE
  8
0
  6
CONTINUOUS
 62
     7
 10
816.49597
 20
-264.90317
 11
844.76404
 21
-264.90317
  0
LINE
  8
0
  6
CONTINUOUS
 62
     7
 10
793.62671
 20
-281.51871
 11
816.49603
 21
-264.90317
  0
LINE
  8
0
  6
CONTINUOUS
 62
     7
 10
784.89142
 20
-308.40317
 11
793.62671
 21
-281.51868
  0
LINE
  8
0
  6
CONTINUOUS
 62
     7
 10
793.62671
 20
-335.28766
 11
784.89136
 21
-308.40314
  0
LINE
  8
0
  6
CONTINUOUS
 62
     7
 10
816.49597
 20
-351.90314
 11
793.62665
 21
-335.2876
  0
LINE
  8
0
  6
CONTINUOUS
 62
     7
 10
844.76404
 20
-351.90314
 11
816.49597
 21
-351.90314
  0
LINE
  8
0
  6
CONTINUOUS
 62
     7
 10
867.6333
 20
-335.2876
 11
844.76398
 21
-351.90314
  0
LINE
  8
0
  6
CONTINUOUS
 62
     7
 10
876.36859
 20
-308.40314
 11
867.6333
 21
-335.28763
  0
LINE
  8
0
  6
CENTER
 62
     7
 10
502.97501
 20
166.84999
 11
502.97501
 21
114.45
  0
LINE
  8
0
  6
CENTER
 62
     7
 10
476.77502
 20
140.64999
 11
529.17499
 21
140.64999
  0
LINE
  8
0
  6
CENTER
 62
     7
 10
695.34998
 20
171.14999
 11
695.34998
 21
110.14999
  0
LINE
  8
0
  6
CENTER
 62
     7
 10
664.84998
 20
140.64999
 11
725.84998
 21
140.64999
  0
LINE
  8
0
  6
CENTER
 62
     7
 10
831.38593
 20
-35.548141
 11
831.38593
 21
-113.31994
  0
LINE
  8
0
  6
CENTER
 62
     7
 10
792.5
 20
-74.434044
 11
870.27185
 21
-74.434044
  0
LINE
  8
0
  6
CENTER
 62
     7
 10
497.41446
 20
-48.12196
 11
497.41446
 21
-112.82196
  0
LINE
  8
0
  6
CENTER
 62
     7
 10
465.06445
 20
-80.471954
 11
529.76447
 21
-80.471954
  0
LINE
  8
0
  6
CENTER
 62
     7
 10
534.39551
 20
-264.17471
 11
534.39551
 21
-343.57474
  0
LINE
  8
0
  6
CENTER
 62
     7
 10
494.6955
 20
-303.87473
 11
574.09552
 21
-303.87473
  0
LINE
  8
0
  6
CENTER
 62
     7
 10
830.63
 20
-260.41727
 11
830.63
 21
-356.38904
  0
LINE
  8
0
  6
CENTER
 62
     7
 10
782.6441
 20
-308.40317
 11
878.61584
 21
-308.40317
  0
LINE
  8
0
  6
CENTER
 62
     7
 10
627.22723
 20
-454.73734
 11
627.22723
 21
-566.60913
  0
LINE
  8
0
  6
CENTER
 62
     7
 10
571.29132
 20
-510.67325
 11
683.16315
 21
-510.67325
  0
LINE
  8
0
  6
CENTER
 62
     7
 10
684.56708
 20
-726.31042
 11
684.56708
 21
-856.51044
  0
LINE
  8
0
  6
CENTER
 62
     7
 10
619.4671
 20
-791.4104
 11
749.66705
 21
-791.4104
  0
LINE
  8
0
  6
CONTINUOUS
 62
     7
 10
684.00623
 20
-510.67322
 11
673.16241
 21
-477.29941
  0
LINE
  8
0
  6
CONTINUOUS
 62
     7
 10
673.16241
 20
-477.29938
 11
644.77295
 21
-456.67322
  0
LINE
  8
0
  6
CONTINUOUS
 62
     7
 10
609.68158
 20
-456.67322
 11
644.77289
 21
-456.67322
  0
LINE
  8
0
  6
CONTINUOUS
 62
     7
 10
581.29205
 20
-477.29941
 11
609.68158
 21
-456.67322
  0
LINE
  8
0
  6
CONTINUOUS
 62
     7
 10
570.44824
 20
-510.67322
 11
581.29205
 21
-477.29938
  0
LINE
  8
0
  6
CONTINUOUS
 62
     7
 10
581.29211
 20
-544.04706
 11
570.4483
 21
-510.67325
  0
LINE
  8
0
  6
CONTINUOUS
 62
     7
 10
609.68158
 20
-564.67322
 11
581.29211
 21
-544.04706
  0
LINE
  8
0
  6
CONTINUOUS
 62
     7
 10
644.77289
 20
-564.67322
 11
609.68158
 21
-564.67322
  0
LINE
  8
0
  6
CONTINUOUS
 62
     7
 10
673.16241
 20
-544.04712
 11
644.77289
 21
-564.67328
  0
LINE
  8
0
  6
CONTINUOUS
 62
     7
 10
684.00623
 20
-510.67325
 11
673.16235
 21
-544.04706
  0
LINE
  8
0
  6
CONTINUOUS
 62
     7
 10
317
 20
-210
 11
317
 21
210
  0
LINE
  8
0
  6
CONTINUOUS
 62
     7
 10
911
 20
-210
 11
317
 21
-210
  0
LINE
  8
0
  6
CONTINUOUS
 62
     7
 10
911
 20
210
 11
911
 21
-210
  0
LINE
  8
0
  6
CONTINUOUS
 62
     7
 10
317
 20
210
 11
911
 21
210
  0
ARC
  8
0
  6
CONTINUOUS
 62
     7
 10
-153.80762
 20
-584.32446
 40
5
 50
180.00001
 51
214.62793
  0
ARC
  8
0
  6
CONTINUOUS
 62
     7
 10
-254.30762
 20
-584.32446
 40
5
 50
325.37207
 51
0
  0
ARC
  8
0
  6
CONTINUOUS
 62
     7
 10
-138.89886
 20
-468.91568
 40
5
 50
270
 51
304.62798
  0
ARC
  8
0
  6
CONTINUOUS
 62
     7
 10
-138.89886
 20
-569.41565
 40
5
 50
55.372016
 51
90.000003
  0
ARC
  8
0
  6
CONTINUOUS
 62
     7
 10
-158.80762
 20
-564.41565
 40
90.5
 50
90.000003
 51
180.00001
  0
ARC
  8
0
  6
CONTINUOUS
 62
     7
 10
-151.80762
 20
-571.41565
 40
7
 50
90.000003
 51
180.00001
  0
ARC
  8
0
  6
CONTINUOUS
 62
     7
 10
-114.23117
 20
-871.91443
 40
5
 50
180.00001
 51
214.62793
  0
ARC
  8
0
  6
CONTINUOUS
 62
     7
 10
-228.73117
 20
-871.91443
 40
5
 50
325.37207
 51
0
  0
ARC
  8
0
  6
CONTINUOUS
 62
     7
 10
-98.322418
 20
-741.50568
 40
5
 50
270
 51
304.62804
  0
ARC
  8
0
  6
CONTINUOUS
 62
     7
 10
-98.322418
 20
-856.00568
 40
5
 50
55.371965
 51
90.000003
  0
ARC
  8
0
  6
CONTINUOUS
 62
     7
 10
-119.23117
 20
-851.00568
 40
104.5
 50
90.000003
 51
180.00001
  0
ARC
  8
0
  6
CONTINUOUS
 62
     7
 10
-111.23117
 20
-859.00568
 40
8
 50
90.000003
 51
180.00001
  0
ARC
  8
0
  6
CONTINUOUS
 62
     7
 10
-173.43791
 20
93.596916
 40
5
 50
180.00001
 51
229.9984
  0
ARC
  8
0
  6
CONTINUOUS
 62
     7
 10
-214.43791
 20
93.596916
 40
5
 50
310.00162
 51
360
  0
ARC
  8
0
  6
CONTINUOUS
 62
     7
 10
-166.26805
 20
100.76678
 40
5
 50
40.001481
 51
90.000003
  0
ARC
  8
0
  6
CONTINUOUS
 62
     7
 10
-166.26805
 20
141.76677
 40
5
 50
270
 51
319.99852
  0
ARC
  8
0
  6
CONTINUOUS
 62
     7
 10
-178.43791
 20
105.76678
 40
31
 50
90.000003
 51
180.00001
  0
ARC
  8
0
  6
CONTINUOUS
 62
     7
 10
-174.43791
 20
101.76678
 40
4
 50
90.000003
 51
180.00001
  0
ARC
  8
0
  6
CONTINUOUS
 62
     7
 10
7.8301868
 20
89.012527
 40
5
 50
180.00001
 51
216.3722
  0
ARC
  8
0
  6
CONTINUOUS
 62
     7
 10
-38.669819
 20
89.012527
 40
5
 50
323.6278
 51
360
  0
ARC
  8
0
  6
CONTINUOUS
 62
     7
 10
18.115038
 20
145.79738
 40
5
 50
270
 51
306.3722
  0
ARC
  8
0
  6
CONTINUOUS
 62
     7
 10
18.115038
 20
99.297379
 40
5
 50
53.627801
 51
90.000003
  0
ARC
  8
0
  6
CONTINUOUS
 62
     7
 10
2.8301868
 20
104.29738
 40
36.5
 50
90.000003
 51
180.00001
  0
ARC
  8
0
  6
CONTINUOUS
 62
     7
 10
6.8301868
 20
100.29738
 40
4
 50
90.000003
 51
180.00001
  0
ARC
  8
0
  6
CONTINUOUS
 62
     7
 10
-173.91628
 20
-123.55342
 40
5
 50
180.00001
 51
223.8703
  0
ARC
  8
0
  6
CONTINUOUS
 62
     7
 10
-228.41628
 20
-123.55342
 40
5
 50
316.1297
 51
360
  0
ARC
  8
0
  6
CONTINUOUS
 62
     7
 10
-161.63142
 20
-56.76857
 40
5
 50
270
 51
313.87033
  0
ARC
  8
0
  6
CONTINUOUS
 62
     7
 10
-161.63142
 20
-111.26857
 40
5
 50
46.129674
 51
90.000003
  0
ARC
  8
0
  6
CONTINUOUS
 62
     7
 10
-178.91628
 20
-106.26857
 40
44.5
 50
90.000003
 51
180.00001
  0
ARC
  8
0
  6
CONTINUOUS
 62
     7
 10
-174.91628
 20
-110.26857
 40
4
 50
90.000003
 51
180.00001
  0
ARC
  8
0
  6
CONTINUOUS
 62
     7
 10
103.23568
 20
-134.14021
 40
5
 50
180.00001
 51
228.93269
  0
ARC
  8
0
  6
CONTINUOUS
 62
     7
 10
42.235676
 20
-134.14021
 40
5
 50
311.06731
 51
360
  0
ARC
  8
0
  6
CONTINUOUS
 62
     7
 10
119.96598
 20
-56.409912
 40
5
 50
270
 51
318.93282
  0
ARC
  8
0
  6
CONTINUOUS
 62
     7
 10
119.96598
 20
-117.40991
 40
5
 50
41.067182
 51
90.000003
  0
ARC
  8
0
  6
CONTINUOUS
 62
     7
 10
100.23568
 20
-114.40991
 40
53
 50
90.000003
 51
180.00001
  0
ARC
  8
0
  6
CONTINUOUS
 62
     7
 10
103.23568
 20
-117.40991
 40
5
 50
90.000003
 51
180.00001
  0
ARC
  8
0
  6
CONTINUOUS
 62
     7
 10
-200.86238
 20
-357.87616
 40
5
 50
180.00001
 51
207.77656
  0
ARC
  8
0
  6
CONTINUOUS
 62
     7
 10
-270.8624
 20
-357.87616
 40
5
 50
332.22344
 51
360
  0
ARC
  8
0
  6
CONTINUOUS
 62
     7
 10
-183.19252
 20
-270.2063
 40
5
 50
270
 51
297.77676
  0
ARC
  8
0
  6
CONTINUOUS
 62
     7
 10
-183.19252
 20
-340.2063
 40
5
 50
62.223235
 51
90.000003
  0
ARC
  8
0
  6
CONTINUOUS
 62
     7
 10
-205.86238
 20
-335.2063
 40
60
 50
90.000003
 51
180.00001
  0
ARC
  8
0
  6
CONTINUOUS
 62
     7
 10
-200.86238
 20
-340.2063
 40
5
 50
90.000003
 51
180.00001
  0
ARC
  8
0
  6
CONTINUOUS
 62
     7
 10
90.296455
 20
-370.76755
 40
5
 50
180.00001
 51
195.42785
  0
ARC
  8
0
  6
CONTINUOUS
 62
     7
 10
7.2964892
 20
-370.76755
 40
5
 50
344.57215
 51
360
  0
ARC
  8
0
  6
CONTINUOUS
 62
     7
 10
111.46632
 20
-266.59766
 40
5
 50
270
 51
285.42804
  0
ARC
  8
0
  6
CONTINUOUS
 62
     7
 10
111.46632
 20
-349.59766
 40
5
 50
74.571964
 51
90.000003
  0
ARC
  8
0
  6
CONTINUOUS
 62
     7
 10
85.296486
 20
-344.59766
 40
73
 50
90.000003
 51
180.00001
  0
ARC
  8
0
  6
CONTINUOUS
 62
     7
 10
91.296455
 20
-350.59766
 40
6
 50
90.000003
 51
180.00001
  0
CIRCLE
  8
0
  6
CONTINUOUS
 62
     7
 10
-96.097748
 20
121.26677
 40
11.5
  0
CIRCLE
  8
0
  6
CONTINUOUS
 62
     7
 10
107.06569
 20
122.54738
 40
14.25
  0
CIRCLE
  8
0
  6
CONTINUOUS
 62
     7
 10
-84.428276
 20
-84.01857
 40
17.75
  0
CIRCLE
  8
0
  6
CONTINUOUS
 62
     7
 10
222.41545
 20
-86.909912
 40
22
  0
CIRCLE
  8
0
  6
CONTINUOUS
 62
     7
 10
-85.542297
 20
-305.2063
 40
25
  0
CIRCLE
  8
0
  6
CONTINUOUS
 62
     7
 10
218.07845
 20
-308.09766
 40
31
  0
CIRCLE
  8
0
  6
CONTINUOUS
 62
     7
 10
-6.9014249
 20
-519.16565
 40
39.25
  0
CIRCLE
  8
0
  6
CONTINUOUS
 62
     7
 10
48.634254
 20
-798.75568
 40
45.75
  0
ARC
  8
0
  6
CONTINUOUS
 62
     7
 10
477.47723
 20
-575.83203
 40
5
 50
180.00001
 51
255.52248
  0
ARC
  8
0
  6
CONTINUOUS
 62
     7
 10
376.97723
 20
-575.83203
 40
5
 50
284.47751
 51
0
  0
ARC
  8
0
  6
CONTINUOUS
 62
     7
 10
492.38599
 20
-460.42322
 40
5
 50
270
 51
345.52249
  0
ARC
  8
0
  6
CONTINUOUS
 62
     7
 10
492.38599
 20
-560.92322
 40
5
 50
14.477511
 51
90.000003
  0
ARC
  8
0
  6
CONTINUOUS
 62
     7
 10
472.47723
 20
-555.92322
 40
90.5
 50
90.000003
 51
180.00001
  0
ARC
  8
0
  6
CONTINUOUS
 62
     7
 10
479.47723
 20
-562.92322
 40
7
 50
90.000003
 51
180.00001
  0
ARC
  8
0
  6
CONTINUOUS
 62
     7
 10
521.81708
 20
-864.56915
 40
5
 50
180.00001
 51
255.52248
  0
ARC
  8
0
  6
CONTINUOUS
 62
     7
 10
407.31705
 20
-864.56915
 40
5
 50
284.47751
 51
0
  0
ARC
  8
0
  6
CONTINUOUS
 62
     7
 10
537.72583
 20
-734.1604
 40
5
 50
270
 51
345.5225
  0
ARC
  8
0
  6
CONTINUOUS
 62
     7
 10
537.72583
 20
-848.6604
 40
5
 50
14.477511
 51
90.000003
  0
ARC
  8
0
  6
CONTINUOUS
 62
     7
 10
516.81708
 20
-843.6604
 40
104.5
 50
90.000003
 51
180.00001
  0
ARC
  8
0
  6
CONTINUOUS
 62
     7
 10
524.81708
 20
-851.6604
 40
8
 50
90.000003
 51
180.00001
  0
ARC
  8
0
  6
CONTINUOUS
 62
     7
 10
423.47501
 20
112.98013
 40
5
 50
180.00001
 51
240.00001
  0
ARC
  8
0
  6
CONTINUOUS
 62
     7
 10
382.47501
 20
112.98013
 40
5
 50
300
 51
360
  0
ARC
  8
0
  6
CONTINUOUS
 62
     7
 10
430.64487
 20
120.14999
 40
5
 50
30.000001
 51
90.000003
  0
ARC
  8
0
  6
CONTINUOUS
 62
     7
 10
430.64487
 20
161.14999
 40
5
 50
270
 51
330
  0
ARC
  8
0
  6
CONTINUOUS
 62
     7
 10
418.47501
 20
125.14999
 40
31
 50
90.000003
 51
180.00001
  0
ARC
  8
0
  6
CONTINUOUS
 62
     7
 10
422.47501
 20
121.14999
 40
4
 50
90.000003
 51
180.00001
  0
ARC
  8
0
  6
CONTINUOUS
 62
     7
 10
608.59998
 20
107.11514
 40
5
 50
180.00001
 51
243.25632
  0
ARC
  8
0
  6
CONTINUOUS
 62
     7
 10
562.09998
 20
107.11514
 40
5
 50
296.74369
 51
360
  0
ARC
  8
0
  6
CONTINUOUS
 62
     7
 10
618.88489
 20
163.89999
 40
5
 50
270
 51
333.25632
  0
ARC
  8
0
  6
CONTINUOUS
 62
     7
 10
618.88489
 20
117.39999
 40
5
 50
26.743684
 51
90.000003
  0
ARC
  8
0
  6
CONTINUOUS
 62
     7
 10
603.59998
 20
122.39999
 40
36.5
 50
90.000003
 51
180.00001
  0
ARC
  8
0
  6
CONTINUOUS
 62
     7
 10
607.59998
 20
118.39999
 40
4
 50
90.000003
 51
180.00001
  0
ARC
  8
0
  6
CONTINUOUS
 62
     7
 10
404.66446
 20
-120.00681
 40
5
 50
180.00001
 51
243.25632
  0
ARC
  8
0
  6
CONTINUOUS
 62
     7
 10
350.16446
 20
-120.00681
 40
5
 50
296.74369
 51
360
  0
ARC
  8
0
  6
CONTINUOUS
 62
     7
 10
416.94931
 20
-53.221958
 40
5
 50
270
 51
333.25632
  0
ARC
  8
0
  6
CONTINUOUS
 62
     7
 10
416.94931
 20
-107.72195
 40
5
 50
26.743684
 51
90.000003
  0
ARC
  8
0
  6
CONTINUOUS
 62
     7
 10
399.66446
 20
-102.72195
 40
44.5
 50
90.000003
 51
180.00001
  0
ARC
  8
0
  6
CONTINUOUS
 62
     7
 10
403.66446
 20
-106.72195
 40
4
 50
90.000003
 51
180.00001
  0
ARC
  8
0
  6
CONTINUOUS
 62
     7
 10
721.88593
 20
-121.66434
 40
5
 50
180.00001
 51
252.54239
  0
ARC
  8
0
  6
CONTINUOUS
 62
     7
 10
660.88593
 20
-121.66434
 40
5
 50
287.45761
 51
360
  0
ARC
  8
0
  6
CONTINUOUS
 62
     7
 10
738.61621
 20
-43.934044
 40
5
 50
270
 51
342.5424
  0
ARC
  8
0
  6
CONTINUOUS
 62
     7
 10
738.61621
 20
-104.93404
 40
5
 50
17.457603
 51
90.000003
  0
ARC
  8
0
  6
CONTINUOUS
 62
     7
 10
718.88593
 20
-101.93404
 40
53
 50
90.000003
 51
180.00001
  0
ARC
  8
0
  6
CONTINUOUS
 62
     7
 10
721.88593
 20
-104.93404
 40
5
 50
90.000003
 51
180.00001
  0
ARC
  8
0
  6
CONTINUOUS
 62
     7
 10
409.39551
 20
-356.54459
 40
5
 50
180.00001
 51
240.00001
  0
ARC
  8
0
  6
CONTINUOUS
 62
     7
 10
339.39551
 20
-356.54459
 40
5
 50
300
 51
360
  0
ARC
  8
0
  6
CONTINUOUS
 62
     7
 10
427.06537
 20
-268.87473
 40
5
 50
270
 51
330
  0
ARC
  8
0
  6
CONTINUOUS
 62
     7
 10
427.06537
 20
-338.87473
 40
5
 50
30.000001
 51
90.000003
  0
ARC
  8
0
  6
CONTINUOUS
 62
     7
 10
404.39551
 20
-333.87473
 40
60
 50
90.000003
 51
180.00001
  0
ARC
  8
0
  6
CONTINUOUS
 62
     7
 10
409.39551
 20
-338.87473
 40
5
 50
90.000003
 51
180.00001
  0
ARC
  8
0
  6
CONTINUOUS
 62
     7
 10
692.13
 20
-371.07303
 40
5
 50
180.00001
 51
240.00001
  0
ARC
  8
0
  6
CONTINUOUS
 62
     7
 10
609.13
 20
-371.07303
 40
5
 50
300
 51
360
  0
ARC
  8
0
  6
CONTINUOUS
 62
     7
 10
713.29987
 20
-266.90317
 40
5
 50
270
 51
330
  0
ARC
  8
0
  6
CONTINUOUS
 62
     7
 10
713.29987
 20
-349.90317
 40
5
 50
30.000001
 51
90.000003
  0
ARC
  8
0
  6
CONTINUOUS
 62
     7
 10
687.13
 20
-344.90317
 40
73
 50
90.000003
 51
180.00001
  0
ARC
  8
0
  6
CONTINUOUS
 62
     7
 10
693.13
 20
-350.90317
 40
6
 50
90.000003
 51
180.00001
  0
CIRCLE
  8
0
  6
CONTINUOUS
 62
     7
 10
627.22723
 20
-510.67325
 40
40.400002
  0
CIRCLE
  8
0
  6
CONTINUOUS
 62
     7
 10
627.22723
 20
-510.67325
 40
40.935898
  0
CIRCLE
  8
0
  6
CONTINUOUS
 62
     7
 10
627.22723
 20
-510.67325
 40
38.650002
  0
CIRCLE
  8
0
  6
CONTINUOUS
 62
     7
 10
684.56708
 20
-791.4104
 40
46.849998
  0
CIRCLE
  8
0
  6
CONTINUOUS
 62
     7
 10
684.56708
 20
-791.4104
 40
47.385899
  0
CIRCLE
  8
0
  6
CONTINUOUS
 62
     7
 10
684.56708
 20
-791.4104
 40
45.099998
  0
CIRCLE
  8
0
  6
CONTINUOUS
 62
     7
 10
502.97501
 20
140.64999
 40
11.2
  0
CIRCLE
  8
0
  6
CONTINUOUS
 62
     7
 10
502.97501
 20
140.64999
 40
12.75
  0
CIRCLE
  8
0
  6
CONTINUOUS
 62
     7
 10
502.97501
 20
140.64999
 40
13.285898
  0
CIRCLE
  8
0
  6
CONTINUOUS
 62
     7
 10
695.34998
 20
140.64999
 40
16.035898
  0
CIRCLE
  8
0
  6
CONTINUOUS
 62
     7
 10
695.34998
 20
140.64999
 40
13.95
  0
CIRCLE
  8
0
  6
CONTINUOUS
 62
     7
 10
695.34998
 20
140.64999
 40
15.5
  0
CIRCLE
  8
0
  6
CONTINUOUS
 62
     7
 10
497.41446
 20
-80.471954
 40
18.9
  0
CIRCLE
  8
0
  6
CONTINUOUS
 62
     7
 10
497.41446
 20
-80.471954
 40
19.435898
  0
CIRCLE
  8
0
  6
CONTINUOUS
 62
     7
 10
497.41446
 20
-80.471954
 40
17.35
  0
CIRCLE
  8
0
  6
CONTINUOUS
 62
     7
 10
831.38593
 20
-74.434044
 40
23.35
  0
CIRCLE
  8
0
  6
CONTINUOUS
 62
     7
 10
831.38593
 20
-74.434044
 40
23.885899
  0
CIRCLE
  8
0
  6
CONTINUOUS
 62
     7
 10
831.38593
 20
-74.434044
 40
21.700001
  0
CIRCLE
  8
0
  6
CONTINUOUS
 62
     7
 10
534.39551
 20
-303.87473
 40
26.450001
  0
CIRCLE
  8
0
  6
CONTINUOUS
 62
     7
 10
534.39551
 20
-303.87473
 40
26.985899
  0
CIRCLE
  8
0
  6
CONTINUOUS
 62
     7
 10
534.39551
 20
-303.87473
 40
24.700001
  0
CIRCLE
  8
0
  6
CONTINUOUS
 62
     7
 10
830.63
 20
-308.40317
 40
32.450001
  0
CIRCLE
  8
0
  6
CONTINUOUS
 62
     7
 10
830.63
 20
-308.40317
 40
32.985897
  0
CIRCLE
  8
0
  6
CONTINUOUS
 62
     7
 10
830.63
 20
-308.40317
 40
30.700001
  0
TEXT
  8
0
  6
CONTINUOUS
 62
     7
 10
-210.09865
 20
-455.9346
 40
10
 41
1.0129871
  1
21/2
  0
TEXT
  8
0
  6
CONTINUOUS
 62
     7
 10
-179.45549
 20
-720.82593
 40
10
 41
1.0714291
  1
3
  0
TEXT
  8
0
  6
CONTINUOUS
 62
     7
 10
-208.2912
 20
153.06343
 40
10
 41
1.0178573
  1
1/2
  0
TEXT
  8
0
  6
CONTINUOUS
 62
     7
 10
-28.925756
 20
162.00734
 40
10
 41
1.0178573
  1
3/4
  0
TEXT
  8
0
  6
CONTINUOUS
 62
     7
 10
-206.58318
 20
-38.985306
 40
10
 41
1.0714291
  1
1
  0
TEXT
  8
0
  6
CONTINUOUS
 62
     7
 10
57.637482
 20
-41.41246
 40
10
 41
1.0129871
  1
11/4
  0
TEXT
  8
0
  6
CONTINUOUS
 62
     7
 10
-262.0587
 20
-258.72021
 40
10
 41
1.0129871
  1
11/2
  0
TEXT
  8
0
  6
CONTINUOUS
 62
     7
 10
46.421257
 20
-251.65694
 40
10
 41
1.0714291
  1
2
  0
TEXT
  8
0
  6
CONTINUOUS
 62
     7
 10
-291.96548
 20
225.17697
 40
15
 41
0.84447575
  1
ＬＡ　エルホ゛（Ｌ）
  0
TEXT
  8
0
  6
CONTINUOUS
 62
     7
 10
414.59892
 20
-434.16141
 40
10
 41
1.0129871
  1
21/2
  0
TEXT
  8
0
  6
CONTINUOUS
 62
     7
 10
443.63664
 20
-705.84174
 40
10
 41
1.0714291
  1
3
  0
TEXT
  8
0
  6
CONTINUOUS
 62
     7
 10
391.95677
 20
178.68672
 40
10
 41
1.0178573
  1
1/2
  0
TEXT
  8
0
  6
CONTINUOUS
 62
     7
 10
589.69841
 20
180.1962
 40
10
 41
1.0178573
  1
3/4
  0
TEXT
  8
0
  6
CONTINUOUS
 62
     7
 10
372.33354
 20
-28.111788
 40
10
 41
1.0714291
  1
1
  0
TEXT
  8
0
  6
CONTINUOUS
 62
     7
 10
675.73863
 20
-20.564397
 40
10
 41
1.0129871
  1
11/4
  0
TEXT
  8
0
  6
CONTINUOUS
 62
     7
 10
349.69139
 20
-253.02403
 40
10
 41
1.0129871
  1
11/2
  0
TEXT
  8
0
  6
CONTINUOUS
 62
     7
 10
644.03959
 20
-250.00508
 40
10
 41
1.0714291
  1
2
  0
TEXT
  8
0
  6
CONTINUOUS
 62
     7
 10
328.30667
 20
222.96172
 40
15
 41
0.84247986
  1
ＨＩ－ＬＡ（Ｐ－ＬＡ）　エルホ゛（Ｌ）
  0
TEXT
  8
0
  6
CONTINUOUS
 62
     7
 10
647.48558
 20
223.24646
 40
10
 41
0.84195842
  1
ＨＩ－ＬＡとＰ－ＬＡの寸法は同じになっております。
  0
LINE
  8
0
  6
CONTINUOUS
 62
     7
 10
-208.83059
 20
-513.33202
 11
-207.37796
 21
-514.78465
  0
LINE
  8
0
  6
CONTINUOUS
 62
     7
 10
-209.89125
 20
-514.39268
 11
-208.43862
 21
-515.84531
  0
LINE
  8
0
  6
CONTINUOUS
 62
     7
 10
-200.73728
 20
-523.54665
 11
-199.28465
 21
-524.99928
  0
LINE
  8
0
  6
CONTINUOUS
 62
     7
 10
-199.67662
 20
-522.48599
 11
-198.22399
 21
-523.93862
  0
LINE
  8
0
  6
CONTINUOUS
 62
     7
 10
-207.3741
 20
-516.90983
 11
-204.58795
 21
-519.69598
  0
LINE
  8
0
  6
CONTINUOUS
 62
     7
 10
-206.31344
 20
-515.84917
 11
-203.52729
 21
-518.63532
  0
ARC
  8
0
  6
CONTINUOUS
 62
     7
 10
-201.9363
 20
-517.04433
 40
3
 50
351.00833
 51
98.991677
  0
ARC
  8
0
  6
CONTINUOUS
 62
     7
 10
-201.9363
 20
-517.04433
 40
4.5
 50
351.00833
 51
98.991677
  0
ARC
  8
0
  6
CONTINUOUS
 62
     7
 10
-206.17894
 20
-521.28697
 40
3
 50
171.00833
 51
278.99168
  0
ARC
  8
0
  6
CONTINUOUS
 62
     7
 10
-206.17894
 20
-521.28697
 40
4.5
 50
171.00833
 51
278.99168
  0
ARC
  8
0
  6
CONTINUOUS
 62
     7
 10
-201.13876
 20
-522.0845
 40
9.6028843
 50
98.991677
 51
130.52055
  0
ARC
  8
0
  6
CONTINUOUS
 62
     7
 10
-201.13876
 20
-522.0845
 40
8.1028843
 50
98.991677
 51
129.68912
  0
ARC
  8
0
  6
CONTINUOUS
 62
     7
 10
-206.97647
 20
-516.24679
 40
8.1028843
 50
278.99167
 51
351.00833
  0
ARC
  8
0
  6
CONTINUOUS
 62
     7
 10
-206.97647
 20
-516.24679
 40
9.6028843
 50
278.99167
 51
310.52055
  0
ARC
  8
0
  6
CONTINUOUS
 62
     7
 10
-208.96317
 20
-514.2601
 40
0.9375
 50
81.869899
 51
188.1301
  0
ARC
  8
0
  6
CONTINUOUS
 62
     7
 10
-204.45536
 20
-518.7679
 40
0.9375
 50
261.8699
 51
8.1301039
  0
ARC
  8
0
  6
CONTINUOUS
 62
     7
 10
-199.15206
 20
-524.0712
 40
0.9375
 50
261.8699
 51
8.1301039
  0
ARC
  8
0
  6
CONTINUOUS
 62
     7
 10
-201.13876
 20
-522.0845
 40
9.6028843
 50
139.47945
 51
171.00833
  0
ARC
  8
0
  6
CONTINUOUS
 62
     7
 10
-201.13876
 20
-522.0845
 40
8.1028843
 50
140.31088
 51
171.00833
  0
ARC
  8
0
  6
CONTINUOUS
 62
     7
 10
-206.97647
 20
-516.24679
 40
9.6028843
 50
319.47945
 51
351.00833
  0
LINE
  8
0
  6
CONTINUOUS
 62
     7
 10
-176.25414
 20
-792.92205
 11
-174.80151
 21
-794.37468
  0
LINE
  8
0
  6
CONTINUOUS
 62
     7
 10
-177.3148
 20
-793.98271
 11
-175.86217
 21
-795.43534
  0
LINE
  8
0
  6
CONTINUOUS
 62
     7
 10
-168.16083
 20
-803.13667
 11
-166.7082
 21
-804.58931
  0
LINE
  8
0
  6
CONTINUOUS
 62
     7
 10
-167.10017
 20
-802.07601
 11
-165.64754
 21
-803.52865
  0
LINE
  8
0
  6
CONTINUOUS
 62
     7
 10
-174.79765
 20
-796.49985
 11
-172.0115
 21
-799.28601
  0
LINE
  8
0
  6
CONTINUOUS
 62
     7
 10
-173.73699
 20
-795.43919
 11
-170.95084
 21
-798.22535
  0
ARC
  8
0
  6
CONTINUOUS
 62
     7
 10
-169.35985
 20
-796.63436
 40
3
 50
351.00833
 51
98.991677
  0
ARC
  8
0
  6
CONTINUOUS
 62
     7
 10
-169.35985
 20
-796.63436
 40
4.5
 50
351.00833
 51
98.991677
  0
ARC
  8
0
  6
CONTINUOUS
 62
     7
 10
-173.60249
 20
-800.877
 40
3
 50
171.00833
 51
278.99168
  0
ARC
  8
0
  6
CONTINUOUS
 62
     7
 10
-173.60249
 20
-800.877
 40
4.5
 50
171.00833
 51
278.99168
  0
ARC
  8
0
  6
CONTINUOUS
 62
     7
 10
-168.56232
 20
-801.67453
 40
9.6028843
 50
98.991677
 51
130.52055
  0
ARC
  8
0
  6
CONTINUOUS
 62
     7
 10
-168.56232
 20
-801.67453
 40
8.1028843
 50
98.991677
 51
129.68912
  0
ARC
  8
0
  6
CONTINUOUS
 62
     7
 10
-174.40003
 20
-795.83682
 40
8.1028843
 50
278.99167
 51
351.00833
  0
ARC
  8
0
  6
CONTINUOUS
 62
     7
 10
-174.40003
 20
-795.83682
 40
9.6028843
 50
278.99167
 51
310.52055
  0
ARC
  8
0
  6
CONTINUOUS
 62
     7
 10
-176.38672
 20
-793.85012
 40
0.9375
 50
81.869899
 51
188.1301
  0
ARC
  8
0
  6
CONTINUOUS
 62
     7
 10
-171.87892
 20
-798.35793
 40
0.9375
 50
261.8699
 51
8.1301039
  0
ARC
  8
0
  6
CONTINUOUS
 62
     7
 10
-166.57562
 20
-803.66123
 40
0.9375
 50
261.8699
 51
8.1301039
  0
ARC
  8
0
  6
CONTINUOUS
 62
     7
 10
-168.56232
 20
-801.67453
 40
9.6028843
 50
139.47945
 51
171.00833
  0
ARC
  8
0
  6
CONTINUOUS
 62
     7
 10
-168.56232
 20
-801.67453
 40
8.1028843
 50
140.31088
 51
171.00833
  0
ARC
  8
0
  6
CONTINUOUS
 62
     7
 10
-174.40003
 20
-795.83682
 40
9.6028843
 50
319.47945
 51
351.00833
  0
LINE
  8
0
  6
CONTINUOUS
 62
     7
 10
-195.8471
 20
123.60022
 11
-195.26605
 21
123.01917
  0
LINE
  8
0
  6
CONTINUOUS
 62
     7
 10
-196.27136
 20
123.17596
 11
-195.69031
 21
122.5949
  0
LINE
  8
0
  6
CONTINUOUS
 62
     7
 10
-192.60978
 20
119.51437
 11
-192.02872
 21
118.93332
  0
LINE
  8
0
  6
CONTINUOUS
 62
     7
 10
-192.18551
 20
119.93863
 11
-191.60446
 21
119.35758
  0
LINE
  8
0
  6
CONTINUOUS
 62
     7
 10
-195.26451
 20
122.1691
 11
-194.15004
 21
121.05464
  0
LINE
  8
0
  6
CONTINUOUS
 62
     7
 10
-194.84024
 20
122.59336
 11
-193.72578
 21
121.4789
  0
ARC
  8
0
  6
CONTINUOUS
 62
     7
 10
-193.08938
 20
122.1153
 40
1.2
 50
351.00833
 51
98.991677
  0
ARC
  8
0
  6
CONTINUOUS
 62
     7
 10
-193.08938
 20
122.1153
 40
1.8
 50
351.00833
 51
98.991677
  0
ARC
  8
0
  6
CONTINUOUS
 62
     7
 10
-194.78644
 20
120.41824
 40
1.2
 50
171.00833
 51
278.99168
  0
ARC
  8
0
  6
CONTINUOUS
 62
     7
 10
-194.78644
 20
120.41824
 40
1.8
 50
171.00833
 51
278.99168
  0
ARC
  8
0
  6
CONTINUOUS
 62
     7
 10
-192.77037
 20
120.09923
 40
3.8411539
 50
98.991677
 51
130.52055
  0
ARC
  8
0
  6
CONTINUOUS
 62
     7
 10
-192.77037
 20
120.09923
 40
3.241154
 50
98.991677
 51
129.68912
  0
ARC
  8
0
  6
CONTINUOUS
 62
     7
 10
-195.10545
 20
122.43431
 40
3.241154
 50
278.99167
 51
351.00833
  0
ARC
  8
0
  6
CONTINUOUS
 62
     7
 10
-195.10545
 20
122.43431
 40
3.8411539
 50
278.99167
 51
310.52055
  0
ARC
  8
0
  6
CONTINUOUS
 62
     7
 10
-195.90013
 20
123.22899
 40
0.375
 50
81.869899
 51
188.1301
  0
ARC
  8
0
  6
CONTINUOUS
 62
     7
 10
-194.09701
 20
121.42587
 40
0.375
 50
261.8699
 51
8.1301039
  0
ARC
  8
0
  6
CONTINUOUS
 62
     7
 10
-191.97569
 20
119.30455
 40
0.375
 50
261.8699
 51
8.1301039
  0
ARC
  8
0
  6
CONTINUOUS
 62
     7
 10
-195.10545
 20
122.43431
 40
3.8411539
 50
319.47945
 51
351.00833
  0
ARC
  8
0
  6
CONTINUOUS
 62
     7
 10
-192.77037
 20
120.09923
 40
3.241154
 50
140.31088
 51
171.00833
  0
ARC
  8
0
  6
CONTINUOUS
 62
     7
 10
-192.77037
 20
120.09923
 40
3.8411539
 50
139.47945
 51
171.00833
  0
LINE
  8
0
  6
CONTINUOUS
 62
     7
 10
-18.2836
 20
126.04756
 11
-17.41202
 21
125.17598
  0
LINE
  8
0
  6
CONTINUOUS
 62
     7
 10
-18.919996
 20
125.41116
 11
-18.048416
 21
124.53958
  0
LINE
  8
0
  6
CONTINUOUS
 62
     7
 10
-13.427614
 20
119.91878
 11
-12.556034
 21
119.0472
  0
LINE
  8
0
  6
CONTINUOUS
 62
     7
 10
-12.791218
 20
120.55518
 11
-11.919638
 21
119.6836
  0
LINE
  8
0
  6
CONTINUOUS
 62
     7
 10
-17.409707
 20
123.90087
 11
-15.738015
 21
122.22918
  0
LINE
  8
0
  6
CONTINUOUS
 62
     7
 10
-16.773311
 20
124.53727
 11
-15.101619
 21
122.86558
  0
ARC
  8
0
  6
CONTINUOUS
 62
     7
 10
-14.147025
 20
123.82017
 40
1.8
 50
351.00833
 51
98.991677
  0
ARC
  8
0
  6
CONTINUOUS
 62
     7
 10
-14.147025
 20
123.82017
 40
2.7
 50
351.00833
 51
98.991677
  0
ARC
  8
0
  6
CONTINUOUS
 62
     7
 10
-16.692609
 20
121.27459
 40
1.8
 50
171.00833
 51
278.99168
  0
ARC
  8
0
  6
CONTINUOUS
 62
     7
 10
-16.692609
 20
121.27459
 40
2.7
 50
171.00833
 51
278.99168
  0
ARC
  8
0
  6
CONTINUOUS
 62
     7
 10
-13.668504
 20
120.79607
 40
5.7617307
 50
98.991677
 51
130.52055
  0
ARC
  8
0
  6
CONTINUOUS
 62
     7
 10
-13.668504
 20
120.79607
 40
4.8617306
 50
98.991677
 51
129.68912
  0
ARC
  8
0
  6
CONTINUOUS
 62
     7
 10
-17.17113
 20
124.29869
 40
4.8617306
 50
278.99167
 51
351.00833
  0
ARC
  8
0
  6
CONTINUOUS
 62
     7
 10
-17.17113
 20
124.29869
 40
5.7617307
 50
278.99167
 51
310.52055
  0
ARC
  8
0
  6
CONTINUOUS
 62
     7
 10
-18.363149
 20
125.49071
 40
0.5625
 50
81.869899
 51
188.1301
  0
ARC
  8
0
  6
CONTINUOUS
 62
     7
 10
-15.658466
 20
122.78603
 40
0.5625
 50
261.8699
 51
8.1301039
  0
ARC
  8
0
  6
CONTINUOUS
 62
     7
 10
-12.476485
 20
119.60405
 40
0.5625
 50
261.8699
 51
8.1301039
  0
ARC
  8
0
  6
CONTINUOUS
 62
     7
 10
-13.668504
 20
120.79607
 40
5.7617307
 50
139.47945
 51
171.00833
  0
ARC
  8
0
  6
CONTINUOUS
 62
     7
 10
-13.668504
 20
120.79607
 40
4.8617306
 50
140.31088
 51
171.00833
  0
ARC
  8
0
  6
CONTINUOUS
 62
     7
 10
-17.17113
 20
124.29869
 40
5.7617307
 50
319.47945
 51
351.00833
  0
LINE
  8
0
  6
CONTINUOUS
 62
     7
 10
-204.03006
 20
-80.518391
 11
-203.15848
 21
-81.389971
  0
LINE
  8
0
  6
CONTINUOUS
 62
     7
 10
-204.66645
 20
-81.154788
 11
-203.79487
 21
-82.026367
  0
LINE
  8
0
  6
CONTINUOUS
 62
     7
 10
-199.17407
 20
-86.647169
 11
-198.30249
 21
-87.518748
  0
LINE
  8
0
  6
CONTINUOUS
 62
     7
 10
-198.53768
 20
-86.010773
 11
-197.6661
 21
-86.882352
  0
LINE
  8
0
  6
CONTINUOUS
 62
     7
 10
-203.15616
 20
-82.665076
 11
-201.48447
 21
-84.336768
  0
LINE
  8
0
  6
CONTINUOUS
 62
     7
 10
-202.51977
 20
-82.02868
 11
-200.84808
 21
-83.700372
  0
ARC
  8
0
  6
CONTINUOUS
 62
     7
 10
-199.89348
 20
-82.745778
 40
1.8
 50
351.00833
 51
98.991677
  0
ARC
  8
0
  6
CONTINUOUS
 62
     7
 10
-199.89348
 20
-82.745778
 40
2.7
 50
351.00833
 51
98.991677
  0
ARC
  8
0
  6
CONTINUOUS
 62
     7
 10
-202.43907
 20
-85.291362
 40
1.8
 50
171.00833
 51
278.99168
  0
ARC
  8
0
  6
CONTINUOUS
 62
     7
 10
-202.43907
 20
-85.291362
 40
2.7
 50
171.00833
 51
278.99168
  0
ARC
  8
0
  6
CONTINUOUS
 62
     7
 10
-199.41496
 20
-85.769883
 40
5.7617307
 50
98.991677
 51
130.52055
  0
ARC
  8
0
  6
CONTINUOUS
 62
     7
 10
-199.41496
 20
-85.769883
 40
4.8617306
 50
98.991677
 51
129.68912
  0
ARC
  8
0
  6
CONTINUOUS
 62
     7
 10
-202.91759
 20
-82.267257
 40
4.8617306
 50
278.99167
 51
351.00833
  0
ARC
  8
0
  6
CONTINUOUS
 62
     7
 10
-202.91759
 20
-82.267257
 40
5.7617307
 50
278.99167
 51
310.52055
  0
ARC
  8
0
  6
CONTINUOUS
 62
     7
 10
-204.10961
 20
-81.075238
 40
0.5625
 50
81.869899
 51
188.1301
  0
ARC
  8
0
  6
CONTINUOUS
 62
     7
 10
-201.40492
 20
-83.779921
 40
0.5625
 50
261.8699
 51
8.1301039
  0
ARC
  8
0
  6
CONTINUOUS
 62
     7
 10
-198.22294
 20
-86.961902
 40
0.5625
 50
261.8699
 51
8.1301039
  0
ARC
  8
0
  6
CONTINUOUS
 62
     7
 10
-199.41496
 20
-85.769883
 40
5.7617307
 50
139.47945
 51
171.00833
  0
ARC
  8
0
  6
CONTINUOUS
 62
     7
 10
-199.41496
 20
-85.769883
 40
4.8617306
 50
140.31088
 51
171.00833
  0
ARC
  8
0
  6
CONTINUOUS
 62
     7
 10
-202.91759
 20
-82.267257
 40
5.7617307
 50
319.47945
 51
351.00833
  0
LINE
  8
0
  6
CONTINUOUS
 62
     7
 10
68.917303
 20
-82.243007
 11
70.079409
 21
-83.405114
  0
LINE
  8
0
  6
CONTINUOUS
 62
     7
 10
68.068775
 20
-83.091536
 11
69.230881
 21
-84.253642
  0
LINE
  8
0
  6
CONTINUOUS
 62
     7
 10
75.39195
 20
-90.414711
 11
76.554056
 21
-91.576817
  0
LINE
  8
0
  6
CONTINUOUS
 62
     7
 10
76.240478
 20
-89.566182
 11
77.402584
 21
-90.728289
  0
LINE
  8
0
  6
CONTINUOUS
 62
     7
 10
70.082493
 20
-85.105254
 11
72.311416
 21
-87.334176
  0
LINE
  8
0
  6
CONTINUOUS
 62
     7
 10
70.931021
 20
-84.256726
 11
73.159944
 21
-86.485648
  0
ARC
  8
0
  6
CONTINUOUS
 62
     7
 10
74.432736
 20
-85.212856
 40
2.4000001
 50
351.00833
 51
98.991677
  0
ARC
  8
0
  6
CONTINUOUS
 62
     7
 10
74.432736
 20
-85.212856
 40
3.5999999
 50
351.00833
 51
98.991677
  0
ARC
  8
0
  6
CONTINUOUS
 62
     7
 10
71.038623
 20
-88.606968
 40
2.4000001
 50
171.00833
 51
278.99168
  0
ARC
  8
0
  6
CONTINUOUS
 62
     7
 10
71.038623
 20
-88.606968
 40
3.5999999
 50
171.00833
 51
278.99168
  0
ARC
  8
0
  6
CONTINUOUS
 62
     7
 10
75.070764
 20
-89.244996
 40
7.6823077
 50
98.991677
 51
130.52055
  0
ARC
  8
0
  6
CONTINUOUS
 62
     7
 10
75.070764
 20
-89.244996
 40
6.4823079
 50
98.991677
 51
129.68912
  0
ARC
  8
0
  6
CONTINUOUS
 62
     7
 10
70.400595
 20
-84.574828
 40
6.4823079
 50
278.99167
 51
351.00833
  0
ARC
  8
0
  6
CONTINUOUS
 62
     7
 10
70.400595
 20
-84.574828
 40
7.6823077
 50
278.99167
 51
310.52055
  0
ARC
  8
0
  6
CONTINUOUS
 62
     7
 10
68.811237
 20
-82.985469
 40
0.75
 50
81.869899
 51
188.1301
  0
ARC
  8
0
  6
CONTINUOUS
 62
     7
 10
72.417482
 20
-86.591714
 40
0.75
 50
261.8699
 51
8.1301039
  0
ARC
  8
0
  6
CONTINUOUS
 62
     7
 10
76.660122
 20
-90.834355
 40
0.75
 50
261.8699
 51
8.1301039
  0
ARC
  8
0
  6
CONTINUOUS
 62
     7
 10
75.070764
 20
-89.244996
 40
6.4823079
 50
140.31088
 51
171.00833
  0
ARC
  8
0
  6
CONTINUOUS
 62
     7
 10
75.070764
 20
-89.244996
 40
7.6823077
 50
139.47945
 51
171.00833
  0
ARC
  8
0
  6
CONTINUOUS
 62
     7
 10
70.400595
 20
-84.574828
 40
7.6823077
 50
319.47945
 51
351.00833
  0
LINE
  8
0
  6
CONTINUOUS
 62
     7
 10
-239.68076
 20
-300.53939
 11
-238.51865
 21
-301.7015
  0
LINE
  8
0
  6
CONTINUOUS
 62
     7
 10
-240.52929
 20
-301.38792
 11
-239.36718
 21
-302.55003
  0
LINE
  8
0
  6
CONTINUOUS
 62
     7
 10
-233.20611
 20
-308.7111
 11
-232.044
 21
-309.8732
  0
LINE
  8
0
  6
CONTINUOUS
 62
     7
 10
-232.35758
 20
-307.86257
 11
-231.19548
 21
-309.02468
  0
LINE
  8
0
  6
CONTINUOUS
 62
     7
 10
-238.51557
 20
-303.40164
 11
-236.28665
 21
-305.63056
  0
LINE
  8
0
  6
CONTINUOUS
 62
     7
 10
-237.66704
 20
-302.55311
 11
-235.43812
 21
-304.78203
  0
ARC
  8
0
  6
CONTINUOUS
 62
     7
 10
-234.16532
 20
-303.50924
 40
2.4000001
 50
351.00833
 51
98.991677
  0
ARC
  8
0
  6
CONTINUOUS
 62
     7
 10
-234.16532
 20
-303.50924
 40
3.5999999
 50
351.00833
 51
98.991677
  0
ARC
  8
0
  6
CONTINUOUS
 62
     7
 10
-237.55944
 20
-306.90336
 40
2.4000001
 50
171.00833
 51
278.99168
  0
ARC
  8
0
  6
CONTINUOUS
 62
     7
 10
-237.55944
 20
-306.90336
 40
3.5999999
 50
171.00833
 51
278.99168
  0
ARC
  8
0
  6
CONTINUOUS
 62
     7
 10
-233.5273
 20
-307.54138
 40
7.6823077
 50
98.991677
 51
130.52055
  0
ARC
  8
0
  6
CONTINUOUS
 62
     7
 10
-233.5273
 20
-307.54138
 40
6.4823079
 50
98.991677
 51
129.68912
  0
ARC
  8
0
  6
CONTINUOUS
 62
     7
 10
-238.19747
 20
-302.87121
 40
6.4823079
 50
278.99167
 51
351.00833
  0
ARC
  8
0
  6
CONTINUOUS
 62
     7
 10
-238.19747
 20
-302.87121
 40
7.6823077
 50
278.99167
 51
310.52055
  0
ARC
  8
0
  6
CONTINUOUS
 62
     7
 10
-239.78682
 20
-301.28186
 40
0.75
 50
81.869899
 51
188.1301
  0
ARC
  8
0
  6
CONTINUOUS
 62
     7
 10
-236.18058
 20
-304.8881
 40
0.75
 50
261.8699
 51
8.1301039
  0
ARC
  8
0
  6
CONTINUOUS
 62
     7
 10
-231.93794
 20
-309.13074
 40
0.75
 50
261.8699
 51
8.1301039
  0
ARC
  8
0
  6
CONTINUOUS
 62
     7
 10
-233.5273
 20
-307.54138
 40
6.4823079
 50
140.31088
 51
171.00833
  0
ARC
  8
0
  6
CONTINUOUS
 62
     7
 10
-233.5273
 20
-307.54138
 40
7.6823077
 50
139.47945
 51
171.00833
  0
ARC
  8
0
  6
CONTINUOUS
 62
     7
 10
-238.19747
 20
-302.87121
 40
7.6823077
 50
319.47945
 51
351.00833
  0
LINE
  8
0
  6
CONTINUOUS
 62
     7
 10
44.978113
 20
-303.43075
 11
46.140219
 21
-304.59286
  0
LINE
  8
0
  6
CONTINUOUS
 62
     7
 10
44.129585
 20
-304.27928
 11
45.291691
 21
-305.44139
  0
LINE
  8
0
  6
CONTINUOUS
 62
     7
 10
51.45276
 20
-311.60245
 11
52.614866
 21
-312.76456
  0
LINE
  8
0
  6
CONTINUOUS
 62
     7
 10
52.301288
 20
-310.75393
 11
53.463395
 21
-311.91603
  0
LINE
  8
0
  6
CONTINUOUS
 62
     7
 10
46.143303
 20
-306.293
 11
48.372226
 21
-308.52192
  0
LINE
  8
0
  6
CONTINUOUS
 62
     7
 10
46.991831
 20
-305.44447
 11
49.220754
 21
-307.67339
  0
ARC
  8
0
  6
CONTINUOUS
 62
     7
 10
50.493546
 20
-306.4006
 40
2.4000001
 50
351.00833
 51
98.991677
  0
ARC
  8
0
  6
CONTINUOUS
 62
     7
 10
50.493546
 20
-306.4006
 40
3.5999999
 50
351.00833
 51
98.991677
  0
ARC
  8
0
  6
CONTINUOUS
 62
     7
 10
47.099433
 20
-309.79471
 40
2.4000001
 50
171.00833
 51
278.99168
  0
ARC
  8
0
  6
CONTINUOUS
 62
     7
 10
47.099433
 20
-309.79471
 40
3.5999999
 50
171.00833
 51
278.99168
  0
ARC
  8
0
  6
CONTINUOUS
 62
     7
 10
51.131574
 20
-310.43274
 40
7.6823077
 50
98.991677
 51
130.52055
  0
ARC
  8
0
  6
CONTINUOUS
 62
     7
 10
51.131574
 20
-310.43274
 40
6.4823079
 50
98.991677
 51
129.68912
  0
ARC
  8
0
  6
CONTINUOUS
 62
     7
 10
46.461406
 20
-305.76257
 40
6.4823079
 50
278.99167
 51
351.00833
  0
ARC
  8
0
  6
CONTINUOUS
 62
     7
 10
46.461406
 20
-305.76257
 40
7.6823077
 50
278.99167
 51
310.52055
  0
ARC
  8
0
  6
CONTINUOUS
 62
     7
 10
44.872047
 20
-304.17321
 40
0.75
 50
81.869899
 51
188.1301
  0
ARC
  8
0
  6
CONTINUOUS
 62
     7
 10
48.478292
 20
-307.77946
 40
0.75
 50
261.8699
 51
8.1301039
  0
ARC
  8
0
  6
CONTINUOUS
 62
     7
 10
52.720933
 20
-312.0221
 40
0.75
 50
261.8699
 51
8.1301039
  0
ARC
  8
0
  6
CONTINUOUS
 62
     7
 10
51.131574
 20
-310.43274
 40
6.4823079
 50
140.31088
 51
171.00833
  0
ARC
  8
0
  6
CONTINUOUS
 62
     7
 10
51.131574
 20
-310.43274
 40
7.6823077
 50
139.47945
 51
171.00833
  0
ARC
  8
0
  6
CONTINUOUS
 62
     7
 10
46.461406
 20
-305.76257
 40
7.6823077
 50
319.47945
 51
351.00833
  0
LINE
  8
0
  6
CONTINUOUS
 62
     7
 10
422.45426
 20
-504.83962
 11
423.9069
 21
-506.29225
  0
LINE
  8
0
  6
CONTINUOUS
 62
     7
 10
421.3936
 20
-505.90028
 11
422.84624
 21
-507.35291
  0
LINE
  8
0
  6
CONTINUOUS
 62
     7
 10
430.54757
 20
-515.05425
 11
432.0002
 21
-516.50688
  0
LINE
  8
0
  6
CONTINUOUS
 62
     7
 10
431.60823
 20
-513.99359
 11
433.06086
 21
-515.44622
  0
LINE
  8
0
  6
CONTINUOUS
 62
     7
 10
423.91075
 20
-508.41743
 11
426.6969
 21
-511.20358
  0
LINE
  8
0
  6
CONTINUOUS
 62
     7
 10
424.97141
 20
-507.35677
 11
427.75756
 21
-510.14292
  0
ARC
  8
0
  6
CONTINUOUS
 62
     7
 10
429.34855
 20
-508.55193
 40
3
 50
351.00833
 51
98.991677
  0
ARC
  8
0
  6
CONTINUOUS
 62
     7
 10
429.34855
 20
-508.55193
 40
4.5
 50
351.00833
 51
98.991677
  0
ARC
  8
0
  6
CONTINUOUS
 62
     7
 10
425.10591
 20
-512.79457
 40
3
 50
171.00833
 51
278.99168
  0
ARC
  8
0
  6
CONTINUOUS
 62
     7
 10
425.10591
 20
-512.79457
 40
4.5
 50
171.00833
 51
278.99168
  0
ARC
  8
0
  6
CONTINUOUS
 62
     7
 10
430.14609
 20
-513.5921
 40
9.6028843
 50
98.991677
 51
130.52055
  0
ARC
  8
0
  6
CONTINUOUS
 62
     7
 10
430.14609
 20
-513.5921
 40
8.1028843
 50
98.991677
 51
129.68912
  0
ARC
  8
0
  6
CONTINUOUS
 62
     7
 10
424.30838
 20
-507.75439
 40
8.1028843
 50
278.99167
 51
351.00833
  0
ARC
  8
0
  6
CONTINUOUS
 62
     7
 10
424.30838
 20
-507.75439
 40
9.6028843
 50
278.99167
 51
310.52055
  0
ARC
  8
0
  6
CONTINUOUS
 62
     7
 10
422.32168
 20
-505.7677
 40
0.9375
 50
81.869899
 51
188.1301
  0
ARC
  8
0
  6
CONTINUOUS
 62
     7
 10
426.82949
 20
-510.2755
 40
0.9375
 50
261.8699
 51
8.1301039
  0
ARC
  8
0
  6
CONTINUOUS
 62
     7
 10
432.13279
 20
-515.5788
 40
0.9375
 50
261.8699
 51
8.1301039
  0
ARC
  8
0
  6
CONTINUOUS
 62
     7
 10
430.14609
 20
-513.5921
 40
9.6028843
 50
139.47945
 51
171.00833
  0
ARC
  8
0
  6
CONTINUOUS
 62
     7
 10
430.14609
 20
-513.5921
 40
8.1028843
 50
140.31088
 51
171.00833
  0
ARC
  8
0
  6
CONTINUOUS
 62
     7
 10
424.30838
 20
-507.75439
 40
9.6028843
 50
319.47945
 51
351.00833
  0
LINE
  8
0
  6
CONTINUOUS
 62
     7
 10
459.79408
 20
-785.57677
 11
461.24671
 21
-787.0294
  0
LINE
  8
0
  6
CONTINUOUS
 62
     7
 10
458.73342
 20
-786.63743
 11
460.18605
 21
-788.09006
  0
LINE
  8
0
  6
CONTINUOUS
 62
     7
 10
467.88739
 20
-795.7914
 11
469.34002
 21
-797.24403
  0
LINE
  8
0
  6
CONTINUOUS
 62
     7
 10
468.94805
 20
-794.73074
 11
470.40068
 21
-796.18337
  0
LINE
  8
0
  6
CONTINUOUS
 62
     7
 10
461.25056
 20
-789.15458
 11
464.03672
 21
-791.94073
  0
LINE
  8
0
  6
CONTINUOUS
 62
     7
 10
462.31122
 20
-788.09392
 11
465.09738
 21
-790.88007
  0
ARC
  8
0
  6
CONTINUOUS
 62
     7
 10
466.68837
 20
-789.28908
 40
3
 50
351.00833
 51
98.991677
  0
ARC
  8
0
  6
CONTINUOUS
 62
     7
 10
466.68837
 20
-789.28908
 40
4.5
 50
351.00833
 51
98.991677
  0
ARC
  8
0
  6
CONTINUOUS
 62
     7
 10
462.44573
 20
-793.53172
 40
3
 50
171.00833
 51
278.99168
  0
ARC
  8
0
  6
CONTINUOUS
 62
     7
 10
462.44573
 20
-793.53172
 40
4.5
 50
171.00833
 51
278.99168
  0
ARC
  8
0
  6
CONTINUOUS
 62
     7
 10
467.4859
 20
-794.32926
 40
9.6028843
 50
98.991677
 51
130.52055
  0
ARC
  8
0
  6
CONTINUOUS
 62
     7
 10
467.4859
 20
-794.32926
 40
8.1028843
 50
98.991677
 51
129.68912
  0
ARC
  8
0
  6
CONTINUOUS
 62
     7
 10
461.64819
 20
-788.49155
 40
8.1028843
 50
278.99167
 51
351.00833
  0
ARC
  8
0
  6
CONTINUOUS
 62
     7
 10
461.64819
 20
-788.49155
 40
9.6028843
 50
278.99167
 51
310.52055
  0
ARC
  8
0
  6
CONTINUOUS
 62
     7
 10
459.66149
 20
-786.50485
 40
0.9375
 50
81.869899
 51
188.1301
  0
ARC
  8
0
  6
CONTINUOUS
 62
     7
 10
464.1693
 20
-791.01265
 40
0.9375
 50
261.8699
 51
8.1301039
  0
ARC
  8
0
  6
CONTINUOUS
 62
     7
 10
469.4726
 20
-796.31595
 40
0.9375
 50
261.8699
 51
8.1301039
  0
ARC
  8
0
  6
CONTINUOUS
 62
     7
 10
467.4859
 20
-794.32926
 40
9.6028843
 50
139.47945
 51
171.00833
  0
ARC
  8
0
  6
CONTINUOUS
 62
     7
 10
467.4859
 20
-794.32926
 40
8.1028843
 50
140.31088
 51
171.00833
  0
ARC
  8
0
  6
CONTINUOUS
 62
     7
 10
461.64819
 20
-788.49155
 40
9.6028843
 50
319.47945
 51
351.00833
  0
LINE
  8
0
  6
CONTINUOUS
 62
     7
 10
401.06582
 20
142.98345
 11
401.64687
 21
142.40239
  0
LINE
  8
0
  6
CONTINUOUS
 62
     7
 10
400.64155
 20
142.55918
 11
401.22261
 21
141.97813
  0
LINE
  8
0
  6
CONTINUOUS
 62
     7
 10
404.30314
 20
138.89759
 11
404.88419
 21
138.31654
  0
LINE
  8
0
  6
CONTINUOUS
 62
     7
 10
404.72741
 20
139.32186
 11
405.30846
 21
138.74081
  0
LINE
  8
0
  6
CONTINUOUS
 62
     7
 10
401.64841
 20
141.55232
 11
402.76287
 21
140.43786
  0
LINE
  8
0
  6
CONTINUOUS
 62
     7
 10
402.07268
 20
141.97659
 11
403.18714
 21
140.86213
  0
ARC
  8
0
  6
CONTINUOUS
 62
     7
 10
403.82353
 20
141.49852
 40
1.2
 50
351.00833
 51
98.991677
  0
ARC
  8
0
  6
CONTINUOUS
 62
     7
 10
403.82353
 20
141.49852
 40
1.8
 50
351.00833
 51
98.991677
  0
ARC
  8
0
  6
CONTINUOUS
 62
     7
 10
402.12648
 20
139.80147
 40
1.2
 50
171.00833
 51
278.99168
  0
ARC
  8
0
  6
CONTINUOUS
 62
     7
 10
402.12648
 20
139.80147
 40
1.8
 50
171.00833
 51
278.99168
  0
ARC
  8
0
  6
CONTINUOUS
 62
     7
 10
404.14255
 20
139.48245
 40
3.8411539
 50
98.991677
 51
130.52055
  0
ARC
  8
0
  6
CONTINUOUS
 62
     7
 10
404.14255
 20
139.48245
 40
3.241154
 50
98.991677
 51
129.68912
  0
ARC
  8
0
  6
CONTINUOUS
 62
     7
 10
401.80746
 20
141.81754
 40
3.241154
 50
278.99167
 51
351.00833
  0
ARC
  8
0
  6
CONTINUOUS
 62
     7
 10
401.80746
 20
141.81754
 40
3.8411539
 50
278.99167
 51
310.52055
  0
ARC
  8
0
  6
CONTINUOUS
 62
     7
 10
401.01278
 20
142.61222
 40
0.375
 50
81.869899
 51
188.1301
  0
ARC
  8
0
  6
CONTINUOUS
 62
     7
 10
402.81591
 20
140.80909
 40
0.375
 50
261.8699
 51
8.1301039
  0
ARC
  8
0
  6
CONTINUOUS
 62
     7
 10
404.93723
 20
138.68777
 40
0.375
 50
261.8699
 51
8.1301039
  0
ARC
  8
0
  6
CONTINUOUS
 62
     7
 10
401.80746
 20
141.81754
 40
3.8411539
 50
319.47945
 51
351.00833
  0
ARC
  8
0
  6
CONTINUOUS
 62
     7
 10
404.14255
 20
139.48245
 40
3.241154
 50
140.31088
 51
171.00833
  0
ARC
  8
0
  6
CONTINUOUS
 62
     7
 10
404.14255
 20
139.48245
 40
3.8411539
 50
139.47945
 51
171.00833
  0
LINE
  8
0
  6
CONTINUOUS
 62
     7
 10
582.48619
 20
144.15017
 11
583.35777
 21
143.27859
  0
LINE
  8
0
  6
CONTINUOUS
 62
     7
 10
581.8498
 20
143.51378
 11
582.72138
 21
142.6422
  0
LINE
  8
0
  6
CONTINUOUS
 62
     7
 10
587.34218
 20
138.0214
 11
588.21376
 21
137.14982
  0
LINE
  8
0
  6
CONTINUOUS
 62
     7
 10
587.97857
 20
138.65779
 11
588.85015
 21
137.78621
  0
LINE
  8
0
  6
CONTINUOUS
 62
     7
 10
583.36009
 20
142.00349
 11
585.03178
 21
140.3318
  0
LINE
  8
0
  6
CONTINUOUS
 62
     7
 10
583.99648
 20
142.63988
 11
585.66817
 21
140.96819
  0
ARC
  8
0
  6
CONTINUOUS
 62
     7
 10
586.62277
 20
141.92279
 40
1.8
 50
351.00833
 51
98.991677
  0
ARC
  8
0
  6
CONTINUOUS
 62
     7
 10
586.62277
 20
141.92279
 40
2.7
 50
351.00833
 51
98.991677
  0
ARC
  8
0
  6
CONTINUOUS
 62
     7
 10
584.07718
 20
139.3772
 40
1.8
 50
171.00833
 51
278.99168
  0
ARC
  8
0
  6
CONTINUOUS
 62
     7
 10
584.07718
 20
139.3772
 40
2.7
 50
171.00833
 51
278.99168
  0
ARC
  8
0
  6
CONTINUOUS
 62
     7
 10
587.10129
 20
138.89868
 40
5.7617307
 50
98.991677
 51
130.52055
  0
ARC
  8
0
  6
CONTINUOUS
 62
     7
 10
587.10129
 20
138.89868
 40
4.8617306
 50
98.991677
 51
129.68912
  0
ARC
  8
0
  6
CONTINUOUS
 62
     7
 10
583.59866
 20
142.40131
 40
4.8617306
 50
278.99167
 51
351.00833
  0
ARC
  8
0
  6
CONTINUOUS
 62
     7
 10
583.59866
 20
142.40131
 40
5.7617307
 50
278.99167
 51
310.52055
  0
ARC
  8
0
  6
CONTINUOUS
 62
     7
 10
582.40664
 20
143.59333
 40
0.5625
 50
81.869899
 51
188.1301
  0
ARC
  8
0
  6
CONTINUOUS
 62
     7
 10
585.11133
 20
140.88864
 40
0.5625
 50
261.8699
 51
8.1301039
  0
ARC
  8
0
  6
CONTINUOUS
 62
     7
 10
588.29331
 20
137.70666
 40
0.5625
 50
261.8699
 51
8.1301039
  0
ARC
  8
0
  6
CONTINUOUS
 62
     7
 10
587.10129
 20
138.89868
 40
5.7617307
 50
139.47945
 51
171.00833
  0
ARC
  8
0
  6
CONTINUOUS
 62
     7
 10
587.10129
 20
138.89868
 40
4.8617306
 50
140.31088
 51
171.00833
  0
ARC
  8
0
  6
CONTINUOUS
 62
     7
 10
583.59866
 20
142.40131
 40
5.7617307
 50
319.47945
 51
351.00833
  0
LINE
  8
0
  6
CONTINUOUS
 62
     7
 10
374.55068
 20
-76.971776
 11
375.42226
 21
-77.843355
  0
LINE
  8
0
  6
CONTINUOUS
 62
     7
 10
373.91428
 20
-77.608172
 11
374.78586
 21
-78.479752
  0
LINE
  8
0
  6
CONTINUOUS
 62
     7
 10
379.40666
 20
-83.100553
 11
380.27824
 21
-83.972133
  0
LINE
  8
0
  6
CONTINUOUS
 62
     7
 10
380.04306
 20
-82.464157
 11
380.91464
 21
-83.335737
  0
LINE
  8
0
  6
CONTINUOUS
 62
     7
 10
375.42457
 20
-79.118461
 11
377.09626
 21
-80.790152
  0
LINE
  8
0
  6
CONTINUOUS
 62
     7
 10
376.06097
 20
-78.482064
 11
377.73266
 21
-80.153756
  0
ARC
  8
0
  6
CONTINUOUS
 62
     7
 10
378.68725
 20
-79.199162
 40
1.8
 50
351.00833
 51
98.991677
  0
ARC
  8
0
  6
CONTINUOUS
 62
     7
 10
378.68725
 20
-79.199162
 40
2.7
 50
351.00833
 51
98.991677
  0
ARC
  8
0
  6
CONTINUOUS
 62
     7
 10
376.14167
 20
-81.744747
 40
1.8
 50
171.00833
 51
278.99168
  0
ARC
  8
0
  6
CONTINUOUS
 62
     7
 10
376.14167
 20
-81.744747
 40
2.7
 50
171.00833
 51
278.99168
  0
ARC
  8
0
  6
CONTINUOUS
 62
     7
 10
379.16577
 20
-82.223267
 40
5.7617307
 50
98.991677
 51
130.52055
  0
ARC
  8
0
  6
CONTINUOUS
 62
     7
 10
379.16577
 20
-82.223267
 40
4.8617306
 50
98.991677
 51
129.68912
  0
ARC
  8
0
  6
CONTINUOUS
 62
     7
 10
375.66315
 20
-78.720641
 40
4.8617306
 50
278.99167
 51
351.00833
  0
ARC
  8
0
  6
CONTINUOUS
 62
     7
 10
375.66315
 20
-78.720641
 40
5.7617307
 50
278.99167
 51
310.52055
  0
ARC
  8
0
  6
CONTINUOUS
 62
     7
 10
374.47113
 20
-77.528623
 40
0.5625
 50
81.869899
 51
188.1301
  0
ARC
  8
0
  6
CONTINUOUS
 62
     7
 10
377.17581
 20
-80.233306
 40
0.5625
 50
261.8699
 51
8.1301039
  0
ARC
  8
0
  6
CONTINUOUS
 62
     7
 10
380.35779
 20
-83.415286
 40
0.5625
 50
261.8699
 51
8.1301039
  0
ARC
  8
0
  6
CONTINUOUS
 62
     7
 10
379.16577
 20
-82.223267
 40
5.7617307
 50
139.47945
 51
171.00833
  0
ARC
  8
0
  6
CONTINUOUS
 62
     7
 10
379.16577
 20
-82.223267
 40
4.8617306
 50
140.31088
 51
171.00833
  0
ARC
  8
0
  6
CONTINUOUS
 62
     7
 10
375.66315
 20
-78.720641
 40
5.7617307
 50
319.47945
 51
351.00833
  0
LINE
  8
0
  6
CONTINUOUS
 62
     7
 10
687.56755
 20
-69.767139
 11
688.72965
 21
-70.929245
  0
LINE
  8
0
  6
CONTINUOUS
 62
     7
 10
686.71902
 20
-70.615667
 11
687.88113
 21
-71.777774
  0
LINE
  8
0
  6
CONTINUOUS
 62
     7
 10
694.0422
 20
-77.938842
 11
695.2043
 21
-79.100949
  0
LINE
  8
0
  6
CONTINUOUS
 62
     7
 10
694.89072
 20
-77.090314
 11
696.05283
 21
-78.25242
  0
LINE
  8
0
  6
CONTINUOUS
 62
     7
 10
688.73274
 20
-72.629386
 11
690.96166
 21
-74.858308
  0
LINE
  8
0
  6
CONTINUOUS
 62
     7
 10
689.58127
 20
-71.780857
 11
691.81019
 21
-74.00978
  0
ARC
  8
0
  6
CONTINUOUS
 62
     7
 10
693.08298
 20
-72.736988
 40
2.4000001
 50
351.00833
 51
98.991677
  0
ARC
  8
0
  6
CONTINUOUS
 62
     7
 10
693.08298
 20
-72.736988
 40
3.5999999
 50
351.00833
 51
98.991677
  0
ARC
  8
0
  6
CONTINUOUS
 62
     7
 10
689.68887
 20
-76.1311
 40
2.4000001
 50
171.00833
 51
278.99168
  0
ARC
  8
0
  6
CONTINUOUS
 62
     7
 10
689.68887
 20
-76.1311
 40
3.5999999
 50
171.00833
 51
278.99168
  0
ARC
  8
0
  6
CONTINUOUS
 62
     7
 10
693.72101
 20
-76.769128
 40
7.6823077
 50
98.991677
 51
130.52055
  0
ARC
  8
0
  6
CONTINUOUS
 62
     7
 10
693.72101
 20
-76.769128
 40
6.4823079
 50
98.991677
 51
129.68912
  0
ARC
  8
0
  6
CONTINUOUS
 62
     7
 10
689.05084
 20
-72.09896
 40
6.4823079
 50
278.99167
 51
351.00833
  0
ARC
  8
0
  6
CONTINUOUS
 62
     7
 10
689.05084
 20
-72.09896
 40
7.6823077
 50
278.99167
 51
310.52055
  0
ARC
  8
0
  6
CONTINUOUS
 62
     7
 10
687.46148
 20
-70.509601
 40
0.75
 50
81.869899
 51
188.1301
  0
ARC
  8
0
  6
CONTINUOUS
 62
     7
 10
691.06773
 20
-74.115846
 40
0.75
 50
261.8699
 51
8.1301039
  0
ARC
  8
0
  6
CONTINUOUS
 62
     7
 10
695.31037
 20
-78.358487
 40
0.75
 50
261.8699
 51
8.1301039
  0
ARC
  8
0
  6
CONTINUOUS
 62
     7
 10
693.72101
 20
-76.769128
 40
6.4823079
 50
140.31088
 51
171.00833
  0
ARC
  8
0
  6
CONTINUOUS
 62
     7
 10
693.72101
 20
-76.769128
 40
7.6823077
 50
139.47945
 51
171.00833
  0
ARC
  8
0
  6
CONTINUOUS
 62
     7
 10
689.05084
 20
-72.09896
 40
7.6823077
 50
319.47945
 51
351.00833
  0
LINE
  8
0
  6
CONTINUOUS
 62
     7
 10
370.57713
 20
-299.20782
 11
371.73924
 21
-300.36993
  0
LINE
  8
0
  6
CONTINUOUS
 62
     7
 10
369.7286
 20
-300.05635
 11
370.89071
 21
-301.21846
  0
LINE
  8
0
  6
CONTINUOUS
 62
     7
 10
377.05178
 20
-307.37952
 11
378.21388
 21
-308.54163
  0
LINE
  8
0
  6
CONTINUOUS
 62
     7
 10
377.90031
 20
-306.531
 11
379.06241
 21
-307.6931
  0
LINE
  8
0
  6
CONTINUOUS
 62
     7
 10
371.74232
 20
-302.07007
 11
373.97124
 21
-304.29899
  0
LINE
  8
0
  6
CONTINUOUS
 62
     7
 10
372.59085
 20
-301.22154
 11
374.81977
 21
-303.45046
  0
ARC
  8
0
  6
CONTINUOUS
 62
     7
 10
376.09256
 20
-302.17767
 40
2.4000001
 50
351.00833
 51
98.991677
  0
ARC
  8
0
  6
CONTINUOUS
 62
     7
 10
376.09256
 20
-302.17767
 40
3.5999999
 50
351.00833
 51
98.991677
  0
ARC
  8
0
  6
CONTINUOUS
 62
     7
 10
372.69845
 20
-305.57178
 40
2.4000001
 50
171.00833
 51
278.99168
  0
ARC
  8
0
  6
CONTINUOUS
 62
     7
 10
372.69845
 20
-305.57178
 40
3.5999999
 50
171.00833
 51
278.99168
  0
ARC
  8
0
  6
CONTINUOUS
 62
     7
 10
376.73059
 20
-306.20981
 40
7.6823077
 50
98.991677
 51
130.52055
  0
ARC
  8
0
  6
CONTINUOUS
 62
     7
 10
376.73059
 20
-306.20981
 40
6.4823079
 50
98.991677
 51
129.68912
  0
ARC
  8
0
  6
CONTINUOUS
 62
     7
 10
372.06042
 20
-301.53964
 40
6.4823079
 50
278.99167
 51
351.00833
  0
ARC
  8
0
  6
CONTINUOUS
 62
     7
 10
372.06042
 20
-301.53964
 40
7.6823077
 50
278.99167
 51
310.52055
  0
ARC
  8
0
  6
CONTINUOUS
 62
     7
 10
370.47106
 20
-299.95028
 40
0.75
 50
81.869899
 51
188.1301
  0
ARC
  8
0
  6
CONTINUOUS
 62
     7
 10
374.07731
 20
-303.55653
 40
0.75
 50
261.8699
 51
8.1301039
  0
ARC
  8
0
  6
CONTINUOUS
 62
     7
 10
378.31995
 20
-307.79917
 40
0.75
 50
261.8699
 51
8.1301039
  0
ARC
  8
0
  6
CONTINUOUS
 62
     7
 10
376.73059
 20
-306.20981
 40
6.4823079
 50
140.31088
 51
171.00833
  0
ARC
  8
0
  6
CONTINUOUS
 62
     7
 10
376.73059
 20
-306.20981
 40
7.6823077
 50
139.47945
 51
171.00833
  0
ARC
  8
0
  6
CONTINUOUS
 62
     7
 10
372.06042
 20
-301.53964
 40
7.6823077
 50
319.47945
 51
351.00833
  0
LINE
  8
0
  6
CONTINUOUS
 62
     7
 10
646.81163
 20
-303.73626
 11
647.97373
 21
-304.89837
  0
LINE
  8
0
  6
CONTINUOUS
 62
     7
 10
645.9631
 20
-304.58479
 11
647.12521
 21
-305.7469
  0
LINE
  8
0
  6
CONTINUOUS
 62
     7
 10
653.28628
 20
-311.90797
 11
654.44838
 21
-313.07007
  0
LINE
  8
0
  6
CONTINUOUS
 62
     7
 10
654.1348
 20
-311.05944
 11
655.29691
 21
-312.22154
  0
LINE
  8
0
  6
CONTINUOUS
 62
     7
 10
647.97682
 20
-306.59851
 11
650.20574
 21
-308.82743
  0
LINE
  8
0
  6
CONTINUOUS
 62
     7
 10
648.82535
 20
-305.74998
 11
651.05427
 21
-307.9789
  0
ARC
  8
0
  6
CONTINUOUS
 62
     7
 10
652.32706
 20
-306.70611
 40
2.4000001
 50
351.00833
 51
98.991677
  0
ARC
  8
0
  6
CONTINUOUS
 62
     7
 10
652.32706
 20
-306.70611
 40
3.5999999
 50
351.00833
 51
98.991677
  0
ARC
  8
0
  6
CONTINUOUS
 62
     7
 10
648.93295
 20
-310.10022
 40
2.4000001
 50
171.00833
 51
278.99168
  0
ARC
  8
0
  6
CONTINUOUS
 62
     7
 10
648.93295
 20
-310.10022
 40
3.5999999
 50
171.00833
 51
278.99168
  0
ARC
  8
0
  6
CONTINUOUS
 62
     7
 10
652.96509
 20
-310.73825
 40
7.6823077
 50
98.991677
 51
130.52055
  0
ARC
  8
0
  6
CONTINUOUS
 62
     7
 10
652.96509
 20
-310.73825
 40
6.4823079
 50
98.991677
 51
129.68912
  0
ARC
  8
0
  6
CONTINUOUS
 62
     7
 10
648.29492
 20
-306.06808
 40
6.4823079
 50
278.99167
 51
351.00833
  0
ARC
  8
0
  6
CONTINUOUS
 62
     7
 10
648.29492
 20
-306.06808
 40
7.6823077
 50
278.99167
 51
310.52055
  0
ARC
  8
0
  6
CONTINUOUS
 62
     7
 10
646.70556
 20
-304.47873
 40
0.75
 50
81.869899
 51
188.1301
  0
ARC
  8
0
  6
CONTINUOUS
 62
     7
 10
650.31181
 20
-308.08497
 40
0.75
 50
261.8699
 51
8.1301039
  0
ARC
  8
0
  6
CONTINUOUS
 62
     7
 10
654.55445
 20
-312.32761
 40
0.75
 50
261.8699
 51
8.1301039
  0
ARC
  8
0
  6
CONTINUOUS
 62
     7
 10
652.96509
 20
-310.73825
 40
6.4823079
 50
140.31088
 51
171.00833
  0
ARC
  8
0
  6
CONTINUOUS
 62
     7
 10
652.96509
 20
-310.73825
 40
7.6823077
 50
139.47945
 51
171.00833
  0
ARC
  8
0
  6
CONTINUOUS
 62
     7
 10
648.29492
 20
-306.06808
 40
7.6823077
 50
319.47945
 51
351.00833
  0
ENDSEC
  0
EOF
