  0
SECTION
  2
HEADER
  9
$EXTMAX
 10
297
 20
210
  9
$EXTMIN
 10
-297
 20
-210
  0
ENDSEC
  0
SECTION
  2
TABLES
  0
TABLE
  2
LTYPE
 70
    22
  0
LTYPE
  2
CONTINUOUS
 70
    64
  3
Solid line
 72
    65
 73
     0
 40
0.000000
  0
LTYPE
  2
DASHED
 70
    64
  3
__ __ __ __ __ __ __ __ __ __ __ __ __ __ __
 72
    65
 73
     2
 40
3.500000
 49
2.000000
 49
-1.500000
  0
LTYPE
  2
CENTER
 70
    64
  3
____ _ ____ _ ____ _ ____ _ ____ _ ____ _ ____
 72
    65
 73
     4
 40
17.500000
 49
13.000000
 49
-1.500000
 49
1.500000
 49
-1.500000
  0
LTYPE
  2
PHANTOM
 70
    64
  3
_____ _ _ _____ _ _ _____ _ _ _____ _ _ ____  
 72
    65
 73
     6
 40
15.500000
 49
8.000000
 49
-1.500000
 49
1.500000
 49
-1.500000
 49
1.500000
 49
-1.500000
  0
LTYPE
  2
DOT
 70
    64
  3
. . . . . . . . . . . . . . . . . . . . . . . .
 72
    65
 73
     2
 40
0.25
 49
0.0
 49
-0.25
  0
ENDTAB
  0
TABLE
  2
LAYER
 70
     1
  0
LAYER
  2
0
 70
     0
 62
     7
  6
CONTINUOUS
  0
ENDTAB
  0
TABLE
  2
STYLE
 70
     1
  0
STYLE
  2
STANDARD
 70
     0
 40
0.000000
 41
1.000000
 50
0.000000
 71
     0
 42
0.200000
  3
txt
  4
BIGFONT
  0
ENDTAB
  0
TABLE
  2
VIEW
 70
     0
  0
ENDTAB
  0
ENDSEC
  0
SECTION
  2
BLOCKS
  0
ENDSEC
  0
SECTION
  2
ENTITIES
  0
POINT
  8
0
  6
CONTINUOUS
 62
     7
 10
-129.3391
 20
47.220688
  0
POINT
  8
0
  6
CONTINUOUS
 62
     7
 10
104.1109
 20
49.32069
  0
POINT
  8
0
  6
CONTINUOUS
 62
     7
 10
-129.3391
 20
-108.2451
  0
POINT
  8
0
  6
CONTINUOUS
 62
     7
 10
104.1109
 20
-118.2451
  0
POINT
  8
0
  6
CONTINUOUS
 62
     7
 10
489.24133
 20
71.327034
  0
POINT
  8
0
  6
CONTINUOUS
 62
     7
 10
722.69135
 20
73.427032
  0
POINT
  8
0
  6
CONTINUOUS
 62
     7
 10
489.24133
 20
-68.672966
  0
POINT
  8
0
  6
CONTINUOUS
 62
     7
 10
722.69135
 20
-86.572968
  0
POINT
  8
0
  6
CONTINUOUS
 62
     7
 10
-129.3391
 20
-17.779312
  0
POINT
  8
0
  6
CONTINUOUS
 62
     7
 10
104.1109
 20
-26.67931
  0
POINT
  8
0
  6
CONTINUOUS
 62
     7
 10
489.24133
 20
1.327034
  0
POINT
  8
0
  6
CONTINUOUS
 62
     7
 10
489.24133
 20
1.327034
  0
POINT
  8
0
  6
CONTINUOUS
 62
     7
 10
538.73883
 20
120.82449
  0
POINT
  8
0
  6
CONTINUOUS
 62
     7
 10
538.73883
 20
120.82449
  0
POINT
  8
0
  6
CONTINUOUS
 62
     7
 10
722.69135
 20
-7.5729675
  0
POINT
  8
0
  6
CONTINUOUS
 62
     7
 10
722.69135
 20
-7.5729675
  0
POINT
  8
0
  6
CONTINUOUS
 62
     7
 10
779.96698
 20
130.70265
  0
POINT
  8
0
  6
CONTINUOUS
 62
     7
 10
779.96698
 20
130.70265
  0
LINE
  8
0
  6
CONTINUOUS
 62
     7
 10
-297
 20
-210
 11
-297
 21
210
  0
LINE
  8
0
  6
CONTINUOUS
 62
     7
 10
-297
 20
210
 11
297
 21
210
  0
LINE
  8
0
  6
CONTINUOUS
 62
     7
 10
297
 20
210
 11
297
 21
-210
  0
LINE
  8
0
  6
CONTINUOUS
 62
     7
 10
297
 20
-210
 11
-297
 21
-210
  0
LINE
  8
0
  6
CENTER
 62
     7
 10
-129.3391
 20
47.220692
 11
-68.457199
 21
108.10258
  0
LINE
  8
0
  6
CONTINUOUS
 62
     7
 10
-90.552299
 20
43.581078
 11
-79.36795
 21
54.765427
  0
LINE
  8
0
  6
CONTINUOUS
 62
     7
 10
-132.9787
 20
86.007484
 11
-121.79436
 21
97.191833
  0
LINE
  8
0
  6
CENTER
 62
     7
 10
-129.3391
 20
47.220688
 11
-129.3391
 21
-38.879314
  0
LINE
  8
0
  6
CONTINUOUS
 62
     7
 10
-159.3391
 20
22.367874
 11
-159.3391
 21
6.5508146
  0
LINE
  8
0
  6
CONTINUOUS
 62
     7
 10
-94.839096
 20
-17.779312
 11
-163.8391
 21
-17.779312
  0
LINE
  8
0
  6
CONTINUOUS
 62
     7
 10
-129.3391
 20
3.2206872
 11
-129.3391
 21
-16.779312
  0
LINE
  8
0
  6
CONTINUOUS
 62
     7
 10
-94.839096
 20
4.2206869
 11
-163.8391
 21
4.2206869
  0
LINE
  8
0
  6
CONTINUOUS
 62
     7
 10
-92.839096
 20
2.2206872
 11
-92.839096
 21
-15.779312
  0
LINE
  8
0
  6
CONTINUOUS
 62
     7
 10
-165.8391
 20
2.2206872
 11
-165.8391
 21
-15.779312
  0
LINE
  8
0
  6
CONTINUOUS
 62
     7
 10
-106.78085
 20
3.2206872
 11
-106.78085
 21
-16.779312
  0
LINE
  8
0
  6
CONTINUOUS
 62
     7
 10
-151.89732
 20
3.2206872
 11
-151.89732
 21
-16.779312
  0
LINE
  8
0
  6
CONTINUOUS
 62
     7
 10
-94.839088
 20
4.2206841
 11
-92.839096
 21
2.2206872
  0
LINE
  8
0
  6
CONTINUOUS
 62
     7
 10
-92.839096
 20
-15.779311
 11
-94.839088
 21
-17.779308
  0
LINE
  8
0
  6
CONTINUOUS
 62
     7
 10
-163.8391
 20
4.2206945
 11
-165.8391
 21
2.2206924
  0
LINE
  8
0
  6
CONTINUOUS
 62
     7
 10
-163.83908
 20
-17.779308
 11
-165.8391
 21
-15.779305
  0
LINE
  8
0
  6
CONTINUOUS
 62
     7
 10
-99.339096
 20
22.367874
 11
-99.339096
 21
6.5508146
  0
LINE
  8
0
  6
CENTER
 62
     7
 10
104.11091
 20
49.320694
 11
175.07199
 21
120.28178
  0
LINE
  8
0
  6
CONTINUOUS
 62
     7
 10
150.86217
 20
44.453163
 11
165.74931
 21
59.340309
  0
LINE
  8
0
  6
CONTINUOUS
 62
     7
 10
99.243378
 20
96.071953
 11
114.13052
 21
110.9591
  0
LINE
  8
0
  6
CENTER
 62
     7
 10
104.1109
 20
49.32069
 11
104.1109
 21
-46.11227
  0
LINE
  8
0
  6
CONTINUOUS
 62
     7
 10
67.610901
 20
19.704418
 11
67.610901
 21
-1.3491848
  0
LINE
  8
0
  6
CONTINUOUS
 62
     7
 10
140.61092
 20
19.704418
 11
140.61092
 21
-1.3491848
  0
LINE
  8
0
  6
CONTINUOUS
 62
     7
 10
145.61092
 20
-26.67931
 11
62.610905
 21
-26.67931
  0
LINE
  8
0
  6
CONTINUOUS
 62
     7
 10
104.1109
 20
-4.1793127
 11
104.1109
 21
-25.67931
  0
LINE
  8
0
  6
CONTINUOUS
 62
     7
 10
147.61092
 20
-5.1793127
 11
147.61092
 21
-24.67931
  0
LINE
  8
0
  6
CONTINUOUS
 62
     7
 10
60.610905
 20
-5.1793127
 11
60.610905
 21
-24.67931
  0
LINE
  8
0
  6
CONTINUOUS
 62
     7
 10
145.6109
 20
-3.1793208
 11
147.61092
 21
-5.1793232
  0
LINE
  8
0
  6
CONTINUOUS
 62
     7
 10
147.61092
 20
-24.679312
 11
145.6109
 21
-26.679314
  0
LINE
  8
0
  6
CONTINUOUS
 62
     7
 10
62.610905
 20
-3.1793046
 11
60.610901
 21
-5.179307
  0
LINE
  8
0
  6
CONTINUOUS
 62
     7
 10
60.610909
 20
-24.67931
 11
62.610905
 21
-26.679308
  0
LINE
  8
0
  6
CONTINUOUS
 62
     7
 10
130.99539
 20
-25.67931
 11
130.99539
 21
-4.1793127
  0
LINE
  8
0
  6
CONTINUOUS
 62
     7
 10
77.226425
 20
-25.67931
 11
77.226425
 21
-4.1793127
  0
LINE
  8
0
  6
CENTER
 62
     7
 10
-171.16411
 20
-108.2451
 11
-86.81411
 21
-108.2451
  0
LINE
  8
0
  6
CONTINUOUS
 62
     7
 10
-129.3391
 20
-69.866737
 11
-151.89732
 21
-77.196342
  0
LINE
  8
0
  6
CONTINUOUS
 62
     7
 10
-151.89735
 20
-77.196342
 11
-165.83911
 21
-96.385536
  0
LINE
  8
0
  6
CONTINUOUS
 62
     7
 10
-165.8391
 20
-120.10468
 11
-165.8391
 21
-96.385536
  0
LINE
  8
0
  6
CONTINUOUS
 62
     7
 10
-151.89734
 20
-139.29384
 11
-165.8391
 21
-120.10466
  0
LINE
  8
0
  6
CONTINUOUS
 62
     7
 10
-129.3391
 20
-146.62347
 11
-151.89735
 21
-139.29385
  0
LINE
  8
0
  6
CONTINUOUS
 62
     7
 10
-106.78086
 20
-139.29385
 11
-129.33908
 21
-146.62347
  0
LINE
  8
0
  6
CONTINUOUS
 62
     7
 10
-92.839104
 20
-120.10467
 11
-106.78087
 21
-139.29387
  0
LINE
  8
0
  6
CONTINUOUS
 62
     7
 10
-92.839104
 20
-96.385536
 11
-92.839104
 21
-120.10467
  0
LINE
  8
0
  6
CONTINUOUS
 62
     7
 10
-106.78085
 20
-77.196335
 11
-92.839096
 21
-96.385513
  0
LINE
  8
0
  6
CONTINUOUS
 62
     7
 10
-129.3391
 20
-69.866714
 11
-106.78085
 21
-77.196335
  0
LINE
  8
0
  6
CONTINUOUS
 62
     7
 10
104.1109
 20
-72.506477
 11
77.22641
 21
-81.241783
  0
LINE
  8
0
  6
CONTINUOUS
 62
     7
 10
77.226402
 20
-81.241783
 11
60.610886
 21
-104.11108
  0
LINE
  8
0
  6
CONTINUOUS
 62
     7
 10
60.610905
 20
-132.3791
 11
60.610905
 21
-104.1111
  0
LINE
  8
0
  6
CONTINUOUS
 62
     7
 10
77.226425
 20
-155.2484
 11
60.610897
 21
-132.37909
  0
LINE
  8
0
  6
CONTINUOUS
 62
     7
 10
104.1109
 20
-163.9837
 11
77.22641
 21
-155.24841
  0
LINE
  8
0
  6
CONTINUOUS
 62
     7
 10
130.99539
 20
-155.2484
 11
104.11089
 21
-163.9837
  0
LINE
  8
0
  6
CONTINUOUS
 62
     7
 10
147.61089
 20
-132.3791
 11
130.99536
 21
-155.2484
  0
LINE
  8
0
  6
CONTINUOUS
 62
     7
 10
147.6109
 20
-104.11108
 11
147.6109
 21
-132.3791
  0
LINE
  8
0
  6
CONTINUOUS
 62
     7
 10
130.99535
 20
-81.241806
 11
147.61087
 21
-104.11111
  0
LINE
  8
0
  6
CONTINUOUS
 62
     7
 10
104.11089
 20
-72.50647
 11
130.99539
 21
-81.241776
  0
LINE
  8
0
  6
CENTER
 62
     7
 10
50.910892
 20
-118.2451
 11
155.21088
 21
-118.2451
  0
LINE
  8
0
  6
CENTER
 62
     7
 10
104.1109
 20
-168.53812
 11
104.1109
 21
-66.615387
  0
LINE
  8
0
  6
CENTER
 62
     7
 10
-129.3391
 20
-151.07899
 11
-129.3391
 21
-65.389709
  0
LINE
  8
0
  6
CONTINUOUS
 62
     7
 10
317
 20
-210
 11
317
 21
210
  0
LINE
  8
0
  6
CONTINUOUS
 62
     7
 10
317
 20
210
 11
911
 21
210
  0
LINE
  8
0
  6
CONTINUOUS
 62
     7
 10
911
 20
210
 11
911
 21
-210
  0
LINE
  8
0
  6
CONTINUOUS
 62
     7
 10
911
 20
-210
 11
317
 21
-210
  0
LINE
  8
0
  6
CONTINUOUS
 62
     7
 10
528.02814
 20
67.687416
 11
539.21246
 21
78.871773
  0
LINE
  8
0
  6
CONTINUOUS
 62
     7
 10
485.60172
 20
110.11382
 11
496.78607
 21
121.29818
  0
LINE
  8
0
  6
CENTER
 62
     7
 10
489.24133
 20
71.327026
 11
553.65875
 21
135.74446
  0
LINE
  8
0
  6
CONTINUOUS
 62
     7
 10
456.74133
 20
26.327032
 11
489.24133
 21
26.327032
  0
LINE
  8
0
  6
CONTINUOUS
 62
     7
 10
544.04211
 20
80.165855
 11
546.16345
 21
82.287178
  0
LINE
  8
0
  6
CONTINUOUS
 62
     7
 10
459.24133
 20
46.474216
 11
459.24133
 21
30.657158
  0
LINE
  8
0
  6
CONTINUOUS
 62
     7
 10
521.74133
 20
26.327032
 11
489.24133
 21
26.327032
  0
LINE
  8
0
  6
CONTINUOUS
 62
     7
 10
498.08017
 20
126.1278
 11
500.20148
 21
128.24911
  0
LINE
  8
0
  6
CONTINUOUS
 62
     7
 10
519.24133
 20
46.474216
 11
519.24133
 21
30.657158
  0
LINE
  8
0
  6
CONTINUOUS
 62
     7
 10
769.44257
 20
68.559494
 11
784.32977
 21
83.446671
  0
LINE
  8
0
  6
CONTINUOUS
 62
     7
 10
717.82379
 20
120.17828
 11
732.71094
 21
135.06546
  0
LINE
  8
0
  6
CENTER
 62
     7
 10
722.69128
 20
73.427025
 11
790.17261
 21
140.90833
  0
LINE
  8
0
  6
CONTINUOUS
 62
     7
 10
789.15936
 20
84.74073
 11
761.58221
 21
112.31789
  0
LINE
  8
0
  6
CONTINUOUS
 62
     7
 10
789.15936
 20
84.74073
 11
790.92712
 21
86.508499
  0
LINE
  8
0
  6
CONTINUOUS
 62
     7
 10
686.19135
 20
43.81076
 11
686.19135
 21
22.757158
  0
LINE
  8
0
  6
CONTINUOUS
 62
     7
 10
759.19135
 20
43.81076
 11
759.19135
 21
22.757158
  0
LINE
  8
0
  6
CONTINUOUS
 62
     7
 10
734.005
 20
139.89507
 11
761.58221
 21
112.31789
  0
LINE
  8
0
  6
CONTINUOUS
 62
     7
 10
734.005
 20
139.89507
 11
735.77277
 21
141.66283
  0
LINE
  8
0
  6
CENTER
 62
     7
 10
489.24133
 20
71.327034
 11
489.24133
 21
-19.77297
  0
LINE
  8
0
  6
CONTINUOUS
 62
     7
 10
456.74133
 20
26.327032
 11
456.74133
 21
23.327032
  0
LINE
  8
0
  6
CONTINUOUS
 62
     7
 10
523.74133
 20
1.327034
 11
454.74133
 21
1.327034
  0
LINE
  8
0
  6
CONTINUOUS
 62
     7
 10
489.24133
 20
22.327034
 11
489.24133
 21
2.327034
  0
LINE
  8
0
  6
CONTINUOUS
 62
     7
 10
525.74133
 20
21.327034
 11
525.74133
 21
3.327034
  0
LINE
  8
0
  6
CONTINUOUS
 62
     7
 10
452.74133
 20
21.327034
 11
452.74133
 21
3.327034
  0
LINE
  8
0
  6
CONTINUOUS
 62
     7
 10
511.79956
 20
22.327034
 11
511.79956
 21
2.327034
  0
LINE
  8
0
  6
CONTINUOUS
 62
     7
 10
466.68311
 20
22.327034
 11
466.68311
 21
2.327034
  0
LINE
  8
0
  6
CONTINUOUS
 62
     7
 10
523.74133
 20
23.327015
 11
525.74133
 21
21.327013
  0
LINE
  8
0
  6
CONTINUOUS
 62
     7
 10
525.74133
 20
3.3270142
 11
523.74133
 21
1.3270121
  0
LINE
  8
0
  6
CONTINUOUS
 62
     7
 10
454.74133
 20
23.327036
 11
452.74133
 21
21.327034
  0
LINE
  8
0
  6
CONTINUOUS
 62
     7
 10
454.74133
 20
1.3270121
 11
452.74133
 21
3.3270142
  0
LINE
  8
0
  6
CONTINUOUS
 62
     7
 10
521.74133
 20
26.327032
 11
521.74133
 21
23.327032
  0
LINE
  8
0
  6
CONTINUOUS
 62
     7
 10
515.69135
 20
-0.67296576
 11
462.79132
 21
-0.67296576
  0
LINE
  8
0
  6
CONTINUOUS
 62
     7
 10
515.69135
 20
-0.6729635
 11
516.22723
 21
1.3270407
  0
LINE
  8
0
  6
CONTINUOUS
 62
     7
 10
462.79132
 20
-0.67297751
 11
462.2554
 21
1.3270266
  0
LINE
  8
0
  6
CONTINUOUS
 62
     7
 10
544.04211
 20
80.165855
 11
498.08017
 21
126.1278
  0
LINE
  8
0
  6
CENTER
 62
     7
 10
722.69135
 20
73.427032
 11
722.69135
 21
-22.005926
  0
LINE
  8
0
  6
CONTINUOUS
 62
     7
 10
683.69135
 20
18.427031
 11
683.69135
 21
15.927029
  0
LINE
  8
0
  6
CONTINUOUS
 62
     7
 10
761.69135
 20
18.427031
 11
761.69135
 21
15.927029
  0
LINE
  8
0
  6
CONTINUOUS
 62
     7
 10
764.19135
 20
-7.5729675
 11
681.19135
 21
-7.5729675
  0
LINE
  8
0
  6
CONTINUOUS
 62
     7
 10
722.69135
 20
14.927029
 11
722.69135
 21
-6.5729675
  0
LINE
  8
0
  6
CONTINUOUS
 62
     7
 10
764.19135
 20
15.927029
 11
681.19135
 21
15.927029
  0
LINE
  8
0
  6
CONTINUOUS
 62
     7
 10
766.19135
 20
13.927029
 11
766.19135
 21
-5.5729675
  0
LINE
  8
0
  6
CONTINUOUS
 62
     7
 10
679.19135
 20
13.927029
 11
679.19135
 21
-5.5729675
  0
LINE
  8
0
  6
CONTINUOUS
 62
     7
 10
764.19135
 20
15.927036
 11
766.19135
 21
13.927034
  0
LINE
  8
0
  6
CONTINUOUS
 62
     7
 10
766.19135
 20
-5.5729976
 11
764.19135
 21
-7.5729566
  0
LINE
  8
0
  6
CONTINUOUS
 62
     7
 10
681.19135
 20
15.927058
 11
679.19135
 21
13.927056
  0
LINE
  8
0
  6
CONTINUOUS
 62
     7
 10
679.19135
 20
-5.5729542
 11
681.19135
 21
-7.5729566
  0
LINE
  8
0
  6
CONTINUOUS
 62
     7
 10
749.57581
 20
-6.5729675
 11
749.57581
 21
14.927029
  0
LINE
  8
0
  6
CONTINUOUS
 62
     7
 10
695.80688
 20
-6.5729675
 11
695.80688
 21
14.927029
  0
LINE
  8
0
  6
CONTINUOUS
 62
     7
 10
755.14136
 20
-9.5729666
 11
690.24133
 21
-9.5729666
  0
LINE
  8
0
  6
CONTINUOUS
 62
     7
 10
755.14136
 20
-9.5729704
 11
755.67725
 21
-7.5729661
  0
LINE
  8
0
  6
CONTINUOUS
 62
     7
 10
690.24133
 20
-9.5729656
 11
689.70544
 21
-7.5729761
  0
LINE
  8
0
  6
CONTINUOUS
 62
     7
 10
761.69135
 20
18.427031
 11
722.69135
 21
18.427031
  0
LINE
  8
0
  6
CONTINUOUS
 62
     7
 10
683.69135
 20
18.427031
 11
722.69135
 21
18.427031
  0
LINE
  8
0
  6
CONTINUOUS
 62
     7
 10
489.24136
 20
-30.294588
 11
466.68311
 21
-37.624207
  0
LINE
  8
0
  6
CONTINUOUS
 62
     7
 10
466.68311
 20
-37.624222
 11
452.74133
 21
-56.813404
  0
LINE
  8
0
  6
CONTINUOUS
 62
     7
 10
452.74133
 20
-80.532539
 11
452.74133
 21
-56.813404
  0
LINE
  8
0
  6
CONTINUOUS
 62
     7
 10
466.68311
 20
-99.721733
 11
452.74133
 21
-80.532539
  0
LINE
  8
0
  6
CONTINUOUS
 62
     7
 10
489.24133
 20
-107.05134
 11
466.68311
 21
-99.721733
  0
LINE
  8
0
  6
CONTINUOUS
 62
     7
 10
511.79959
 20
-99.721718
 11
489.24133
 21
-107.05133
  0
LINE
  8
0
  6
CONTINUOUS
 62
     7
 10
525.74133
 20
-80.532524
 11
511.79956
 21
-99.72171
  0
LINE
  8
0
  6
CONTINUOUS
 62
     7
 10
525.74133
 20
-56.813404
 11
525.74133
 21
-80.532532
  0
LINE
  8
0
  6
CONTINUOUS
 62
     7
 10
511.79959
 20
-37.624218
 11
525.74133
 21
-56.813412
  0
LINE
  8
0
  6
CONTINUOUS
 62
     7
 10
489.24133
 20
-30.294596
 11
511.79956
 21
-37.624207
  0
LINE
  8
0
  6
CONTINUOUS
 62
     7
 10
722.69135
 20
-40.834343
 11
695.80682
 21
-49.569637
  0
LINE
  8
0
  6
CONTINUOUS
 62
     7
 10
695.80688
 20
-49.569679
 11
679.19135
 21
-72.438972
  0
LINE
  8
0
  6
CONTINUOUS
 62
     7
 10
679.19135
 20
-100.70697
 11
679.19135
 21
-72.438965
  0
LINE
  8
0
  6
CONTINUOUS
 62
     7
 10
695.80682
 20
-123.57626
 11
679.19135
 21
-100.70697
  0
LINE
  8
0
  6
CONTINUOUS
 62
     7
 10
722.69135
 20
-132.31158
 11
695.80682
 21
-123.57627
  0
LINE
  8
0
  6
CONTINUOUS
 62
     7
 10
749.57581
 20
-123.57629
 11
722.69135
 21
-132.31158
  0
LINE
  8
0
  6
CONTINUOUS
 62
     7
 10
766.19135
 20
-100.70699
 11
749.57581
 21
-123.57629
  0
LINE
  8
0
  6
CONTINUOUS
 62
     7
 10
766.19128
 20
-72.43895
 11
766.19128
 21
-100.70697
  0
LINE
  8
0
  6
CONTINUOUS
 62
     7
 10
749.57574
 20
-49.569687
 11
766.19128
 21
-72.438988
  0
LINE
  8
0
  6
CONTINUOUS
 62
     7
 10
722.69128
 20
-40.834358
 11
749.57581
 21
-49.569668
  0
LINE
  8
0
  6
CENTER
 62
     7
 10
449.54132
 20
-68.672966
 11
528.94135
 21
-68.672966
  0
LINE
  8
0
  6
CENTER
 62
     7
 10
489.24133
 20
-108.37296
 11
489.24133
 21
-28.972973
  0
LINE
  8
0
  6
CENTER
 62
     7
 10
674.70544
 20
-86.572968
 11
770.67725
 21
-86.572968
  0
LINE
  8
0
  6
CENTER
 62
     7
 10
722.69135
 20
-134.55887
 11
722.69135
 21
-38.587086
  0
LINE
  8
0
  6
CONTINUOUS
 62
     7
 10
-123.32869
 20
104.84988
 11
-110.60077
 21
117.5778
  0
LINE
  8
0
  6
CONTINUOUS
 62
     7
 10
-123.3287
 20
102.02145
 11
-123.3287
 21
104.84988
  0
LINE
  8
0
  6
CONTINUOUS
 62
     7
 10
-74.538322
 20
53.231091
 11
-123.32869
 21
102.02146
  0
LINE
  8
0
  6
CONTINUOUS
 62
     7
 10
-114.17747
 20
94.284454
 11
-100.03534
 21
108.42659
  0
LINE
  8
0
  6
CONTINUOUS
 62
     7
 10
-98.226402
 20
78.333382
 11
-84.084267
 21
92.475517
  0
LINE
  8
0
  6
CONTINUOUS
 62
     7
 10
-82.275314
 20
62.382298
 11
-68.133179
 21
76.524429
  0
LINE
  8
0
  6
CONTINUOUS
 62
     7
 10
-74.538315
 20
53.231087
 11
-71.709892
 21
53.231087
  0
LINE
  8
0
  6
CONTINUOUS
 62
     7
 10
-71.709892
 20
53.231091
 11
-58.981972
 21
65.959015
  0
LINE
  8
0
  6
CONTINUOUS
 62
     7
 10
-58.981972
 20
65.959007
 11
-58.981972
 21
68.78743
  0
LINE
  8
0
  6
CONTINUOUS
 62
     7
 10
-58.981972
 20
68.787437
 11
-107.77234
 21
117.5778
  0
LINE
  8
0
  6
CONTINUOUS
 62
     7
 10
-107.77234
 20
117.5778
 11
-110.60077
 21
117.5778
  0
LINE
  8
0
  6
CONTINUOUS
 62
     7
 10
62.610905
 20
-3.1793075
 11
145.6109
 21
-3.1793075
  0
LINE
  8
0
  6
CONTINUOUS
 62
     7
 10
125.67767
 20
132.40573
 11
128.50609
 21
132.40573
  0
LINE
  8
0
  6
CONTINUOUS
 62
     7
 10
111.88908
 20
118.61716
 11
125.67765
 21
132.40573
  0
LINE
  8
0
  6
CONTINUOUS
 62
     7
 10
187.19595
 20
73.715858
 11
128.50609
 21
132.40573
  0
LINE
  8
0
  6
CONTINUOUS
 62
     7
 10
138.13371
 20
121.36388
 11
122.93092
 21
106.1611
  0
LINE
  8
0
  6
CONTINUOUS
 62
     7
 10
111.88907
 20
115.78872
 11
170.57893
 21
57.098862
  0
LINE
  8
0
  6
CONTINUOUS
 62
     7
 10
111.88908
 20
115.78872
 11
111.88908
 21
118.61715
  0
LINE
  8
0
  6
CONTINUOUS
 62
     7
 10
141.94112
 20
87.150902
 11
157.14391
 21
102.35369
  0
LINE
  8
0
  6
CONTINUOUS
 62
     7
 10
176.15411
 20
83.343483
 11
160.95132
 21
68.140701
  0
LINE
  8
0
  6
CONTINUOUS
 62
     7
 10
170.57895
 20
57.098862
 11
173.40738
 21
57.098862
  0
LINE
  8
0
  6
CONTINUOUS
 62
     7
 10
173.40738
 20
57.098858
 11
187.19595
 21
70.887428
  0
LINE
  8
0
  6
CONTINUOUS
 62
     7
 10
187.19595
 20
70.887436
 11
187.19595
 21
73.715866
  0
LINE
  8
0
  6
CONTINUOUS
 62
     7
 10
523.74133
 20
23.327032
 11
454.74133
 21
23.327032
  0
LINE
  8
0
  6
CONTINUOUS
 62
     7
 10
547.57764
 20
80.872963
 11
498.78726
 21
129.66333
  0
LINE
  8
0
  6
CONTINUOUS
 62
     7
 10
563.13397
 20
96.429314
 11
514.34363
 21
145.21968
  0
LINE
  8
0
  6
CONTINUOUS
 62
     7
 10
523.88959
 20
105.97526
 11
538.03168
 21
120.11739
  0
LINE
  8
0
  6
CONTINUOUS
 62
     7
 10
550.40607
 20
80.872963
 11
563.13397
 21
93.600883
  0
LINE
  8
0
  6
CONTINUOUS
 62
     7
 10
498.78726
 20
132.49176
 11
511.5152
 21
145.21968
  0
LINE
  8
0
  6
CONTINUOUS
 62
     7
 10
539.84064
 20
90.024178
 11
553.98279
 21
104.16631
  0
LINE
  8
0
  6
CONTINUOUS
 62
     7
 10
507.93848
 20
121.92633
 11
522.08063
 21
136.06847
  0
LINE
  8
0
  6
CONTINUOUS
 62
     7
 10
547.57764
 20
80.872978
 11
550.40607
 21
80.872978
  0
LINE
  8
0
  6
CONTINUOUS
 62
     7
 10
563.13397
 20
93.600883
 11
563.13397
 21
96.429314
  0
LINE
  8
0
  6
CONTINUOUS
 62
     7
 10
498.78726
 20
129.66333
 11
498.78726
 21
132.49176
  0
LINE
  8
0
  6
CONTINUOUS
 62
     7
 10
514.34363
 20
145.2197
 11
511.5152
 21
145.2197
  0
LINE
  8
0
  6
CONTINUOUS
 62
     7
 10
558.85602
 20
103.53573
 11
521.45001
 21
140.9417
  0
LINE
  8
0
  6
CONTINUOUS
 62
     7
 10
558.85602
 20
103.53571
 11
557.82074
 21
101.74255
  0
LINE
  8
0
  6
CONTINUOUS
 62
     7
 10
521.45001
 20
140.94171
 11
519.65686
 21
139.90643
  0
LINE
  8
0
  6
CONTINUOUS
 62
     7
 10
792.69489
 20
84.740707
 11
734.00507
 21
143.43057
  0
LINE
  8
0
  6
CONTINUOUS
 62
     7
 10
809.31189
 20
101.35772
 11
750.62207
 21
160.04758
  0
LINE
  8
0
  6
CONTINUOUS
 62
     7
 10
764.05707
 20
114.79275
 11
779.25989
 21
129.99554
  0
LINE
  8
0
  6
CONTINUOUS
 62
     7
 10
795.52332
 20
84.740707
 11
809.31189
 21
98.529289
  0
LINE
  8
0
  6
CONTINUOUS
 62
     7
 10
734.00507
 20
146.259
 11
747.79364
 21
160.04758
  0
LINE
  8
0
  6
CONTINUOUS
 62
     7
 10
792.69495
 20
84.7407
 11
795.52338
 21
84.7407
  0
LINE
  8
0
  6
CONTINUOUS
 62
     7
 10
809.31195
 20
98.529335
 11
809.31195
 21
101.3577
  0
LINE
  8
0
  6
CONTINUOUS
 62
     7
 10
734.005
 20
143.43057
 11
734.005
 21
146.259
  0
LINE
  8
0
  6
CONTINUOUS
 62
     7
 10
747.79364
 20
160.04758
 11
750.62207
 21
160.04758
  0
LINE
  8
0
  6
CONTINUOUS
 62
     7
 10
798.27008
 20
110.98536
 11
783.06726
 21
95.782562
  0
LINE
  8
0
  6
CONTINUOUS
 62
     7
 10
760.24969
 20
149.00572
 11
745.04688
 21
133.80293
  0
LINE
  8
0
  6
CONTINUOUS
 62
     7
 10
804.32684
 20
109.17124
 11
758.43555
 21
155.06248
  0
LINE
  8
0
  6
CONTINUOUS
 62
     7
 10
804.32678
 20
109.17123
 11
803.2915
 21
107.37808
  0
LINE
  8
0
  6
CONTINUOUS
 62
     7
 10
758.43555
 20
155.06248
 11
756.6424
 21
154.02721
  0
ARC
  8
0
  6
CONTINUOUS
 62
     7
 10
-75.83242
 20
51.229893
 40
5
 50
107.2234
 51
135
  0
ARC
  8
0
  6
CONTINUOUS
 62
     7
 10
-125.3299
 20
100.72737
 40
5
 50
315
 51
342.77657
  0
ARC
  8
0
  6
CONTINUOUS
 62
     7
 10
-164.3391
 20
6.5508146
 40
5
 50
332.22339
 51
360
  0
ARC
  8
0
  6
CONTINUOUS
 62
     7
 10
-94.339096
 20
6.5508146
 40
5
 50
180.00001
 51
207.77661
  0
ARC
  8
0
  6
CONTINUOUS
 62
     7
 10
-69.339096
 20
22.367874
 40
90
 50
135
 51
180.00001
  0
ARC
  8
0
  6
CONTINUOUS
 62
     7
 10
-69.339096
 20
22.367874
 40
30
 50
135
 51
180.00001
  0
ARC
  8
0
  6
CONTINUOUS
 62
     7
 10
169.28485
 20
55.804768
 40
5
 50
113.52942
 51
135
  0
ARC
  8
0
  6
CONTINUOUS
 62
     7
 10
110.59498
 20
114.49464
 40
5
 50
315
 51
336.47061
  0
ARC
  8
0
  6
CONTINUOUS
 62
     7
 10
62.610905
 20
-1.3491848
 40
5
 50
338.52929
 51
360
  0
ARC
  8
0
  6
CONTINUOUS
 62
     7
 10
145.61092
 20
-1.3491848
 40
5
 50
180.00001
 51
201.47071
  0
ARC
  8
0
  6
CONTINUOUS
 62
     7
 10
175.61092
 20
19.704418
 40
108
 50
135
 51
180.00001
  0
ARC
  8
0
  6
CONTINUOUS
 62
     7
 10
175.61092
 20
19.704418
 40
35
 50
135
 51
180.00001
  0
CIRCLE
  8
0
  6
CONTINUOUS
 62
     7
 10
-129.3391
 20
-108.2451
 40
25
  0
CIRCLE
  8
0
  6
CONTINUOUS
 62
     7
 10
104.1109
 20
-118.2451
 40
31
  0
ARC
  8
0
  6
CONTINUOUS
 62
     7
 10
542.74799
 20
75.336235
 40
5
 50
74.999999
 51
135
  0
ARC
  8
0
  6
CONTINUOUS
 62
     7
 10
493.25055
 20
124.83371
 40
5
 50
315
 51
15
  0
ARC
  8
0
  6
CONTINUOUS
 62
     7
 10
454.24133
 20
30.657158
 40
5
 50
300
 51
0
  0
ARC
  8
0
  6
CONTINUOUS
 62
     7
 10
524.24133
 20
30.657158
 40
5
 50
180.00001
 51
240.00001
  0
ARC
  8
0
  6
CONTINUOUS
 62
     7
 10
549.24133
 20
46.474216
 40
90
 50
135
 51
180.00001
  0
ARC
  8
0
  6
CONTINUOUS
 62
     7
 10
549.24133
 20
46.474216
 40
30
 50
135
 51
180.00001
  0
ARC
  8
0
  6
CONTINUOUS
 62
     7
 10
787.86523
 20
79.91111
 40
5
 50
74.999999
 51
135
  0
ARC
  8
0
  6
CONTINUOUS
 62
     7
 10
729.17542
 20
138.60098
 40
5
 50
315
 51
15
  0
ARC
  8
0
  6
CONTINUOUS
 62
     7
 10
681.19135
 20
22.757158
 40
5
 50
300
 51
0
  0
ARC
  8
0
  6
CONTINUOUS
 62
     7
 10
764.19135
 20
22.757158
 40
5
 50
180.00001
 51
240.00001
  0
ARC
  8
0
  6
CONTINUOUS
 62
     7
 10
794.19135
 20
43.81076
 40
108
 50
135
 51
180.00001
  0
ARC
  8
0
  6
CONTINUOUS
 62
     7
 10
794.19135
 20
43.81076
 40
35
 50
135
 51
180.00001
  0
CIRCLE
  8
0
  6
CONTINUOUS
 62
     7
 10
489.24133
 20
-68.672966
 40
26.450001
  0
CIRCLE
  8
0
  6
CONTINUOUS
 62
     7
 10
489.24133
 20
-68.672966
 40
26.985899
  0
CIRCLE
  8
0
  6
CONTINUOUS
 62
     7
 10
489.24133
 20
-68.672966
 40
24.700001
  0
CIRCLE
  8
0
  6
CONTINUOUS
 62
     7
 10
722.69135
 20
-86.572968
 40
32.450001
  0
CIRCLE
  8
0
  6
CONTINUOUS
 62
     7
 10
722.69135
 20
-86.572968
 40
32.985897
  0
CIRCLE
  8
0
  6
CONTINUOUS
 62
     7
 10
722.69135
 20
-86.572968
 40
30.700001
  0
TEXT
  8
0
  6
CONTINUOUS
 62
     7
 10
-179.08551
 20
84.920692
 40
10
 41
1.0129871
  1
11/2
  0
TEXT
  8
0
  6
CONTINUOUS
 62
     7
 10
79.779812
 20
99.102509
 40
10
 41
1.0714291
  1
2
  0
TEXT
  8
0
  6
CONTINUOUS
 62
     7
 10
-285.69888
 20
221.27783
 40
15
 41
0.85426334
  1
ＬＡ　４５%%Dエルホ゛（Ｌ）
  0
TEXT
  8
0
  6
CONTINUOUS
 62
     7
 10
375.17222
 20
59.73172
 40
10
 41
1.0129871
  1
11/2
  0
TEXT
  8
0
  6
CONTINUOUS
 62
     7
 10
636.03141
 20
65.528595
 40
10
 41
1.0714291
  1
2
  0
TEXT
  8
0
  6
CONTINUOUS
 62
     7
 10
317.65817
 20
223.64859
 40
15
 41
0.84774616
  1
ＨＩ－ＬＡ（Ｐ－ＬＡ）　４６%%Dエルホ゛（４５Ｌ）
  0
TEXT
  8
0
  6
CONTINUOUS
 62
     7
 10
699.35734
 20
221.40707
 40
10
 41
0.84195842
  1
ＨＩ－ＬＡとＰ－ＬＡの寸法は同じになっております。
  0
LINE
  8
0
  6
CONTINUOUS
 62
     7
 10
-134.65276
 20
50.071116
 11
-133.1344
 21
49.442189
  0
LINE
  8
0
  6
CONTINUOUS
 62
     7
 10
-135.11198
 20
48.962461
 11
-133.59362
 21
48.333533
  0
LINE
  8
0
  6
CONTINUOUS
 62
     7
 10
-125.54379
 20
44.999187
 11
-124.02543
 21
44.37026
  0
LINE
  8
0
  6
CONTINUOUS
 62
     7
 10
-125.08457
 20
46.107842
 11
-123.56621
 21
45.478915
  0
LINE
  8
0
  6
CONTINUOUS
 62
     7
 10
-132.48093
 20
47.872644
 11
-129.56871
 21
46.66636
  0
LINE
  8
0
  6
CONTINUOUS
 62
     7
 10
-132.02171
 20
48.9813
 11
-129.10949
 21
47.775016
  0
ARC
  8
0
  6
CONTINUOUS
 62
     7
 10
-128.42066
 20
49.437999
 40
2.4000001
 50
13.508325
 51
121.49168
  0
ARC
  8
0
  6
CONTINUOUS
 62
     7
 10
-128.42066
 20
49.437999
 40
3.5999999
 50
13.508325
 51
121.49168
  0
ARC
  8
0
  6
CONTINUOUS
 62
     7
 10
-130.25754
 20
45.003377
 40
2.4000001
 50
193.50833
 51
301.49168
  0
ARC
  8
0
  6
CONTINUOUS
 62
     7
 10
-130.25754
 20
45.003377
 40
3.5999999
 50
193.50833
 51
301.49168
  0
ARC
  8
0
  6
CONTINUOUS
 62
     7
 10
-126.28816
 20
45.956949
 40
7.6823077
 50
121.49168
 51
153.02055
  0
ARC
  8
0
  6
CONTINUOUS
 62
     7
 10
-126.28816
 20
45.956949
 40
6.4823079
 50
121.49168
 51
152.18912
  0
ARC
  8
0
  6
CONTINUOUS
 62
     7
 10
-132.39003
 20
48.484426
 40
6.4823079
 50
301.49167
 51
13.508325
  0
ARC
  8
0
  6
CONTINUOUS
 62
     7
 10
-132.39003
 20
48.484426
 40
7.6823077
 50
301.49167
 51
333.02055
  0
ARC
  8
0
  6
CONTINUOUS
 62
     7
 10
-134.46663
 20
49.344581
 40
0.75
 50
104.3699
 51
210.6301
  0
ARC
  8
0
  6
CONTINUOUS
 62
     7
 10
-129.75484
 20
47.392895
 40
0.75
 50
284.3699
 51
30.630103
  0
ARC
  8
0
  6
CONTINUOUS
 62
     7
 10
-124.21156
 20
45.096795
 40
0.75
 50
284.3699
 51
30.630103
  0
ARC
  8
0
  6
CONTINUOUS
 62
     7
 10
-126.28816
 20
45.956949
 40
6.4823079
 50
162.81088
 51
193.50833
  0
ARC
  8
0
  6
CONTINUOUS
 62
     7
 10
-126.28816
 20
45.956949
 40
7.6823077
 50
161.97945
 51
193.50833
  0
ARC
  8
0
  6
CONTINUOUS
 62
     7
 10
-132.39003
 20
48.484426
 40
7.6823077
 50
341.97945
 51
13.508325
  0
LINE
  8
0
  6
CONTINUOUS
 62
     7
 10
98.797234
 20
52.171115
 11
100.3156
 21
51.542187
  0
LINE
  8
0
  6
CONTINUOUS
 62
     7
 10
98.338014
 20
51.062459
 11
99.856379
 21
50.433532
  0
LINE
  8
0
  6
CONTINUOUS
 62
     7
 10
107.9062
 20
47.099185
 11
109.42457
 21
46.470258
  0
LINE
  8
0
  6
CONTINUOUS
 62
     7
 10
108.36542
 20
48.207841
 11
109.88379
 21
47.578914
  0
LINE
  8
0
  6
CONTINUOUS
 62
     7
 10
100.96906
 20
49.972643
 11
103.88129
 21
48.766359
  0
LINE
  8
0
  6
CONTINUOUS
 62
     7
 10
101.42828
 20
51.081298
 11
104.34051
 21
49.875014
  0
ARC
  8
0
  6
CONTINUOUS
 62
     7
 10
105.02934
 20
51.537997
 40
2.4000001
 50
13.508325
 51
121.49168
  0
ARC
  8
0
  6
CONTINUOUS
 62
     7
 10
105.02934
 20
51.537997
 40
3.5999999
 50
13.508325
 51
121.49168
  0
ARC
  8
0
  6
CONTINUOUS
 62
     7
 10
103.19246
 20
47.103375
 40
2.4000001
 50
193.50833
 51
301.49168
  0
ARC
  8
0
  6
CONTINUOUS
 62
     7
 10
103.19246
 20
47.103375
 40
3.5999999
 50
193.50833
 51
301.49168
  0
ARC
  8
0
  6
CONTINUOUS
 62
     7
 10
107.16184
 20
48.056948
 40
7.6823077
 50
121.49168
 51
153.02055
  0
ARC
  8
0
  6
CONTINUOUS
 62
     7
 10
107.16184
 20
48.056948
 40
6.4823079
 50
121.49168
 51
152.18912
  0
ARC
  8
0
  6
CONTINUOUS
 62
     7
 10
101.05997
 20
50.584425
 40
6.4823079
 50
301.49167
 51
13.508325
  0
ARC
  8
0
  6
CONTINUOUS
 62
     7
 10
101.05997
 20
50.584425
 40
7.6823077
 50
301.49167
 51
333.02055
  0
ARC
  8
0
  6
CONTINUOUS
 62
     7
 10
98.983369
 20
51.444579
 40
0.75
 50
104.3699
 51
210.6301
  0
ARC
  8
0
  6
CONTINUOUS
 62
     7
 10
103.69516
 20
49.492894
 40
0.75
 50
284.3699
 51
30.630103
  0
ARC
  8
0
  6
CONTINUOUS
 62
     7
 10
109.23843
 20
47.196793
 40
0.75
 50
284.3699
 51
30.630103
  0
ARC
  8
0
  6
CONTINUOUS
 62
     7
 10
107.16184
 20
48.056948
 40
6.4823079
 50
162.81088
 51
193.50833
  0
ARC
  8
0
  6
CONTINUOUS
 62
     7
 10
107.16184
 20
48.056948
 40
7.6823077
 50
161.97945
 51
193.50833
  0
ARC
  8
0
  6
CONTINUOUS
 62
     7
 10
101.05997
 20
50.584425
 40
7.6823077
 50
341.97945
 51
13.508325
  0
LINE
  8
0
  6
CONTINUOUS
 62
     7
 10
483.92767
 20
74.177462
 11
485.44603
 21
73.548535
  0
LINE
  8
0
  6
CONTINUOUS
 62
     7
 10
483.46845
 20
73.068807
 11
484.98681
 21
72.439879
  0
LINE
  8
0
  6
CONTINUOUS
 62
     7
 10
493.03664
 20
69.105533
 11
494.555
 21
68.476606
  0
LINE
  8
0
  6
CONTINUOUS
 62
     7
 10
493.49586
 20
70.214189
 11
495.01422
 21
69.585261
  0
LINE
  8
0
  6
CONTINUOUS
 62
     7
 10
486.0995
 20
71.97899
 11
489.01172
 21
70.772706
  0
LINE
  8
0
  6
CONTINUOUS
 62
     7
 10
486.55872
 20
73.087646
 11
489.47094
 21
71.881362
  0
ARC
  8
0
  6
CONTINUOUS
 62
     7
 10
490.15977
 20
73.544345
 40
2.4000001
 50
13.508325
 51
121.49168
  0
ARC
  8
0
  6
CONTINUOUS
 62
     7
 10
490.15977
 20
73.544345
 40
3.5999999
 50
13.508325
 51
121.49168
  0
ARC
  8
0
  6
CONTINUOUS
 62
     7
 10
488.32289
 20
69.109723
 40
2.4000001
 50
193.50833
 51
301.49168
  0
ARC
  8
0
  6
CONTINUOUS
 62
     7
 10
488.32289
 20
69.109723
 40
3.5999999
 50
193.50833
 51
301.49168
  0
ARC
  8
0
  6
CONTINUOUS
 62
     7
 10
492.29227
 20
70.063296
 40
7.6823077
 50
121.49168
 51
153.02055
  0
ARC
  8
0
  6
CONTINUOUS
 62
     7
 10
492.29227
 20
70.063296
 40
6.4823079
 50
121.49168
 51
152.18912
  0
ARC
  8
0
  6
CONTINUOUS
 62
     7
 10
486.1904
 20
72.590772
 40
6.4823079
 50
301.49167
 51
13.508325
  0
ARC
  8
0
  6
CONTINUOUS
 62
     7
 10
486.1904
 20
72.590772
 40
7.6823077
 50
301.49167
 51
333.02055
  0
ARC
  8
0
  6
CONTINUOUS
 62
     7
 10
484.1138
 20
73.450927
 40
0.75
 50
104.3699
 51
210.6301
  0
ARC
  8
0
  6
CONTINUOUS
 62
     7
 10
488.82559
 20
71.499242
 40
0.75
 50
284.3699
 51
30.630103
  0
ARC
  8
0
  6
CONTINUOUS
 62
     7
 10
494.36886
 20
69.203141
 40
0.75
 50
284.3699
 51
30.630103
  0
ARC
  8
0
  6
CONTINUOUS
 62
     7
 10
492.29227
 20
70.063296
 40
6.4823079
 50
162.81088
 51
193.50833
  0
ARC
  8
0
  6
CONTINUOUS
 62
     7
 10
492.29227
 20
70.063296
 40
7.6823077
 50
161.97945
 51
193.50833
  0
ARC
  8
0
  6
CONTINUOUS
 62
     7
 10
486.1904
 20
72.590772
 40
7.6823077
 50
341.97945
 51
13.508325
  0
LINE
  8
0
  6
CONTINUOUS
 62
     7
 10
717.37768
 20
76.277461
 11
718.89604
 21
75.648533
  0
LINE
  8
0
  6
CONTINUOUS
 62
     7
 10
716.91846
 20
75.168805
 11
718.43682
 21
74.539878
  0
LINE
  8
0
  6
CONTINUOUS
 62
     7
 10
726.48665
 20
71.205532
 11
728.00501
 21
70.576604
  0
LINE
  8
0
  6
CONTINUOUS
 62
     7
 10
726.94587
 20
72.314187
 11
728.46423
 21
71.68526
  0
LINE
  8
0
  6
CONTINUOUS
 62
     7
 10
719.54951
 20
74.078989
 11
722.46174
 21
72.872705
  0
LINE
  8
0
  6
CONTINUOUS
 62
     7
 10
720.00873
 20
75.187644
 11
722.92096
 21
73.98136
  0
ARC
  8
0
  6
CONTINUOUS
 62
     7
 10
723.60979
 20
75.644343
 40
2.4000001
 50
13.508325
 51
121.49168
  0
ARC
  8
0
  6
CONTINUOUS
 62
     7
 10
723.60979
 20
75.644343
 40
3.5999999
 50
13.508325
 51
121.49168
  0
ARC
  8
0
  6
CONTINUOUS
 62
     7
 10
721.7729
 20
71.209722
 40
2.4000001
 50
193.50833
 51
301.49168
  0
ARC
  8
0
  6
CONTINUOUS
 62
     7
 10
721.7729
 20
71.209722
 40
3.5999999
 50
193.50833
 51
301.49168
  0
ARC
  8
0
  6
CONTINUOUS
 62
     7
 10
725.74228
 20
72.163294
 40
7.6823077
 50
121.49168
 51
153.02055
  0
ARC
  8
0
  6
CONTINUOUS
 62
     7
 10
725.74228
 20
72.163294
 40
6.4823079
 50
121.49168
 51
152.18912
  0
ARC
  8
0
  6
CONTINUOUS
 62
     7
 10
719.64041
 20
74.690771
 40
6.4823079
 50
301.49167
 51
13.508325
  0
ARC
  8
0
  6
CONTINUOUS
 62
     7
 10
719.64041
 20
74.690771
 40
7.6823077
 50
301.49167
 51
333.02055
  0
ARC
  8
0
  6
CONTINUOUS
 62
     7
 10
717.56381
 20
75.550926
 40
0.75
 50
104.3699
 51
210.6301
  0
ARC
  8
0
  6
CONTINUOUS
 62
     7
 10
722.2756
 20
73.59924
 40
0.75
 50
284.3699
 51
30.630103
  0
ARC
  8
0
  6
CONTINUOUS
 62
     7
 10
727.81888
 20
71.303139
 40
0.75
 50
284.3699
 51
30.630103
  0
ARC
  8
0
  6
CONTINUOUS
 62
     7
 10
725.74228
 20
72.163294
 40
6.4823079
 50
162.81088
 51
193.50833
  0
ARC
  8
0
  6
CONTINUOUS
 62
     7
 10
725.74228
 20
72.163294
 40
7.6823077
 50
161.97945
 51
193.50833
  0
ARC
  8
0
  6
CONTINUOUS
 62
     7
 10
719.64041
 20
74.690771
 40
7.6823077
 50
341.97945
 51
13.508325
  0
ENDSEC
  0
EOF
