  0
SECTION
  2
HEADER
  9
$EXTMAX
 10
297.25922
 20
211.66544
  9
$EXTMIN
 10
-297.25922
 20
-210.82214
  0
ENDSEC
  0
SECTION
  2
TABLES
  0
TABLE
  2
LTYPE
 70
    22
  0
LTYPE
  2
CONTINUOUS
 70
    64
  3
Solid line
 72
    65
 73
     0
 40
0.000000
  0
LTYPE
  2
DASHED
 70
    64
  3
__ __ __ __ __ __ __ __ __ __ __ __ __ __ __
 72
    65
 73
     2
 40
3.500000
 49
2.000000
 49
-1.500000
  0
LTYPE
  2
CENTER
 70
    64
  3
____ _ ____ _ ____ _ ____ _ ____ _ ____ _ ____
 72
    65
 73
     4
 40
17.500000
 49
13.000000
 49
-1.500000
 49
1.500000
 49
-1.500000
  0
LTYPE
  2
PHANTOM
 70
    64
  3
_____ _ _ _____ _ _ _____ _ _ _____ _ _ ____  
 72
    65
 73
     6
 40
15.500000
 49
8.000000
 49
-1.500000
 49
1.500000
 49
-1.500000
 49
1.500000
 49
-1.500000
  0
LTYPE
  2
DOT
 70
    64
  3
. . . . . . . . . . . . . . . . . . . . . . . .
 72
    65
 73
     2
 40
0.25
 49
0.0
 49
-0.25
  0
ENDTAB
  0
TABLE
  2
LAYER
 70
     1
  0
LAYER
  2
0
 70
     0
 62
     7
  6
CONTINUOUS
  0
ENDTAB
  0
TABLE
  2
STYLE
 70
     1
  0
STYLE
  2
STANDARD
 70
     0
 40
0.000000
 41
1.000000
 50
0.000000
 71
     0
 42
0.200000
  3
txt
  4
BIGFONT
  0
ENDTAB
  0
TABLE
  2
VIEW
 70
     0
  0
ENDTAB
  0
ENDSEC
  0
SECTION
  2
BLOCKS
  0
ENDSEC
  0
SECTION
  2
ENTITIES
  0
POINT
  8
0
  6
CONTINUOUS
 62
     7
 10
-230.22458
 20
121.95306
  0
POINT
  8
0
  6
CONTINUOUS
 62
     7
 10
-137.80779
 20
119.95845
  0
POINT
  8
0
  6
CONTINUOUS
 62
     7
 10
-37.412563
 20
118.62871
  0
POINT
  8
0
  6
CONTINUOUS
 62
     7
 10
76.944908
 20
115.96923
  0
POINT
  8
0
  6
CONTINUOUS
 62
     7
 10
205.99986
 20
113.74632
  0
POINT
  8
0
  6
CONTINUOUS
 62
     7
 10
-220.91641
 20
-41.604725
  0
POINT
  8
0
  6
CONTINUOUS
 62
     7
 10
-112.54276
 20
-41.604725
  0
POINT
  8
0
  6
CONTINUOUS
 62
     7
 10
-6.1637192
 20
-42.269596
  0
POINT
  8
0
  6
CONTINUOUS
 62
     7
 10
103.53967
 20
-42.934464
  0
POINT
  8
0
  6
CONTINUOUS
 62
     7
 10
219.89175
 20
-43.599331
  0
POINT
  8
0
  6
CONTINUOUS
 62
     7
 10
409.70004
 20
84.843178
  0
POINT
  8
0
  6
CONTINUOUS
 62
     7
 10
551.27686
 20
76.823044
  0
POINT
  8
0
  6
CONTINUOUS
 62
     7
 10
705.0423
 20
71.355827
  0
LINE
  8
0
  6
CONTINUOUS
 62
     7
 10
-287
 20
200
 11
-287
 21
-200
  0
LINE
  8
0
  6
CONTINUOUS
 62
     7
 10
-287
 20
-200
 11
287
 21
-200
  0
LINE
  8
0
  6
CONTINUOUS
 62
     7
 10
287
 20
200
 11
287
 21
-200
  0
LINE
  8
0
  6
CONTINUOUS
 62
     7
 10
-287
 20
200
 11
287
 21
200
  0
LINE
  8
0
  6
CONTINUOUS
 62
     7
 10
901
 20
200
 11
901
 21
-200
  0
LINE
  8
0
  6
CONTINUOUS
 62
     7
 10
327
 20
200
 11
901
 21
200
  0
LINE
  8
0
  6
CONTINUOUS
 62
     7
 10
327
 20
200
 11
327
 21
-200
  0
LINE
  8
0
  6
CONTINUOUS
 62
     7
 10
327
 20
-200
 11
901
 21
-200
  0
LINE
  8
0
  6
CONTINUOUS
 62
     7
 10
287
 20
-240
 11
287
 21
-640
  0
LINE
  8
0
  6
CONTINUOUS
 62
     7
 10
-287
 20
-240
 11
287
 21
-240
  0
LINE
  8
0
  6
CONTINUOUS
 62
     7
 10
-287
 20
-240
 11
-287
 21
-640
  0
LINE
  8
0
  6
CONTINUOUS
 62
     7
 10
-287
 20
-640
 11
287
 21
-640
  0
LINE
  8
0
  6
CONTINUOUS
 62
     7
 10
906
 20
-235
 11
906
 21
-645
  0
LINE
  8
0
  6
CONTINUOUS
 62
     7
 10
322
 20
-235
 11
906
 21
-235
  0
LINE
  8
0
  6
CONTINUOUS
 62
     7
 10
322
 20
-235
 11
322
 21
-645
  0
LINE
  8
0
  6
CONTINUOUS
 62
     7
 10
322
 20
-645
 11
906
 21
-645
  0
LINE
  8
0
  6
CENTER
 62
     7
 10
-230.22458
 20
156.35304
 11
-230.22458
 21
88.409248
  0
LINE
  8
0
  6
CENTER
 62
     7
 10
-246.72455
 20
121.95306
 11
-196.70984
 21
121.95306
  0
LINE
  8
0
  6
CONTINUOUS
 62
     7
 10
-245.22455
 20
145.95305
 11
-245.22455
 21
151.95305
  0
LINE
  8
0
  6
CONTINUOUS
 62
     7
 10
-215.22458
 20
145.95305
 11
-215.22458
 21
151.95305
  0
LINE
  8
0
  6
CONTINUOUS
 62
     7
 10
-216.72458
 20
141.95305
 11
-216.72458
 21
143.35498
  0
LINE
  8
0
  6
CONTINUOUS
 62
     7
 10
-245.22455
 20
97.953056
 11
-245.22455
 21
91.953056
  0
LINE
  8
0
  6
CONTINUOUS
 62
     7
 10
-215.22458
 20
97.953056
 11
-215.22458
 21
91.953056
  0
LINE
  8
0
  6
CONTINUOUS
 62
     7
 10
-243.72455
 20
143.35498
 11
-243.72455
 21
100.55112
  0
LINE
  8
0
  6
CONTINUOUS
 62
     7
 10
-216.72458
 20
101.95306
 11
-216.72458
 21
100.55112
  0
LINE
  8
0
  6
CONTINUOUS
 62
     7
 10
-206.22458
 20
139.95305
 11
-200.22458
 21
139.95305
  0
LINE
  8
0
  6
CONTINUOUS
 62
     7
 10
-206.22458
 20
103.95306
 11
-200.22458
 21
103.95306
  0
LINE
  8
0
  6
CONTINUOUS
 62
     7
 10
-213.22458
 20
138.45305
 11
-208.82266
 21
138.45305
  0
LINE
  8
0
  6
CONTINUOUS
 62
     7
 10
-213.22458
 20
105.45306
 11
-208.82266
 21
105.45306
  0
LINE
  8
0
  6
CONTINUOUS
 62
     7
 10
-206.22458
 20
139.95305
 11
-206.22458
 21
103.95306
  0
LINE
  8
0
  6
CONTINUOUS
 62
     7
 10
-200.22458
 20
139.95305
 11
-200.22458
 21
103.95306
  0
LINE
  8
0
  6
CONTINUOUS
 62
     7
 10
-245.22455
 20
97.953056
 11
-215.22458
 21
97.953056
  0
LINE
  8
0
  6
CONTINUOUS
 62
     7
 10
-245.22455
 20
91.953056
 11
-215.22458
 21
91.953056
  0
LINE
  8
0
  6
CONTINUOUS
 62
     7
 10
-245.22455
 20
145.95305
 11
-215.22458
 21
145.95305
  0
LINE
  8
0
  6
CONTINUOUS
 62
     7
 10
-245.22455
 20
151.95305
 11
-215.22458
 21
151.95305
  0
LINE
  8
0
  6
CENTER
 62
     7
 10
-137.80779
 20
159.35843
 11
-137.80779
 21
78.364746
  0
LINE
  8
0
  6
CENTER
 62
     7
 10
-157.30777
 20
119.95845
 11
-99.158905
 21
119.95845
  0
LINE
  8
0
  6
CONTINUOUS
 62
     7
 10
-155.80777
 20
148.95845
 11
-155.80777
 21
154.95845
  0
LINE
  8
0
  6
CONTINUOUS
 62
     7
 10
-119.80778
 20
148.95845
 11
-119.80778
 21
154.95845
  0
LINE
  8
0
  6
CONTINUOUS
 62
     7
 10
-121.30778
 20
144.45845
 11
-121.30778
 21
146.36037
  0
LINE
  8
0
  6
CONTINUOUS
 62
     7
 10
-155.80777
 20
90.95845
 11
-155.80777
 21
84.95845
  0
LINE
  8
0
  6
CONTINUOUS
 62
     7
 10
-119.80778
 20
90.95845
 11
-119.80778
 21
84.95845
  0
LINE
  8
0
  6
CONTINUOUS
 62
     7
 10
-154.30777
 20
146.36037
 11
-154.30777
 21
93.556534
  0
LINE
  8
0
  6
CONTINUOUS
 62
     7
 10
-121.30778
 20
95.45845
 11
-121.30778
 21
93.556534
  0
LINE
  8
0
  6
CONTINUOUS
 62
     7
 10
-110.80779
 20
141.95845
 11
-103.80779
 21
141.95845
  0
LINE
  8
0
  6
CONTINUOUS
 62
     7
 10
-110.80779
 20
97.95845
 11
-103.80779
 21
97.95845
  0
LINE
  8
0
  6
CONTINUOUS
 62
     7
 10
-117.30778
 20
140.45845
 11
-113.40586
 21
140.45845
  0
LINE
  8
0
  6
CONTINUOUS
 62
     7
 10
-117.30778
 20
99.45845
 11
-113.40586
 21
99.45845
  0
LINE
  8
0
  6
CONTINUOUS
 62
     7
 10
-155.80777
 20
154.95845
 11
-119.80778
 21
154.95845
  0
LINE
  8
0
  6
CONTINUOUS
 62
     7
 10
-155.80777
 20
148.95845
 11
-119.80778
 21
148.95845
  0
LINE
  8
0
  6
CONTINUOUS
 62
     7
 10
-155.80777
 20
90.95845
 11
-119.80778
 21
90.95845
  0
LINE
  8
0
  6
CONTINUOUS
 62
     7
 10
-155.80777
 20
84.95845
 11
-119.80778
 21
84.95845
  0
LINE
  8
0
  6
CONTINUOUS
 62
     7
 10
-110.80779
 20
141.95845
 11
-110.80779
 21
97.95845
  0
LINE
  8
0
  6
CONTINUOUS
 62
     7
 10
-103.80779
 20
141.95845
 11
-103.80779
 21
97.95845
  0
LINE
  8
0
  6
CENTER
 62
     7
 10
-37.412563
 20
163.02869
 11
-37.412563
 21
72.235008
  0
LINE
  8
0
  6
CENTER
 62
     7
 10
-56.912548
 20
118.62871
 11
5.8887367
 21
118.62871
  0
LINE
  8
0
  6
CONTINUOUS
 62
     7
 10
-55.412563
 20
152.62871
 11
-55.412563
 21
158.62871
  0
LINE
  8
0
  6
CONTINUOUS
 62
     7
 10
-19.412556
 20
152.62871
 11
-19.412556
 21
158.62871
  0
LINE
  8
0
  6
CONTINUOUS
 62
     7
 10
-20.912556
 20
147.62871
 11
-20.912556
 21
150.03062
  0
LINE
  8
0
  6
CONTINUOUS
 62
     7
 10
-7.4125633
 20
145.12871
 11
0.58743656
 21
145.12871
  0
LINE
  8
0
  6
CONTINUOUS
 62
     7
 10
-7.4125633
 20
92.128708
 11
0.58743656
 21
92.128708
  0
LINE
  8
0
  6
CONTINUOUS
 62
     7
 10
-16.912556
 20
143.62871
 11
-10.010639
 21
143.62871
  0
LINE
  8
0
  6
CONTINUOUS
 62
     7
 10
-16.912556
 20
93.628708
 11
-10.010639
 21
93.628708
  0
LINE
  8
0
  6
CONTINUOUS
 62
     7
 10
-55.412563
 20
84.628708
 11
-55.412563
 21
78.628708
  0
LINE
  8
0
  6
CONTINUOUS
 62
     7
 10
-19.412556
 20
84.628708
 11
-19.412556
 21
78.628708
  0
LINE
  8
0
  6
CONTINUOUS
 62
     7
 10
-53.912563
 20
150.03062
 11
-53.912563
 21
87.226791
  0
LINE
  8
0
  6
CONTINUOUS
 62
     7
 10
-20.912556
 20
89.628708
 11
-20.912556
 21
87.226791
  0
LINE
  8
0
  6
CONTINUOUS
 62
     7
 10
-7.4125633
 20
145.12871
 11
-7.4125633
 21
92.128708
  0
LINE
  8
0
  6
CONTINUOUS
 62
     7
 10
0.58743656
 20
145.12871
 11
0.58743656
 21
92.128708
  0
LINE
  8
0
  6
CONTINUOUS
 62
     7
 10
-55.412563
 20
78.628708
 11
-19.412556
 21
78.628708
  0
LINE
  8
0
  6
CONTINUOUS
 62
     7
 10
-55.412563
 20
84.628708
 11
-19.412556
 21
84.628708
  0
LINE
  8
0
  6
CONTINUOUS
 62
     7
 10
-55.412563
 20
152.62871
 11
-19.412556
 21
152.62871
  0
LINE
  8
0
  6
CONTINUOUS
 62
     7
 10
-55.412563
 20
158.62871
 11
-19.412556
 21
158.62871
  0
LINE
  8
0
  6
CENTER
 62
     7
 10
76.944908
 20
162.36922
 11
76.944908
 21
66.686928
  0
LINE
  8
0
  6
CENTER
 62
     7
 10
53.444923
 20
115.96923
 11
124.6357
 21
115.96923
  0
LINE
  8
0
  6
CONTINUOUS
 62
     7
 10
183.99988
 20
75.74633
 11
183.99988
 21
68.74633
  0
LINE
  8
0
  6
CONTINUOUS
 62
     7
 10
227.99988
 20
75.74633
 11
227.99988
 21
68.74633
  0
LINE
  8
0
  6
CONTINUOUS
 62
     7
 10
56.444923
 20
148.37117
 11
56.444923
 21
83.567299
  0
LINE
  8
0
  6
CONTINUOUS
 62
     7
 10
97.444916
 20
86.969231
 11
97.444916
 21
83.567299
  0
LINE
  8
0
  6
CONTINUOUS
 62
     7
 10
101.44492
 20
140.96924
 11
106.34683
 21
140.96924
  0
LINE
  8
0
  6
CONTINUOUS
 62
     7
 10
101.44492
 20
90.969231
 11
106.34683
 21
90.969231
  0
LINE
  8
0
  6
CONTINUOUS
 62
     7
 10
183.99988
 20
151.74631
 11
183.99988
 21
158.74631
  0
LINE
  8
0
  6
CONTINUOUS
 62
     7
 10
227.99988
 20
151.74631
 11
227.99988
 21
158.74631
  0
LINE
  8
0
  6
CONTINUOUS
 62
     7
 10
97.444916
 20
144.96924
 11
97.444916
 21
148.37117
  0
LINE
  8
0
  6
CONTINUOUS
 62
     7
 10
183.99988
 20
68.74633
 11
227.99988
 21
68.74633
  0
LINE
  8
0
  6
CONTINUOUS
 62
     7
 10
183.99988
 20
75.74633
 11
227.99988
 21
75.74633
  0
LINE
  8
0
  6
CONTINUOUS
 62
     7
 10
183.99988
 20
151.74631
 11
227.99988
 21
151.74631
  0
LINE
  8
0
  6
CONTINUOUS
 62
     7
 10
183.99988
 20
158.74631
 11
227.99988
 21
158.74631
  0
LINE
  8
0
  6
CENTER
 62
     7
 10
-244.41638
 20
-41.604725
 11
-171.78917
 21
-41.604725
  0
LINE
  8
0
  6
CENTER
 62
     7
 10
-220.91641
 20
13.795238
 11
-220.91641
 21
-98.584412
  0
LINE
  8
0
  6
CONTINUOUS
 62
     7
 10
-242.91638
 20
2.3952436
 11
-242.91638
 21
9.3952436
  0
LINE
  8
0
  6
CONTINUOUS
 62
     7
 10
-198.9164
 20
2.3952436
 11
-198.9164
 21
9.3952436
  0
LINE
  8
0
  6
CONTINUOUS
 62
     7
 10
-200.4164
 20
-2.1047258
 11
-200.4164
 21
-0.20283973
  0
LINE
  8
0
  6
CONTINUOUS
 62
     7
 10
-187.91641
 20
-5.1047258
 11
-176.91641
 21
-5.1047258
  0
LINE
  8
0
  6
CONTINUOUS
 62
     7
 10
-187.91641
 20
-78.104729
 11
-176.91641
 21
-78.104729
  0
LINE
  8
0
  6
CONTINUOUS
 62
     7
 10
-195.4164
 20
-7.1047258
 11
-191.38051
 21
-7.1047258
  0
LINE
  8
0
  6
CONTINUOUS
 62
     7
 10
-242.91638
 20
-85.604698
 11
-242.91638
 21
-92.604698
  0
LINE
  8
0
  6
CONTINUOUS
 62
     7
 10
-198.9164
 20
-85.604698
 11
-198.9164
 21
-92.604698
  0
LINE
  8
0
  6
CONTINUOUS
 62
     7
 10
-241.41638
 20
-0.20283973
 11
-241.41638
 21
-83.006615
  0
LINE
  8
0
  6
CONTINUOUS
 62
     7
 10
-200.4164
 20
-81.104729
 11
-200.4164
 21
-83.006615
  0
LINE
  8
0
  6
CONTINUOUS
 62
     7
 10
-195.4164
 20
-76.104729
 11
-191.38051
 21
-76.104729
  0
LINE
  8
0
  6
CONTINUOUS
 62
     7
 10
-187.91641
 20
-5.1047258
 11
-187.91641
 21
-78.104729
  0
LINE
  8
0
  6
CONTINUOUS
 62
     7
 10
-176.91641
 20
-5.1047258
 11
-176.91641
 21
-78.104729
  0
LINE
  8
0
  6
CONTINUOUS
 62
     7
 10
-242.91638
 20
-92.604698
 11
-198.9164
 21
-92.604698
  0
LINE
  8
0
  6
CONTINUOUS
 62
     7
 10
-242.91638
 20
-85.604698
 11
-198.9164
 21
-85.604698
  0
LINE
  8
0
  6
CONTINUOUS
 62
     7
 10
-242.91638
 20
2.3952436
 11
-198.9164
 21
2.3952436
  0
LINE
  8
0
  6
CONTINUOUS
 62
     7
 10
-242.91638
 20
9.3952436
 11
-198.9164
 21
9.3952436
  0
LINE
  8
0
  6
CENTER
 62
     7
 10
-112.54276
 20
10.995265
 11
-112.54276
 21
-98.239296
  0
LINE
  8
0
  6
CENTER
 62
     7
 10
-144.13203
 20
-41.604725
 11
-63.203987
 21
-41.604725
  0
LINE
  8
0
  6
CONTINUOUS
 62
     7
 10
-139.04274
 20
-1.6047257
 11
-139.04274
 21
6.3952742
  0
LINE
  8
0
  6
CONTINUOUS
 62
     7
 10
-86.042732
 20
-1.6047257
 11
-86.042732
 21
6.3952742
  0
LINE
  8
0
  6
CONTINUOUS
 62
     7
 10
-87.542732
 20
-9.6047258
 11
-87.542732
 21
-4.2028093
  0
LINE
  8
0
  6
CONTINUOUS
 62
     7
 10
-139.04274
 20
-81.604729
 11
-139.04274
 21
-89.604729
  0
LINE
  8
0
  6
CONTINUOUS
 62
     7
 10
-86.042732
 20
-81.604729
 11
-86.042732
 21
-89.604729
  0
LINE
  8
0
  6
CONTINUOUS
 62
     7
 10
-137.54274
 20
-4.2028093
 11
-137.54274
 21
-79.006645
  0
LINE
  8
0
  6
CONTINUOUS
 62
     7
 10
-87.542732
 20
-73.604729
 11
-87.542732
 21
-79.006645
  0
LINE
  8
0
  6
CONTINUOUS
 62
     7
 10
238.99986
 20
143.74631
 11
247.99986
 21
143.74631
  0
LINE
  8
0
  6
CONTINUOUS
 62
     7
 10
238.99986
 20
83.746315
 11
247.99986
 21
83.746315
  0
LINE
  8
0
  6
CONTINUOUS
 62
     7
 10
-83.542732
 20
-13.604726
 11
-80.006874
 21
-13.604726
  0
LINE
  8
0
  6
CONTINUOUS
 62
     7
 10
-83.542732
 20
-69.604729
 11
-80.006874
 21
-69.604729
  0
LINE
  8
0
  6
CONTINUOUS
 62
     7
 10
-139.04274
 20
6.3952742
 11
-86.042732
 21
6.3952742
  0
LINE
  8
0
  6
CONTINUOUS
 62
     7
 10
-139.04274
 20
-1.6047257
 11
-86.042732
 21
-1.6047257
  0
LINE
  8
0
  6
CONTINUOUS
 62
     7
 10
-139.04274
 20
-81.604729
 11
-86.042732
 21
-81.604729
  0
LINE
  8
0
  6
CONTINUOUS
 62
     7
 10
-139.04274
 20
-89.604729
 11
-86.042732
 21
-89.604729
  0
LINE
  8
0
  6
CONTINUOUS
 62
     7
 10
238.99986
 20
143.74631
 11
238.99986
 21
83.746315
  0
LINE
  8
0
  6
CONTINUOUS
 62
     7
 10
247.99986
 20
143.74631
 11
247.99986
 21
83.746315
  0
LINE
  8
0
  6
CENTER
 62
     7
 10
-34.163689
 20
-42.269596
 11
46.436287
 21
-42.269596
  0
LINE
  8
0
  6
CENTER
 62
     7
 10
-6.1637192
 20
13.130368
 11
-6.1637192
 21
-102.04929
  0
LINE
  8
0
  6
CONTINUOUS
 62
     7
 10
-32.663689
 20
1.7304052
 11
-32.663689
 21
9.7304049
  0
LINE
  8
0
  6
CONTINUOUS
 62
     7
 10
20.336296
 20
1.7304052
 11
20.336296
 21
9.7304049
  0
LINE
  8
0
  6
CONTINUOUS
 62
     7
 10
18.836296
 20
-2.7695947
 11
18.836296
 21
-0.86767823
  0
LINE
  8
0
  6
CONTINUOUS
 62
     7
 10
30.836281
 20
-5.7695947
 11
41.836281
 21
-5.7695947
  0
LINE
  8
0
  6
CONTINUOUS
 62
     7
 10
30.836281
 20
-78.769592
 11
41.836281
 21
-78.769592
  0
LINE
  8
0
  6
CONTINUOUS
 62
     7
 10
23.836296
 20
-7.7695947
 11
27.372185
 21
-7.7695947
  0
LINE
  8
0
  6
CONTINUOUS
 62
     7
 10
-32.663689
 20
-86.269592
 11
-32.663689
 21
-94.269592
  0
LINE
  8
0
  6
CONTINUOUS
 62
     7
 10
20.336296
 20
-86.269592
 11
20.336296
 21
-94.269592
  0
LINE
  8
0
  6
CONTINUOUS
 62
     7
 10
-31.163689
 20
-0.86767823
 11
-31.163689
 21
-83.671509
  0
LINE
  8
0
  6
CONTINUOUS
 62
     7
 10
18.836296
 20
-81.769592
 11
18.836296
 21
-83.671509
  0
LINE
  8
0
  6
CONTINUOUS
 62
     7
 10
23.836296
 20
-76.769592
 11
27.372185
 21
-76.769592
  0
LINE
  8
0
  6
CONTINUOUS
 62
     7
 10
-32.663689
 20
9.7304049
 11
20.336296
 21
9.7304049
  0
LINE
  8
0
  6
CONTINUOUS
 62
     7
 10
-32.663689
 20
1.7304052
 11
20.336296
 21
1.7304052
  0
LINE
  8
0
  6
CONTINUOUS
 62
     7
 10
-32.663689
 20
-86.269592
 11
20.336296
 21
-86.269592
  0
LINE
  8
0
  6
CONTINUOUS
 62
     7
 10
-32.663689
 20
-94.269592
 11
20.336296
 21
-94.269592
  0
LINE
  8
0
  6
CONTINUOUS
 62
     7
 10
30.836281
 20
-5.7695947
 11
30.836281
 21
-78.769592
  0
LINE
  8
0
  6
CONTINUOUS
 62
     7
 10
41.836281
 20
-5.7695947
 11
41.836281
 21
-78.769592
  0
LINE
  8
0
  6
CENTER
 62
     7
 10
103.53967
 20
17.953762
 11
103.53967
 21
-109.21939
  0
LINE
  8
0
  6
CENTER
 62
     7
 10
160.13966
 20
-42.934464
 11
72.539673
 21
-42.934464
  0
LINE
  8
0
  6
CONTINUOUS
 62
     7
 10
144.53967
 20
-79.434494
 11
155.53967
 21
-79.434494
  0
LINE
  8
0
  6
CONTINUOUS
 62
     7
 10
136.53967
 20
-77.434494
 11
141.07556
 21
-77.434494
  0
LINE
  8
0
  6
CONTINUOUS
 62
     7
 10
133.53967
 20
-87.934464
 11
133.53967
 21
-96.934464
  0
LINE
  8
0
  6
CONTINUOUS
 62
     7
 10
73.539673
 20
-87.934464
 11
73.539673
 21
-96.934464
  0
LINE
  8
0
  6
CONTINUOUS
 62
     7
 10
131.53967
 20
-82.434494
 11
131.53967
 21
-84.470352
  0
LINE
  8
0
  6
CONTINUOUS
 62
     7
 10
75.539673
 20
-42.934464
 11
75.539673
 21
-84.470352
  0
LINE
  8
0
  6
CONTINUOUS
 62
     7
 10
133.53967
 20
-96.934464
 11
73.539673
 21
-96.934464
  0
LINE
  8
0
  6
CONTINUOUS
 62
     7
 10
133.53967
 20
-87.934464
 11
73.539673
 21
-87.934464
  0
LINE
  8
0
  6
CONTINUOUS
 62
     7
 10
144.53967
 20
-6.4344335
 11
144.53967
 21
-79.434494
  0
LINE
  8
0
  6
CONTINUOUS
 62
     7
 10
155.53967
 20
-6.4344335
 11
155.53967
 21
-79.434494
  0
LINE
  8
0
  6
CONTINUOUS
 62
     7
 10
144.53967
 20
-6.4344335
 11
155.53967
 21
-6.4344335
  0
LINE
  8
0
  6
CONTINUOUS
 62
     7
 10
136.53967
 20
-8.434433
 11
141.07556
 21
-8.434433
  0
LINE
  8
0
  6
CONTINUOUS
 62
     7
 10
133.53967
 20
2.0655363
 11
133.53967
 21
11.065536
  0
LINE
  8
0
  6
CONTINUOUS
 62
     7
 10
73.539673
 20
2.0655363
 11
73.539673
 21
11.065536
  0
LINE
  8
0
  6
CONTINUOUS
 62
     7
 10
131.53967
 20
-3.4344332
 11
131.53967
 21
-1.3985751
  0
LINE
  8
0
  6
CONTINUOUS
 62
     7
 10
75.539673
 20
-42.934464
 11
75.539673
 21
-1.3985751
  0
LINE
  8
0
  6
CONTINUOUS
 62
     7
 10
133.53967
 20
11.065536
 11
73.539673
 21
11.065536
  0
LINE
  8
0
  6
CONTINUOUS
 62
     7
 10
133.53967
 20
2.0655363
 11
73.539673
 21
2.0655363
  0
LINE
  8
0
  6
CENTER
 62
     7
 10
409.70004
 20
156.93141
 11
409.70004
 21
10.858256
  0
LINE
  8
0
  6
CENTER
 62
     7
 10
474.70001
 20
84.843178
 11
417.20004
 21
84.843178
  0
LINE
  8
0
  6
CONTINUOUS
 62
     7
 10
446.20004
 20
30.84318
 11
446.20004
 21
19.84318
  0
LINE
  8
0
  6
CONTINUOUS
 62
     7
 10
373.20004
 20
30.84318
 11
373.20004
 21
19.84318
  0
LINE
  8
0
  6
CONTINUOUS
 62
     7
 10
444.20004
 20
35.843151
 11
444.20004
 21
34.307293
  0
LINE
  8
0
  6
CONTINUOUS
 62
     7
 10
375.20004
 20
84.843178
 11
375.20004
 21
34.307293
  0
LINE
  8
0
  6
CONTINUOUS
 62
     7
 10
457.70004
 20
39.343151
 11
469.70004
 21
39.343151
  0
LINE
  8
0
  6
CONTINUOUS
 62
     7
 10
450.20004
 20
41.843151
 11
452.82663
 21
41.843151
  0
LINE
  8
0
  6
CONTINUOUS
 62
     7
 10
446.20004
 20
30.84318
 11
373.20004
 21
30.84318
  0
LINE
  8
0
  6
CONTINUOUS
 62
     7
 10
446.20004
 20
19.84318
 11
373.20004
 21
19.84318
  0
LINE
  8
0
  6
CONTINUOUS
 62
     7
 10
457.70004
 20
130.34322
 11
457.70004
 21
39.343151
  0
LINE
  8
0
  6
CONTINUOUS
 62
     7
 10
469.70004
 20
130.34322
 11
469.70004
 21
39.343151
  0
LINE
  8
0
  6
CONTINUOUS
 62
     7
 10
446.20004
 20
138.84319
 11
446.20004
 21
149.84319
  0
LINE
  8
0
  6
CONTINUOUS
 62
     7
 10
373.20004
 20
138.84319
 11
373.20004
 21
149.84319
  0
LINE
  8
0
  6
CONTINUOUS
 62
     7
 10
444.20004
 20
133.84322
 11
444.20004
 21
135.37907
  0
LINE
  8
0
  6
CONTINUOUS
 62
     7
 10
375.20004
 20
84.843178
 11
375.20004
 21
135.37907
  0
LINE
  8
0
  6
CONTINUOUS
 62
     7
 10
457.70004
 20
130.34322
 11
469.70004
 21
130.34322
  0
LINE
  8
0
  6
CONTINUOUS
 62
     7
 10
450.20004
 20
127.84321
 11
452.82663
 21
127.84321
  0
LINE
  8
0
  6
CONTINUOUS
 62
     7
 10
446.20004
 20
138.84319
 11
373.20004
 21
138.84319
  0
LINE
  8
0
  6
CONTINUOUS
 62
     7
 10
446.20004
 20
149.84319
 11
373.20004
 21
149.84319
  0
LINE
  8
0
  6
CENTER
 62
     7
 10
551.27686
 20
157.66127
 11
551.27686
 21
-3.8118834
  0
LINE
  8
0
  6
CENTER
 62
     7
 10
618.67682
 20
76.823044
 11
513.77686
 21
76.823044
  0
LINE
  8
0
  6
CONTINUOUS
 62
     7
 10
600.27686
 20
24.323009
 11
613.27686
 21
24.323009
  0
LINE
  8
0
  6
CONTINUOUS
 62
     7
 10
590.77686
 20
27.323009
 11
593.13544
 21
27.323009
  0
LINE
  8
0
  6
CONTINUOUS
 62
     7
 10
587.77686
 20
15.823041
 11
587.77686
 21
4.823041
  0
LINE
  8
0
  6
CONTINUOUS
 62
     7
 10
514.77686
 20
15.287152
 11
514.77686
 21
4.823041
  0
LINE
  8
0
  6
CONTINUOUS
 62
     7
 10
585.77686
 20
22.323009
 11
585.77686
 21
19.287151
  0
LINE
  8
0
  6
CONTINUOUS
 62
     7
 10
516.77686
 20
76.823044
 11
516.77686
 21
19.287151
  0
LINE
  8
0
  6
CONTINUOUS
 62
     7
 10
587.77686
 20
15.287152
 11
514.77686
 21
15.287152
  0
LINE
  8
0
  6
CONTINUOUS
 62
     7
 10
587.77686
 20
4.823041
 11
514.77686
 21
4.823041
  0
LINE
  8
0
  6
CONTINUOUS
 62
     7
 10
600.27686
 20
129.32307
 11
600.27686
 21
24.323009
  0
LINE
  8
0
  6
CONTINUOUS
 62
     7
 10
613.27686
 20
129.32307
 11
613.27686
 21
24.323009
  0
LINE
  8
0
  6
CONTINUOUS
 62
     7
 10
600.27686
 20
129.32307
 11
613.27686
 21
129.32307
  0
LINE
  8
0
  6
CONTINUOUS
 62
     7
 10
590.77686
 20
126.32307
 11
593.13544
 21
126.32307
  0
LINE
  8
0
  6
CONTINUOUS
 62
     7
 10
587.77686
 20
137.82304
 11
587.77686
 21
148.82304
  0
LINE
  8
0
  6
CONTINUOUS
 62
     7
 10
514.77686
 20
138.35893
 11
514.77686
 21
148.82304
  0
LINE
  8
0
  6
CONTINUOUS
 62
     7
 10
585.77686
 20
131.32307
 11
585.77686
 21
134.35893
  0
LINE
  8
0
  6
CONTINUOUS
 62
     7
 10
516.77686
 20
76.823044
 11
516.77686
 21
134.35893
  0
LINE
  8
0
  6
CONTINUOUS
 62
     7
 10
587.77686
 20
138.35893
 11
514.77686
 21
138.35893
  0
LINE
  8
0
  6
CONTINUOUS
 62
     7
 10
587.77686
 20
148.82304
 11
514.77686
 21
148.82304
  0
LINE
  8
0
  6
CENTER
 62
     7
 10
705.0423
 20
155.29405
 11
705.0423
 21
-11.429099
  0
LINE
  8
0
  6
CENTER
 62
     7
 10
780.44226
 20
71.355827
 11
712.5423
 21
71.355827
  0
LINE
  8
0
  6
CONTINUOUS
 62
     7
 10
762.0423
 20
18.855795
 11
775.0423
 21
18.855795
  0
LINE
  8
0
  6
CONTINUOUS
 62
     7
 10
750.5423
 20
8.3558254
 11
750.5423
 21
-3.6441748
  0
LINE
  8
0
  6
CONTINUOUS
 62
     7
 10
659.5423
 20
8.3558254
 11
659.5423
 21
-3.6441748
  0
LINE
  8
0
  6
CONTINUOUS
 62
     7
 10
748.0423
 20
13.855795
 11
748.0423
 21
13.229239
  0
LINE
  8
0
  6
CONTINUOUS
 62
     7
 10
662.0423
 20
71.355827
 11
662.0423
 21
13.229239
  0
LINE
  8
0
  6
CONTINUOUS
 62
     7
 10
762.0423
 20
123.85586
 11
762.0423
 21
18.855795
  0
LINE
  8
0
  6
CONTINUOUS
 62
     7
 10
775.0423
 20
123.85586
 11
775.0423
 21
18.855795
  0
LINE
  8
0
  6
CONTINUOUS
 62
     7
 10
750.5423
 20
8.3558254
 11
659.5423
 21
8.3558254
  0
LINE
  8
0
  6
CONTINUOUS
 62
     7
 10
750.5423
 20
-3.6441748
 11
659.5423
 21
-3.6441748
  0
LINE
  8
0
  6
CONTINUOUS
 62
     7
 10
762.0423
 20
123.85586
 11
775.0423
 21
123.85586
  0
LINE
  8
0
  6
CONTINUOUS
 62
     7
 10
750.5423
 20
134.35582
 11
750.5423
 21
146.35582
  0
LINE
  8
0
  6
CONTINUOUS
 62
     7
 10
659.5423
 20
134.35582
 11
659.5423
 21
146.35582
  0
LINE
  8
0
  6
CONTINUOUS
 62
     7
 10
748.0423
 20
128.85585
 11
748.0423
 21
129.48241
  0
LINE
  8
0
  6
CONTINUOUS
 62
     7
 10
662.0423
 20
71.355827
 11
662.0423
 21
129.48241
  0
LINE
  8
0
  6
CONTINUOUS
 62
     7
 10
750.5423
 20
134.35582
 11
659.5423
 21
134.35582
  0
LINE
  8
0
  6
CONTINUOUS
 62
     7
 10
750.5423
 20
146.35582
 11
659.5423
 21
146.35582
  0
LINE
  8
0
  6
CENTER
 62
     7
 10
205.99986
 20
162.7
 11
205.99986
 21
55.531769
  0
LINE
  8
0
  6
CENTER
 62
     7
 10
182.49986
 20
113.74632
 11
252.802
 21
113.74632
  0
LINE
  8
0
  6
CONTINUOUS
 62
     7
 10
226.49988
 20
145.74632
 11
226.49988
 21
149.14821
  0
LINE
  8
0
  6
CONTINUOUS
 62
     7
 10
185.49986
 20
149.14821
 11
185.49986
 21
78.344429
  0
LINE
  8
0
  6
CONTINUOUS
 62
     7
 10
226.49988
 20
81.746315
 11
226.49988
 21
78.344429
  0
LINE
  8
0
  6
CONTINUOUS
 62
     7
 10
230.49988
 20
141.74632
 11
235.53575
 21
141.74632
  0
LINE
  8
0
  6
CONTINUOUS
 62
     7
 10
230.49988
 20
85.746315
 11
235.53575
 21
85.746315
  0
LINE
  8
0
  6
CONTINUOUS
 62
     7
 10
54.944923
 20
73.969215
 11
98.944916
 21
73.969215
  0
LINE
  8
0
  6
CONTINUOUS
 62
     7
 10
54.944923
 20
80.969215
 11
98.944916
 21
80.969215
  0
LINE
  8
0
  6
CONTINUOUS
 62
     7
 10
98.944916
 20
80.969215
 11
98.944916
 21
73.969215
  0
LINE
  8
0
  6
CONTINUOUS
 62
     7
 10
54.944923
 20
80.969215
 11
54.944923
 21
73.969215
  0
LINE
  8
0
  6
CONTINUOUS
 62
     7
 10
54.944923
 20
150.96925
 11
54.944923
 21
157.96925
  0
LINE
  8
0
  6
CONTINUOUS
 62
     7
 10
54.944923
 20
157.96925
 11
98.944916
 21
157.96925
  0
LINE
  8
0
  6
CONTINUOUS
 62
     7
 10
98.944916
 20
150.96925
 11
98.944916
 21
157.96925
  0
LINE
  8
0
  6
CONTINUOUS
 62
     7
 10
54.944923
 20
150.96925
 11
98.944916
 21
150.96925
  0
LINE
  8
0
  6
CONTINUOUS
 62
     7
 10
108.94491
 20
142.46924
 11
108.94491
 21
89.469231
  0
LINE
  8
0
  6
CONTINUOUS
 62
     7
 10
108.94491
 20
89.469231
 11
116.94491
 21
89.469231
  0
LINE
  8
0
  6
CONTINUOUS
 62
     7
 10
116.94491
 20
142.46924
 11
116.94491
 21
89.469231
  0
LINE
  8
0
  6
CONTINUOUS
 62
     7
 10
108.94491
 20
142.46924
 11
116.94491
 21
142.46924
  0
LINE
  8
0
  6
CONTINUOUS
 62
     7
 10
-76.542763
 20
-11.604726
 11
-76.542763
 21
-71.604729
  0
LINE
  8
0
  6
CONTINUOUS
 62
     7
 10
-76.542763
 20
-71.604729
 11
-67.542763
 21
-71.604729
  0
LINE
  8
0
  6
CONTINUOUS
 62
     7
 10
-67.542763
 20
-11.604726
 11
-67.542763
 21
-71.604729
  0
LINE
  8
0
  6
CONTINUOUS
 62
     7
 10
-76.542763
 20
-11.604726
 11
-67.542763
 21
-11.604726
  0
LINE
  8
0
  6
CENTER
 62
     7
 10
219.89175
 20
23.588894
 11
219.89175
 21
-116.70926
  0
LINE
  8
0
  6
CENTER
 62
     7
 10
279.89172
 20
-43.599331
 11
188.89175
 21
-43.599331
  0
LINE
  8
0
  6
CONTINUOUS
 62
     7
 10
249.89175
 20
-96.599335
 11
249.89175
 21
-105.59933
  0
LINE
  8
0
  6
CONTINUOUS
 62
     7
 10
189.89175
 20
-96.599335
 11
189.89175
 21
-105.59933
  0
LINE
  8
0
  6
CONTINUOUS
 62
     7
 10
247.89175
 20
-91.599335
 11
247.89175
 21
-93.135223
  0
LINE
  8
0
  6
CONTINUOUS
 62
     7
 10
191.89175
 20
-43.599331
 11
191.89175
 21
-93.135223
  0
LINE
  8
0
  6
CONTINUOUS
 62
     7
 10
262.89175
 20
-89.099335
 11
274.89175
 21
-89.099335
  0
LINE
  8
0
  6
CONTINUOUS
 62
     7
 10
252.89175
 20
-86.599335
 11
258.01834
 21
-86.599335
  0
LINE
  8
0
  6
CONTINUOUS
 62
     7
 10
274.89175
 20
1.9006672
 11
274.89175
 21
-89.099335
  0
LINE
  8
0
  6
CONTINUOUS
 62
     7
 10
262.89175
 20
1.9006672
 11
262.89175
 21
-89.099335
  0
LINE
  8
0
  6
CONTINUOUS
 62
     7
 10
249.89175
 20
-96.599335
 11
189.89175
 21
-96.599335
  0
LINE
  8
0
  6
CONTINUOUS
 62
     7
 10
249.89175
 20
-105.59933
 11
189.89175
 21
-105.59933
  0
LINE
  8
0
  6
CONTINUOUS
 62
     7
 10
249.89175
 20
9.4006672
 11
249.89175
 21
18.400667
  0
LINE
  8
0
  6
CONTINUOUS
 62
     7
 10
189.89175
 20
9.4006672
 11
189.89175
 21
18.400667
  0
LINE
  8
0
  6
CONTINUOUS
 62
     7
 10
247.89175
 20
4.4006672
 11
247.89175
 21
5.9365559
  0
LINE
  8
0
  6
CONTINUOUS
 62
     7
 10
191.89175
 20
-43.599331
 11
191.89175
 21
5.9365559
  0
LINE
  8
0
  6
CONTINUOUS
 62
     7
 10
262.89175
 20
1.9006672
 11
274.89175
 21
1.9006672
  0
LINE
  8
0
  6
CONTINUOUS
 62
     7
 10
252.89175
 20
-0.59933281
 11
258.01834
 21
-0.59933281
  0
LINE
  8
0
  6
CONTINUOUS
 62
     7
 10
249.89175
 20
9.4006672
 11
189.89175
 21
9.4006672
  0
LINE
  8
0
  6
CONTINUOUS
 62
     7
 10
249.89175
 20
18.400667
 11
189.89175
 21
18.400667
  0
LINE
  8
0
  6
CENTER
 62
     7
 10
402.20004
 20
84.843178
 11
372.20004
 21
84.843178
  0
LINE
  8
0
  6
CENTER
 62
     7
 10
697.5423
 20
71.355827
 11
659.0423
 21
71.355827
  0
ARC
  8
0
  6
CONTINUOUS
 62
     7
 10
-213.22458
 20
101.95306
 40
3.5
 50
89.999982
 51
179.99996
  0
ARC
  8
0
  6
CONTINUOUS
 62
     7
 10
-246.72458
 20
143.35498
 40
3
 50
359.99999
 51
59.999988
  0
ARC
  8
0
  6
CONTINUOUS
 62
     7
 10
-213.72458
 20
143.35497
 40
3
 50
120
 51
179.99999
  0
ARC
  8
0
  6
CONTINUOUS
 62
     7
 10
-246.72458
 20
100.55112
 40
3
 50
299.99996
 51
359.99995
  0
ARC
  8
0
  6
CONTINUOUS
 62
     7
 10
-213.72458
 20
100.55114
 40
3
 50
179.99994
 51
239.99992
  0
ARC
  8
0
  6
CONTINUOUS
 62
     7
 10
-208.82266
 20
141.45305
 40
3
 50
270
 51
329.99999
  0
ARC
  8
0
  6
CONTINUOUS
 62
     7
 10
-208.82266
 20
102.45306
 40
3
 50
30.000001
 51
90.000003
  0
ARC
  8
0
  6
CONTINUOUS
 62
     7
 10
-213.22458
 20
141.95305
 40
3.5
 50
179.99998
 51
270.00003
  0
ARC
  8
0
  6
CONTINUOUS
 62
     7
 10
-157.30779
 20
146.36037
 40
3
 50
359.99999
 51
59.999988
  0
ARC
  8
0
  6
CONTINUOUS
 62
     7
 10
-118.30779
 20
146.36037
 40
3
 50
120
 51
179.99999
  0
ARC
  8
0
  6
CONTINUOUS
 62
     7
 10
-157.30779
 20
93.556534
 40
3
 50
299.99996
 51
359.99995
  0
ARC
  8
0
  6
CONTINUOUS
 62
     7
 10
-118.30779
 20
93.556534
 40
3
 50
179.99994
 51
239.99992
  0
ARC
  8
0
  6
CONTINUOUS
 62
     7
 10
-113.40586
 20
143.45845
 40
3
 50
270
 51
329.99999
  0
ARC
  8
0
  6
CONTINUOUS
 62
     7
 10
-113.40586
 20
96.45845
 40
3
 50
30.000001
 51
90.000003
  0
ARC
  8
0
  6
CONTINUOUS
 62
     7
 10
-117.30778
 20
95.45845
 40
4
 50
89.999982
 51
179.99996
  0
ARC
  8
0
  6
CONTINUOUS
 62
     7
 10
-117.30778
 20
144.45845
 40
4
 50
179.99998
 51
270.00003
  0
ARC
  8
0
  6
CONTINUOUS
 62
     7
 10
-56.912563
 20
150.03064
 40
3
 50
359.99999
 51
59.999988
  0
ARC
  8
0
  6
CONTINUOUS
 62
     7
 10
-17.912563
 20
150.03062
 40
3
 50
120
 51
179.99999
  0
ARC
  8
0
  6
CONTINUOUS
 62
     7
 10
-10.010639
 20
146.62871
 40
3
 50
270
 51
329.99999
  0
ARC
  8
0
  6
CONTINUOUS
 62
     7
 10
-10.010639
 20
90.628708
 40
3
 50
30.000001
 51
90.000003
  0
ARC
  8
0
  6
CONTINUOUS
 62
     7
 10
-16.912556
 20
147.62871
 40
4
 50
179.99998
 51
270.00003
  0
ARC
  8
0
  6
CONTINUOUS
 62
     7
 10
-56.912563
 20
87.226776
 40
3
 50
299.99996
 51
359.99995
  0
ARC
  8
0
  6
CONTINUOUS
 62
     7
 10
-17.912563
 20
87.226791
 40
3
 50
179.99994
 51
239.99992
  0
ARC
  8
0
  6
CONTINUOUS
 62
     7
 10
-16.912556
 20
89.628708
 40
4
 50
89.999927
 51
179.99996
  0
ARC
  8
0
  6
CONTINUOUS
 62
     7
 10
182.49986
 20
78.344429
 40
3
 50
299.99996
 51
359.99995
  0
ARC
  8
0
  6
CONTINUOUS
 62
     7
 10
229.49986
 20
78.344429
 40
3
 50
179.99994
 51
239.99992
  0
ARC
  8
0
  6
CONTINUOUS
 62
     7
 10
182.49986
 20
149.14821
 40
3
 50
359.99999
 51
59.999988
  0
ARC
  8
0
  6
CONTINUOUS
 62
     7
 10
229.49986
 20
149.14821
 40
3
 50
120
 51
179.99999
  0
ARC
  8
0
  6
CONTINUOUS
 62
     7
 10
101.44492
 20
144.96924
 40
4
 50
179.99998
 51
270.00003
  0
ARC
  8
0
  6
CONTINUOUS
 62
     7
 10
101.44492
 20
86.969231
 40
4
 50
89.999982
 51
179.99996
  0
ARC
  8
0
  6
CONTINUOUS
 62
     7
 10
-244.41641
 20
-0.20282447
 40
3
 50
359.99999
 51
59.999988
  0
ARC
  8
0
  6
CONTINUOUS
 62
     7
 10
-197.41641
 20
-0.20282447
 40
3
 50
120
 51
179.99999
  0
ARC
  8
0
  6
CONTINUOUS
 62
     7
 10
-191.38051
 20
-3.1047258
 40
4
 50
270
 51
329.99999
  0
ARC
  8
0
  6
CONTINUOUS
 62
     7
 10
-191.38051
 20
-80.104729
 40
4
 50
30.000001
 51
90.000003
  0
ARC
  8
0
  6
CONTINUOUS
 62
     7
 10
-195.4164
 20
-2.1047258
 40
5
 50
179.99998
 51
270.00003
  0
ARC
  8
0
  6
CONTINUOUS
 62
     7
 10
-244.41641
 20
-83.00663
 40
3
 50
299.99996
 51
359.99995
  0
ARC
  8
0
  6
CONTINUOUS
 62
     7
 10
-197.41641
 20
-83.00663
 40
3
 50
179.99994
 51
239.99992
  0
ARC
  8
0
  6
CONTINUOUS
 62
     7
 10
-195.4164
 20
-81.104729
 40
5
 50
89.999927
 51
179.99996
  0
ARC
  8
0
  6
CONTINUOUS
 62
     7
 10
-140.54277
 20
-4.2028093
 40
3
 50
359.99999
 51
59.999988
  0
ARC
  8
0
  6
CONTINUOUS
 62
     7
 10
-84.542763
 20
-4.2028093
 40
3
 50
120
 51
179.99999
  0
ARC
  8
0
  6
CONTINUOUS
 62
     7
 10
-140.54277
 20
-79.006645
 40
3
 50
299.99996
 51
359.99995
  0
ARC
  8
0
  6
CONTINUOUS
 62
     7
 10
-84.542763
 20
-79.006645
 40
3
 50
179.99994
 51
239.99992
  0
ARC
  8
0
  6
CONTINUOUS
 62
     7
 10
235.53575
 20
145.74631
 40
4
 50
270
 51
329.99999
  0
ARC
  8
0
  6
CONTINUOUS
 62
     7
 10
235.53575
 20
81.746315
 40
4
 50
30.000001
 51
90.000003
  0
ARC
  8
0
  6
CONTINUOUS
 62
     7
 10
-83.542732
 20
-9.6047258
 40
4
 50
179.99998
 51
270.00003
  0
ARC
  8
0
  6
CONTINUOUS
 62
     7
 10
-83.542732
 20
-73.604729
 40
4
 50
89.999982
 51
179.99996
  0
ARC
  8
0
  6
CONTINUOUS
 62
     7
 10
-34.163719
 20
-0.86767823
 40
3
 50
359.99999
 51
59.999988
  0
ARC
  8
0
  6
CONTINUOUS
 62
     7
 10
21.836281
 20
-0.86767823
 40
3
 50
120
 51
179.99999
  0
ARC
  8
0
  6
CONTINUOUS
 62
     7
 10
27.372185
 20
-3.7695947
 40
4
 50
270
 51
329.99999
  0
ARC
  8
0
  6
CONTINUOUS
 62
     7
 10
27.372185
 20
-80.769592
 40
4
 50
30.000001
 51
90.000003
  0
ARC
  8
0
  6
CONTINUOUS
 62
     7
 10
23.836296
 20
-2.7695947
 40
5
 50
179.99998
 51
270.00003
  0
ARC
  8
0
  6
CONTINUOUS
 62
     7
 10
-34.163719
 20
-83.671509
 40
3
 50
299.99996
 51
359.99995
  0
ARC
  8
0
  6
CONTINUOUS
 62
     7
 10
21.836281
 20
-83.671509
 40
3
 50
179.99994
 51
239.99992
  0
ARC
  8
0
  6
CONTINUOUS
 62
     7
 10
23.836296
 20
-81.769592
 40
5
 50
89.999927
 51
179.99996
  0
ARC
  8
0
  6
CONTINUOUS
 62
     7
 10
141.07556
 20
-81.434464
 40
4
 50
30.000004
 51
89.999989
  0
ARC
  8
0
  6
CONTINUOUS
 62
     7
 10
135.53967
 20
-84.470352
 40
4
 50
179.99999
 51
239.99998
  0
ARC
  8
0
  6
CONTINUOUS
 62
     7
 10
71.539673
 20
-84.470352
 40
4
 50
300
 51
2.5044777E-006
  0
ARC
  8
0
  6
CONTINUOUS
 62
     7
 10
136.53967
 20
-82.434494
 40
5
 50
89.999982
 51
180.00002
  0
ARC
  8
0
  6
CONTINUOUS
 62
     7
 10
135.53967
 20
-1.3985751
 40
4
 50
120.00002
 51
180.00001
  0
ARC
  8
0
  6
CONTINUOUS
 62
     7
 10
136.53967
 20
-3.4344332
 40
5
 50
179.99998
 51
270.00003
  0
ARC
  8
0
  6
CONTINUOUS
 62
     7
 10
71.539673
 20
-1.3985751
 40
4
 50
360
 51
60.000002
  0
ARC
  8
0
  6
CONTINUOUS
 62
     7
 10
141.07556
 20
-4.434464
 40
4
 50
270.00001
 51
330
  0
ARC
  8
0
  6
CONTINUOUS
 62
     7
 10
448.20004
 20
34.307293
 40
4
 50
179.99999
 51
239.99998
  0
ARC
  8
0
  6
CONTINUOUS
 62
     7
 10
371.20004
 20
34.307293
 40
4
 50
300
 51
2.5044791E-006
  0
ARC
  8
0
  6
CONTINUOUS
 62
     7
 10
452.82663
 20
35.843182
 40
6
 50
35.685331
 51
89.999989
  0
ARC
  8
0
  6
CONTINUOUS
 62
     7
 10
450.20004
 20
35.843151
 40
6
 50
89.999982
 51
180.00002
  0
ARC
  8
0
  6
CONTINUOUS
 62
     7
 10
450.20004
 20
133.84322
 40
6
 50
179.99998
 51
270.00003
  0
ARC
  8
0
  6
CONTINUOUS
 62
     7
 10
452.82663
 20
133.84319
 40
6
 50
270.00001
 51
324.31467
  0
ARC
  8
0
  6
CONTINUOUS
 62
     7
 10
371.20004
 20
135.37907
 40
4
 50
360
 51
60.000002
  0
ARC
  8
0
  6
CONTINUOUS
 62
     7
 10
448.20004
 20
135.37907
 40
4
 50
120.00002
 51
180.00001
  0
ARC
  8
0
  6
CONTINUOUS
 62
     7
 10
593.13544
 20
17.32304
 40
10
 50
44.427003
 51
89.999989
  0
ARC
  8
0
  6
CONTINUOUS
 62
     7
 10
589.77686
 20
19.287151
 40
4
 50
179.99999
 51
239.99998
  0
ARC
  8
0
  6
CONTINUOUS
 62
     7
 10
512.77686
 20
19.287151
 40
4
 50
300
 51
2.5044777E-006
  0
ARC
  8
0
  6
CONTINUOUS
 62
     7
 10
590.77686
 20
22.323009
 40
5
 50
89.999982
 51
180.00002
  0
ARC
  8
0
  6
CONTINUOUS
 62
     7
 10
589.77686
 20
134.35893
 40
4
 50
120.00002
 51
180.00001
  0
ARC
  8
0
  6
CONTINUOUS
 62
     7
 10
512.77686
 20
134.35893
 40
4
 50
360
 51
60.000002
  0
ARC
  8
0
  6
CONTINUOUS
 62
     7
 10
590.77686
 20
131.32307
 40
5
 50
179.99998
 51
270.00003
  0
ARC
  8
0
  6
CONTINUOUS
 62
     7
 10
593.13544
 20
136.32304
 40
10
 50
270.00001
 51
315.573
  0
ARC
  8
0
  6
CONTINUOUS
 62
     7
 10
754.90088
 20
11.855825
 40
10
 50
44.427003
 51
86.544227
  0
ARC
  8
0
  6
CONTINUOUS
 62
     7
 10
754.0423
 20
13.229239
 40
6
 50
179.99999
 51
234.31467
  0
ARC
  8
0
  6
CONTINUOUS
 62
     7
 10
656.0423
 20
13.229239
 40
6
 50
305.68534
 51
2.5044776E-006
  0
ARC
  8
0
  6
CONTINUOUS
 62
     7
 10
756.0423
 20
13.855795
 40
8
 50
93.860596
 51
180.00002
  0
ARC
  8
0
  6
CONTINUOUS
 62
     7
 10
756.0423
 20
128.85585
 40
8
 50
179.99998
 51
266.13941
  0
ARC
  8
0
  6
CONTINUOUS
 62
     7
 10
656.0423
 20
129.48241
 40
6
 50
360
 51
54.314665
  0
ARC
  8
0
  6
CONTINUOUS
 62
     7
 10
754.0423
 20
129.48241
 40
6
 50
125.68533
 51
180.00001
  0
ARC
  8
0
  6
CONTINUOUS
 62
     7
 10
754.90088
 20
130.85582
 40
10
 50
273.45577
 51
315.573
  0
ARC
  8
0
  6
CONTINUOUS
 62
     7
 10
230.49988
 20
145.74632
 40
4
 50
179.99998
 51
270.00003
  0
ARC
  8
0
  6
CONTINUOUS
 62
     7
 10
230.49988
 20
81.746315
 40
4
 50
89.999982
 51
179.99996
  0
ARC
  8
0
  6
CONTINUOUS
 62
     7
 10
53.444908
 20
83.567314
 40
3
 50
299.99996
 51
359.99995
  0
ARC
  8
0
  6
CONTINUOUS
 62
     7
 10
100.44491
 20
83.567314
 40
3
 50
179.99994
 51
239.99992
  0
ARC
  8
0
  6
CONTINUOUS
 62
     7
 10
100.44491
 20
148.37115
 40
3
 50
120
 51
179.99999
  0
ARC
  8
0
  6
CONTINUOUS
 62
     7
 10
53.444908
 20
148.37115
 40
3
 50
359.99999
 51
59.999988
  0
ARC
  8
0
  6
CONTINUOUS
 62
     7
 10
106.34683
 20
87.969231
 40
3
 50
30.000001
 51
90.000003
  0
ARC
  8
0
  6
CONTINUOUS
 62
     7
 10
106.34683
 20
143.96924
 40
3
 50
270
 51
329.99999
  0
ARC
  8
0
  6
CONTINUOUS
 62
     7
 10
-80.006874
 20
-73.604729
 40
4
 50
30.000001
 51
90.000003
  0
ARC
  8
0
  6
CONTINUOUS
 62
     7
 10
-80.006874
 20
-9.6047258
 40
4
 50
270
 51
329.99999
  0
ARC
  8
0
  6
CONTINUOUS
 62
     7
 10
251.89175
 20
-93.135223
 40
4
 50
179.99999
 51
239.99998
  0
ARC
  8
0
  6
CONTINUOUS
 62
     7
 10
187.89175
 20
-93.135223
 40
4
 50
300
 51
2.5044777E-006
  0
ARC
  8
0
  6
CONTINUOUS
 62
     7
 10
258.01834
 20
-92.599335
 40
6
 50
35.685331
 51
89.999989
  0
ARC
  8
0
  6
CONTINUOUS
 62
     7
 10
252.89175
 20
-91.599335
 40
5
 50
89.999982
 51
180.00002
  0
ARC
  8
0
  6
CONTINUOUS
 62
     7
 10
252.89175
 20
4.4006672
 40
5
 50
179.99998
 51
270.00003
  0
ARC
  8
0
  6
CONTINUOUS
 62
     7
 10
187.89175
 20
5.9365559
 40
4
 50
360
 51
60.000002
  0
ARC
  8
0
  6
CONTINUOUS
 62
     7
 10
258.01834
 20
5.4006672
 40
6
 50
270.00001
 51
324.31467
  0
ARC
  8
0
  6
CONTINUOUS
 62
     7
 10
251.89175
 20
5.9365559
 40
4
 50
120.00002
 51
180.00001
  0
TEXT
  8
0
  6
CONTINUOUS
 62
     7
 10
231.65195
 20
222.90187
 40
15
 41
0.84408766
  1
径違いチーズ（枝径大）
  0
TEXT
  8
0
  6
CONTINUOUS
 62
     7
 10
-249.39649
 20
165.94913
 40
5
 41
1.0044643
  1
1/2X1/2X3/4
  0
TEXT
  8
0
  6
CONTINUOUS
 62
     7
 10
-151.34098
 20
166.86475
 40
5
 41
1.0054945
  1
3/4X3/4X1
  0
TEXT
  8
0
  6
CONTINUOUS
 62
     7
 10
-54.646029
 20
171.24373
 40
5
 41
1.0040817
  1
3/4X3/4X11/4
  0
TEXT
  8
0
  6
CONTINUOUS
 62
     7
 10
68.249983
 20
168.13693
 40
5
 41
1.0062112
  1
1X1X11/4
  0
TEXT
  8
0
  6
CONTINUOUS
 62
     7
 10
-223.51165
 20
22.815586
 40
5
 41
1.0102042
  1
1X1X2
  0
TEXT
  8
0
  6
CONTINUOUS
 62
     7
 10
-135.19891
 20
23.510704
 40
5
 41
1.0034843
  1
11/4X11/4X11/2
  0
TEXT
  8
0
  6
CONTINUOUS
 62
     7
 10
-18.558962
 20
24.600718
 40
5
 41
1.0044643
  1
11/4X11/4X2
  0
TEXT
  8
0
  6
CONTINUOUS
 62
     7
 10
90.688879
 20
30.503761
 40
5
 41
1.0044643
  1
11/2X11/2X2
  0
TEXT
  8
0
  6
CONTINUOUS
 62
     7
 10
398.60616
 20
166.11668
 40
5
 41
1.0062112
  1
2X2X21/2
  0
TEXT
  8
0
  6
CONTINUOUS
 62
     7
 10
195.01963
 20
30.927105
 40
5
 41
1.0034843
  1
11/2X11/2X21/2
  0
TEXT
  8
0
  6
CONTINUOUS
 62
     7
 10
557.7849
 20
167.53535
 40
5
 41
1.0102042
  1
2X2X3
  0
TEXT
  8
0
  6
CONTINUOUS
 62
     7
 10
699.01464
 20
163.4803
 40
5
 41
1.0044643
  1
21/2X21/2X3
  0
TEXT
  8
0
  6
CONTINUOUS
 62
     7
 10
202.03557
 20
173.43176
 40
5
 41
1.0062112
  1
1X1X11/2
  0
LINE
  8
0
  6
CONTINUOUS
 62
     7
 10
-229.77458
 20
126.45306
 11
-229.77458
 21
125.22046
  0
LINE
  8
0
  6
CONTINUOUS
 62
     7
 10
-230.67458
 20
126.45306
 11
-230.67458
 21
125.22046
  0
LINE
  8
0
  6
CONTINUOUS
 62
     7
 10
-230.67458
 20
118.68566
 11
-230.67458
 21
117.45306
  0
LINE
  8
0
  6
CONTINUOUS
 62
     7
 10
-229.77458
 20
118.68566
 11
-229.77458
 21
117.45306
  0
LINE
  8
0
  6
CONTINUOUS
 62
     7
 10
-230.67458
 20
124.31719
 11
-230.67458
 21
121.95306
  0
LINE
  8
0
  6
CONTINUOUS
 62
     7
 10
-229.77458
 20
124.31719
 11
-229.77458
 21
121.95306
  0
ARC
  8
0
  6
CONTINUOUS
 62
     7
 10
-228.42458
 20
121.95306
 40
1.8
 50
306.00832
 51
53.991676
  0
ARC
  8
0
  6
CONTINUOUS
 62
     7
 10
-228.42458
 20
121.95306
 40
2.7
 50
306.00832
 51
53.991676
  0
ARC
  8
0
  6
CONTINUOUS
 62
     7
 10
-232.02458
 20
121.95306
 40
1.8
 50
126.00833
 51
233.99168
  0
ARC
  8
0
  6
CONTINUOUS
 62
     7
 10
-232.02458
 20
121.95306
 40
2.7
 50
126.00833
 51
233.99168
  0
ARC
  8
0
  6
CONTINUOUS
 62
     7
 10
-230.22458
 20
119.47633
 40
5.7617307
 50
53.991676
 51
85.520553
  0
ARC
  8
0
  6
CONTINUOUS
 62
     7
 10
-230.22458
 20
119.47633
 40
4.8617306
 50
53.991676
 51
84.689121
  0
ARC
  8
0
  6
CONTINUOUS
 62
     7
 10
-230.22458
 20
124.42979
 40
4.8617306
 50
233.99167
 51
306.00832
  0
ARC
  8
0
  6
CONTINUOUS
 62
     7
 10
-230.22458
 20
124.42979
 40
5.7617307
 50
233.99167
 51
265.52055
  0
ARC
  8
0
  6
CONTINUOUS
 62
     7
 10
-230.22458
 20
126.11556
 40
0.5625
 50
36.869897
 51
143.1301
  0
ARC
  8
0
  6
CONTINUOUS
 62
     7
 10
-230.22458
 20
122.29056
 40
0.5625
 50
216.8699
 51
323.1301
  0
ARC
  8
0
  6
CONTINUOUS
 62
     7
 10
-230.22458
 20
117.79056
 40
0.5625
 50
216.8699
 51
323.1301
  0
ARC
  8
0
  6
CONTINUOUS
 62
     7
 10
-230.22458
 20
119.47633
 40
5.7617307
 50
94.479452
 51
126.00833
  0
ARC
  8
0
  6
CONTINUOUS
 62
     7
 10
-230.22458
 20
119.47633
 40
4.8617306
 50
95.310878
 51
126.00833
  0
ARC
  8
0
  6
CONTINUOUS
 62
     7
 10
-230.22458
 20
124.42979
 40
5.7617307
 50
274.47945
 51
306.00832
  0
LINE
  8
0
  6
CONTINUOUS
 62
     7
 10
-137.35779
 20
124.45845
 11
-137.35779
 21
123.22585
  0
LINE
  8
0
  6
CONTINUOUS
 62
     7
 10
-138.25779
 20
124.45845
 11
-138.25779
 21
123.22585
  0
LINE
  8
0
  6
CONTINUOUS
 62
     7
 10
-138.25779
 20
116.69105
 11
-138.25779
 21
115.45845
  0
LINE
  8
0
  6
CONTINUOUS
 62
     7
 10
-137.35779
 20
116.69105
 11
-137.35779
 21
115.45845
  0
LINE
  8
0
  6
CONTINUOUS
 62
     7
 10
-138.25779
 20
122.32258
 11
-138.25779
 21
119.95845
  0
LINE
  8
0
  6
CONTINUOUS
 62
     7
 10
-137.35779
 20
122.32258
 11
-137.35779
 21
119.95845
  0
ARC
  8
0
  6
CONTINUOUS
 62
     7
 10
-136.00779
 20
119.95845
 40
1.8
 50
306.00832
 51
53.991676
  0
ARC
  8
0
  6
CONTINUOUS
 62
     7
 10
-136.00779
 20
119.95845
 40
2.7
 50
306.00832
 51
53.991676
  0
ARC
  8
0
  6
CONTINUOUS
 62
     7
 10
-139.60778
 20
119.95845
 40
1.8
 50
126.00833
 51
233.99168
  0
ARC
  8
0
  6
CONTINUOUS
 62
     7
 10
-139.60778
 20
119.95845
 40
2.7
 50
126.00833
 51
233.99168
  0
ARC
  8
0
  6
CONTINUOUS
 62
     7
 10
-137.80779
 20
117.48172
 40
5.7617307
 50
53.991676
 51
85.520553
  0
ARC
  8
0
  6
CONTINUOUS
 62
     7
 10
-137.80779
 20
117.48172
 40
4.8617306
 50
53.991676
 51
84.689121
  0
ARC
  8
0
  6
CONTINUOUS
 62
     7
 10
-137.80779
 20
122.43518
 40
4.8617306
 50
233.99167
 51
306.00832
  0
ARC
  8
0
  6
CONTINUOUS
 62
     7
 10
-137.80779
 20
122.43518
 40
5.7617307
 50
233.99167
 51
265.52055
  0
ARC
  8
0
  6
CONTINUOUS
 62
     7
 10
-137.80779
 20
124.12095
 40
0.5625
 50
36.869897
 51
143.1301
  0
ARC
  8
0
  6
CONTINUOUS
 62
     7
 10
-137.80779
 20
120.29595
 40
0.5625
 50
216.8699
 51
323.1301
  0
ARC
  8
0
  6
CONTINUOUS
 62
     7
 10
-137.80779
 20
115.79595
 40
0.5625
 50
216.8699
 51
323.1301
  0
ARC
  8
0
  6
CONTINUOUS
 62
     7
 10
-137.80779
 20
117.48172
 40
5.7617307
 50
94.479452
 51
126.00833
  0
ARC
  8
0
  6
CONTINUOUS
 62
     7
 10
-137.80779
 20
117.48172
 40
4.8617306
 50
95.310878
 51
126.00833
  0
ARC
  8
0
  6
CONTINUOUS
 62
     7
 10
-137.80779
 20
122.43518
 40
5.7617307
 50
274.47945
 51
306.00832
  0
LINE
  8
0
  6
CONTINUOUS
 62
     7
 10
-36.962563
 20
123.12871
 11
-36.962563
 21
121.89611
  0
LINE
  8
0
  6
CONTINUOUS
 62
     7
 10
-37.862563
 20
123.12871
 11
-37.862563
 21
121.89611
  0
LINE
  8
0
  6
CONTINUOUS
 62
     7
 10
-37.862563
 20
115.36131
 11
-37.862563
 21
114.12871
  0
LINE
  8
0
  6
CONTINUOUS
 62
     7
 10
-36.962563
 20
115.36131
 11
-36.962563
 21
114.12871
  0
LINE
  8
0
  6
CONTINUOUS
 62
     7
 10
-37.862563
 20
120.99284
 11
-37.862563
 21
118.62871
  0
LINE
  8
0
  6
CONTINUOUS
 62
     7
 10
-36.962563
 20
120.99284
 11
-36.962563
 21
118.62871
  0
ARC
  8
0
  6
CONTINUOUS
 62
     7
 10
-35.612563
 20
118.62871
 40
1.8
 50
306.00832
 51
53.991676
  0
ARC
  8
0
  6
CONTINUOUS
 62
     7
 10
-35.612563
 20
118.62871
 40
2.7
 50
306.00832
 51
53.991676
  0
ARC
  8
0
  6
CONTINUOUS
 62
     7
 10
-39.212563
 20
118.62871
 40
1.8
 50
126.00833
 51
233.99168
  0
ARC
  8
0
  6
CONTINUOUS
 62
     7
 10
-39.212563
 20
118.62871
 40
2.7
 50
126.00833
 51
233.99168
  0
ARC
  8
0
  6
CONTINUOUS
 62
     7
 10
-37.412563
 20
116.15198
 40
5.7617307
 50
53.991676
 51
85.520553
  0
ARC
  8
0
  6
CONTINUOUS
 62
     7
 10
-37.412563
 20
116.15198
 40
4.8617306
 50
53.991676
 51
84.689121
  0
ARC
  8
0
  6
CONTINUOUS
 62
     7
 10
-37.412563
 20
121.10544
 40
4.8617306
 50
233.99167
 51
306.00832
  0
ARC
  8
0
  6
CONTINUOUS
 62
     7
 10
-37.412563
 20
121.10544
 40
5.7617307
 50
233.99167
 51
265.52055
  0
ARC
  8
0
  6
CONTINUOUS
 62
     7
 10
-37.412563
 20
122.79121
 40
0.5625
 50
36.869897
 51
143.1301
  0
ARC
  8
0
  6
CONTINUOUS
 62
     7
 10
-37.412563
 20
118.96621
 40
0.5625
 50
216.8699
 51
323.1301
  0
ARC
  8
0
  6
CONTINUOUS
 62
     7
 10
-37.412563
 20
114.46621
 40
0.5625
 50
216.8699
 51
323.1301
  0
ARC
  8
0
  6
CONTINUOUS
 62
     7
 10
-37.412563
 20
116.15198
 40
5.7617307
 50
94.479452
 51
126.00833
  0
ARC
  8
0
  6
CONTINUOUS
 62
     7
 10
-37.412563
 20
116.15198
 40
4.8617306
 50
95.310878
 51
126.00833
  0
ARC
  8
0
  6
CONTINUOUS
 62
     7
 10
-37.412563
 20
121.10544
 40
5.7617307
 50
274.47945
 51
306.00832
  0
LINE
  8
0
  6
CONTINUOUS
 62
     7
 10
77.544908
 20
121.96923
 11
77.544908
 21
120.32576
  0
LINE
  8
0
  6
CONTINUOUS
 62
     7
 10
76.344908
 20
121.96923
 11
76.344908
 21
120.32576
  0
LINE
  8
0
  6
CONTINUOUS
 62
     7
 10
76.344908
 20
111.6127
 11
76.344908
 21
109.96923
  0
LINE
  8
0
  6
CONTINUOUS
 62
     7
 10
77.544908
 20
111.6127
 11
77.544908
 21
109.96923
  0
LINE
  8
0
  6
CONTINUOUS
 62
     7
 10
76.344908
 20
119.1214
 11
76.344908
 21
115.96923
  0
LINE
  8
0
  6
CONTINUOUS
 62
     7
 10
77.544908
 20
119.1214
 11
77.544908
 21
115.96923
  0
ARC
  8
0
  6
CONTINUOUS
 62
     7
 10
79.344908
 20
115.96923
 40
2.4000001
 50
306.00832
 51
53.991676
  0
ARC
  8
0
  6
CONTINUOUS
 62
     7
 10
79.344908
 20
115.96923
 40
3.5999999
 50
306.00832
 51
53.991676
  0
ARC
  8
0
  6
CONTINUOUS
 62
     7
 10
74.544908
 20
115.96923
 40
2.4000001
 50
126.00833
 51
233.99168
  0
ARC
  8
0
  6
CONTINUOUS
 62
     7
 10
74.544908
 20
115.96923
 40
3.5999999
 50
126.00833
 51
233.99168
  0
ARC
  8
0
  6
CONTINUOUS
 62
     7
 10
76.944908
 20
112.66692
 40
7.6823077
 50
53.991676
 51
85.520553
  0
ARC
  8
0
  6
CONTINUOUS
 62
     7
 10
76.944908
 20
112.66692
 40
6.4823079
 50
53.991676
 51
84.689121
  0
ARC
  8
0
  6
CONTINUOUS
 62
     7
 10
76.944908
 20
119.27154
 40
6.4823079
 50
233.99167
 51
306.00832
  0
ARC
  8
0
  6
CONTINUOUS
 62
     7
 10
76.944908
 20
119.27154
 40
7.6823077
 50
233.99167
 51
265.52055
  0
ARC
  8
0
  6
CONTINUOUS
 62
     7
 10
76.944908
 20
121.51923
 40
0.75
 50
36.869897
 51
143.1301
  0
ARC
  8
0
  6
CONTINUOUS
 62
     7
 10
76.944908
 20
116.41923
 40
0.75
 50
216.8699
 51
323.1301
  0
ARC
  8
0
  6
CONTINUOUS
 62
     7
 10
76.944908
 20
110.41923
 40
0.75
 50
216.8699
 51
323.1301
  0
ARC
  8
0
  6
CONTINUOUS
 62
     7
 10
76.944908
 20
112.66692
 40
6.4823079
 50
95.310878
 51
126.00833
  0
ARC
  8
0
  6
CONTINUOUS
 62
     7
 10
76.944908
 20
112.66692
 40
7.6823077
 50
94.479452
 51
126.00833
  0
ARC
  8
0
  6
CONTINUOUS
 62
     7
 10
76.944908
 20
119.27154
 40
7.6823077
 50
274.47945
 51
306.00832
  0
LINE
  8
0
  6
CONTINUOUS
 62
     7
 10
206.59986
 20
119.74632
 11
206.59986
 21
118.10285
  0
LINE
  8
0
  6
CONTINUOUS
 62
     7
 10
205.39986
 20
119.74632
 11
205.39986
 21
118.10285
  0
LINE
  8
0
  6
CONTINUOUS
 62
     7
 10
205.39986
 20
109.38978
 11
205.39986
 21
107.74632
  0
LINE
  8
0
  6
CONTINUOUS
 62
     7
 10
206.59986
 20
109.38978
 11
206.59986
 21
107.74632
  0
LINE
  8
0
  6
CONTINUOUS
 62
     7
 10
205.39986
 20
116.89849
 11
205.39986
 21
113.74632
  0
LINE
  8
0
  6
CONTINUOUS
 62
     7
 10
206.59986
 20
116.89849
 11
206.59986
 21
113.74632
  0
ARC
  8
0
  6
CONTINUOUS
 62
     7
 10
208.39986
 20
113.74632
 40
2.4000001
 50
306.00832
 51
53.991676
  0
ARC
  8
0
  6
CONTINUOUS
 62
     7
 10
208.39986
 20
113.74632
 40
3.5999999
 50
306.00832
 51
53.991676
  0
ARC
  8
0
  6
CONTINUOUS
 62
     7
 10
203.59986
 20
113.74632
 40
2.4000001
 50
126.00833
 51
233.99168
  0
ARC
  8
0
  6
CONTINUOUS
 62
     7
 10
203.59986
 20
113.74632
 40
3.5999999
 50
126.00833
 51
233.99168
  0
ARC
  8
0
  6
CONTINUOUS
 62
     7
 10
205.99986
 20
110.44401
 40
7.6823077
 50
53.991676
 51
85.520553
  0
ARC
  8
0
  6
CONTINUOUS
 62
     7
 10
205.99986
 20
110.44401
 40
6.4823079
 50
53.991676
 51
84.689121
  0
ARC
  8
0
  6
CONTINUOUS
 62
     7
 10
205.99986
 20
117.04862
 40
6.4823079
 50
233.99167
 51
306.00832
  0
ARC
  8
0
  6
CONTINUOUS
 62
     7
 10
205.99986
 20
117.04862
 40
7.6823077
 50
233.99167
 51
265.52055
  0
ARC
  8
0
  6
CONTINUOUS
 62
     7
 10
205.99986
 20
119.29632
 40
0.75
 50
36.869897
 51
143.1301
  0
ARC
  8
0
  6
CONTINUOUS
 62
     7
 10
205.99986
 20
114.19631
 40
0.75
 50
216.8699
 51
323.1301
  0
ARC
  8
0
  6
CONTINUOUS
 62
     7
 10
205.99986
 20
108.19631
 40
0.75
 50
216.8699
 51
323.1301
  0
ARC
  8
0
  6
CONTINUOUS
 62
     7
 10
205.99986
 20
110.44401
 40
6.4823079
 50
95.310878
 51
126.00833
  0
ARC
  8
0
  6
CONTINUOUS
 62
     7
 10
205.99986
 20
110.44401
 40
7.6823077
 50
94.479452
 51
126.00833
  0
ARC
  8
0
  6
CONTINUOUS
 62
     7
 10
205.99986
 20
117.04862
 40
7.6823077
 50
274.47945
 51
306.00832
  0
LINE
  8
0
  6
CONTINUOUS
 62
     7
 10
-220.31641
 20
-35.604725
 11
-220.31641
 21
-37.248191
  0
LINE
  8
0
  6
CONTINUOUS
 62
     7
 10
-221.51641
 20
-35.604725
 11
-221.51641
 21
-37.248191
  0
LINE
  8
0
  6
CONTINUOUS
 62
     7
 10
-221.51641
 20
-45.961258
 11
-221.51641
 21
-47.604725
  0
LINE
  8
0
  6
CONTINUOUS
 62
     7
 10
-220.31641
 20
-45.961258
 11
-220.31641
 21
-47.604725
  0
LINE
  8
0
  6
CONTINUOUS
 62
     7
 10
-221.51641
 20
-38.452553
 11
-221.51641
 21
-41.604725
  0
LINE
  8
0
  6
CONTINUOUS
 62
     7
 10
-220.31641
 20
-38.452553
 11
-220.31641
 21
-41.604725
  0
ARC
  8
0
  6
CONTINUOUS
 62
     7
 10
-218.51641
 20
-41.604725
 40
2.4000001
 50
306.00832
 51
53.991676
  0
ARC
  8
0
  6
CONTINUOUS
 62
     7
 10
-218.51641
 20
-41.604725
 40
3.5999999
 50
306.00832
 51
53.991676
  0
ARC
  8
0
  6
CONTINUOUS
 62
     7
 10
-223.31641
 20
-41.604725
 40
2.4000001
 50
126.00833
 51
233.99168
  0
ARC
  8
0
  6
CONTINUOUS
 62
     7
 10
-223.31641
 20
-41.604725
 40
3.5999999
 50
126.00833
 51
233.99168
  0
ARC
  8
0
  6
CONTINUOUS
 62
     7
 10
-220.91641
 20
-44.907032
 40
7.6823077
 50
53.991676
 51
85.520553
  0
ARC
  8
0
  6
CONTINUOUS
 62
     7
 10
-220.91641
 20
-44.907032
 40
6.4823079
 50
53.991676
 51
84.689121
  0
ARC
  8
0
  6
CONTINUOUS
 62
     7
 10
-220.91641
 20
-38.302417
 40
6.4823079
 50
233.99167
 51
306.00832
  0
ARC
  8
0
  6
CONTINUOUS
 62
     7
 10
-220.91641
 20
-38.302417
 40
7.6823077
 50
233.99167
 51
265.52055
  0
ARC
  8
0
  6
CONTINUOUS
 62
     7
 10
-220.91641
 20
-36.054725
 40
0.75
 50
36.869897
 51
143.1301
  0
ARC
  8
0
  6
CONTINUOUS
 62
     7
 10
-220.91641
 20
-41.154725
 40
0.75
 50
216.8699
 51
323.1301
  0
ARC
  8
0
  6
CONTINUOUS
 62
     7
 10
-220.91641
 20
-47.154725
 40
0.75
 50
216.8699
 51
323.1301
  0
ARC
  8
0
  6
CONTINUOUS
 62
     7
 10
-220.91641
 20
-44.907032
 40
6.4823079
 50
95.310878
 51
126.00833
  0
ARC
  8
0
  6
CONTINUOUS
 62
     7
 10
-220.91641
 20
-44.907032
 40
7.6823077
 50
94.479452
 51
126.00833
  0
ARC
  8
0
  6
CONTINUOUS
 62
     7
 10
-220.91641
 20
-38.302417
 40
7.6823077
 50
274.47945
 51
306.00832
  0
LINE
  8
0
  6
CONTINUOUS
 62
     7
 10
-111.94276
 20
-35.604725
 11
-111.94276
 21
-37.248191
  0
LINE
  8
0
  6
CONTINUOUS
 62
     7
 10
-113.14276
 20
-35.604725
 11
-113.14276
 21
-37.248191
  0
LINE
  8
0
  6
CONTINUOUS
 62
     7
 10
-113.14276
 20
-45.961258
 11
-113.14276
 21
-47.604725
  0
LINE
  8
0
  6
CONTINUOUS
 62
     7
 10
-111.94276
 20
-45.961258
 11
-111.94276
 21
-47.604725
  0
LINE
  8
0
  6
CONTINUOUS
 62
     7
 10
-113.14276
 20
-38.452553
 11
-113.14276
 21
-41.604725
  0
LINE
  8
0
  6
CONTINUOUS
 62
     7
 10
-111.94276
 20
-38.452553
 11
-111.94276
 21
-41.604725
  0
ARC
  8
0
  6
CONTINUOUS
 62
     7
 10
-110.14276
 20
-41.604725
 40
2.4000001
 50
306.00832
 51
53.991676
  0
ARC
  8
0
  6
CONTINUOUS
 62
     7
 10
-110.14276
 20
-41.604725
 40
3.5999999
 50
306.00832
 51
53.991676
  0
ARC
  8
0
  6
CONTINUOUS
 62
     7
 10
-114.94276
 20
-41.604725
 40
2.4000001
 50
126.00833
 51
233.99168
  0
ARC
  8
0
  6
CONTINUOUS
 62
     7
 10
-114.94276
 20
-41.604725
 40
3.5999999
 50
126.00833
 51
233.99168
  0
ARC
  8
0
  6
CONTINUOUS
 62
     7
 10
-112.54276
 20
-44.907032
 40
7.6823077
 50
53.991676
 51
85.520553
  0
ARC
  8
0
  6
CONTINUOUS
 62
     7
 10
-112.54276
 20
-44.907032
 40
6.4823079
 50
53.991676
 51
84.689121
  0
ARC
  8
0
  6
CONTINUOUS
 62
     7
 10
-112.54276
 20
-38.302417
 40
6.4823079
 50
233.99167
 51
306.00832
  0
ARC
  8
0
  6
CONTINUOUS
 62
     7
 10
-112.54276
 20
-38.302417
 40
7.6823077
 50
233.99167
 51
265.52055
  0
ARC
  8
0
  6
CONTINUOUS
 62
     7
 10
-112.54276
 20
-36.054725
 40
0.75
 50
36.869897
 51
143.1301
  0
ARC
  8
0
  6
CONTINUOUS
 62
     7
 10
-112.54276
 20
-41.154725
 40
0.75
 50
216.8699
 51
323.1301
  0
ARC
  8
0
  6
CONTINUOUS
 62
     7
 10
-112.54276
 20
-47.154725
 40
0.75
 50
216.8699
 51
323.1301
  0
ARC
  8
0
  6
CONTINUOUS
 62
     7
 10
-112.54276
 20
-44.907032
 40
6.4823079
 50
95.310878
 51
126.00833
  0
ARC
  8
0
  6
CONTINUOUS
 62
     7
 10
-112.54276
 20
-44.907032
 40
7.6823077
 50
94.479452
 51
126.00833
  0
ARC
  8
0
  6
CONTINUOUS
 62
     7
 10
-112.54276
 20
-38.302417
 40
7.6823077
 50
274.47945
 51
306.00832
  0
LINE
  8
0
  6
CONTINUOUS
 62
     7
 10
-5.5637192
 20
-36.269596
 11
-5.5637192
 21
-37.913063
  0
LINE
  8
0
  6
CONTINUOUS
 62
     7
 10
-6.7637192
 20
-36.269596
 11
-6.7637192
 21
-37.913063
  0
LINE
  8
0
  6
CONTINUOUS
 62
     7
 10
-6.7637192
 20
-46.62613
 11
-6.7637192
 21
-48.269596
  0
LINE
  8
0
  6
CONTINUOUS
 62
     7
 10
-5.5637192
 20
-46.62613
 11
-5.5637192
 21
-48.269596
  0
LINE
  8
0
  6
CONTINUOUS
 62
     7
 10
-6.7637192
 20
-39.117424
 11
-6.7637192
 21
-42.269596
  0
LINE
  8
0
  6
CONTINUOUS
 62
     7
 10
-5.5637192
 20
-39.117424
 11
-5.5637192
 21
-42.269596
  0
ARC
  8
0
  6
CONTINUOUS
 62
     7
 10
-3.7637191
 20
-42.269596
 40
2.4000001
 50
306.00832
 51
53.991676
  0
ARC
  8
0
  6
CONTINUOUS
 62
     7
 10
-3.7637191
 20
-42.269596
 40
3.5999999
 50
306.00832
 51
53.991676
  0
ARC
  8
0
  6
CONTINUOUS
 62
     7
 10
-8.5637193
 20
-42.269596
 40
2.4000001
 50
126.00833
 51
233.99168
  0
ARC
  8
0
  6
CONTINUOUS
 62
     7
 10
-8.5637193
 20
-42.269596
 40
3.5999999
 50
126.00833
 51
233.99168
  0
ARC
  8
0
  6
CONTINUOUS
 62
     7
 10
-6.1637192
 20
-45.571904
 40
7.6823077
 50
53.991676
 51
85.520553
  0
ARC
  8
0
  6
CONTINUOUS
 62
     7
 10
-6.1637192
 20
-45.571904
 40
6.4823079
 50
53.991676
 51
84.689121
  0
ARC
  8
0
  6
CONTINUOUS
 62
     7
 10
-6.1637192
 20
-38.967288
 40
6.4823079
 50
233.99167
 51
306.00832
  0
ARC
  8
0
  6
CONTINUOUS
 62
     7
 10
-6.1637192
 20
-38.967288
 40
7.6823077
 50
233.99167
 51
265.52055
  0
ARC
  8
0
  6
CONTINUOUS
 62
     7
 10
-6.1637192
 20
-36.719596
 40
0.75
 50
36.869897
 51
143.1301
  0
ARC
  8
0
  6
CONTINUOUS
 62
     7
 10
-6.1637192
 20
-41.819596
 40
0.75
 50
216.8699
 51
323.1301
  0
ARC
  8
0
  6
CONTINUOUS
 62
     7
 10
-6.1637192
 20
-47.819596
 40
0.75
 50
216.8699
 51
323.1301
  0
ARC
  8
0
  6
CONTINUOUS
 62
     7
 10
-6.1637192
 20
-45.571904
 40
6.4823079
 50
95.310878
 51
126.00833
  0
ARC
  8
0
  6
CONTINUOUS
 62
     7
 10
-6.1637192
 20
-45.571904
 40
7.6823077
 50
94.479452
 51
126.00833
  0
ARC
  8
0
  6
CONTINUOUS
 62
     7
 10
-6.1637192
 20
-38.967288
 40
7.6823077
 50
274.47945
 51
306.00832
  0
LINE
  8
0
  6
CONTINUOUS
 62
     7
 10
104.13967
 20
-36.934464
 11
104.13967
 21
-38.57793
  0
LINE
  8
0
  6
CONTINUOUS
 62
     7
 10
102.93967
 20
-36.934464
 11
102.93967
 21
-38.57793
  0
LINE
  8
0
  6
CONTINUOUS
 62
     7
 10
102.93967
 20
-47.290997
 11
102.93967
 21
-48.934464
  0
LINE
  8
0
  6
CONTINUOUS
 62
     7
 10
104.13967
 20
-47.290997
 11
104.13967
 21
-48.934464
  0
LINE
  8
0
  6
CONTINUOUS
 62
     7
 10
102.93967
 20
-39.782291
 11
102.93967
 21
-42.934464
  0
LINE
  8
0
  6
CONTINUOUS
 62
     7
 10
104.13967
 20
-39.782291
 11
104.13967
 21
-42.934464
  0
ARC
  8
0
  6
CONTINUOUS
 62
     7
 10
105.93967
 20
-42.934464
 40
2.4000001
 50
306.00832
 51
53.991676
  0
ARC
  8
0
  6
CONTINUOUS
 62
     7
 10
105.93967
 20
-42.934464
 40
3.5999999
 50
306.00832
 51
53.991676
  0
ARC
  8
0
  6
CONTINUOUS
 62
     7
 10
101.13967
 20
-42.934464
 40
2.4000001
 50
126.00833
 51
233.99168
  0
ARC
  8
0
  6
CONTINUOUS
 62
     7
 10
101.13967
 20
-42.934464
 40
3.5999999
 50
126.00833
 51
233.99168
  0
ARC
  8
0
  6
CONTINUOUS
 62
     7
 10
103.53967
 20
-46.236771
 40
7.6823077
 50
53.991676
 51
85.520553
  0
ARC
  8
0
  6
CONTINUOUS
 62
     7
 10
103.53967
 20
-46.236771
 40
6.4823079
 50
53.991676
 51
84.689121
  0
ARC
  8
0
  6
CONTINUOUS
 62
     7
 10
103.53967
 20
-39.632156
 40
6.4823079
 50
233.99167
 51
306.00832
  0
ARC
  8
0
  6
CONTINUOUS
 62
     7
 10
103.53967
 20
-39.632156
 40
7.6823077
 50
233.99167
 51
265.52055
  0
ARC
  8
0
  6
CONTINUOUS
 62
     7
 10
103.53967
 20
-37.384463
 40
0.75
 50
36.869897
 51
143.1301
  0
ARC
  8
0
  6
CONTINUOUS
 62
     7
 10
103.53967
 20
-42.484464
 40
0.75
 50
216.8699
 51
323.1301
  0
ARC
  8
0
  6
CONTINUOUS
 62
     7
 10
103.53967
 20
-48.484464
 40
0.75
 50
216.8699
 51
323.1301
  0
ARC
  8
0
  6
CONTINUOUS
 62
     7
 10
103.53967
 20
-46.236771
 40
6.4823079
 50
95.310878
 51
126.00833
  0
ARC
  8
0
  6
CONTINUOUS
 62
     7
 10
103.53967
 20
-46.236771
 40
7.6823077
 50
94.479452
 51
126.00833
  0
ARC
  8
0
  6
CONTINUOUS
 62
     7
 10
103.53967
 20
-39.632156
 40
7.6823077
 50
274.47945
 51
306.00832
  0
LINE
  8
0
  6
CONTINUOUS
 62
     7
 10
220.49175
 20
-37.599331
 11
220.49175
 21
-39.242797
  0
LINE
  8
0
  6
CONTINUOUS
 62
     7
 10
219.29175
 20
-37.599331
 11
219.29175
 21
-39.242797
  0
LINE
  8
0
  6
CONTINUOUS
 62
     7
 10
219.29175
 20
-47.955864
 11
219.29175
 21
-49.599331
  0
LINE
  8
0
  6
CONTINUOUS
 62
     7
 10
220.49175
 20
-47.955864
 11
220.49175
 21
-49.599331
  0
LINE
  8
0
  6
CONTINUOUS
 62
     7
 10
219.29175
 20
-40.447159
 11
219.29175
 21
-43.599331
  0
LINE
  8
0
  6
CONTINUOUS
 62
     7
 10
220.49175
 20
-40.447159
 11
220.49175
 21
-43.599331
  0
ARC
  8
0
  6
CONTINUOUS
 62
     7
 10
222.29175
 20
-43.599331
 40
2.4000001
 50
306.00832
 51
53.991676
  0
ARC
  8
0
  6
CONTINUOUS
 62
     7
 10
222.29175
 20
-43.599331
 40
3.5999999
 50
306.00832
 51
53.991676
  0
ARC
  8
0
  6
CONTINUOUS
 62
     7
 10
217.49175
 20
-43.599331
 40
2.4000001
 50
126.00833
 51
233.99168
  0
ARC
  8
0
  6
CONTINUOUS
 62
     7
 10
217.49175
 20
-43.599331
 40
3.5999999
 50
126.00833
 51
233.99168
  0
ARC
  8
0
  6
CONTINUOUS
 62
     7
 10
219.89175
 20
-46.901639
 40
7.6823077
 50
53.991676
 51
85.520553
  0
ARC
  8
0
  6
CONTINUOUS
 62
     7
 10
219.89175
 20
-46.901639
 40
6.4823079
 50
53.991676
 51
84.689121
  0
ARC
  8
0
  6
CONTINUOUS
 62
     7
 10
219.89175
 20
-40.297023
 40
6.4823079
 50
233.99167
 51
306.00832
  0
ARC
  8
0
  6
CONTINUOUS
 62
     7
 10
219.89175
 20
-40.297023
 40
7.6823077
 50
233.99167
 51
265.52055
  0
ARC
  8
0
  6
CONTINUOUS
 62
     7
 10
219.89175
 20
-38.049331
 40
0.75
 50
36.869897
 51
143.1301
  0
ARC
  8
0
  6
CONTINUOUS
 62
     7
 10
219.89175
 20
-43.149331
 40
0.75
 50
216.8699
 51
323.1301
  0
ARC
  8
0
  6
CONTINUOUS
 62
     7
 10
219.89175
 20
-49.149331
 40
0.75
 50
216.8699
 51
323.1301
  0
ARC
  8
0
  6
CONTINUOUS
 62
     7
 10
219.89175
 20
-46.901639
 40
6.4823079
 50
95.310878
 51
126.00833
  0
ARC
  8
0
  6
CONTINUOUS
 62
     7
 10
219.89175
 20
-46.901639
 40
7.6823077
 50
94.479452
 51
126.00833
  0
ARC
  8
0
  6
CONTINUOUS
 62
     7
 10
219.89175
 20
-40.297023
 40
7.6823077
 50
274.47945
 51
306.00832
  0
LINE
  8
0
  6
CONTINUOUS
 62
     7
 10
410.45004
 20
92.343178
 11
410.45004
 21
90.288845
  0
LINE
  8
0
  6
CONTINUOUS
 62
     7
 10
408.95004
 20
92.343178
 11
408.95004
 21
90.288845
  0
LINE
  8
0
  6
CONTINUOUS
 62
     7
 10
408.95004
 20
79.397511
 11
408.95004
 21
77.343178
  0
LINE
  8
0
  6
CONTINUOUS
 62
     7
 10
410.45004
 20
79.397511
 11
410.45004
 21
77.343178
  0
LINE
  8
0
  6
CONTINUOUS
 62
     7
 10
408.95004
 20
88.783393
 11
408.95004
 21
84.843178
  0
LINE
  8
0
  6
CONTINUOUS
 62
     7
 10
410.45004
 20
88.783393
 11
410.45004
 21
84.843178
  0
ARC
  8
0
  6
CONTINUOUS
 62
     7
 10
412.70004
 20
84.843178
 40
3
 50
306.00832
 51
53.991676
  0
ARC
  8
0
  6
CONTINUOUS
 62
     7
 10
412.70004
 20
84.843178
 40
4.5
 50
306.00832
 51
53.991676
  0
ARC
  8
0
  6
CONTINUOUS
 62
     7
 10
406.70004
 20
84.843178
 40
3
 50
126.00833
 51
233.99168
  0
ARC
  8
0
  6
CONTINUOUS
 62
     7
 10
406.70004
 20
84.843178
 40
4.5
 50
126.00833
 51
233.99168
  0
ARC
  8
0
  6
CONTINUOUS
 62
     7
 10
409.70004
 20
80.715293
 40
9.6028843
 50
53.991676
 51
85.520553
  0
ARC
  8
0
  6
CONTINUOUS
 62
     7
 10
409.70004
 20
80.715293
 40
8.1028843
 50
53.991676
 51
84.689121
  0
ARC
  8
0
  6
CONTINUOUS
 62
     7
 10
409.70004
 20
88.971062
 40
8.1028843
 50
233.99167
 51
306.00832
  0
ARC
  8
0
  6
CONTINUOUS
 62
     7
 10
409.70004
 20
88.971062
 40
9.6028843
 50
233.99167
 51
265.52055
  0
ARC
  8
0
  6
CONTINUOUS
 62
     7
 10
409.70004
 20
91.780678
 40
0.9375
 50
36.869897
 51
143.1301
  0
ARC
  8
0
  6
CONTINUOUS
 62
     7
 10
409.70004
 20
85.405678
 40
0.9375
 50
216.8699
 51
323.1301
  0
ARC
  8
0
  6
CONTINUOUS
 62
     7
 10
409.70004
 20
77.905678
 40
0.9375
 50
216.8699
 51
323.1301
  0
ARC
  8
0
  6
CONTINUOUS
 62
     7
 10
409.70004
 20
80.715293
 40
9.6028843
 50
94.479452
 51
126.00833
  0
ARC
  8
0
  6
CONTINUOUS
 62
     7
 10
409.70004
 20
80.715293
 40
8.1028843
 50
95.310878
 51
126.00833
  0
ARC
  8
0
  6
CONTINUOUS
 62
     7
 10
409.70004
 20
88.971062
 40
9.6028843
 50
274.47945
 51
306.00832
  0
LINE
  8
0
  6
CONTINUOUS
 62
     7
 10
552.02686
 20
84.323044
 11
552.02686
 21
82.268711
  0
LINE
  8
0
  6
CONTINUOUS
 62
     7
 10
550.52686
 20
84.323044
 11
550.52686
 21
82.268711
  0
LINE
  8
0
  6
CONTINUOUS
 62
     7
 10
550.52686
 20
71.377377
 11
550.52686
 21
69.323044
  0
LINE
  8
0
  6
CONTINUOUS
 62
     7
 10
552.02686
 20
71.377377
 11
552.02686
 21
69.323044
  0
LINE
  8
0
  6
CONTINUOUS
 62
     7
 10
550.52686
 20
80.763259
 11
550.52686
 21
76.823044
  0
LINE
  8
0
  6
CONTINUOUS
 62
     7
 10
552.02686
 20
80.763259
 11
552.02686
 21
76.823044
  0
ARC
  8
0
  6
CONTINUOUS
 62
     7
 10
554.27686
 20
76.823044
 40
3
 50
306.00832
 51
53.991676
  0
ARC
  8
0
  6
CONTINUOUS
 62
     7
 10
554.27686
 20
76.823044
 40
4.5
 50
306.00832
 51
53.991676
  0
ARC
  8
0
  6
CONTINUOUS
 62
     7
 10
548.27686
 20
76.823044
 40
3
 50
126.00833
 51
233.99168
  0
ARC
  8
0
  6
CONTINUOUS
 62
     7
 10
548.27686
 20
76.823044
 40
4.5
 50
126.00833
 51
233.99168
  0
ARC
  8
0
  6
CONTINUOUS
 62
     7
 10
551.27686
 20
72.695159
 40
9.6028843
 50
53.991676
 51
85.520553
  0
ARC
  8
0
  6
CONTINUOUS
 62
     7
 10
551.27686
 20
72.695159
 40
8.1028843
 50
53.991676
 51
84.689121
  0
ARC
  8
0
  6
CONTINUOUS
 62
     7
 10
551.27686
 20
80.950928
 40
8.1028843
 50
233.99167
 51
306.00832
  0
ARC
  8
0
  6
CONTINUOUS
 62
     7
 10
551.27686
 20
80.950928
 40
9.6028843
 50
233.99167
 51
265.52055
  0
ARC
  8
0
  6
CONTINUOUS
 62
     7
 10
551.27686
 20
83.760544
 40
0.9375
 50
36.869897
 51
143.1301
  0
ARC
  8
0
  6
CONTINUOUS
 62
     7
 10
551.27686
 20
77.385544
 40
0.9375
 50
216.8699
 51
323.1301
  0
ARC
  8
0
  6
CONTINUOUS
 62
     7
 10
551.27686
 20
69.885544
 40
0.9375
 50
216.8699
 51
323.1301
  0
ARC
  8
0
  6
CONTINUOUS
 62
     7
 10
551.27686
 20
72.695159
 40
9.6028843
 50
94.479452
 51
126.00833
  0
ARC
  8
0
  6
CONTINUOUS
 62
     7
 10
551.27686
 20
72.695159
 40
8.1028843
 50
95.310878
 51
126.00833
  0
ARC
  8
0
  6
CONTINUOUS
 62
     7
 10
551.27686
 20
80.950928
 40
9.6028843
 50
274.47945
 51
306.00832
  0
LINE
  8
0
  6
CONTINUOUS
 62
     7
 10
705.7923
 20
78.855827
 11
705.7923
 21
76.801495
  0
LINE
  8
0
  6
CONTINUOUS
 62
     7
 10
704.2923
 20
78.855827
 11
704.2923
 21
76.801495
  0
LINE
  8
0
  6
CONTINUOUS
 62
     7
 10
704.2923
 20
65.91016
 11
704.2923
 21
63.855827
  0
LINE
  8
0
  6
CONTINUOUS
 62
     7
 10
705.7923
 20
65.91016
 11
705.7923
 21
63.855827
  0
LINE
  8
0
  6
CONTINUOUS
 62
     7
 10
704.2923
 20
75.296043
 11
704.2923
 21
71.355827
  0
LINE
  8
0
  6
CONTINUOUS
 62
     7
 10
705.7923
 20
75.296043
 11
705.7923
 21
71.355827
  0
ARC
  8
0
  6
CONTINUOUS
 62
     7
 10
708.0423
 20
71.355827
 40
3
 50
306.00832
 51
53.991676
  0
ARC
  8
0
  6
CONTINUOUS
 62
     7
 10
708.0423
 20
71.355827
 40
4.5
 50
306.00832
 51
53.991676
  0
ARC
  8
0
  6
CONTINUOUS
 62
     7
 10
702.0423
 20
71.355827
 40
3
 50
126.00833
 51
233.99168
  0
ARC
  8
0
  6
CONTINUOUS
 62
     7
 10
702.0423
 20
71.355827
 40
4.5
 50
126.00833
 51
233.99168
  0
ARC
  8
0
  6
CONTINUOUS
 62
     7
 10
705.0423
 20
67.227943
 40
9.6028843
 50
53.991676
 51
85.520553
  0
ARC
  8
0
  6
CONTINUOUS
 62
     7
 10
705.0423
 20
67.227943
 40
8.1028843
 50
53.991676
 51
84.689121
  0
ARC
  8
0
  6
CONTINUOUS
 62
     7
 10
705.0423
 20
75.483712
 40
8.1028843
 50
233.99167
 51
306.00832
  0
ARC
  8
0
  6
CONTINUOUS
 62
     7
 10
705.0423
 20
75.483712
 40
9.6028843
 50
233.99167
 51
265.52055
  0
ARC
  8
0
  6
CONTINUOUS
 62
     7
 10
705.0423
 20
78.293327
 40
0.9375
 50
36.869897
 51
143.1301
  0
ARC
  8
0
  6
CONTINUOUS
 62
     7
 10
705.0423
 20
71.918327
 40
0.9375
 50
216.8699
 51
323.1301
  0
ARC
  8
0
  6
CONTINUOUS
 62
     7
 10
705.0423
 20
64.418327
 40
0.9375
 50
216.8699
 51
323.1301
  0
ARC
  8
0
  6
CONTINUOUS
 62
     7
 10
705.0423
 20
67.227943
 40
9.6028843
 50
94.479452
 51
126.00833
  0
ARC
  8
0
  6
CONTINUOUS
 62
     7
 10
705.0423
 20
67.227943
 40
8.1028843
 50
95.310878
 51
126.00833
  0
ARC
  8
0
  6
CONTINUOUS
 62
     7
 10
705.0423
 20
75.483712
 40
9.6028843
 50
274.47945
 51
306.00832
  0
ENDSEC
  0
EOF
