  0
SECTION
  2
HEADER
  9
$EXTMAX
 10
297.25922
 20
211.66544
  9
$EXTMIN
 10
-297.25922
 20
-210.82214
  0
ENDSEC
  0
SECTION
  2
TABLES
  0
TABLE
  2
LTYPE
 70
    22
  0
LTYPE
  2
CONTINUOUS
 70
    64
  3
Solid line
 72
    65
 73
     0
 40
0.000000
  0
LTYPE
  2
DASHED
 70
    64
  3
__ __ __ __ __ __ __ __ __ __ __ __ __ __ __
 72
    65
 73
     2
 40
3.500000
 49
2.000000
 49
-1.500000
  0
LTYPE
  2
CENTER
 70
    64
  3
____ _ ____ _ ____ _ ____ _ ____ _ ____ _ ____
 72
    65
 73
     4
 40
17.500000
 49
13.000000
 49
-1.500000
 49
1.500000
 49
-1.500000
  0
LTYPE
  2
PHANTOM
 70
    64
  3
_____ _ _ _____ _ _ _____ _ _ _____ _ _ ____  
 72
    65
 73
     6
 40
15.500000
 49
8.000000
 49
-1.500000
 49
1.500000
 49
-1.500000
 49
1.500000
 49
-1.500000
  0
LTYPE
  2
DOT
 70
    64
  3
. . . . . . . . . . . . . . . . . . . . . . . .
 72
    65
 73
     2
 40
0.25
 49
0.0
 49
-0.25
  0
ENDTAB
  0
TABLE
  2
LAYER
 70
     1
  0
LAYER
  2
0
 70
     0
 62
     7
  6
CONTINUOUS
  0
ENDTAB
  0
TABLE
  2
STYLE
 70
     1
  0
STYLE
  2
STANDARD
 70
     0
 40
0.000000
 41
1.000000
 50
0.000000
 71
     0
 42
0.200000
  3
txt
  4
BIGFONT
  0
ENDTAB
  0
TABLE
  2
VIEW
 70
     0
  0
ENDTAB
  0
ENDSEC
  0
SECTION
  2
BLOCKS
  0
ENDSEC
  0
SECTION
  2
ENTITIES
  0
POINT
  8
0
  6
CONTINUOUS
 62
     7
 10
317
 20
-650
  0
POINT
  8
0
  6
CONTINUOUS
 62
     7
 10
911
 20
-650
  0
POINT
  8
0
  6
CONTINUOUS
 62
     7
 10
317
 20
-230
  0
POINT
  8
0
  6
CONTINUOUS
 62
     7
 10
911
 20
-230
  0
POINT
  8
0
  6
CONTINUOUS
 62
     7
 10
317
 20
-650
  0
POINT
  8
0
  6
CONTINUOUS
 62
     7
 10
-297
 20
-210
  0
POINT
  8
0
  6
CONTINUOUS
 62
     7
 10
297
 20
210
  0
POINT
  8
0
  6
CONTINUOUS
 62
     7
 10
-297
 20
210
  0
POINT
  8
0
  6
CONTINUOUS
 62
     7
 10
297
 20
-210
  0
POINT
  8
0
  6
CONTINUOUS
 62
     7
 10
-297
 20
-230
  0
POINT
  8
0
  6
CONTINUOUS
 62
     7
 10
317
 20
-230
  0
POINT
  8
0
  6
CONTINUOUS
 62
     7
 10
317
 20
-210
  0
POINT
  8
0
  6
CONTINUOUS
 62
     7
 10
911
 20
-210
  0
POINT
  8
0
  6
CONTINUOUS
 62
     7
 10
317
 20
210
  0
POINT
  8
0
  6
CONTINUOUS
 62
     7
 10
911
 20
210
  0
POINT
  8
0
  6
CONTINUOUS
 62
     7
 10
317
 20
-210
  0
POINT
  8
0
  6
CONTINUOUS
 62
     7
 10
-297
 20
-650
  0
POINT
  8
0
  6
CONTINUOUS
 62
     7
 10
297
 20
-650
  0
POINT
  8
0
  6
CONTINUOUS
 62
     7
 10
-297
 20
-230
  0
POINT
  8
0
  6
CONTINUOUS
 62
     7
 10
297
 20
-230
  0
POINT
  8
0
  6
CONTINUOUS
 62
     7
 10
-297
 20
-650
  0
POINT
  8
0
  6
CONTINUOUS
 62
     7
 10
-189.8954
 20
91.846367
  0
POINT
  8
0
  6
CONTINUOUS
 62
     7
 10
-105.45704
 20
90.516632
  0
POINT
  8
0
  6
CONTINUOUS
 62
     7
 10
-15.699729
 20
91.846367
  0
POINT
  8
0
  6
CONTINUOUS
 62
     7
 10
79.214302
 20
88.963577
  0
POINT
  8
0
  6
CONTINUOUS
 62
     7
 10
178.26431
 20
91.763573
  0
POINT
  8
0
  6
CONTINUOUS
 62
     7
 10
-188.56567
 20
-86.338531
  0
POINT
  8
0
  6
CONTINUOUS
 62
     7
 10
-79.527153
 20
-84.343925
  0
POINT
  8
0
  6
CONTINUOUS
 62
     7
 10
33.50058
 20
-85.67366
  0
POINT
  8
0
  6
CONTINUOUS
 62
     7
 10
146.52832
 20
-85.008797
  0
POINT
  8
0
  6
CONTINUOUS
 62
     7
 10
417.2142
 20
87.245865
  0
LINE
  8
0
  6
CONTINUOUS
 62
     7
 10
-287
 20
200
 11
-287
 21
-200
  0
LINE
  8
0
  6
CONTINUOUS
 62
     7
 10
-287
 20
-200
 11
287
 21
-200
  0
LINE
  8
0
  6
CONTINUOUS
 62
     7
 10
287
 20
200
 11
287
 21
-200
  0
LINE
  8
0
  6
CONTINUOUS
 62
     7
 10
-287
 20
200
 11
287
 21
200
  0
LINE
  8
0
  6
CONTINUOUS
 62
     7
 10
901
 20
200
 11
901
 21
-200
  0
LINE
  8
0
  6
CONTINUOUS
 62
     7
 10
327
 20
200
 11
901
 21
200
  0
LINE
  8
0
  6
CONTINUOUS
 62
     7
 10
327
 20
200
 11
327
 21
-200
  0
LINE
  8
0
  6
CONTINUOUS
 62
     7
 10
327
 20
-200
 11
901
 21
-200
  0
LINE
  8
0
  6
CONTINUOUS
 62
     7
 10
287
 20
-240
 11
287
 21
-640
  0
LINE
  8
0
  6
CONTINUOUS
 62
     7
 10
-287
 20
-240
 11
287
 21
-240
  0
LINE
  8
0
  6
CONTINUOUS
 62
     7
 10
-287
 20
-240
 11
-287
 21
-640
  0
LINE
  8
0
  6
CONTINUOUS
 62
     7
 10
-287
 20
-640
 11
287
 21
-640
  0
LINE
  8
0
  6
CONTINUOUS
 62
     7
 10
906
 20
-235
 11
906
 21
-645
  0
LINE
  8
0
  6
CONTINUOUS
 62
     7
 10
322
 20
-235
 11
906
 21
-235
  0
LINE
  8
0
  6
CONTINUOUS
 62
     7
 10
322
 20
-235
 11
322
 21
-645
  0
LINE
  8
0
  6
CONTINUOUS
 62
     7
 10
322
 20
-645
 11
906
 21
-645
  0
LINE
  8
0
  6
CENTER
 62
     7
 10
-189.8954
 20
122.76516
 11
-189.8954
 21
58.435623
  0
LINE
  8
0
  6
CENTER
 62
     7
 10
-206.39537
 20
91.846367
 11
-156.38863
 21
91.846367
  0
LINE
  8
0
  6
CONTINUOUS
 62
     7
 10
-204.89539
 20
112.84637
 11
-204.89539
 21
118.84637
  0
LINE
  8
0
  6
CONTINUOUS
 62
     7
 10
-174.8954
 20
112.84637
 11
-174.8954
 21
118.84637
  0
LINE
  8
0
  6
CONTINUOUS
 62
     7
 10
-203.39539
 20
108.34637
 11
-203.39539
 21
110.24828
  0
LINE
  8
0
  6
CONTINUOUS
 62
     7
 10
-176.3954
 20
108.34637
 11
-176.3954
 21
110.24828
  0
LINE
  8
0
  6
CONTINUOUS
 62
     7
 10
-165.8954
 20
106.84637
 11
-159.8954
 21
106.84637
  0
LINE
  8
0
  6
CONTINUOUS
 62
     7
 10
-165.8954
 20
76.846367
 11
-159.8954
 21
76.846367
  0
LINE
  8
0
  6
CONTINUOUS
 62
     7
 10
-173.3954
 20
105.34637
 11
-168.49348
 21
105.34637
  0
LINE
  8
0
  6
CONTINUOUS
 62
     7
 10
-169.89543
 20
78.346367
 11
-168.49348
 21
78.346367
  0
LINE
  8
0
  6
CONTINUOUS
 62
     7
 10
-171.89543
 20
67.846367
 11
-171.89543
 21
61.846367
  0
LINE
  8
0
  6
CONTINUOUS
 62
     7
 10
-207.8954
 20
67.846367
 11
-207.8954
 21
61.846367
  0
LINE
  8
0
  6
CONTINUOUS
 62
     7
 10
-173.39543
 20
74.846367
 11
-173.39543
 21
70.44445
  0
LINE
  8
0
  6
CONTINUOUS
 62
     7
 10
-206.3954
 20
74.846367
 11
-206.3954
 21
70.44445
  0
LINE
  8
0
  6
CONTINUOUS
 62
     7
 10
-207.8954
 20
67.846367
 11
-171.89543
 21
67.846367
  0
LINE
  8
0
  6
CONTINUOUS
 62
     7
 10
-207.8954
 20
61.846367
 11
-171.89543
 21
61.846367
  0
LINE
  8
0
  6
CONTINUOUS
 62
     7
 10
-204.89539
 20
112.84637
 11
-174.8954
 21
112.84637
  0
LINE
  8
0
  6
CONTINUOUS
 62
     7
 10
-204.89539
 20
118.84637
 11
-174.8954
 21
118.84637
  0
LINE
  8
0
  6
CONTINUOUS
 62
     7
 10
-165.8954
 20
106.84637
 11
-165.8954
 21
76.846367
  0
LINE
  8
0
  6
CONTINUOUS
 62
     7
 10
-159.8954
 20
106.84637
 11
-159.8954
 21
76.846367
  0
LINE
  8
0
  6
CENTER
 62
     7
 10
-105.45704
 20
126.9166
 11
-105.45704
 21
52.897972
  0
LINE
  8
0
  6
CENTER
 62
     7
 10
-130.10486
 20
90.516632
 11
-67.389694
 21
90.516632
  0
LINE
  8
0
  6
CONTINUOUS
 62
     7
 10
-123.45701
 20
116.51662
 11
-123.45701
 21
122.51662
  0
LINE
  8
0
  6
CONTINUOUS
 62
     7
 10
-87.457016
 20
116.51662
 11
-87.457016
 21
122.51662
  0
LINE
  8
0
  6
CONTINUOUS
 62
     7
 10
-121.95701
 20
111.01662
 11
-121.95701
 21
113.91854
  0
LINE
  8
0
  6
CONTINUOUS
 62
     7
 10
-88.957008
 20
111.01662
 11
-88.957008
 21
113.91854
  0
LINE
  8
0
  6
CONTINUOUS
 62
     7
 10
-83.457016
 20
63.516632
 11
-83.457016
 21
56.516632
  0
LINE
  8
0
  6
CONTINUOUS
 62
     7
 10
-127.45701
 20
63.516632
 11
-127.45701
 21
56.516632
  0
LINE
  8
0
  6
CONTINUOUS
 62
     7
 10
-84.957016
 20
70.516632
 11
-84.957016
 21
66.114716
  0
LINE
  8
0
  6
CONTINUOUS
 62
     7
 10
-125.95701
 20
70.516632
 11
-125.95701
 21
66.114716
  0
LINE
  8
0
  6
CONTINUOUS
 62
     7
 10
-76.457047
 20
108.51662
 11
-70.457047
 21
108.51662
  0
LINE
  8
0
  6
CONTINUOUS
 62
     7
 10
-76.457047
 20
72.516632
 11
-70.457047
 21
72.516632
  0
LINE
  8
0
  6
CONTINUOUS
 62
     7
 10
-84.957016
 20
107.01662
 11
-79.05513
 21
107.01662
  0
LINE
  8
0
  6
CONTINUOUS
 62
     7
 10
-81.457016
 20
74.016632
 11
-79.05513
 21
74.016632
  0
LINE
  8
0
  6
CONTINUOUS
 62
     7
 10
-76.457047
 20
108.51662
 11
-76.457047
 21
72.516632
  0
LINE
  8
0
  6
CONTINUOUS
 62
     7
 10
-70.457047
 20
108.51662
 11
-70.457047
 21
72.516632
  0
LINE
  8
0
  6
CONTINUOUS
 62
     7
 10
-127.45701
 20
56.516632
 11
-83.457016
 21
56.516632
  0
LINE
  8
0
  6
CONTINUOUS
 62
     7
 10
-123.45701
 20
116.51662
 11
-87.457016
 21
116.51662
  0
LINE
  8
0
  6
CONTINUOUS
 62
     7
 10
-123.45701
 20
122.51662
 11
-87.457016
 21
122.51662
  0
LINE
  8
0
  6
CONTINUOUS
 62
     7
 10
-127.45701
 20
63.516632
 11
-83.457016
 21
63.516632
  0
LINE
  8
0
  6
CENTER
 62
     7
 10
-15.699729
 20
131.24634
 11
-15.699729
 21
49.861794
  0
LINE
  8
0
  6
CENTER
 62
     7
 10
-40.347557
 20
91.846367
 11
29.70484
 21
91.846367
  0
LINE
  8
0
  6
CONTINUOUS
 62
     7
 10
18.300274
 20
109.84637
 11
24.300274
 21
109.84637
  0
LINE
  8
0
  6
CONTINUOUS
 62
     7
 10
18.300274
 20
73.846367
 11
24.300274
 21
73.846367
  0
LINE
  8
0
  6
CONTINUOUS
 62
     7
 10
13.300242
 20
75.346367
 11
15.702189
 21
75.346367
  0
LINE
  8
0
  6
CONTINUOUS
 62
     7
 10
-33.699699
 20
117.84637
 11
-33.699699
 21
123.84637
  0
LINE
  8
0
  6
CONTINUOUS
 62
     7
 10
2.300302
 20
117.84637
 11
2.300302
 21
123.84637
  0
LINE
  8
0
  6
CONTINUOUS
 62
     7
 10
-32.199699
 20
112.34637
 11
-32.199699
 21
115.24828
  0
LINE
  8
0
  6
CONTINUOUS
 62
     7
 10
0.80030197
 20
112.34637
 11
0.80030197
 21
115.24828
  0
LINE
  8
0
  6
CONTINUOUS
 62
     7
 10
10.800242
 20
62.846367
 11
10.800242
 21
54.846367
  0
LINE
  8
0
  6
CONTINUOUS
 62
     7
 10
-42.19976
 20
62.846367
 11
-42.19976
 21
54.846367
  0
LINE
  8
0
  6
CONTINUOUS
 62
     7
 10
9.3002424
 20
71.346367
 11
9.3002424
 21
65.44445
  0
LINE
  8
0
  6
CONTINUOUS
 62
     7
 10
-40.69976
 20
71.346367
 11
-40.69976
 21
65.44445
  0
LINE
  8
0
  6
CONTINUOUS
 62
     7
 10
4.800302
 20
108.34637
 11
15.702189
 21
108.34637
  0
LINE
  8
0
  6
CONTINUOUS
 62
     7
 10
-42.19976
 20
54.846367
 11
10.800242
 21
54.846367
  0
LINE
  8
0
  6
CONTINUOUS
 62
     7
 10
-42.19976
 20
62.846367
 11
10.800242
 21
62.846367
  0
LINE
  8
0
  6
CONTINUOUS
 62
     7
 10
-33.699699
 20
117.84637
 11
2.300302
 21
117.84637
  0
LINE
  8
0
  6
CONTINUOUS
 62
     7
 10
-33.699699
 20
123.84637
 11
2.300302
 21
123.84637
  0
LINE
  8
0
  6
CONTINUOUS
 62
     7
 10
18.300274
 20
109.84637
 11
18.300274
 21
73.846367
  0
LINE
  8
0
  6
CONTINUOUS
 62
     7
 10
24.300274
 20
109.84637
 11
24.300274
 21
73.846367
  0
LINE
  8
0
  6
CENTER
 62
     7
 10
79.214302
 20
132.729
 11
79.214302
 21
43.129005
  0
LINE
  8
0
  6
CENTER
 62
     7
 10
55.714298
 20
88.963577
 11
125.49387
 21
88.963577
  0
LINE
  8
0
  6
CONTINUOUS
 62
     7
 10
105.7143
 20
56.963577
 11
105.7143
 21
48.963577
  0
LINE
  8
0
  6
CONTINUOUS
 62
     7
 10
52.714302
 20
56.963577
 11
52.714302
 21
48.963577
  0
LINE
  8
0
  6
CONTINUOUS
 62
     7
 10
104.2143
 20
64.463562
 11
104.2143
 21
59.561661
  0
LINE
  8
0
  6
CONTINUOUS
 62
     7
 10
54.214302
 20
64.463562
 11
54.214302
 21
59.561661
  0
LINE
  8
0
  6
CONTINUOUS
 62
     7
 10
57.214298
 20
119.96358
 11
57.214298
 21
126.96358
  0
LINE
  8
0
  6
CONTINUOUS
 62
     7
 10
101.2143
 20
119.96358
 11
101.2143
 21
126.96358
  0
LINE
  8
0
  6
CONTINUOUS
 62
     7
 10
58.714298
 20
113.46355
 11
58.714298
 21
117.3655
  0
LINE
  8
0
  6
CONTINUOUS
 62
     7
 10
99.714302
 20
113.46355
 11
99.714302
 21
117.3655
  0
LINE
  8
0
  6
CONTINUOUS
 62
     7
 10
114.21432
 20
110.96355
 11
121.21432
 21
110.96355
  0
LINE
  8
0
  6
CONTINUOUS
 62
     7
 10
114.21432
 20
66.963562
 11
121.21432
 21
66.963562
  0
LINE
  8
0
  6
CONTINUOUS
 62
     7
 10
108.2143
 20
68.463562
 11
111.61622
 21
68.463562
  0
LINE
  8
0
  6
CONTINUOUS
 62
     7
 10
103.7143
 20
109.46355
 11
111.61622
 21
109.46355
  0
LINE
  8
0
  6
CONTINUOUS
 62
     7
 10
114.21432
 20
110.96355
 11
114.21432
 21
66.963562
  0
LINE
  8
0
  6
CONTINUOUS
 62
     7
 10
121.21432
 20
110.96355
 11
121.21432
 21
66.963562
  0
LINE
  8
0
  6
CONTINUOUS
 62
     7
 10
52.714302
 20
56.963577
 11
105.7143
 21
56.963577
  0
LINE
  8
0
  6
CONTINUOUS
 62
     7
 10
52.714302
 20
48.963577
 11
105.7143
 21
48.963577
  0
LINE
  8
0
  6
CONTINUOUS
 62
     7
 10
57.214298
 20
119.96358
 11
101.2143
 21
119.96358
  0
LINE
  8
0
  6
CONTINUOUS
 62
     7
 10
57.214298
 20
126.96358
 11
101.2143
 21
126.96358
  0
LINE
  8
0
  6
CENTER
 62
     7
 10
178.26431
 20
128.16354
 11
178.26431
 21
47.529007
  0
LINE
  8
0
  6
CENTER
 62
     7
 10
146.67503
 20
91.763573
 11
227.69388
 21
91.763573
  0
LINE
  8
0
  6
CONTINUOUS
 62
     7
 10
160.26433
 20
117.76357
 11
160.26433
 21
123.76357
  0
LINE
  8
0
  6
CONTINUOUS
 62
     7
 10
196.26434
 20
117.76357
 11
196.26434
 21
123.76357
  0
LINE
  8
0
  6
CONTINUOUS
 62
     7
 10
161.76433
 20
112.26357
 11
161.76433
 21
115.16549
  0
LINE
  8
0
  6
CONTINUOUS
 62
     7
 10
194.76434
 20
112.26357
 11
194.76434
 21
115.16549
  0
LINE
  8
0
  6
CONTINUOUS
 62
     7
 10
215.26431
 20
109.76357
 11
221.26431
 21
109.76357
  0
LINE
  8
0
  6
CONTINUOUS
 62
     7
 10
215.26431
 20
73.763573
 11
221.26431
 21
73.763573
  0
LINE
  8
0
  6
CONTINUOUS
 62
     7
 10
210.26431
 20
75.263573
 11
212.66623
 21
75.263573
  0
LINE
  8
0
  6
CONTINUOUS
 62
     7
 10
208.26431
 20
62.763573
 11
208.26431
 21
53.763573
  0
LINE
  8
0
  6
CONTINUOUS
 62
     7
 10
148.26427
 20
62.763573
 11
148.26427
 21
53.763573
  0
LINE
  8
0
  6
CONTINUOUS
 62
     7
 10
206.26431
 20
71.263573
 11
206.26431
 21
66.227684
  0
LINE
  8
0
  6
CONTINUOUS
 62
     7
 10
150.26427
 20
71.263573
 11
150.26427
 21
66.227684
  0
LINE
  8
0
  6
CONTINUOUS
 62
     7
 10
198.76434
 20
108.26357
 11
212.66623
 21
108.26357
  0
LINE
  8
0
  6
CONTINUOUS
 62
     7
 10
215.26431
 20
109.76357
 11
215.26431
 21
73.763573
  0
LINE
  8
0
  6
CONTINUOUS
 62
     7
 10
221.26431
 20
109.76357
 11
221.26431
 21
73.763573
  0
LINE
  8
0
  6
CONTINUOUS
 62
     7
 10
148.26427
 20
53.763573
 11
208.26431
 21
53.763573
  0
LINE
  8
0
  6
CONTINUOUS
 62
     7
 10
148.26427
 20
62.763573
 11
208.26431
 21
62.763573
  0
LINE
  8
0
  6
CONTINUOUS
 62
     7
 10
160.26433
 20
123.76357
 11
196.26434
 21
123.76357
  0
LINE
  8
0
  6
CONTINUOUS
 62
     7
 10
160.26433
 20
117.76357
 11
196.26434
 21
117.76357
  0
LINE
  8
0
  6
CENTER
 62
     7
 10
-188.56567
 20
-44.938553
 11
-188.56567
 21
-133.0231
  0
LINE
  8
0
  6
CENTER
 62
     7
 10
-220.15494
 20
-86.338531
 11
-137.7361
 21
-86.338531
  0
LINE
  8
0
  6
CONTINUOUS
 62
     7
 10
-210.56564
 20
-56.338531
 11
-210.56564
 21
-49.338531
  0
LINE
  8
0
  6
CONTINUOUS
 62
     7
 10
-166.56564
 20
-56.338531
 11
-166.56564
 21
-49.338531
  0
LINE
  8
0
  6
CONTINUOUS
 62
     7
 10
-209.06564
 20
-63.523102
 11
-209.06564
 21
-58.936615
  0
LINE
  8
0
  6
CONTINUOUS
 62
     7
 10
-168.06564
 20
-61.838531
 11
-168.06564
 21
-58.936615
  0
LINE
  8
0
  6
CONTINUOUS
 62
     7
 10
-150.56567
 20
-64.338531
 11
-143.56567
 21
-64.338531
  0
LINE
  8
0
  6
CONTINUOUS
 62
     7
 10
-150.56567
 20
-108.33853
 11
-143.56567
 21
-108.33853
  0
LINE
  8
0
  6
CONTINUOUS
 62
     7
 10
-156.56564
 20
-106.83853
 11
-153.16376
 21
-106.83853
  0
LINE
  8
0
  6
CONTINUOUS
 62
     7
 10
-158.56564
 20
-118.33853
 11
-158.56564
 21
-127.33853
  0
LINE
  8
0
  6
CONTINUOUS
 62
     7
 10
-218.56564
 20
-118.33853
 11
-218.56564
 21
-127.33853
  0
LINE
  8
0
  6
CONTINUOUS
 62
     7
 10
-160.56564
 20
-110.83853
 11
-160.56564
 21
-114.87442
  0
LINE
  8
0
  6
CONTINUOUS
 62
     7
 10
-216.56564
 20
-110.83853
 11
-216.56564
 21
-114.87442
  0
LINE
  8
0
  6
CONTINUOUS
 62
     7
 10
-164.06564
 20
-65.838531
 11
-153.16376
 21
-65.838531
  0
LINE
  8
0
  6
CONTINUOUS
 62
     7
 10
-218.56564
 20
-127.33853
 11
-158.56564
 21
-127.33853
  0
LINE
  8
0
  6
CONTINUOUS
 62
     7
 10
-218.56564
 20
-118.33853
 11
-158.56564
 21
-118.33853
  0
LINE
  8
0
  6
CONTINUOUS
 62
     7
 10
-210.56564
 20
-56.338531
 11
-166.56564
 21
-56.338531
  0
LINE
  8
0
  6
CONTINUOUS
 62
     7
 10
-210.56564
 20
-49.338531
 11
-166.56564
 21
-49.338531
  0
LINE
  8
0
  6
CONTINUOUS
 62
     7
 10
-150.56567
 20
-64.338531
 11
-150.56567
 21
-108.33853
  0
LINE
  8
0
  6
CONTINUOUS
 62
     7
 10
-143.56567
 20
-64.338531
 11
-143.56567
 21
-108.33853
  0
LINE
  8
0
  6
CENTER
 62
     7
 10
-79.527153
 20
-35.743935
 11
-79.527153
 21
-133.96564
  0
LINE
  8
0
  6
CENTER
 62
     7
 10
-111.06921
 20
-84.343925
 11
-26.184744
 21
-84.343925
  0
LINE
  8
0
  6
CONTINUOUS
 62
     7
 10
-49.527184
 20
-120.34393
 11
-49.527184
 21
-129.34393
  0
LINE
  8
0
  6
CONTINUOUS
 62
     7
 10
-109.52715
 20
-120.34393
 11
-109.52715
 21
-129.34393
  0
LINE
  8
0
  6
CONTINUOUS
 62
     7
 10
-51.527184
 20
-113.34393
 11
-51.527184
 21
-116.87981
  0
LINE
  8
0
  6
CONTINUOUS
 62
     7
 10
-107.52715
 20
-113.34393
 11
-107.52715
 21
-116.87981
  0
LINE
  8
0
  6
CONTINUOUS
 62
     7
 10
-106.02712
 20
-48.343925
 11
-106.02712
 21
-40.343925
  0
LINE
  8
0
  6
CONTINUOUS
 62
     7
 10
-53.027153
 20
-48.343925
 11
-53.027153
 21
-40.343925
  0
LINE
  8
0
  6
CONTINUOUS
 62
     7
 10
-104.52712
 20
-53.343925
 11
-104.52712
 21
-50.942009
  0
LINE
  8
0
  6
CONTINUOUS
 62
     7
 10
-54.527153
 20
-53.343925
 11
-54.527153
 21
-50.942009
  0
LINE
  8
0
  6
CONTINUOUS
 62
     7
 10
-39.527153
 20
-57.843925
 11
-31.527151
 21
-57.843925
  0
LINE
  8
0
  6
CONTINUOUS
 62
     7
 10
-39.527153
 20
-110.84393
 11
-31.527151
 21
-110.84393
  0
LINE
  8
0
  6
CONTINUOUS
 62
     7
 10
-47.527184
 20
-109.34393
 11
-42.125237
 21
-109.34393
  0
LINE
  8
0
  6
CONTINUOUS
 62
     7
 10
-48.527138
 20
-59.343925
 11
-42.125237
 21
-59.343925
  0
LINE
  8
0
  6
CONTINUOUS
 62
     7
 10
-39.527153
 20
-57.843925
 11
-39.527153
 21
-110.84393
  0
LINE
  8
0
  6
CONTINUOUS
 62
     7
 10
-31.527151
 20
-57.843925
 11
-31.527151
 21
-110.84393
  0
LINE
  8
0
  6
CONTINUOUS
 62
     7
 10
-109.52715
 20
-129.34393
 11
-49.527184
 21
-129.34393
  0
LINE
  8
0
  6
CONTINUOUS
 62
     7
 10
-109.52715
 20
-120.34393
 11
-49.527184
 21
-120.34393
  0
LINE
  8
0
  6
CONTINUOUS
 62
     7
 10
-106.02712
 20
-48.343925
 11
-53.027153
 21
-48.343925
  0
LINE
  8
0
  6
CONTINUOUS
 62
     7
 10
-106.02712
 20
-40.343925
 11
-53.027153
 21
-40.343925
  0
LINE
  8
0
  6
CENTER
 62
     7
 10
33.50058
 20
-32.530762
 11
33.50058
 21
-140.3791
  0
LINE
  8
0
  6
CENTER
 62
     7
 10
-2.2270494
 20
-85.67366
 11
92.800186
 21
-85.67366
  0
LINE
  8
0
  6
CONTINUOUS
 62
     7
 10
7.0006118
 20
-47.673664
 11
7.0006118
 21
-39.67366
  0
LINE
  8
0
  6
CONTINUOUS
 62
     7
 10
60.00061
 20
-47.673664
 11
60.00061
 21
-39.67366
  0
LINE
  8
0
  6
CONTINUOUS
 62
     7
 10
8.5006113
 20
-54.673664
 11
8.5006113
 21
-50.271748
  0
LINE
  8
0
  6
CONTINUOUS
 62
     7
 10
58.50061
 20
-54.673664
 11
58.50061
 21
-50.271748
  0
LINE
  8
0
  6
CONTINUOUS
 62
     7
 10
79.50058
 20
-59.173664
 11
87.50058
 21
-59.173664
  0
LINE
  8
0
  6
CONTINUOUS
 62
     7
 10
79.50058
 20
-112.17366
 11
87.50058
 21
-112.17366
  0
LINE
  8
0
  6
CONTINUOUS
 62
     7
 10
73.00058
 20
-110.67366
 11
76.902496
 21
-110.67366
  0
LINE
  8
0
  6
CONTINUOUS
 62
     7
 10
70.00058
 20
-122.67366
 11
70.00058
 21
-133.67366
  0
LINE
  8
0
  6
CONTINUOUS
 62
     7
 10
-2.9994493
 20
-122.67366
 11
-2.9994493
 21
-133.67366
  0
LINE
  8
0
  6
CONTINUOUS
 62
     7
 10
68.00058
 20
-115.67366
 11
68.00058
 21
-119.20955
  0
LINE
  8
0
  6
CONTINUOUS
 62
     7
 10
-0.99944931
 20
-115.67366
 11
-0.99944931
 21
-119.20955
  0
LINE
  8
0
  6
CONTINUOUS
 62
     7
 10
64.50061
 20
-60.673664
 11
76.902496
 21
-60.673664
  0
LINE
  8
0
  6
CONTINUOUS
 62
     7
 10
-2.9994493
 20
-133.67366
 11
70.00058
 21
-133.67366
  0
LINE
  8
0
  6
CONTINUOUS
 62
     7
 10
-2.9994493
 20
-122.67366
 11
70.00058
 21
-122.67366
  0
LINE
  8
0
  6
CONTINUOUS
 62
     7
 10
7.0006118
 20
-39.67366
 11
60.00061
 21
-39.67366
  0
LINE
  8
0
  6
CONTINUOUS
 62
     7
 10
7.0006118
 20
-47.673664
 11
60.00061
 21
-47.673664
  0
LINE
  8
0
  6
CONTINUOUS
 62
     7
 10
79.50058
 20
-59.173664
 11
79.50058
 21
-112.17366
  0
LINE
  8
0
  6
CONTINUOUS
 62
     7
 10
87.50058
 20
-59.173664
 11
87.50058
 21
-112.17366
  0
LINE
  8
0
  6
CENTER
 62
     7
 10
146.52832
 20
-31.865894
 11
146.52832
 21
-141.49055
  0
LINE
  8
0
  6
CENTER
 62
     7
 10
110.80068
 20
-85.008797
 11
208.1743
 21
-85.008797
  0
LINE
  8
0
  6
CONTINUOUS
 62
     7
 10
183.02831
 20
-126.00879
 11
183.02831
 21
-137.00879
  0
LINE
  8
0
  6
CONTINUOUS
 62
     7
 10
110.02831
 20
-126.00879
 11
110.02831
 21
-137.00879
  0
LINE
  8
0
  6
CONTINUOUS
 62
     7
 10
181.02831
 20
-118.00879
 11
181.02831
 21
-122.54468
  0
LINE
  8
0
  6
CONTINUOUS
 62
     7
 10
112.02831
 20
-118.00879
 11
112.02831
 21
-122.54468
  0
LINE
  8
0
  6
CONTINUOUS
 62
     7
 10
116.52834
 20
-46.008793
 11
116.52834
 21
-37.008793
  0
LINE
  8
0
  6
CONTINUOUS
 62
     7
 10
176.52834
 20
-46.008793
 11
176.52834
 21
-37.008793
  0
LINE
  8
0
  6
CONTINUOUS
 62
     7
 10
118.52834
 20
-51.008793
 11
118.52834
 21
-49.472904
  0
LINE
  8
0
  6
CONTINUOUS
 62
     7
 10
174.52834
 20
-51.008793
 11
174.52834
 21
-49.472904
  0
LINE
  8
0
  6
CONTINUOUS
 62
     7
 10
192.52832
 20
-55.008793
 11
201.52832
 21
-55.008793
  0
LINE
  8
0
  6
CONTINUOUS
 62
     7
 10
192.52832
 20
-115.00879
 11
201.52832
 21
-115.00879
  0
LINE
  8
0
  6
CONTINUOUS
 62
     7
 10
186.02831
 20
-113.00879
 11
189.06422
 21
-113.00879
  0
LINE
  8
0
  6
CONTINUOUS
 62
     7
 10
180.52834
 20
-57.008793
 11
189.06422
 21
-57.008793
  0
LINE
  8
0
  6
CONTINUOUS
 62
     7
 10
110.02831
 20
-137.00879
 11
183.02831
 21
-137.00879
  0
LINE
  8
0
  6
CONTINUOUS
 62
     7
 10
110.02831
 20
-126.00879
 11
183.02831
 21
-126.00879
  0
LINE
  8
0
  6
CONTINUOUS
 62
     7
 10
116.52834
 20
-46.008793
 11
176.52834
 21
-46.008793
  0
LINE
  8
0
  6
CONTINUOUS
 62
     7
 10
116.52834
 20
-37.008793
 11
176.52834
 21
-37.008793
  0
LINE
  8
0
  6
CONTINUOUS
 62
     7
 10
192.52832
 20
-55.008793
 11
192.52832
 21
-115.00879
  0
LINE
  8
0
  6
CONTINUOUS
 62
     7
 10
201.52832
 20
-55.008793
 11
201.52832
 21
-115.00879
  0
LINE
  8
0
  6
CENTER
 62
     7
 10
372.92801
 20
87.245865
 11
489.89914
 21
87.245865
  0
LINE
  8
0
  6
CENTER
 62
     7
 10
417.2142
 20
22.245882
 11
417.2142
 21
148.84592
  0
LINE
  8
0
  6
CONTINUOUS
 62
     7
 10
371.71423
 20
39.245865
 11
371.71423
 21
27.245867
  0
LINE
  8
0
  6
CONTINUOUS
 62
     7
 10
374.21423
 20
46.745865
 11
374.21423
 21
44.119278
  0
LINE
  8
0
  6
CONTINUOUS
 62
     7
 10
462.71423
 20
39.245865
 11
462.71423
 21
27.245867
  0
LINE
  8
0
  6
CONTINUOUS
 62
     7
 10
460.21423
 20
46.745865
 11
460.21423
 21
44.119278
  0
LINE
  8
0
  6
CONTINUOUS
 62
     7
 10
380.7142
 20
133.24586
 11
380.7142
 21
144.24586
  0
LINE
  8
0
  6
CONTINUOUS
 62
     7
 10
382.7142
 20
127.74586
 11
382.7142
 21
129.78175
  0
LINE
  8
0
  6
CONTINUOUS
 62
     7
 10
453.7142
 20
133.24586
 11
453.7142
 21
144.24586
  0
LINE
  8
0
  6
CONTINUOUS
 62
     7
 10
451.7142
 20
127.74586
 11
451.7142
 21
129.78175
  0
LINE
  8
0
  6
CONTINUOUS
 62
     7
 10
471.2142
 20
50.745865
 11
482.2142
 21
50.745865
  0
LINE
  8
0
  6
CONTINUOUS
 62
     7
 10
471.2142
 20
123.74586
 11
482.2142
 21
123.74586
  0
LINE
  8
0
  6
CONTINUOUS
 62
     7
 10
466.21423
 20
52.745865
 11
467.75012
 21
52.745865
  0
LINE
  8
0
  6
CONTINUOUS
 62
     7
 10
457.7142
 20
121.74586
 11
467.75012
 21
121.74586
  0
LINE
  8
0
  6
CONTINUOUS
 62
     7
 10
380.7142
 20
144.24586
 11
453.7142
 21
144.24586
  0
LINE
  8
0
  6
CONTINUOUS
 62
     7
 10
380.7142
 20
133.78175
 11
453.7142
 21
133.78175
  0
LINE
  8
0
  6
CONTINUOUS
 62
     7
 10
371.71423
 20
39.245865
 11
462.71423
 21
39.245865
  0
LINE
  8
0
  6
CONTINUOUS
 62
     7
 10
371.71423
 20
27.245867
 11
462.71423
 21
27.245867
  0
LINE
  8
0
  6
CONTINUOUS
 62
     7
 10
471.2142
 20
50.745865
 11
471.2142
 21
123.74586
  0
LINE
  8
0
  6
CONTINUOUS
 62
     7
 10
482.2142
 20
50.745865
 11
482.2142
 21
123.74586
  0
ARC
  8
0
  6
CONTINUOUS
 62
     7
 10
-206.3954
 20
110.24828
 40
3
 50
359.99999
 51
59.999988
  0
ARC
  8
0
  6
CONTINUOUS
 62
     7
 10
-173.3954
 20
110.24828
 40
3
 50
120
 51
179.99999
  0
ARC
  8
0
  6
CONTINUOUS
 62
     7
 10
-168.49348
 20
108.34637
 40
3
 50
270
 51
329.99999
  0
ARC
  8
0
  6
CONTINUOUS
 62
     7
 10
-168.49348
 20
75.346367
 40
3
 50
30.000001
 51
90.000003
  0
ARC
  8
0
  6
CONTINUOUS
 62
     7
 10
-170.3954
 20
70.44445
 40
3
 50
180.00001
 51
240
  0
ARC
  8
0
  6
CONTINUOUS
 62
     7
 10
-209.3954
 20
70.44445
 40
3
 50
300.00001
 51
0
  0
ARC
  8
0
  6
CONTINUOUS
 62
     7
 10
-173.3954
 20
108.34637
 40
3
 50
179.99998
 51
270.00003
  0
ARC
  8
0
  6
CONTINUOUS
 62
     7
 10
-169.89543
 20
74.846367
 40
3.5
 50
89.999982
 51
179.99996
  0
ARC
  8
0
  6
CONTINUOUS
 62
     7
 10
-361.39539
 20
108.34637
 40
158
 50
349.76312
 51
360
  0
ARC
  8
0
  6
CONTINUOUS
 62
     7
 10
-175.8954
 20
74.846367
 40
30.5
 50
169.76314
 51
179.99996
  0
ARC
  8
0
  6
CONTINUOUS
 62
     7
 10
-124.95704
 20
113.91854
 40
3
 50
359.99999
 51
59.999988
  0
ARC
  8
0
  6
CONTINUOUS
 62
     7
 10
-85.957047
 20
113.91854
 40
3
 50
120
 51
179.99999
  0
ARC
  8
0
  6
CONTINUOUS
 62
     7
 10
-81.957047
 20
66.114716
 40
3
 50
180.00001
 51
240
  0
ARC
  8
0
  6
CONTINUOUS
 62
     7
 10
-128.95703
 20
66.114716
 40
3
 50
300.00001
 51
6.8301892E-006
  0
ARC
  8
0
  6
CONTINUOUS
 62
     7
 10
-79.05513
 20
110.01662
 40
3
 50
270
 51
329.99999
  0
ARC
  8
0
  6
CONTINUOUS
 62
     7
 10
-79.05513
 20
71.016632
 40
3
 50
30.000001
 51
90.000003
  0
ARC
  8
0
  6
CONTINUOUS
 62
     7
 10
-81.457016
 20
70.516632
 40
3.5
 50
89.999982
 51
179.99996
  0
ARC
  8
0
  6
CONTINUOUS
 62
     7
 10
-84.957016
 20
111.01662
 40
4
 50
179.99998
 51
270.00003
  0
ARC
  8
0
  6
CONTINUOUS
 62
     7
 10
-292.48825
 20
111.01662
 40
170.53125
 50
348.7189
 51
360
  0
ARC
  8
0
  6
CONTINUOUS
 62
     7
 10
-89.457008
 20
70.516632
 40
36.5
 50
168.71892
 51
179.99996
  0
ARC
  8
0
  6
CONTINUOUS
 62
     7
 10
15.702189
 20
111.34637
 40
3
 50
270
 51
329.99999
  0
ARC
  8
0
  6
CONTINUOUS
 62
     7
 10
15.702189
 20
72.346367
 40
3
 50
30.000001
 51
90.000003
  0
ARC
  8
0
  6
CONTINUOUS
 62
     7
 10
-35.19973
 20
115.24828
 40
3
 50
359.99999
 51
59.999988
  0
ARC
  8
0
  6
CONTINUOUS
 62
     7
 10
3.8002715
 20
115.24828
 40
3
 50
120
 51
179.99999
  0
ARC
  8
0
  6
CONTINUOUS
 62
     7
 10
12.300273
 20
65.44445
 40
3
 50
180.00001
 51
240
  0
ARC
  8
0
  6
CONTINUOUS
 62
     7
 10
-43.69973
 20
65.44445
 40
3
 50
300.00001
 51
0
  0
ARC
  8
0
  6
CONTINUOUS
 62
     7
 10
4.800302
 20
112.34637
 40
4
 50
179.99998
 51
270.00003
  0
ARC
  8
0
  6
CONTINUOUS
 62
     7
 10
13.300242
 20
71.346367
 40
4
 50
89.999982
 51
179.99996
  0
ARC
  8
0
  6
CONTINUOUS
 62
     7
 10
-98.331383
 20
112.34637
 40
66.131676
 50
336.5749
 51
360
  0
ARC
  8
0
  6
CONTINUOUS
 62
     7
 10
-3.699759
 20
71.346367
 40
37
 50
156.5749
 51
179.99996
  0
ARC
  8
0
  6
CONTINUOUS
 62
     7
 10
107.2143
 20
59.561661
 40
3
 50
180.00001
 51
240
  0
ARC
  8
0
  6
CONTINUOUS
 62
     7
 10
51.214302
 20
59.561661
 40
3
 50
300.00001
 51
6.8301892E-006
  0
ARC
  8
0
  6
CONTINUOUS
 62
     7
 10
55.714298
 20
117.36549
 40
3
 50
359.99999
 51
59.999988
  0
ARC
  8
0
  6
CONTINUOUS
 62
     7
 10
102.7143
 20
117.36549
 40
3
 50
120
 51
179.99999
  0
ARC
  8
0
  6
CONTINUOUS
 62
     7
 10
111.61622
 20
112.46357
 40
3
 50
270
 51
329.99999
  0
ARC
  8
0
  6
CONTINUOUS
 62
     7
 10
111.61622
 20
65.463577
 40
3
 50
30.000008
 51
90.000009
  0
ARC
  8
0
  6
CONTINUOUS
 62
     7
 10
103.7143
 20
113.46355
 40
4
 50
179.99998
 51
270.00003
  0
ARC
  8
0
  6
CONTINUOUS
 62
     7
 10
108.2143
 20
64.463562
 40
4
 50
89.999982
 51
179.99996
  0
ARC
  8
0
  6
CONTINUOUS
 62
     7
 10
-166.28569
 20
113.46355
 40
225
 50
349.824
 51
360
  0
ARC
  8
0
  6
CONTINUOUS
 62
     7
 10
99.214302
 20
64.463562
 40
45
 50
168.13963
 51
179.99996
  0
ARC
  8
0
  6
CONTINUOUS
 62
     7
 10
158.7643
 20
115.16549
 40
3
 50
359.99999
 51
59.999988
  0
ARC
  8
0
  6
CONTINUOUS
 62
     7
 10
197.76431
 20
115.16549
 40
3
 50
120
 51
179.99999
  0
ARC
  8
0
  6
CONTINUOUS
 62
     7
 10
212.66623
 20
111.26357
 40
3
 50
270
 51
329.99999
  0
ARC
  8
0
  6
CONTINUOUS
 62
     7
 10
212.66623
 20
72.263573
 40
3
 50
30.000001
 51
90.000003
  0
ARC
  8
0
  6
CONTINUOUS
 62
     7
 10
210.26431
 20
66.227684
 40
4
 50
180.00001
 51
240
  0
ARC
  8
0
  6
CONTINUOUS
 62
     7
 10
146.2643
 20
66.227684
 40
4
 50
300.00001
 51
0
  0
ARC
  8
0
  6
CONTINUOUS
 62
     7
 10
198.76434
 20
112.26357
 40
4
 50
179.99998
 51
270.00003
  0
ARC
  8
0
  6
CONTINUOUS
 62
     7
 10
210.26431
 20
71.263573
 40
4
 50
89.999982
 51
179.99996
  0
ARC
  8
0
  6
CONTINUOUS
 62
     7
 10
119.92772
 20
112.26357
 40
41.836597
 50
328.66352
 51
360
  0
ARC
  8
0
  6
CONTINUOUS
 62
     7
 10
187.26428
 20
71.263573
 40
37
 50
148.66355
 51
179.99996
  0
ARC
  8
0
  6
CONTINUOUS
 62
     7
 10
-212.06567
 20
-58.936615
 40
3
 50
359.99999
 51
59.999988
  0
ARC
  8
0
  6
CONTINUOUS
 62
     7
 10
-165.06567
 20
-58.936615
 40
3
 50
120
 51
179.99999
  0
ARC
  8
0
  6
CONTINUOUS
 62
     7
 10
-153.16376
 20
-62.838531
 40
3
 50
270
 51
329.99999
  0
ARC
  8
0
  6
CONTINUOUS
 62
     7
 10
-153.16376
 20
-109.83853
 40
3
 50
30.000001
 51
90.000003
  0
ARC
  8
0
  6
CONTINUOUS
 62
     7
 10
-156.56567
 20
-114.87442
 40
4
 50
180.00001
 51
240
  0
ARC
  8
0
  6
CONTINUOUS
 62
     7
 10
-220.56567
 20
-114.87442
 40
4
 50
300.00001
 51
6.8301892E-006
  0
ARC
  8
0
  6
CONTINUOUS
 62
     7
 10
-164.06564
 20
-61.838531
 40
4
 50
179.99998
 51
270.00003
  0
ARC
  8
0
  6
CONTINUOUS
 62
     7
 10
-156.56564
 20
-110.83853
 40
4
 50
89.999982
 51
179.99996
  0
ARC
  8
0
  6
CONTINUOUS
 62
     7
 10
-317.06564
 20
-63.523102
 40
108
 50
341.98589
 51
360
  0
ARC
  8
0
  6
CONTINUOUS
 62
     7
 10
-171.56564
 20
-110.83853
 40
45
 50
161.98591
 51
179.99996
  0
ARC
  8
0
  6
CONTINUOUS
 62
     7
 10
-47.527153
 20
-116.87981
 40
4
 50
180.00001
 51
240
  0
ARC
  8
0
  6
CONTINUOUS
 62
     7
 10
-111.52715
 20
-116.87981
 40
4
 50
300.00001
 51
0
  0
ARC
  8
0
  6
CONTINUOUS
 62
     7
 10
-107.52715
 20
-50.942009
 40
3
 50
359.99999
 51
59.999988
  0
ARC
  8
0
  6
CONTINUOUS
 62
     7
 10
-51.527153
 20
-50.942009
 40
3
 50
120
 51
179.99999
  0
ARC
  8
0
  6
CONTINUOUS
 62
     7
 10
-42.125237
 20
-56.343925
 40
3
 50
270
 51
329.99999
  0
ARC
  8
0
  6
CONTINUOUS
 62
     7
 10
-42.125237
 20
-112.34393
 40
3
 50
30.000001
 51
90.000003
  0
ARC
  8
0
  6
CONTINUOUS
 62
     7
 10
-48.527138
 20
-53.343925
 40
6
 50
179.99998
 51
270.00003
  0
ARC
  8
0
  6
CONTINUOUS
 62
     7
 10
-47.527184
 20
-113.34393
 40
4
 50
89.999982
 51
179.99996
  0
ARC
  8
0
  6
CONTINUOUS
 62
     7
 10
-652.02106
 20
-53.343925
 40
547.4939
 50
354.27513
 51
360
  0
ARC
  8
0
  6
CONTINUOUS
 62
     7
 10
-53.527153
 20
-113.34393
 40
54
 50
174.27516
 51
179.99996
  0
ARC
  8
0
  6
CONTINUOUS
 62
     7
 10
5.5005813
 20
-50.271748
 40
3
 50
359.99999
 51
59.999988
  0
ARC
  8
0
  6
CONTINUOUS
 62
     7
 10
61.50058
 20
-50.271748
 40
3
 50
120
 51
179.99999
  0
ARC
  8
0
  6
CONTINUOUS
 62
     7
 10
76.902496
 20
-57.673664
 40
3
 50
270
 51
329.99999
  0
ARC
  8
0
  6
CONTINUOUS
 62
     7
 10
76.902496
 20
-113.67366
 40
3
 50
30.000001
 51
90.000003
  0
ARC
  8
0
  6
CONTINUOUS
 62
     7
 10
72.00058
 20
-119.20955
 40
4
 50
180.00001
 51
240
  0
ARC
  8
0
  6
CONTINUOUS
 62
     7
 10
-4.9994187
 20
-119.20955
 40
4
 50
300.00001
 51
0
  0
ARC
  8
0
  6
CONTINUOUS
 62
     7
 10
64.50061
 20
-54.673664
 40
6
 50
179.99998
 51
270.00003
  0
ARC
  8
0
  6
CONTINUOUS
 62
     7
 10
73.00058
 20
-115.67366
 40
5
 50
89.999982
 51
179.99996
  0
ARC
  8
0
  6
CONTINUOUS
 62
     7
 10
-137.09027
 20
-54.673664
 40
145.59088
 50
342.29588
 51
360
  0
ARC
  8
0
  6
CONTINUOUS
 62
     7
 10
54.000549
 20
-115.67366
 40
55
 50
162.2959
 51
179.99996
  0
ARC
  8
0
  6
CONTINUOUS
 62
     7
 10
185.02832
 20
-122.54468
 40
4
 50
180.00001
 51
240
  0
ARC
  8
0
  6
CONTINUOUS
 62
     7
 10
108.02831
 20
-122.54468
 40
4
 50
300.00001
 51
0
  0
ARC
  8
0
  6
CONTINUOUS
 62
     7
 10
114.52831
 20
-49.472904
 40
4
 50
359.99999
 51
59.999988
  0
ARC
  8
0
  6
CONTINUOUS
 62
     7
 10
178.52832
 20
-49.472904
 40
4
 50
120
 51
179.99999
  0
ARC
  8
0
  6
CONTINUOUS
 62
     7
 10
189.06422
 20
-53.008793
 40
4
 50
270
 51
329.99999
  0
ARC
  8
0
  6
CONTINUOUS
 62
     7
 10
189.06422
 20
-117.00879
 40
4
 50
30.000001
 51
90.000003
  0
ARC
  8
0
  6
CONTINUOUS
 62
     7
 10
180.52834
 20
-51.008793
 40
6
 50
179.99998
 51
270.00003
  0
ARC
  8
0
  6
CONTINUOUS
 62
     7
 10
186.02831
 20
-118.00879
 40
5
 50
89.999982
 51
179.99996
  0
ARC
  8
0
  6
CONTINUOUS
 62
     7
 10
-169.02774
 20
-51.008793
 40
287.55609
 50
348.91754
 51
360
  0
ARC
  8
0
  6
CONTINUOUS
 62
     7
 10
173.02832
 20
-118.00879
 40
61
 50
168.91757
 51
179.99996
  0
ARC
  8
0
  6
CONTINUOUS
 62
     7
 10
368.2142
 20
44.119278
 40
6
 50
305.68533
 51
6.8301892E-006
  0
ARC
  8
0
  6
CONTINUOUS
 62
     7
 10
466.2142
 20
44.119278
 40
6
 50
180.00001
 51
234.31467
  0
ARC
  8
0
  6
CONTINUOUS
 62
     7
 10
378.7142
 20
129.78175
 40
4
 50
4.07111E-013
 51
59.999988
  0
ARC
  8
0
  6
CONTINUOUS
 62
     7
 10
455.7142
 20
129.78175
 40
4
 50
120
 51
179.99999
  0
ARC
  8
0
  6
CONTINUOUS
 62
     7
 10
467.75012
 20
48.745865
 40
4
 50
30.000011
 51
90.000003
  0
ARC
  8
0
  6
CONTINUOUS
 62
     7
 10
467.75012
 20
125.74586
 40
4
 50
270
 51
330
  0
ARC
  8
0
  6
CONTINUOUS
 62
     7
 10
466.21423
 20
46.745865
 40
6
 50
89.999982
 51
180.00002
  0
ARC
  8
0
  6
CONTINUOUS
 62
     7
 10
457.7142
 20
127.74586
 40
6
 50
180.00004
 51
270.00002
  0
ARC
  8
0
  6
CONTINUOUS
 62
     7
 10
449.21423
 20
46.745865
 40
75
 50
168.01887
 51
180.00002
  0
ARC
  8
0
  6
CONTINUOUS
 62
     7
 10
67.521645
 20
127.74586
 40
315.19254
 50
348.01886
 51
3.9265443E-013
  0
TEXT
  8
0
  6
CONTINUOUS
 62
     7
 10
231.65195
 20
222.90187
 40
15
 41
0.84289037
  1
径違いチーズ（通しの一方のみ大）
  0
TEXT
  8
0
  6
CONTINUOUS
 62
     7
 10
-207.80856
 20
129.60954
 40
5
 41
1.0044643
  1
3/4X1/2X1/2
  0
TEXT
  8
0
  6
CONTINUOUS
 62
     7
 10
-118.12366
 20
133.56798
 40
5
 41
1.0054945
  1
1X3/4X3/4
  0
TEXT
  8
0
  6
CONTINUOUS
 62
     7
 10
-35.43088
 20
137.31178
 40
5
 41
1.0040817
  1
11/4X3/4X3/4
  0
TEXT
  8
0
  6
CONTINUOUS
 62
     7
 10
71.208151
 20
139.32899
 40
5
 41
1.0062112
  1
11/4X1X1
  0
TEXT
  8
0
  6
CONTINUOUS
 62
     7
 10
157.30816
 20
135.32899
 40
5
 41
1.0040817
  1
11/2X3/4X3/4
  0
TEXT
  8
0
  6
CONTINUOUS
 62
     7
 10
-196.57182
 20
-36.1231
 40
5
 41
1.0062112
  1
11/2X1X1
  0
TEXT
  8
0
  6
CONTINUOUS
 62
     7
 10
-103.39546
 20
-24.465637
 40
5
 41
1.0034843
  1
11/2X11/4X11/4
  0
TEXT
  8
0
  6
CONTINUOUS
 62
     7
 10
21.076962
 20
-23.681366
 40
5
 41
1.0044643
  1
2X11/4X11/4
  0
TEXT
  8
0
  6
CONTINUOUS
 62
     7
 10
133.09797
 20
-25.598015
 40
5
 41
1.0044643
  1
2X11/2X11/2
  0
TEXT
  8
0
  6
CONTINUOUS
 62
     7
 10
405.06176
 20
160.66684
 40
5
 41
1.0062112
  1
21/2X2X2
  0
LINE
  8
0
  6
CONTINUOUS
 62
     7
 10
-189.4454
 20
96.346367
 11
-189.4454
 21
95.113767
  0
LINE
  8
0
  6
CONTINUOUS
 62
     7
 10
-190.3454
 20
96.346367
 11
-190.3454
 21
95.113767
  0
LINE
  8
0
  6
CONTINUOUS
 62
     7
 10
-190.3454
 20
88.578967
 11
-190.3454
 21
87.346367
  0
LINE
  8
0
  6
CONTINUOUS
 62
     7
 10
-189.4454
 20
88.578967
 11
-189.4454
 21
87.346367
  0
LINE
  8
0
  6
CONTINUOUS
 62
     7
 10
-190.3454
 20
94.210496
 11
-190.3454
 21
91.846367
  0
LINE
  8
0
  6
CONTINUOUS
 62
     7
 10
-189.4454
 20
94.210496
 11
-189.4454
 21
91.846367
  0
ARC
  8
0
  6
CONTINUOUS
 62
     7
 10
-188.0954
 20
91.846367
 40
1.8
 50
306.00832
 51
53.991676
  0
ARC
  8
0
  6
CONTINUOUS
 62
     7
 10
-188.0954
 20
91.846367
 40
2.7
 50
306.00832
 51
53.991676
  0
ARC
  8
0
  6
CONTINUOUS
 62
     7
 10
-191.6954
 20
91.846367
 40
1.8
 50
126.00833
 51
233.99168
  0
ARC
  8
0
  6
CONTINUOUS
 62
     7
 10
-191.6954
 20
91.846367
 40
2.7
 50
126.00833
 51
233.99168
  0
ARC
  8
0
  6
CONTINUOUS
 62
     7
 10
-189.8954
 20
89.369636
 40
5.7617307
 50
53.991676
 51
85.520553
  0
ARC
  8
0
  6
CONTINUOUS
 62
     7
 10
-189.8954
 20
89.369636
 40
4.8617306
 50
53.991676
 51
84.689121
  0
ARC
  8
0
  6
CONTINUOUS
 62
     7
 10
-189.8954
 20
94.323098
 40
4.8617306
 50
233.99167
 51
306.00832
  0
ARC
  8
0
  6
CONTINUOUS
 62
     7
 10
-189.8954
 20
94.323098
 40
5.7617307
 50
233.99167
 51
265.52055
  0
ARC
  8
0
  6
CONTINUOUS
 62
     7
 10
-189.8954
 20
96.008867
 40
0.5625
 50
36.869897
 51
143.1301
  0
ARC
  8
0
  6
CONTINUOUS
 62
     7
 10
-189.8954
 20
92.183867
 40
0.5625
 50
216.8699
 51
323.1301
  0
ARC
  8
0
  6
CONTINUOUS
 62
     7
 10
-189.8954
 20
87.683867
 40
0.5625
 50
216.8699
 51
323.1301
  0
ARC
  8
0
  6
CONTINUOUS
 62
     7
 10
-189.8954
 20
89.369636
 40
5.7617307
 50
94.479452
 51
126.00833
  0
ARC
  8
0
  6
CONTINUOUS
 62
     7
 10
-189.8954
 20
89.369636
 40
4.8617306
 50
95.310878
 51
126.00833
  0
ARC
  8
0
  6
CONTINUOUS
 62
     7
 10
-189.8954
 20
94.323098
 40
5.7617307
 50
274.47945
 51
306.00832
  0
LINE
  8
0
  6
CONTINUOUS
 62
     7
 10
-104.85704
 20
96.516632
 11
-104.85704
 21
94.873166
  0
LINE
  8
0
  6
CONTINUOUS
 62
     7
 10
-106.05704
 20
96.516632
 11
-106.05704
 21
94.873166
  0
LINE
  8
0
  6
CONTINUOUS
 62
     7
 10
-106.05704
 20
86.160099
 11
-106.05704
 21
84.516632
  0
LINE
  8
0
  6
CONTINUOUS
 62
     7
 10
-104.85704
 20
86.160099
 11
-104.85704
 21
84.516632
  0
LINE
  8
0
  6
CONTINUOUS
 62
     7
 10
-106.05704
 20
93.668804
 11
-106.05704
 21
90.516632
  0
LINE
  8
0
  6
CONTINUOUS
 62
     7
 10
-104.85704
 20
93.668804
 11
-104.85704
 21
90.516632
  0
ARC
  8
0
  6
CONTINUOUS
 62
     7
 10
-103.05704
 20
90.516632
 40
2.4000001
 50
306.00832
 51
53.991676
  0
ARC
  8
0
  6
CONTINUOUS
 62
     7
 10
-103.05704
 20
90.516632
 40
3.5999999
 50
306.00832
 51
53.991676
  0
ARC
  8
0
  6
CONTINUOUS
 62
     7
 10
-107.85704
 20
90.516632
 40
2.4000001
 50
126.00833
 51
233.99168
  0
ARC
  8
0
  6
CONTINUOUS
 62
     7
 10
-107.85704
 20
90.516632
 40
3.5999999
 50
126.00833
 51
233.99168
  0
ARC
  8
0
  6
CONTINUOUS
 62
     7
 10
-105.45704
 20
87.214324
 40
7.6823077
 50
53.991676
 51
85.520553
  0
ARC
  8
0
  6
CONTINUOUS
 62
     7
 10
-105.45704
 20
87.214324
 40
6.4823079
 50
53.991676
 51
84.689121
  0
ARC
  8
0
  6
CONTINUOUS
 62
     7
 10
-105.45704
 20
93.81894
 40
6.4823079
 50
233.99167
 51
306.00832
  0
ARC
  8
0
  6
CONTINUOUS
 62
     7
 10
-105.45704
 20
93.81894
 40
7.6823077
 50
233.99167
 51
265.52055
  0
ARC
  8
0
  6
CONTINUOUS
 62
     7
 10
-105.45704
 20
96.066632
 40
0.75
 50
36.869897
 51
143.1301
  0
ARC
  8
0
  6
CONTINUOUS
 62
     7
 10
-105.45704
 20
90.966632
 40
0.75
 50
216.8699
 51
323.1301
  0
ARC
  8
0
  6
CONTINUOUS
 62
     7
 10
-105.45704
 20
84.966632
 40
0.75
 50
216.8699
 51
323.1301
  0
ARC
  8
0
  6
CONTINUOUS
 62
     7
 10
-105.45704
 20
87.214324
 40
6.4823079
 50
95.310878
 51
126.00833
  0
ARC
  8
0
  6
CONTINUOUS
 62
     7
 10
-105.45704
 20
87.214324
 40
7.6823077
 50
94.479452
 51
126.00833
  0
ARC
  8
0
  6
CONTINUOUS
 62
     7
 10
-105.45704
 20
93.81894
 40
7.6823077
 50
274.47945
 51
306.00832
  0
LINE
  8
0
  6
CONTINUOUS
 62
     7
 10
-15.099729
 20
97.846367
 11
-15.099729
 21
96.2029
  0
LINE
  8
0
  6
CONTINUOUS
 62
     7
 10
-16.299729
 20
97.846367
 11
-16.299729
 21
96.2029
  0
LINE
  8
0
  6
CONTINUOUS
 62
     7
 10
-16.299729
 20
87.489833
 11
-16.299729
 21
85.846367
  0
LINE
  8
0
  6
CONTINUOUS
 62
     7
 10
-15.099729
 20
87.489833
 11
-15.099729
 21
85.846367
  0
LINE
  8
0
  6
CONTINUOUS
 62
     7
 10
-16.299729
 20
94.998539
 11
-16.299729
 21
91.846367
  0
LINE
  8
0
  6
CONTINUOUS
 62
     7
 10
-15.099729
 20
94.998539
 11
-15.099729
 21
91.846367
  0
ARC
  8
0
  6
CONTINUOUS
 62
     7
 10
-13.299729
 20
91.846367
 40
2.4000001
 50
306.00832
 51
53.991676
  0
ARC
  8
0
  6
CONTINUOUS
 62
     7
 10
-13.299729
 20
91.846367
 40
3.5999999
 50
306.00832
 51
53.991676
  0
ARC
  8
0
  6
CONTINUOUS
 62
     7
 10
-18.099729
 20
91.846367
 40
2.4000001
 50
126.00833
 51
233.99168
  0
ARC
  8
0
  6
CONTINUOUS
 62
     7
 10
-18.099729
 20
91.846367
 40
3.5999999
 50
126.00833
 51
233.99168
  0
ARC
  8
0
  6
CONTINUOUS
 62
     7
 10
-15.699729
 20
88.544059
 40
7.6823077
 50
53.991676
 51
85.520553
  0
ARC
  8
0
  6
CONTINUOUS
 62
     7
 10
-15.699729
 20
88.544059
 40
6.4823079
 50
53.991676
 51
84.689121
  0
ARC
  8
0
  6
CONTINUOUS
 62
     7
 10
-15.699729
 20
95.148674
 40
6.4823079
 50
233.99167
 51
306.00832
  0
ARC
  8
0
  6
CONTINUOUS
 62
     7
 10
-15.699729
 20
95.148674
 40
7.6823077
 50
233.99167
 51
265.52055
  0
ARC
  8
0
  6
CONTINUOUS
 62
     7
 10
-15.699729
 20
97.396367
 40
0.75
 50
36.869897
 51
143.1301
  0
ARC
  8
0
  6
CONTINUOUS
 62
     7
 10
-15.699729
 20
92.296367
 40
0.75
 50
216.8699
 51
323.1301
  0
ARC
  8
0
  6
CONTINUOUS
 62
     7
 10
-15.699729
 20
86.296367
 40
0.75
 50
216.8699
 51
323.1301
  0
ARC
  8
0
  6
CONTINUOUS
 62
     7
 10
-15.699729
 20
88.544059
 40
6.4823079
 50
95.310878
 51
126.00833
  0
ARC
  8
0
  6
CONTINUOUS
 62
     7
 10
-15.699729
 20
88.544059
 40
7.6823077
 50
94.479452
 51
126.00833
  0
ARC
  8
0
  6
CONTINUOUS
 62
     7
 10
-15.699729
 20
95.148674
 40
7.6823077
 50
274.47945
 51
306.00832
  0
LINE
  8
0
  6
CONTINUOUS
 62
     7
 10
79.814302
 20
94.963577
 11
79.814302
 21
93.320111
  0
LINE
  8
0
  6
CONTINUOUS
 62
     7
 10
78.614302
 20
94.963577
 11
78.614302
 21
93.320111
  0
LINE
  8
0
  6
CONTINUOUS
 62
     7
 10
78.614302
 20
84.607044
 11
78.614302
 21
82.963577
  0
LINE
  8
0
  6
CONTINUOUS
 62
     7
 10
79.814302
 20
84.607044
 11
79.814302
 21
82.963577
  0
LINE
  8
0
  6
CONTINUOUS
 62
     7
 10
78.614302
 20
92.11575
 11
78.614302
 21
88.963577
  0
LINE
  8
0
  6
CONTINUOUS
 62
     7
 10
79.814302
 20
92.11575
 11
79.814302
 21
88.963577
  0
ARC
  8
0
  6
CONTINUOUS
 62
     7
 10
81.614302
 20
88.963577
 40
2.4000001
 50
306.00832
 51
53.991676
  0
ARC
  8
0
  6
CONTINUOUS
 62
     7
 10
81.614302
 20
88.963577
 40
3.5999999
 50
306.00832
 51
53.991676
  0
ARC
  8
0
  6
CONTINUOUS
 62
     7
 10
76.814302
 20
88.963577
 40
2.4000001
 50
126.00833
 51
233.99168
  0
ARC
  8
0
  6
CONTINUOUS
 62
     7
 10
76.814302
 20
88.963577
 40
3.5999999
 50
126.00833
 51
233.99168
  0
ARC
  8
0
  6
CONTINUOUS
 62
     7
 10
79.214302
 20
85.66127
 40
7.6823077
 50
53.991676
 51
85.520553
  0
ARC
  8
0
  6
CONTINUOUS
 62
     7
 10
79.214302
 20
85.66127
 40
6.4823079
 50
53.991676
 51
84.689121
  0
ARC
  8
0
  6
CONTINUOUS
 62
     7
 10
79.214302
 20
92.265885
 40
6.4823079
 50
233.99167
 51
306.00832
  0
ARC
  8
0
  6
CONTINUOUS
 62
     7
 10
79.214302
 20
92.265885
 40
7.6823077
 50
233.99167
 51
265.52055
  0
ARC
  8
0
  6
CONTINUOUS
 62
     7
 10
79.214302
 20
94.513577
 40
0.75
 50
36.869897
 51
143.1301
  0
ARC
  8
0
  6
CONTINUOUS
 62
     7
 10
79.214302
 20
89.413577
 40
0.75
 50
216.8699
 51
323.1301
  0
ARC
  8
0
  6
CONTINUOUS
 62
     7
 10
79.214302
 20
83.413577
 40
0.75
 50
216.8699
 51
323.1301
  0
ARC
  8
0
  6
CONTINUOUS
 62
     7
 10
79.214302
 20
85.66127
 40
6.4823079
 50
95.310878
 51
126.00833
  0
ARC
  8
0
  6
CONTINUOUS
 62
     7
 10
79.214302
 20
85.66127
 40
7.6823077
 50
94.479452
 51
126.00833
  0
ARC
  8
0
  6
CONTINUOUS
 62
     7
 10
79.214302
 20
92.265885
 40
7.6823077
 50
274.47945
 51
306.00832
  0
LINE
  8
0
  6
CONTINUOUS
 62
     7
 10
178.86431
 20
97.763573
 11
178.86431
 21
96.120106
  0
LINE
  8
0
  6
CONTINUOUS
 62
     7
 10
177.66431
 20
97.763573
 11
177.66431
 21
96.120106
  0
LINE
  8
0
  6
CONTINUOUS
 62
     7
 10
177.66431
 20
87.407039
 11
177.66431
 21
85.763573
  0
LINE
  8
0
  6
CONTINUOUS
 62
     7
 10
178.86431
 20
87.407039
 11
178.86431
 21
85.763573
  0
LINE
  8
0
  6
CONTINUOUS
 62
     7
 10
177.66431
 20
94.915745
 11
177.66431
 21
91.763573
  0
LINE
  8
0
  6
CONTINUOUS
 62
     7
 10
178.86431
 20
94.915745
 11
178.86431
 21
91.763573
  0
ARC
  8
0
  6
CONTINUOUS
 62
     7
 10
180.66431
 20
91.763573
 40
2.4000001
 50
306.00832
 51
53.991676
  0
ARC
  8
0
  6
CONTINUOUS
 62
     7
 10
180.66431
 20
91.763573
 40
3.5999999
 50
306.00832
 51
53.991676
  0
ARC
  8
0
  6
CONTINUOUS
 62
     7
 10
175.86431
 20
91.763573
 40
2.4000001
 50
126.00833
 51
233.99168
  0
ARC
  8
0
  6
CONTINUOUS
 62
     7
 10
175.86431
 20
91.763573
 40
3.5999999
 50
126.00833
 51
233.99168
  0
ARC
  8
0
  6
CONTINUOUS
 62
     7
 10
178.26431
 20
88.461265
 40
7.6823077
 50
53.991676
 51
85.520553
  0
ARC
  8
0
  6
CONTINUOUS
 62
     7
 10
178.26431
 20
88.461265
 40
6.4823079
 50
53.991676
 51
84.689121
  0
ARC
  8
0
  6
CONTINUOUS
 62
     7
 10
178.26431
 20
95.06588
 40
6.4823079
 50
233.99167
 51
306.00832
  0
ARC
  8
0
  6
CONTINUOUS
 62
     7
 10
178.26431
 20
95.06588
 40
7.6823077
 50
233.99167
 51
265.52055
  0
ARC
  8
0
  6
CONTINUOUS
 62
     7
 10
178.26431
 20
97.313573
 40
0.75
 50
36.869897
 51
143.1301
  0
ARC
  8
0
  6
CONTINUOUS
 62
     7
 10
178.26431
 20
92.213573
 40
0.75
 50
216.8699
 51
323.1301
  0
ARC
  8
0
  6
CONTINUOUS
 62
     7
 10
178.26431
 20
86.213573
 40
0.75
 50
216.8699
 51
323.1301
  0
ARC
  8
0
  6
CONTINUOUS
 62
     7
 10
178.26431
 20
88.461265
 40
6.4823079
 50
95.310878
 51
126.00833
  0
ARC
  8
0
  6
CONTINUOUS
 62
     7
 10
178.26431
 20
88.461265
 40
7.6823077
 50
94.479452
 51
126.00833
  0
ARC
  8
0
  6
CONTINUOUS
 62
     7
 10
178.26431
 20
95.06588
 40
7.6823077
 50
274.47945
 51
306.00832
  0
LINE
  8
0
  6
CONTINUOUS
 62
     7
 10
-187.96567
 20
-80.338531
 11
-187.96567
 21
-81.981998
  0
LINE
  8
0
  6
CONTINUOUS
 62
     7
 10
-189.16567
 20
-80.338531
 11
-189.16567
 21
-81.981998
  0
LINE
  8
0
  6
CONTINUOUS
 62
     7
 10
-189.16567
 20
-90.695065
 11
-189.16567
 21
-92.338531
  0
LINE
  8
0
  6
CONTINUOUS
 62
     7
 10
-187.96567
 20
-90.695065
 11
-187.96567
 21
-92.338531
  0
LINE
  8
0
  6
CONTINUOUS
 62
     7
 10
-189.16567
 20
-83.186359
 11
-189.16567
 21
-86.338531
  0
LINE
  8
0
  6
CONTINUOUS
 62
     7
 10
-187.96567
 20
-83.186359
 11
-187.96567
 21
-86.338531
  0
ARC
  8
0
  6
CONTINUOUS
 62
     7
 10
-186.16567
 20
-86.338531
 40
2.4000001
 50
306.00832
 51
53.991676
  0
ARC
  8
0
  6
CONTINUOUS
 62
     7
 10
-186.16567
 20
-86.338531
 40
3.5999999
 50
306.00832
 51
53.991676
  0
ARC
  8
0
  6
CONTINUOUS
 62
     7
 10
-190.96567
 20
-86.338531
 40
2.4000001
 50
126.00833
 51
233.99168
  0
ARC
  8
0
  6
CONTINUOUS
 62
     7
 10
-190.96567
 20
-86.338531
 40
3.5999999
 50
126.00833
 51
233.99168
  0
ARC
  8
0
  6
CONTINUOUS
 62
     7
 10
-188.56567
 20
-89.640839
 40
7.6823077
 50
53.991676
 51
85.520553
  0
ARC
  8
0
  6
CONTINUOUS
 62
     7
 10
-188.56567
 20
-89.640839
 40
6.4823079
 50
53.991676
 51
84.689121
  0
ARC
  8
0
  6
CONTINUOUS
 62
     7
 10
-188.56567
 20
-83.036224
 40
6.4823079
 50
233.99167
 51
306.00832
  0
ARC
  8
0
  6
CONTINUOUS
 62
     7
 10
-188.56567
 20
-83.036224
 40
7.6823077
 50
233.99167
 51
265.52055
  0
ARC
  8
0
  6
CONTINUOUS
 62
     7
 10
-188.56567
 20
-80.788531
 40
0.75
 50
36.869897
 51
143.1301
  0
ARC
  8
0
  6
CONTINUOUS
 62
     7
 10
-188.56567
 20
-85.888532
 40
0.75
 50
216.8699
 51
323.1301
  0
ARC
  8
0
  6
CONTINUOUS
 62
     7
 10
-188.56567
 20
-91.888532
 40
0.75
 50
216.8699
 51
323.1301
  0
ARC
  8
0
  6
CONTINUOUS
 62
     7
 10
-188.56567
 20
-89.640839
 40
6.4823079
 50
95.310878
 51
126.00833
  0
ARC
  8
0
  6
CONTINUOUS
 62
     7
 10
-188.56567
 20
-89.640839
 40
7.6823077
 50
94.479452
 51
126.00833
  0
ARC
  8
0
  6
CONTINUOUS
 62
     7
 10
-188.56567
 20
-83.036224
 40
7.6823077
 50
274.47945
 51
306.00832
  0
LINE
  8
0
  6
CONTINUOUS
 62
     7
 10
-78.927153
 20
-78.343925
 11
-78.927153
 21
-79.987392
  0
LINE
  8
0
  6
CONTINUOUS
 62
     7
 10
-80.127153
 20
-78.343925
 11
-80.127153
 21
-79.987392
  0
LINE
  8
0
  6
CONTINUOUS
 62
     7
 10
-80.127153
 20
-88.700459
 11
-80.127153
 21
-90.343925
  0
LINE
  8
0
  6
CONTINUOUS
 62
     7
 10
-78.927153
 20
-88.700459
 11
-78.927153
 21
-90.343925
  0
LINE
  8
0
  6
CONTINUOUS
 62
     7
 10
-80.127153
 20
-81.191753
 11
-80.127153
 21
-84.343925
  0
LINE
  8
0
  6
CONTINUOUS
 62
     7
 10
-78.927153
 20
-81.191753
 11
-78.927153
 21
-84.343925
  0
ARC
  8
0
  6
CONTINUOUS
 62
     7
 10
-77.127153
 20
-84.343925
 40
2.4000001
 50
306.00832
 51
53.991676
  0
ARC
  8
0
  6
CONTINUOUS
 62
     7
 10
-77.127153
 20
-84.343925
 40
3.5999999
 50
306.00832
 51
53.991676
  0
ARC
  8
0
  6
CONTINUOUS
 62
     7
 10
-81.927153
 20
-84.343925
 40
2.4000001
 50
126.00833
 51
233.99168
  0
ARC
  8
0
  6
CONTINUOUS
 62
     7
 10
-81.927153
 20
-84.343925
 40
3.5999999
 50
126.00833
 51
233.99168
  0
ARC
  8
0
  6
CONTINUOUS
 62
     7
 10
-79.527153
 20
-87.646233
 40
7.6823077
 50
53.991676
 51
85.520553
  0
ARC
  8
0
  6
CONTINUOUS
 62
     7
 10
-79.527153
 20
-87.646233
 40
6.4823079
 50
53.991676
 51
84.689121
  0
ARC
  8
0
  6
CONTINUOUS
 62
     7
 10
-79.527153
 20
-81.041618
 40
6.4823079
 50
233.99167
 51
306.00832
  0
ARC
  8
0
  6
CONTINUOUS
 62
     7
 10
-79.527153
 20
-81.041618
 40
7.6823077
 50
233.99167
 51
265.52055
  0
ARC
  8
0
  6
CONTINUOUS
 62
     7
 10
-79.527153
 20
-78.793925
 40
0.75
 50
36.869897
 51
143.1301
  0
ARC
  8
0
  6
CONTINUOUS
 62
     7
 10
-79.527153
 20
-83.893925
 40
0.75
 50
216.8699
 51
323.1301
  0
ARC
  8
0
  6
CONTINUOUS
 62
     7
 10
-79.527153
 20
-89.893926
 40
0.75
 50
216.8699
 51
323.1301
  0
ARC
  8
0
  6
CONTINUOUS
 62
     7
 10
-79.527153
 20
-87.646233
 40
6.4823079
 50
95.310878
 51
126.00833
  0
ARC
  8
0
  6
CONTINUOUS
 62
     7
 10
-79.527153
 20
-87.646233
 40
7.6823077
 50
94.479452
 51
126.00833
  0
ARC
  8
0
  6
CONTINUOUS
 62
     7
 10
-79.527153
 20
-81.041618
 40
7.6823077
 50
274.47945
 51
306.00832
  0
LINE
  8
0
  6
CONTINUOUS
 62
     7
 10
34.25058
 20
-78.17366
 11
34.25058
 21
-80.227993
  0
LINE
  8
0
  6
CONTINUOUS
 62
     7
 10
32.75058
 20
-78.17366
 11
32.75058
 21
-80.227993
  0
LINE
  8
0
  6
CONTINUOUS
 62
     7
 10
32.75058
 20
-91.119328
 11
32.75058
 21
-93.17366
  0
LINE
  8
0
  6
CONTINUOUS
 62
     7
 10
34.25058
 20
-91.119328
 11
34.25058
 21
-93.17366
  0
LINE
  8
0
  6
CONTINUOUS
 62
     7
 10
32.75058
 20
-81.733445
 11
32.75058
 21
-85.67366
  0
LINE
  8
0
  6
CONTINUOUS
 62
     7
 10
34.25058
 20
-81.733445
 11
34.25058
 21
-85.67366
  0
ARC
  8
0
  6
CONTINUOUS
 62
     7
 10
36.50058
 20
-85.67366
 40
3
 50
306.00832
 51
53.991676
  0
ARC
  8
0
  6
CONTINUOUS
 62
     7
 10
36.50058
 20
-85.67366
 40
4.5
 50
306.00832
 51
53.991676
  0
ARC
  8
0
  6
CONTINUOUS
 62
     7
 10
30.50058
 20
-85.67366
 40
3
 50
126.00833
 51
233.99168
  0
ARC
  8
0
  6
CONTINUOUS
 62
     7
 10
30.50058
 20
-85.67366
 40
4.5
 50
126.00833
 51
233.99168
  0
ARC
  8
0
  6
CONTINUOUS
 62
     7
 10
33.50058
 20
-89.801545
 40
9.6028843
 50
53.991676
 51
85.520553
  0
ARC
  8
0
  6
CONTINUOUS
 62
     7
 10
33.50058
 20
-89.801545
 40
8.1028843
 50
53.991676
 51
84.689121
  0
ARC
  8
0
  6
CONTINUOUS
 62
     7
 10
33.50058
 20
-81.545776
 40
8.1028843
 50
233.99167
 51
306.00832
  0
ARC
  8
0
  6
CONTINUOUS
 62
     7
 10
33.50058
 20
-81.545776
 40
9.6028843
 50
233.99167
 51
265.52055
  0
ARC
  8
0
  6
CONTINUOUS
 62
     7
 10
33.50058
 20
-78.73616
 40
0.9375
 50
36.869897
 51
143.1301
  0
ARC
  8
0
  6
CONTINUOUS
 62
     7
 10
33.50058
 20
-85.11116
 40
0.9375
 50
216.8699
 51
323.1301
  0
ARC
  8
0
  6
CONTINUOUS
 62
     7
 10
33.50058
 20
-92.61116
 40
0.9375
 50
216.8699
 51
323.1301
  0
ARC
  8
0
  6
CONTINUOUS
 62
     7
 10
33.50058
 20
-89.801545
 40
9.6028843
 50
94.479452
 51
126.00833
  0
ARC
  8
0
  6
CONTINUOUS
 62
     7
 10
33.50058
 20
-89.801545
 40
8.1028843
 50
95.310878
 51
126.00833
  0
ARC
  8
0
  6
CONTINUOUS
 62
     7
 10
33.50058
 20
-81.545776
 40
9.6028843
 50
274.47945
 51
306.00832
  0
LINE
  8
0
  6
CONTINUOUS
 62
     7
 10
147.27832
 20
-77.508797
 11
147.27832
 21
-79.563129
  0
LINE
  8
0
  6
CONTINUOUS
 62
     7
 10
145.77832
 20
-77.508797
 11
145.77832
 21
-79.563129
  0
LINE
  8
0
  6
CONTINUOUS
 62
     7
 10
145.77832
 20
-90.454464
 11
145.77832
 21
-92.508797
  0
LINE
  8
0
  6
CONTINUOUS
 62
     7
 10
147.27832
 20
-90.454464
 11
147.27832
 21
-92.508797
  0
LINE
  8
0
  6
CONTINUOUS
 62
     7
 10
145.77832
 20
-81.068581
 11
145.77832
 21
-85.008797
  0
LINE
  8
0
  6
CONTINUOUS
 62
     7
 10
147.27832
 20
-81.068581
 11
147.27832
 21
-85.008797
  0
ARC
  8
0
  6
CONTINUOUS
 62
     7
 10
149.52832
 20
-85.008797
 40
3
 50
306.00832
 51
53.991676
  0
ARC
  8
0
  6
CONTINUOUS
 62
     7
 10
149.52832
 20
-85.008797
 40
4.5
 50
306.00832
 51
53.991676
  0
ARC
  8
0
  6
CONTINUOUS
 62
     7
 10
143.52832
 20
-85.008797
 40
3
 50
126.00833
 51
233.99168
  0
ARC
  8
0
  6
CONTINUOUS
 62
     7
 10
143.52832
 20
-85.008797
 40
4.5
 50
126.00833
 51
233.99168
  0
ARC
  8
0
  6
CONTINUOUS
 62
     7
 10
146.52832
 20
-89.136681
 40
9.6028843
 50
53.991676
 51
85.520553
  0
ARC
  8
0
  6
CONTINUOUS
 62
     7
 10
146.52832
 20
-89.136681
 40
8.1028843
 50
53.991676
 51
84.689121
  0
ARC
  8
0
  6
CONTINUOUS
 62
     7
 10
146.52832
 20
-80.880912
 40
8.1028843
 50
233.99167
 51
306.00832
  0
ARC
  8
0
  6
CONTINUOUS
 62
     7
 10
146.52832
 20
-80.880912
 40
9.6028843
 50
233.99167
 51
265.52055
  0
ARC
  8
0
  6
CONTINUOUS
 62
     7
 10
146.52832
 20
-78.071297
 40
0.9375
 50
36.869897
 51
143.1301
  0
ARC
  8
0
  6
CONTINUOUS
 62
     7
 10
146.52832
 20
-84.446297
 40
0.9375
 50
216.8699
 51
323.1301
  0
ARC
  8
0
  6
CONTINUOUS
 62
     7
 10
146.52832
 20
-91.946297
 40
0.9375
 50
216.8699
 51
323.1301
  0
ARC
  8
0
  6
CONTINUOUS
 62
     7
 10
146.52832
 20
-89.136681
 40
9.6028843
 50
94.479452
 51
126.00833
  0
ARC
  8
0
  6
CONTINUOUS
 62
     7
 10
146.52832
 20
-89.136681
 40
8.1028843
 50
95.310878
 51
126.00833
  0
ARC
  8
0
  6
CONTINUOUS
 62
     7
 10
146.52832
 20
-80.880912
 40
9.6028843
 50
274.47945
 51
306.00832
  0
LINE
  8
0
  6
CONTINUOUS
 62
     7
 10
417.9642
 20
94.745865
 11
417.9642
 21
92.691532
  0
LINE
  8
0
  6
CONTINUOUS
 62
     7
 10
416.4642
 20
94.745865
 11
416.4642
 21
92.691532
  0
LINE
  8
0
  6
CONTINUOUS
 62
     7
 10
416.4642
 20
81.800198
 11
416.4642
 21
79.745865
  0
LINE
  8
0
  6
CONTINUOUS
 62
     7
 10
417.9642
 20
81.800198
 11
417.9642
 21
79.745865
  0
LINE
  8
0
  6
CONTINUOUS
 62
     7
 10
416.4642
 20
91.18608
 11
416.4642
 21
87.245865
  0
LINE
  8
0
  6
CONTINUOUS
 62
     7
 10
417.9642
 20
91.18608
 11
417.9642
 21
87.245865
  0
ARC
  8
0
  6
CONTINUOUS
 62
     7
 10
420.2142
 20
87.245865
 40
3
 50
306.00832
 51
53.991676
  0
ARC
  8
0
  6
CONTINUOUS
 62
     7
 10
420.2142
 20
87.245865
 40
4.5
 50
306.00832
 51
53.991676
  0
ARC
  8
0
  6
CONTINUOUS
 62
     7
 10
414.2142
 20
87.245865
 40
3
 50
126.00833
 51
233.99168
  0
ARC
  8
0
  6
CONTINUOUS
 62
     7
 10
414.2142
 20
87.245865
 40
4.5
 50
126.00833
 51
233.99168
  0
ARC
  8
0
  6
CONTINUOUS
 62
     7
 10
417.2142
 20
83.11798
 40
9.6028843
 50
53.991676
 51
85.520553
  0
ARC
  8
0
  6
CONTINUOUS
 62
     7
 10
417.2142
 20
83.11798
 40
8.1028843
 50
53.991676
 51
84.689121
  0
ARC
  8
0
  6
CONTINUOUS
 62
     7
 10
417.2142
 20
91.373749
 40
8.1028843
 50
233.99167
 51
306.00832
  0
ARC
  8
0
  6
CONTINUOUS
 62
     7
 10
417.2142
 20
91.373749
 40
9.6028843
 50
233.99167
 51
265.52055
  0
ARC
  8
0
  6
CONTINUOUS
 62
     7
 10
417.2142
 20
94.183365
 40
0.9375
 50
36.869897
 51
143.1301
  0
ARC
  8
0
  6
CONTINUOUS
 62
     7
 10
417.2142
 20
87.808365
 40
0.9375
 50
216.8699
 51
323.1301
  0
ARC
  8
0
  6
CONTINUOUS
 62
     7
 10
417.2142
 20
80.308365
 40
0.9375
 50
216.8699
 51
323.1301
  0
ARC
  8
0
  6
CONTINUOUS
 62
     7
 10
417.2142
 20
83.11798
 40
9.6028843
 50
94.479452
 51
126.00833
  0
ARC
  8
0
  6
CONTINUOUS
 62
     7
 10
417.2142
 20
83.11798
 40
8.1028843
 50
95.310878
 51
126.00833
  0
ARC
  8
0
  6
CONTINUOUS
 62
     7
 10
417.2142
 20
91.373749
 40
9.6028843
 50
274.47945
 51
306.00832
  0
ENDSEC
  0
EOF
