  0
SECTION
  2
HEADER
  9
$EXTMAX
 10
1264
 20
302.5
  9
$EXTMIN
 10
-434
 20
-907.5
  0
ENDSEC
  0
SECTION
  2
TABLES
  0
TABLE
  2
LTYPE
 70
    22
  0
LTYPE
  2
CONTINUOUS
 70
    64
  3
Solid line
 72
    65
 73
     0
 40
0.000000
  0
LTYPE
  2
DASHED
 70
    64
  3
__ __ __ __ __ __ __ __ __ __ __ __ __ __ __
 72
    65
 73
     2
 40
3.500000
 49
2.000000
 49
-1.500000
  0
LTYPE
  2
CENTER
 70
    64
  3
____ _ ____ _ ____ _ ____ _ ____ _ ____ _ ____
 72
    65
 73
     4
 40
17.500000
 49
13.000000
 49
-1.500000
 49
1.500000
 49
-1.500000
  0
LTYPE
  2
PHANTOM
 70
    64
  3
_____ _ _ _____ _ _ _____ _ _ _____ _ _ ____  
 72
    65
 73
     6
 40
15.500000
 49
8.000000
 49
-1.500000
 49
1.500000
 49
-1.500000
 49
1.500000
 49
-1.500000
  0
LTYPE
  2
DOT
 70
    64
  3
. . . . . . . . . . . . . . . . . . . . . . . .
 72
    65
 73
     2
 40
0.25
 49
0.0
 49
-0.25
  0
ENDTAB
  0
TABLE
  2
LAYER
 70
     2
  0
LAYER
  2
0
 70
     0
 62
     7
  6
CONTINUOUS
  0
LAYER
  2
1
 70
     0
 62
     7
  6
CONTINUOUS
  0
ENDTAB
  0
TABLE
  2
STYLE
 70
     1
  0
STYLE
  2
STANDARD
 70
     0
 40
0.000000
 41
1.000000
 50
0.000000
 71
     0
 42
0.200000
  3
txt
  4
BIGFONT
  0
ENDTAB
  0
TABLE
  2
VIEW
 70
     0
  0
ENDTAB
  0
ENDSEC
  0
SECTION
  2
BLOCKS
  0
ENDSEC
  0
SECTION
  2
ENTITIES
  0
POINT
  8
0
  6
CONTINUOUS
 62
     7
 10
611.96338
 20
-1059.574
  0
POINT
  8
0
  6
CONTINUOUS
 62
     7
 10
200.52797
 20
-1069.609
  0
POINT
  8
0
  6
CONTINUOUS
 62
     7
 10
-298.71378
 20
-1072.1177
  0
POINT
  8
0
  6
CONTINUOUS
 62
     7
 10
-140.66235
 20
-1069.609
  0
POINT
  8
0
  6
CONTINUOUS
 62
     7
 10
22.406546
 20
-1067.1002
  0
POINT
  8
0
  6
CONTINUOUS
 62
     7
 10
-75.434799
 20
-1270.3092
  0
POINT
  8
0
  6
CONTINUOUS
 62
     7
 10
-291.1875
 20
-1275.3267
  0
POINT
  8
0
  6
CONTINUOUS
 62
     7
 10
175.44044
 20
-1267.8004
  0
POINT
  8
0
  6
CONTINUOUS
 62
     7
 10
960.67993
 20
-1067.1002
  0
POINT
  8
0
  6
CONTINUOUS
 62
     7
 10
719.83972
 20
-1363.1331
  0
POINT
  8
0
  6
CONTINUOUS
 62
     7
 10
793.8479
 20
-1807.1821
  0
POINT
  8
0
  6
CONTINUOUS
 62
     7
 10
-41.566643
 20
-1804.6735
  0
POINT
  8
0
  6
CONTINUOUS
 62
     7
 10
-317.81863
 20
-9.432209
  0
POINT
  8
0
  6
CONTINUOUS
 62
     7
 10
-223.11108
 20
-9.432209
  0
POINT
  8
0
  6
CONTINUOUS
 62
     7
 10
-123.30022
 20
-9.432209
  0
POINT
  8
0
  6
CONTINUOUS
 62
     7
 10
-31.61532
 20
-9.432209
  0
POINT
  8
0
  6
CONTINUOUS
 62
     7
 10
84.913254
 20
-9.432209
  0
POINT
  8
0
  6
CONTINUOUS
 62
     7
 10
194.70819
 20
-9.432209
  0
POINT
  8
0
  6
CONTINUOUS
 62
     7
 10
294.70819
 20
-9.432209
  0
POINT
  8
0
  6
CONTINUOUS
 62
     7
 10
529.28778
 20
-9.432209
  0
POINT
  8
0
  6
CONTINUOUS
 62
     7
 10
679.28778
 20
-9.432209
  0
POINT
  8
0
  6
CONTINUOUS
 62
     7
 10
829.28778
 20
-9.432209
  0
POINT
  8
0
  6
CONTINUOUS
 62
     7
 10
979.28778
 20
-9.432209
  0
POINT
  8
0
  6
CONTINUOUS
 62
     7
 10
1129.2878
 20
-9.432209
  0
POINT
  8
0
  6
CONTINUOUS
 62
     7
 10
-327.41635
 20
-628.03271
  0
POINT
  8
0
  6
CONTINUOUS
 62
     7
 10
-232.7088
 20
-628.03271
  0
POINT
  8
0
  6
CONTINUOUS
 62
     7
 10
-132.89793
 20
-628.03271
  0
POINT
  8
0
  6
CONTINUOUS
 62
     7
 10
-41.213032
 20
-628.03271
  0
POINT
  8
0
  6
CONTINUOUS
 62
     7
 10
75.315544
 20
-628.03271
  0
POINT
  8
0
  6
CONTINUOUS
 62
     7
 10
185.11047
 20
-628.03271
  0
POINT
  8
0
  6
CONTINUOUS
 62
     7
 10
285.11047
 20
-628.03271
  0
POINT
  8
0
  6
CONTINUOUS
 62
     7
 10
519.69006
 20
-627.83984
  0
POINT
  8
0
  6
CONTINUOUS
 62
     7
 10
669.69006
 20
-627.83984
  0
POINT
  8
0
  6
CONTINUOUS
 62
     7
 10
819.69006
 20
-627.83984
  0
POINT
  8
0
  6
CONTINUOUS
 62
     7
 10
969.69006
 20
-627.83984
  0
POINT
  8
0
  6
CONTINUOUS
 62
     7
 10
1119.6901
 20
-627.83984
  0
LINE
  8
0
  6
CONTINUOUS
 62
     7
 10
-340.06863
 20
10.067791
 11
-340.06863
 21
-28.932209
  0
LINE
  8
0
  6
CONTINUOUS
 62
     7
 10
-330.83951
 20
19.567791
 11
-322.56863
 21
19.567791
  0
LINE
  8
0
  6
CENTER
 62
     7
 10
-317.81863
 20
33.900249
 11
-317.81863
 21
-49.943226
  0
LINE
  8
0
  6
CONTINUOUS
 62
     7
 10
-340.06866
 20
10.067816
 11
-334.01935
 21
17.994513
  0
LINE
  8
0
  6
CONTINUOUS
 62
     7
 10
-340.06863
 20
6.5677915
 11
-317.81863
 21
6.5677915
  0
LINE
  8
0
  6
CONTINUOUS
 62
     7
 10
-265.96378
 20
-1040.1177
 11
-262.71378
 21
-1040.1177
  0
LINE
  8
0
  6
CONTINUOUS
 62
     7
 10
-267.46378
 20
-1041.6177
 11
-262.71378
 21
-1041.6177
  0
LINE
  8
0
  6
CONTINUOUS
 62
     7
 10
-267.46378
 20
-1041.6177
 11
-267.46378
 21
-1047.0177
  0
LINE
  8
0
  6
CONTINUOUS
 62
     7
 10
-267.46371
 20
-1041.6177
 11
-265.96368
 21
-1040.1177
  0
LINE
  8
0
  6
CONTINUOUS
 62
     7
 10
-265.96378
 20
-1040.1177
 11
-265.96378
 21
-1047.0177
  0
LINE
  8
0
  6
CONTINUOUS
 62
     7
 10
-272.81375
 20
-1048.5344
 11
-272.81375
 21
-1055.1085
  0
LINE
  8
0
  6
CONTINUOUS
 62
     7
 10
-270.18686
 20
-1047.0177
 11
-262.71378
 21
-1047.0177
  0
LINE
  8
0
  6
CONTINUOUS
 62
     7
 10
-267.55991
 20
-1048.5344
 11
-267.55991
 21
-1054.6011
  0
LINE
  8
0
  6
CONTINUOUS
 62
     7
 10
-340.06863
 20
-25.432209
 11
-317.81863
 21
-25.432209
  0
LINE
  8
0
  6
CONTINUOUS
 62
     7
 10
-332.81863
 20
17.281017
 11
-332.81863
 21
9.567791
  0
LINE
  8
0
  6
CONTINUOUS
 62
     7
 10
-340.06863
 20
-28.932234
 11
-334.01932
 21
-36.85894
  0
LINE
  8
0
  6
CONTINUOUS
 62
     7
 10
-330.83951
 20
-38.432209
 11
-304.79776
 21
-38.432209
  0
LINE
  8
0
  6
CONTINUOUS
 62
     7
 10
-340.06863
 20
-9.432209
 11
-325.81863
 21
-9.432209
  0
LINE
  8
0
  6
CONTINUOUS
 62
     7
 10
-322.56863
 20
-2.5285528
 11
-322.56863
 21
-16.335865
  0
LINE
  8
0
  6
CONTINUOUS
 62
     7
 10
-332.81863
 20
-36.145435
 11
-332.81863
 21
-28.432209
  0
LINE
  8
0
  6
CENTER
 62
     7
 10
-287.41251
 20
-9.432209
 11
-352.78519
 21
-9.432209
  0
LINE
  8
0
  6
CONTINUOUS
 62
     7
 10
-295.56863
 20
10.067791
 11
-295.56863
 21
-28.932209
  0
LINE
  8
0
  6
CONTINUOUS
 62
     7
 10
-304.79776
 20
19.567791
 11
-313.06863
 21
19.567791
  0
LINE
  8
0
  6
CONTINUOUS
 62
     7
 10
-295.56857
 20
10.067773
 11
-301.61792
 21
17.994482
  0
LINE
  8
0
  6
CONTINUOUS
 62
     7
 10
-295.56863
 20
6.5677915
 11
-317.81863
 21
6.5677915
  0
LINE
  8
0
  6
CONTINUOUS
 62
     7
 10
-259.46378
 20
-1040.1177
 11
-262.71378
 21
-1040.1177
  0
LINE
  8
0
  6
CONTINUOUS
 62
     7
 10
-257.96378
 20
-1041.6177
 11
-262.71378
 21
-1041.6177
  0
LINE
  8
0
  6
CONTINUOUS
 62
     7
 10
-257.96378
 20
-1041.6177
 11
-257.96378
 21
-1047.0177
  0
LINE
  8
0
  6
CONTINUOUS
 62
     7
 10
-257.96368
 20
-1041.6177
 11
-259.46368
 21
-1040.1177
  0
LINE
  8
0
  6
CONTINUOUS
 62
     7
 10
-259.46378
 20
-1040.1177
 11
-259.46378
 21
-1047.0177
  0
LINE
  8
0
  6
CONTINUOUS
 62
     7
 10
-252.61372
 20
-1048.5344
 11
-252.61372
 21
-1054.6011
  0
LINE
  8
0
  6
CONTINUOUS
 62
     7
 10
-255.24068
 20
-1047.0177
 11
-262.71378
 21
-1047.0177
  0
LINE
  8
0
  6
CONTINUOUS
 62
     7
 10
-257.86765
 20
-1048.5344
 11
-257.86765
 21
-1054.6011
  0
LINE
  8
0
  6
CONTINUOUS
 62
     7
 10
-254.06374
 20
-1088.1177
 11
-254.06374
 21
-1088.3798
  0
LINE
  8
0
  6
CONTINUOUS
 62
     7
 10
-295.56863
 20
-25.432209
 11
-317.81863
 21
-25.432209
  0
LINE
  8
0
  6
CONTINUOUS
 62
     7
 10
-302.81863
 20
17.281017
 11
-302.81863
 21
9.567791
  0
LINE
  8
0
  6
CONTINUOUS
 62
     7
 10
-295.5686
 20
-28.932213
 11
-301.61792
 21
-36.85891
  0
LINE
  8
0
  6
CONTINUOUS
 62
     7
 10
-295.56863
 20
-9.432209
 11
-309.81863
 21
-9.432209
  0
LINE
  8
0
  6
CONTINUOUS
 62
     7
 10
-313.06863
 20
-2.5285528
 11
-313.06863
 21
-16.335865
  0
LINE
  8
0
  6
CONTINUOUS
 62
     7
 10
-302.81863
 20
-36.145435
 11
-302.81863
 21
-28.432209
  0
LINE
  8
0
  6
CONTINUOUS
 62
     7
 10
-245.36108
 20
6.5677915
 11
-223.11108
 21
6.5677915
  0
LINE
  8
0
  6
CONTINUOUS
 62
     7
 10
-101.91236
 20
-1037.609
 11
-98.662361
 21
-1037.609
  0
LINE
  8
0
  6
CONTINUOUS
 62
     7
 10
-103.41236
 20
-1039.109
 11
-98.662361
 21
-1039.109
  0
LINE
  8
0
  6
CONTINUOUS
 62
     7
 10
-103.41236
 20
-1039.109
 11
-103.41236
 21
-1044.509
  0
LINE
  8
0
  6
CONTINUOUS
 62
     7
 10
-103.41234
 20
-1039.109
 11
-101.91237
 21
-1037.609
  0
LINE
  8
0
  6
CONTINUOUS
 62
     7
 10
-101.91236
 20
-1037.609
 11
-101.91236
 21
-1044.509
  0
LINE
  8
0
  6
CONTINUOUS
 62
     7
 10
-108.7624
 20
-1046.0256
 11
-108.7624
 21
-1051.5686
  0
LINE
  8
0
  6
CONTINUOUS
 62
     7
 10
-106.13544
 20
-1044.509
 11
-98.662361
 21
-1044.509
  0
LINE
  8
0
  6
CONTINUOUS
 62
     7
 10
-103.50849
 20
-1046.0256
 11
-103.50849
 21
-1052.0923
  0
LINE
  8
0
  6
CONTINUOUS
 62
     7
 10
-245.36108
 20
-25.43224
 11
-223.11108
 21
-25.43224
  0
LINE
  8
0
  6
CONTINUOUS
 62
     7
 10
-245.36108
 20
-9.432209
 11
-229.56177
 21
-9.432209
  0
LINE
  8
0
  6
CONTINUOUS
 62
     7
 10
-227.86108
 20
-4.5699649
 11
-227.86108
 21
-14.294483
  0
LINE
  8
0
  6
CENTER
 62
     7
 10
-252.39957
 20
-9.432209
 11
-192.19957
 21
-9.432209
  0
LINE
  8
0
  6
CONTINUOUS
 62
     7
 10
-245.86108
 20
14.567791
 11
-245.86108
 21
-33.432209
  0
LINE
  8
0
  6
CONTINUOUS
 62
     7
 10
-235.77731
 20
23.817791
 11
-210.4449
 21
23.817791
  0
LINE
  8
0
  6
CENTER
 62
     7
 10
-223.11108
 20
38.126598
 11
-223.11108
 21
-53.108692
  0
LINE
  8
0
  6
CONTINUOUS
 62
     7
 10
-245.86113
 20
14.567788
 11
-239.60994
 21
22.028894
  0
LINE
  8
0
  6
CONTINUOUS
 62
     7
 10
-238.11108
 20
19.685436
 11
-238.11108
 21
9.567791
  0
LINE
  8
0
  6
CONTINUOUS
 62
     7
 10
-235.77731
 20
-42.682209
 11
-210.4449
 21
-42.682209
  0
LINE
  8
0
  6
CONTINUOUS
 62
     7
 10
-245.86108
 20
-33.432236
 11
-239.60989
 21
-40.893326
  0
LINE
  8
0
  6
CONTINUOUS
 62
     7
 10
-238.11108
 20
-38.549854
 11
-238.11108
 21
-28.432209
  0
LINE
  8
0
  6
CONTINUOUS
 62
     7
 10
-231.76108
 20
-25.43224
 11
-231.76108
 21
-25.694324
  0
LINE
  8
0
  6
CONTINUOUS
 62
     7
 10
-200.8611
 20
6.5677915
 11
-223.11108
 21
6.5677915
  0
LINE
  8
0
  6
CONTINUOUS
 62
     7
 10
-95.412361
 20
-1037.609
 11
-98.662361
 21
-1037.609
  0
LINE
  8
0
  6
CONTINUOUS
 62
     7
 10
-93.912361
 20
-1039.109
 11
-98.662361
 21
-1039.109
  0
LINE
  8
0
  6
CONTINUOUS
 62
     7
 10
-93.912361
 20
-1039.109
 11
-93.912361
 21
-1044.509
  0
LINE
  8
0
  6
CONTINUOUS
 62
     7
 10
-93.912361
 20
-1039.109
 11
-95.412376
 21
-1037.609
  0
LINE
  8
0
  6
CONTINUOUS
 62
     7
 10
-95.412361
 20
-1037.609
 11
-95.412361
 21
-1044.509
  0
LINE
  8
0
  6
CONTINUOUS
 62
     7
 10
-88.562386
 20
-1046.0256
 11
-88.562386
 21
-1052.0923
  0
LINE
  8
0
  6
CONTINUOUS
 62
     7
 10
-91.189339
 20
-1044.509
 11
-98.662361
 21
-1044.509
  0
LINE
  8
0
  6
CONTINUOUS
 62
     7
 10
-93.816292
 20
-1046.0256
 11
-93.816292
 21
-1052.0923
  0
LINE
  8
0
  6
CONTINUOUS
 62
     7
 10
-200.8611
 20
-25.43224
 11
-223.11108
 21
-25.43224
  0
LINE
  8
0
  6
CONTINUOUS
 62
     7
 10
-200.8611
 20
-9.432209
 11
-216.66045
 21
-9.432209
  0
LINE
  8
0
  6
CONTINUOUS
 62
     7
 10
-218.3611
 20
-4.5699649
 11
-218.3611
 21
-14.294483
  0
LINE
  8
0
  6
CONTINUOUS
 62
     7
 10
-200.3611
 20
14.567791
 11
-200.3611
 21
-33.432209
  0
LINE
  8
0
  6
CONTINUOUS
 62
     7
 10
-200.36108
 20
14.567736
 11
-206.6123
 21
22.028866
  0
LINE
  8
0
  6
CONTINUOUS
 62
     7
 10
-208.1111
 20
19.685436
 11
-208.1111
 21
9.567791
  0
LINE
  8
0
  6
CONTINUOUS
 62
     7
 10
-200.36111
 20
-33.432205
 11
-206.6123
 21
-40.893299
  0
LINE
  8
0
  6
CONTINUOUS
 62
     7
 10
-208.1111
 20
-38.549854
 11
-208.1111
 21
-28.432209
  0
LINE
  8
0
  6
CONTINUOUS
 62
     7
 10
-214.46111
 20
-25.43224
 11
-214.46111
 21
-25.694324
  0
LINE
  8
0
  6
CONTINUOUS
 62
     7
 10
-54.865318
 20
6.5677915
 11
-31.61532
 21
6.5677915
  0
LINE
  8
0
  6
CONTINUOUS
 62
     7
 10
249.77797
 20
-1037.609
 11
253.02797
 21
-1037.609
  0
LINE
  8
0
  6
CONTINUOUS
 62
     7
 10
248.27797
 20
-1039.109
 11
253.02797
 21
-1039.109
  0
LINE
  8
0
  6
CONTINUOUS
 62
     7
 10
248.27797
 20
-1039.109
 11
248.27797
 21
-1044.509
  0
LINE
  8
0
  6
CONTINUOUS
 62
     7
 10
248.27798
 20
-1039.109
 11
249.778
 21
-1037.609
  0
LINE
  8
0
  6
CONTINUOUS
 62
     7
 10
249.77797
 20
-1037.609
 11
249.77797
 21
-1044.509
  0
LINE
  8
0
  6
CONTINUOUS
 62
     7
 10
242.92793
 20
-1046.0256
 11
242.92793
 21
-1049.8651
  0
LINE
  8
0
  6
CONTINUOUS
 62
     7
 10
245.55489
 20
-1044.509
 11
253.02797
 21
-1044.509
  0
LINE
  8
0
  6
CONTINUOUS
 62
     7
 10
248.18184
 20
-1046.0256
 11
248.18184
 21
-1051.8126
  0
LINE
  8
0
  6
CONTINUOUS
 62
     7
 10
-54.865318
 20
-25.43224
 11
-31.61532
 21
-25.43224
  0
LINE
  8
0
  6
CONTINUOUS
 62
     7
 10
-54.865318
 20
-9.432209
 11
-40.152885
 21
-9.432209
  0
LINE
  8
0
  6
CONTINUOUS
 62
     7
 10
-36.365318
 20
-2.0548284
 11
-36.365318
 21
-16.809589
  0
LINE
  8
0
  6
CENTER
 62
     7
 10
-31.61532
 20
38.879223
 11
-31.61532
 21
-63.299854
  0
LINE
  8
0
  6
CENTER
 62
     7
 10
-69.303795
 20
-9.432209
 11
3.8461971
 21
-9.432209
  0
LINE
  8
0
  6
CONTINUOUS
 62
     7
 10
-48.615318
 20
26.310955
 11
-48.615318
 21
11.567791
  0
LINE
  8
0
  6
CONTINUOUS
 62
     7
 10
-48.615318
 20
-45.175373
 11
-48.615318
 21
-30.432209
  0
LINE
  8
0
  6
CONTINUOUS
 62
     7
 10
-54.865318
 20
23.817791
 11
-54.865318
 21
-42.682209
  0
LINE
  8
0
  6
CONTINUOUS
 62
     7
 10
-45.527611
 20
32.567791
 11
-17.703028
 21
32.567791
  0
LINE
  8
0
  6
CONTINUOUS
 62
     7
 10
-50.41003
 20
30.055248
 11
-54.865349
 21
23.817799
  0
LINE
  8
0
  6
CONTINUOUS
 62
     7
 10
-45.527611
 20
-51.432209
 11
-17.703028
 21
-51.432209
  0
LINE
  8
0
  6
CONTINUOUS
 62
     7
 10
-50.41
 20
-48.919655
 11
-54.865303
 21
-42.682232
  0
LINE
  8
0
  6
CONTINUOUS
 62
     7
 10
-8.3653202
 20
6.5677915
 11
-31.61532
 21
6.5677915
  0
LINE
  8
0
  6
CONTINUOUS
 62
     7
 10
256.27795
 20
-1037.609
 11
253.02797
 21
-1037.609
  0
LINE
  8
0
  6
CONTINUOUS
 62
     7
 10
257.77795
 20
-1039.109
 11
253.02797
 21
-1039.109
  0
LINE
  8
0
  6
CONTINUOUS
 62
     7
 10
257.77795
 20
-1039.109
 11
257.77795
 21
-1044.509
  0
LINE
  8
0
  6
CONTINUOUS
 62
     7
 10
257.77798
 20
-1039.109
 11
256.27795
 21
-1037.609
  0
LINE
  8
0
  6
CONTINUOUS
 62
     7
 10
256.27795
 20
-1037.609
 11
256.27795
 21
-1044.509
  0
LINE
  8
0
  6
CONTINUOUS
 62
     7
 10
263.12793
 20
-1046.0256
 11
263.12793
 21
-1052.0923
  0
LINE
  8
0
  6
CONTINUOUS
 62
     7
 10
260.50098
 20
-1044.509
 11
253.02797
 21
-1044.509
  0
LINE
  8
0
  6
CONTINUOUS
 62
     7
 10
257.87402
 20
-1046.0256
 11
257.87402
 21
-1052.0923
  0
LINE
  8
0
  6
CONTINUOUS
 62
     7
 10
-8.3653202
 20
-25.43224
 11
-31.61532
 21
-25.43224
  0
LINE
  8
0
  6
CONTINUOUS
 62
     7
 10
-8.3653202
 20
-9.432209
 11
-23.077768
 21
-9.432209
  0
LINE
  8
0
  6
CONTINUOUS
 62
     7
 10
-26.865335
 20
-2.0548284
 11
-26.865335
 21
-16.809589
  0
LINE
  8
0
  6
CONTINUOUS
 62
     7
 10
-14.61532
 20
26.310955
 11
-14.61532
 21
11.567791
  0
LINE
  8
0
  6
CONTINUOUS
 62
     7
 10
-14.61532
 20
-45.175373
 11
-14.61532
 21
-30.432209
  0
LINE
  8
0
  6
CONTINUOUS
 62
     7
 10
-8.3653202
 20
23.817791
 11
-8.3653202
 21
-42.682209
  0
LINE
  8
0
  6
CONTINUOUS
 62
     7
 10
-12.820583
 20
30.055199
 11
-8.3652811
 21
23.817776
  0
LINE
  8
0
  6
CONTINUOUS
 62
     7
 10
-12.82063
 20
-48.919632
 11
-8.3653278
 21
-42.682209
  0
LINE
  8
0
  6
CONTINUOUS
 62
     7
 10
-145.55023
 20
6.5677915
 11
-123.30022
 21
6.5677915
  0
LINE
  8
0
  6
CONTINUOUS
 62
     7
 10
64.156548
 20
-1035.1002
 11
67.406548
 21
-1035.1002
  0
LINE
  8
0
  6
CONTINUOUS
 62
     7
 10
62.656544
 20
-1036.6002
 11
67.406548
 21
-1036.6002
  0
LINE
  8
0
  6
CONTINUOUS
 62
     7
 10
62.656544
 20
-1036.6002
 11
62.656544
 21
-1042.0002
  0
LINE
  8
0
  6
CONTINUOUS
 62
     7
 10
62.656548
 20
-1036.6002
 11
64.156563
 21
-1035.1002
  0
LINE
  8
0
  6
CONTINUOUS
 62
     7
 10
64.156548
 20
-1035.1002
 11
64.156548
 21
-1042.0002
  0
LINE
  8
0
  6
CONTINUOUS
 62
     7
 10
57.306538
 20
-1043.5168
 11
57.306538
 21
-1048.4219
  0
LINE
  8
0
  6
CONTINUOUS
 62
     7
 10
59.933491
 20
-1042.0002
 11
67.406548
 21
-1042.0002
  0
LINE
  8
0
  6
CONTINUOUS
 62
     7
 10
62.560444
 20
-1043.5168
 11
62.560444
 21
-1049.8151
  0
LINE
  8
0
  6
CONTINUOUS
 62
     7
 10
-145.55023
 20
-25.43224
 11
-123.30022
 21
-25.43224
  0
LINE
  8
0
  6
CONTINUOUS
 62
     7
 10
-145.55023
 20
-9.432209
 11
-129.11685
 21
-9.432209
  0
LINE
  8
0
  6
CONTINUOUS
 62
     7
 10
-128.05023
 20
-5.8890567
 11
-128.05023
 21
-12.975361
  0
LINE
  8
0
  6
CENTER
 62
     7
 10
-156.7887
 20
-9.432209
 11
-89.93869
 21
-9.432209
  0
LINE
  8
0
  6
CONTINUOUS
 62
     7
 10
-146.05023
 20
17.567791
 11
-146.05023
 21
-36.432209
  0
LINE
  8
0
  6
CONTINUOUS
 62
     7
 10
-135.96643
 20
26.817791
 11
-110.63399
 21
26.817791
  0
LINE
  8
0
  6
CENTER
 62
     7
 10
-123.30022
 20
38.126598
 11
-123.30022
 21
-53.108692
  0
LINE
  8
0
  6
CONTINUOUS
 62
     7
 10
-146.0502
 20
17.567772
 11
-139.79901
 21
25.028877
  0
LINE
  8
0
  6
CONTINUOUS
 62
     7
 10
-138.30023
 20
22.741161
 11
-138.30023
 21
9.567791
  0
LINE
  8
0
  6
CONTINUOUS
 62
     7
 10
-146.05023
 20
-36.432171
 11
-139.79904
 21
-43.893276
  0
LINE
  8
0
  6
CONTINUOUS
 62
     7
 10
-138.30023
 20
-41.60561
 11
-138.30023
 21
-28.432209
  0
LINE
  8
0
  6
CONTINUOUS
 62
     7
 10
-101.05022
 20
6.5677915
 11
-123.30022
 21
6.5677915
  0
LINE
  8
0
  6
CONTINUOUS
 62
     7
 10
70.656548
 20
-1035.1002
 11
67.406548
 21
-1035.1002
  0
LINE
  8
0
  6
CONTINUOUS
 62
     7
 10
72.156548
 20
-1036.6002
 11
67.406548
 21
-1036.6002
  0
LINE
  8
0
  6
CONTINUOUS
 62
     7
 10
72.156548
 20
-1036.6002
 11
72.156548
 21
-1042.0002
  0
LINE
  8
0
  6
CONTINUOUS
 62
     7
 10
72.156525
 20
-1036.6002
 11
70.656555
 21
-1035.1002
  0
LINE
  8
0
  6
CONTINUOUS
 62
     7
 10
70.656548
 20
-1035.1002
 11
70.656548
 21
-1042.0002
  0
LINE
  8
0
  6
CONTINUOUS
 62
     7
 10
77.506554
 20
-1043.5168
 11
77.506554
 21
-1049.5835
  0
LINE
  8
0
  6
CONTINUOUS
 62
     7
 10
74.879631
 20
-1042.0002
 11
67.406548
 21
-1042.0002
  0
LINE
  8
0
  6
CONTINUOUS
 62
     7
 10
72.252678
 20
-1043.5168
 11
72.252678
 21
-1049.5835
  0
LINE
  8
0
  6
CONTINUOUS
 62
     7
 10
-101.05022
 20
-25.43224
 11
-123.30022
 21
-25.43224
  0
LINE
  8
0
  6
CONTINUOUS
 62
     7
 10
-101.05022
 20
-9.432209
 11
-117.4836
 21
-9.432209
  0
LINE
  8
0
  6
CONTINUOUS
 62
     7
 10
-118.55022
 20
-5.8890567
 11
-118.55022
 21
-12.975361
  0
LINE
  8
0
  6
CONTINUOUS
 62
     7
 10
-100.55022
 20
17.567791
 11
-100.55022
 21
-36.432209
  0
LINE
  8
0
  6
CONTINUOUS
 62
     7
 10
-100.55021
 20
17.56777
 11
-106.80141
 21
25.028877
  0
LINE
  8
0
  6
CONTINUOUS
 62
     7
 10
-108.30022
 20
22.741161
 11
-108.30022
 21
9.567791
  0
LINE
  8
0
  6
CONTINUOUS
 62
     7
 10
-100.55022
 20
-36.432171
 11
-106.80141
 21
-43.893276
  0
LINE
  8
0
  6
CONTINUOUS
 62
     7
 10
-108.30022
 20
-41.60561
 11
-108.30022
 21
-28.432209
  0
LINE
  8
0
  6
CONTINUOUS
 62
     7
 10
-135.96643
 20
-45.682209
 11
-110.63399
 21
-45.682209
  0
LINE
  8
0
  6
CONTINUOUS
 62
     7
 10
61.663254
 20
-9.432209
 11
78.563248
 21
-9.432209
  0
LINE
  8
0
  6
CONTINUOUS
 62
     7
 10
70.599686
 20
40.567791
 11
99.226852
 21
40.567791
  0
LINE
  8
0
  6
CENTER
 62
     7
 10
84.913254
 20
44.164928
 11
84.913254
 21
-69.425911
  0
LINE
  8
0
  6
CONTINUOUS
 62
     7
 10
73.663254
 20
-30.432209
 11
73.663254
 21
-30.632008
  0
LINE
  8
0
  6
CONTINUOUS
 62
     7
 10
-230.9375
 20
-1233.3267
 11
-235.28754
 21
-1233.3267
  0
LINE
  8
0
  6
CONTINUOUS
 62
     7
 10
-230.9375
 20
-1235.3267
 11
-237.28754
 21
-1235.3267
  0
LINE
  8
0
  6
CONTINUOUS
 62
     7
 10
-230.9375
 20
-1242.0267
 11
-240.58319
 21
-1242.0267
  0
LINE
  8
0
  6
CONTINUOUS
 62
     7
 10
-237.37891
 20
-1243.8767
 11
-237.37891
 21
-1251.5718
  0
LINE
  8
0
  6
CONTINUOUS
 62
     7
 10
-243.78754
 20
-1243.8767
 11
-243.78754
 21
-1248.8311
  0
LINE
  8
0
  6
CONTINUOUS
 62
     7
 10
78.563248
 20
-1.8390385
 11
78.563248
 21
-17.025379
  0
LINE
  8
0
  6
CONTINUOUS
 62
     7
 10
-235.28754
 20
-1233.3267
 11
-235.28754
 21
-1242.0267
  0
LINE
  8
0
  6
CONTINUOUS
 62
     7
 10
-237.28754
 20
-1235.3267
 11
-237.28754
 21
-1242.0267
  0
LINE
  8
0
  6
CONTINUOUS
 62
     7
 10
-237.28758
 20
-1235.3267
 11
-235.28754
 21
-1233.3267
  0
LINE
  8
0
  6
CONTINUOUS
 62
     7
 10
61.663254
 20
33.567791
 11
61.663254
 21
-52.432209
  0
LINE
  8
0
  6
CONTINUOUS
 62
     7
 10
66.124054
 20
38.563877
 11
61.663261
 21
33.567791
  0
LINE
  8
0
  6
CONTINUOUS
 62
     7
 10
67.913254
 20
34.040203
 11
67.913254
 21
17.567791
  0
LINE
  8
0
  6
CONTINUOUS
 62
     7
 10
61.663254
 20
11.567791
 11
84.913254
 21
11.567791
  0
LINE
  8
0
  6
CONTINUOUS
 62
     7
 10
61.663254
 20
-30.432209
 11
84.913254
 21
-30.432209
  0
LINE
  8
0
  6
CONTINUOUS
 62
     7
 10
66.124054
 20
-57.428314
 11
61.663261
 21
-52.432228
  0
LINE
  8
0
  6
CONTINUOUS
 62
     7
 10
70.599686
 20
-59.432209
 11
99.226852
 21
-59.432209
  0
LINE
  8
0
  6
CONTINUOUS
 62
     7
 10
67.913254
 20
-52.904652
 11
67.913254
 21
-36.432209
  0
LINE
  8
0
  6
CENTER
 62
     7
 10
55.974777
 20
-9.432209
 11
114.42479
 21
-9.432209
  0
LINE
  8
0
  6
CONTINUOUS
 62
     7
 10
108.16325
 20
-9.432209
 11
91.26326
 21
-9.432209
  0
LINE
  8
0
  6
CONTINUOUS
 62
     7
 10
96.163254
 20
-30.432209
 11
96.163254
 21
-30.632008
  0
LINE
  8
0
  6
CONTINUOUS
 62
     7
 10
-230.9375
 20
-1233.3267
 11
-226.58752
 21
-1233.3267
  0
LINE
  8
0
  6
CONTINUOUS
 62
     7
 10
-230.9375
 20
-1235.3267
 11
-224.58752
 21
-1235.3267
  0
LINE
  8
0
  6
CONTINUOUS
 62
     7
 10
-230.9375
 20
-1242.0267
 11
-221.29181
 21
-1242.0267
  0
LINE
  8
0
  6
CONTINUOUS
 62
     7
 10
-224.49609
 20
-1243.8767
 11
-224.49609
 21
-1252.4767
  0
LINE
  8
0
  6
CONTINUOUS
 62
     7
 10
-218.08752
 20
-1243.8767
 11
-218.08752
 21
-1252.4767
  0
LINE
  8
0
  6
CONTINUOUS
 62
     7
 10
91.26326
 20
-1.8390385
 11
91.26326
 21
-17.025379
  0
LINE
  8
0
  6
CONTINUOUS
 62
     7
 10
-226.58752
 20
-1233.3267
 11
-226.58752
 21
-1242.0267
  0
LINE
  8
0
  6
CONTINUOUS
 62
     7
 10
-224.58752
 20
-1235.3267
 11
-224.58752
 21
-1242.0267
  0
LINE
  8
0
  6
CONTINUOUS
 62
     7
 10
-224.58749
 20
-1235.3267
 11
-226.58749
 21
-1233.3267
  0
LINE
  8
0
  6
CONTINUOUS
 62
     7
 10
108.16325
 20
33.567791
 11
108.16325
 21
-52.432209
  0
LINE
  8
0
  6
CONTINUOUS
 62
     7
 10
103.70246
 20
38.563885
 11
108.16327
 21
33.567776
  0
LINE
  8
0
  6
CONTINUOUS
 62
     7
 10
101.91325
 20
34.040203
 11
101.91325
 21
17.567791
  0
LINE
  8
0
  6
CONTINUOUS
 62
     7
 10
108.16325
 20
11.567791
 11
84.913254
 21
11.567791
  0
LINE
  8
0
  6
CONTINUOUS
 62
     7
 10
108.16325
 20
-30.432209
 11
84.913254
 21
-30.432209
  0
LINE
  8
0
  6
CONTINUOUS
 62
     7
 10
103.70244
 20
-57.428299
 11
108.16325
 21
-52.432194
  0
LINE
  8
0
  6
CONTINUOUS
 62
     7
 10
101.91325
 20
-52.904652
 11
101.91325
 21
-36.432209
  0
LINE
  8
0
  6
CONTINUOUS
 62
     7
 10
183.45819
 20
-30.432209
 11
183.45819
 21
-30.632008
  0
LINE
  8
0
  6
CONTINUOUS
 62
     7
 10
-7.1847982
 20
-1228.3092
 11
-11.534804
 21
-1228.3092
  0
LINE
  8
0
  6
CONTINUOUS
 62
     7
 10
-7.1847982
 20
-1230.3092
 11
-13.534804
 21
-1230.3092
  0
LINE
  8
0
  6
CONTINUOUS
 62
     7
 10
-7.1847982
 20
-1237.0092
 11
-16.830521
 21
-1237.0092
  0
LINE
  8
0
  6
CONTINUOUS
 62
     7
 10
-13.626235
 20
-1238.8591
 11
-13.626235
 21
-1246.3608
  0
LINE
  8
0
  6
CONTINUOUS
 62
     7
 10
-20.034805
 20
-1238.8591
 11
-20.034805
 21
-1243.4275
  0
LINE
  8
0
  6
CONTINUOUS
 62
     7
 10
-11.534804
 20
-1228.3092
 11
-11.534804
 21
-1237.0092
  0
LINE
  8
0
  6
CONTINUOUS
 62
     7
 10
-13.534804
 20
-1230.3092
 11
-13.534804
 21
-1237.0092
  0
LINE
  8
0
  6
CONTINUOUS
 62
     7
 10
-13.534854
 20
-1230.3091
 11
-11.534852
 21
-1228.3091
  0
LINE
  8
0
  6
CONTINUOUS
 62
     7
 10
188.35818
 20
-2.1942327
 11
188.35818
 21
-16.670216
  0
LINE
  8
0
  6
CENTER
 62
     7
 10
194.70819
 20
51.607677
 11
194.70819
 21
-76.333527
  0
LINE
  8
0
  6
CONTINUOUS
 62
     7
 10
171.45819
 20
-9.432209
 11
186.21185
 21
-9.432209
  0
LINE
  8
0
  6
CONTINUOUS
 62
     7
 10
180.94287
 20
47.567791
 11
208.47351
 21
47.567791
  0
LINE
  8
0
  6
CONTINUOUS
 62
     7
 10
171.45819
 20
38.067791
 11
171.45819
 21
-56.932194
  0
LINE
  8
0
  6
CONTINUOUS
 62
     7
 10
175.93039
 20
44.86549
 11
171.45822
 21
38.067791
  0
LINE
  8
0
  6
CONTINUOUS
 62
     7
 10
171.45819
 20
11.567791
 11
194.70819
 21
11.567791
  0
LINE
  8
0
  6
CENTER
 62
     7
 10
159.11972
 20
-9.432209
 11
232.96973
 21
-9.432209
  0
LINE
  8
0
  6
CONTINUOUS
 62
     7
 10
177.70819
 20
38.611889
 11
177.70819
 21
18.567791
  0
LINE
  8
0
  6
CONTINUOUS
 62
     7
 10
180.94287
 20
-66.43219
 11
208.47351
 21
-66.43219
  0
LINE
  8
0
  6
CONTINUOUS
 62
     7
 10
175.93037
 20
-63.729889
 11
171.45819
 21
-56.932182
  0
LINE
  8
0
  6
CONTINUOUS
 62
     7
 10
171.45819
 20
-30.432209
 11
194.70819
 21
-30.432209
  0
LINE
  8
0
  6
CONTINUOUS
 62
     7
 10
177.70819
 20
-57.476322
 11
177.70819
 21
-37.432209
  0
LINE
  8
0
  6
CONTINUOUS
 62
     7
 10
171.45819
 20
-9.432209
 11
188.35818
 21
-9.432209
  0
LINE
  8
0
  6
CONTINUOUS
 62
     7
 10
205.95819
 20
-30.432209
 11
205.95819
 21
-30.632008
  0
LINE
  8
0
  6
CONTINUOUS
 62
     7
 10
-7.1847982
 20
-1228.3092
 11
-2.8347924
 21
-1228.3092
  0
LINE
  8
0
  6
CONTINUOUS
 62
     7
 10
-7.1847982
 20
-1230.3092
 11
-0.83479232
 21
-1230.3092
  0
LINE
  8
0
  6
CONTINUOUS
 62
     7
 10
-7.1847982
 20
-1237.0092
 11
2.460923
 21
-1237.0092
  0
LINE
  8
0
  6
CONTINUOUS
 62
     7
 10
-0.74336165
 20
-1238.8591
 11
-0.74336165
 21
-1247.4591
  0
LINE
  8
0
  6
CONTINUOUS
 62
     7
 10
5.6652079
 20
-1238.8591
 11
5.6652079
 21
-1247.4591
  0
LINE
  8
0
  6
CONTINUOUS
 62
     7
 10
-2.8347924
 20
-1228.3092
 11
-2.8347924
 21
-1237.0092
  0
LINE
  8
0
  6
CONTINUOUS
 62
     7
 10
-0.83479232
 20
-1230.3092
 11
-0.83479232
 21
-1237.0092
  0
LINE
  8
0
  6
CONTINUOUS
 62
     7
 10
-0.8348124
 20
-1230.3091
 11
-2.8348145
 21
-1228.3091
  0
LINE
  8
0
  6
CONTINUOUS
 62
     7
 10
201.0582
 20
-2.1942327
 11
201.0582
 21
-16.670216
  0
LINE
  8
0
  6
CONTINUOUS
 62
     7
 10
217.95819
 20
-9.432209
 11
203.2045
 21
-9.432209
  0
LINE
  8
0
  6
CONTINUOUS
 62
     7
 10
208.47351
 20
47.567791
 11
180.94287
 21
47.567791
  0
LINE
  8
0
  6
CONTINUOUS
 62
     7
 10
217.95819
 20
38.067791
 11
217.95819
 21
-56.932194
  0
LINE
  8
0
  6
CONTINUOUS
 62
     7
 10
213.48602
 20
44.865524
 11
217.95819
 21
38.067818
  0
LINE
  8
0
  6
CONTINUOUS
 62
     7
 10
217.95819
 20
11.567791
 11
194.70819
 21
11.567791
  0
LINE
  8
0
  6
CONTINUOUS
 62
     7
 10
211.70819
 20
38.611889
 11
211.70819
 21
18.567791
  0
LINE
  8
0
  6
CONTINUOUS
 62
     7
 10
208.47351
 20
-66.43219
 11
180.94287
 21
-66.43219
  0
LINE
  8
0
  6
CONTINUOUS
 62
     7
 10
213.48605
 20
-63.729893
 11
217.95822
 21
-56.932201
  0
LINE
  8
0
  6
CONTINUOUS
 62
     7
 10
217.95819
 20
-30.432209
 11
194.70819
 21
-30.432209
  0
LINE
  8
0
  6
CONTINUOUS
 62
     7
 10
211.70819
 20
-57.476322
 11
211.70819
 21
-37.432209
  0
LINE
  8
0
  6
CONTINUOUS
 62
     7
 10
217.95819
 20
-9.432209
 11
201.0582
 21
-9.432209
  0
LINE
  8
0
  6
CENTER
 62
     7
 10
260.3602
 20
-9.432209
 11
330.36017
 21
-9.432209
  0
LINE
  8
0
  6
CONTINUOUS
 62
     7
 10
268.70822
 20
-9.432209
 11
288.35818
 21
-9.432209
  0
LINE
  8
0
  6
CONTINUOUS
 62
     7
 10
268.70822
 20
51.067791
 11
268.70822
 21
-69.932205
  0
LINE
  8
0
  6
CONTINUOUS
 62
     7
 10
279.81107
 20
63.567791
 11
309.60535
 21
63.567791
  0
LINE
  8
0
  6
CENTER
 62
     7
 10
294.70819
 20
72.017197
 11
294.70819
 21
-91.612381
  0
LINE
  8
0
  6
CONTINUOUS
 62
     7
 10
273.70349
 20
59.987999
 11
268.70819
 21
51.067791
  0
LINE
  8
0
  6
CONTINUOUS
 62
     7
 10
268.70822
 20
16.067791
 11
294.70819
 21
16.067791
  0
LINE
  8
0
  6
CONTINUOUS
 62
     7
 10
288.35818
 20
-2.0723455
 11
288.35818
 21
-16.792072
  0
LINE
  8
0
  6
CONTINUOUS
 62
     7
 10
283.45819
 20
-34.932209
 11
283.45819
 21
-35.132008
  0
LINE
  8
0
  6
CONTINUOUS
 62
     7
 10
262.94043
 20
-1223.3004
 11
258.59039
 21
-1223.3004
  0
LINE
  8
0
  6
CONTINUOUS
 62
     7
 10
262.94043
 20
-1225.3004
 11
256.59039
 21
-1225.3004
  0
LINE
  8
0
  6
CONTINUOUS
 62
     7
 10
262.94043
 20
-1230.0004
 11
253.29469
 21
-1230.0004
  0
LINE
  8
0
  6
CONTINUOUS
 62
     7
 10
250.09041
 20
-1231.8503
 11
250.09041
 21
-1236.2142
  0
LINE
  8
0
  6
CONTINUOUS
 62
     7
 10
258.59039
 20
-1223.3004
 11
258.59039
 21
-1230.0004
  0
LINE
  8
0
  6
CONTINUOUS
 62
     7
 10
256.59039
 20
-1225.3004
 11
256.59039
 21
-1230.0004
  0
LINE
  8
0
  6
CONTINUOUS
 62
     7
 10
256.59033
 20
-1225.3004
 11
258.59033
 21
-1223.3004
  0
LINE
  8
0
  6
CONTINUOUS
 62
     7
 10
256.49896
 20
-1231.8503
 11
256.49896
 21
-1239.2495
  0
LINE
  8
0
  6
CONTINUOUS
 62
     7
 10
275.70822
 20
54.141308
 11
275.70822
 21
24.067791
  0
LINE
  8
0
  6
CONTINUOUS
 62
     7
 10
279.81107
 20
-82.432205
 11
309.60535
 21
-82.432205
  0
LINE
  8
0
  6
CONTINUOUS
 62
     7
 10
268.70822
 20
-34.932209
 11
294.70819
 21
-34.932209
  0
LINE
  8
0
  6
CONTINUOUS
 62
     7
 10
273.70349
 20
-78.852432
 11
268.70819
 21
-69.932228
  0
LINE
  8
0
  6
CONTINUOUS
 62
     7
 10
275.70822
 20
-73.005753
 11
275.70822
 21
-42.932209
  0
LINE
  8
0
  6
CONTINUOUS
 62
     7
 10
320.70819
 20
-9.432209
 11
301.0582
 21
-9.432209
  0
LINE
  8
0
  6
CONTINUOUS
 62
     7
 10
320.70819
 20
51.067791
 11
320.70819
 21
-69.932205
  0
LINE
  8
0
  6
CONTINUOUS
 62
     7
 10
315.71286
 20
59.988003
 11
320.70819
 21
51.067768
  0
LINE
  8
0
  6
CONTINUOUS
 62
     7
 10
320.70819
 20
16.067791
 11
294.70819
 21
16.067791
  0
LINE
  8
0
  6
CONTINUOUS
 62
     7
 10
301.0582
 20
-2.0723455
 11
301.0582
 21
-16.792072
  0
LINE
  8
0
  6
CONTINUOUS
 62
     7
 10
305.95819
 20
-34.932209
 11
305.95819
 21
-35.132008
  0
LINE
  8
0
  6
CONTINUOUS
 62
     7
 10
262.94043
 20
-1223.3004
 11
267.29041
 21
-1223.3004
  0
LINE
  8
0
  6
CONTINUOUS
 62
     7
 10
262.94043
 20
-1225.3004
 11
269.29041
 21
-1225.3004
  0
LINE
  8
0
  6
CONTINUOUS
 62
     7
 10
262.94043
 20
-1230.0004
 11
272.58612
 21
-1230.0004
  0
LINE
  8
0
  6
CONTINUOUS
 62
     7
 10
275.79041
 20
-1231.8503
 11
275.79041
 21
-1240.4504
  0
LINE
  8
0
  6
CONTINUOUS
 62
     7
 10
267.29041
 20
-1223.3004
 11
267.29041
 21
-1230.0004
  0
LINE
  8
0
  6
CONTINUOUS
 62
     7
 10
269.29041
 20
-1225.3004
 11
269.29041
 21
-1230.0004
  0
LINE
  8
0
  6
CONTINUOUS
 62
     7
 10
269.29044
 20
-1225.3004
 11
267.29037
 21
-1223.3004
  0
LINE
  8
0
  6
CONTINUOUS
 62
     7
 10
269.38184
 20
-1231.8503
 11
269.38184
 21
-1240.4504
  0
LINE
  8
0
  6
CONTINUOUS
 62
     7
 10
313.70819
 20
54.141308
 11
313.70819
 21
24.067791
  0
LINE
  8
0
  6
CONTINUOUS
 62
     7
 10
320.70819
 20
-34.932209
 11
294.70819
 21
-34.932209
  0
LINE
  8
0
  6
CONTINUOUS
 62
     7
 10
315.71286
 20
-78.852432
 11
320.70816
 21
-69.932213
  0
LINE
  8
0
  6
CONTINUOUS
 62
     7
 10
313.70819
 20
-73.005753
 11
313.70819
 21
-42.932209
  0
LINE
  8
0
  6
CONTINUOUS
 62
     7
 10
503.28775
 20
67.067795
 11
503.28775
 21
-85.93219
  0
LINE
  8
0
  6
CONTINUOUS
 62
     7
 10
503.28775
 20
-9.432209
 11
521.38782
 21
-9.432209
  0
LINE
  8
0
  6
CENTER
 62
     7
 10
486.92599
 20
-9.432209
 11
566.026
 21
-9.432209
  0
LINE
  8
0
  6
CONTINUOUS
 62
     7
 10
513.30133
 20
77.317795
 11
545.27423
 21
77.317795
  0
LINE
  8
0
  6
CONTINUOUS
 62
     7
 10
507.26019
 20
73.854042
 11
503.28775
 21
67.067787
  0
LINE
  8
0
  6
CONTINUOUS
 62
     7
 10
503.28775
 20
17.567791
 11
529.28778
 21
17.567791
  0
LINE
  8
0
  6
CONTINUOUS
 62
     7
 10
509.28775
 20
70.073151
 11
509.28775
 21
25.567791
  0
LINE
  8
0
  6
CONTINUOUS
 62
     7
 10
510.96335
 20
-1006.574
 11
505.06339
 21
-1006.574
  0
LINE
  8
0
  6
CONTINUOUS
 62
     7
 10
510.96335
 20
-1008.574
 11
503.06339
 21
-1008.574
  0
LINE
  8
0
  6
CONTINUOUS
 62
     7
 10
505.06339
 20
-1006.574
 11
505.06339
 21
-1017.074
  0
LINE
  8
0
  6
CONTINUOUS
 62
     7
 10
503.06326
 20
-1008.5739
 11
505.06326
 21
-1006.5739
  0
LINE
  8
0
  6
CONTINUOUS
 62
     7
 10
503.06339
 20
-1008.574
 11
503.06339
 21
-1017.074
  0
LINE
  8
0
  6
CONTINUOUS
 62
     7
 10
497.46335
 20
-1086.574
 11
497.46335
 21
-1086.7677
  0
LINE
  8
0
  6
CONTINUOUS
 62
     7
 10
510.96335
 20
-1017.074
 11
499.26047
 21
-1017.074
  0
LINE
  8
0
  6
CONTINUOUS
 62
     7
 10
503.15756
 20
-1019.324
 11
503.15756
 21
-1030.324
  0
LINE
  8
0
  6
CONTINUOUS
 62
     7
 10
495.36337
 20
-1019.324
 11
495.36337
 21
-1030.324
  0
LINE
  8
0
  6
CONTINUOUS
 62
     7
 10
503.06339
 20
-1050.9611
 11
503.06339
 21
-1068.1869
  0
LINE
  8
0
  6
CONTINUOUS
 62
     7
 10
529.28778
 20
-36.432209
 11
503.28775
 21
-36.432209
  0
LINE
  8
0
  6
CONTINUOUS
 62
     7
 10
509.28775
 20
-88.937561
 11
509.28775
 21
-44.432209
  0
LINE
  8
0
  6
CONTINUOUS
 62
     7
 10
507.26019
 20
-92.718437
 11
503.28775
 21
-85.932205
  0
LINE
  8
0
  6
CONTINUOUS
 62
     7
 10
513.30133
 20
-96.18222
 11
545.27423
 21
-96.18222
  0
LINE
  8
0
  6
CENTER
 62
     7
 10
529.28778
 20
82.7276
 11
529.28778
 21
-108.94202
  0
LINE
  8
0
  6
CONTINUOUS
 62
     7
 10
555.28778
 20
67.067795
 11
555.28778
 21
-85.93219
  0
LINE
  8
0
  6
CONTINUOUS
 62
     7
 10
555.28778
 20
-9.432209
 11
537.18781
 21
-9.432209
  0
LINE
  8
0
  6
CONTINUOUS
 62
     7
 10
545.27423
 20
77.317795
 11
513.30133
 21
77.317795
  0
LINE
  8
0
  6
CONTINUOUS
 62
     7
 10
551.31531
 20
73.854019
 11
555.28772
 21
67.067787
  0
LINE
  8
0
  6
CONTINUOUS
 62
     7
 10
555.28778
 20
17.567791
 11
529.28778
 21
17.567791
  0
LINE
  8
0
  6
CONTINUOUS
 62
     7
 10
549.28778
 20
70.073151
 11
549.28778
 21
25.567791
  0
LINE
  8
0
  6
CONTINUOUS
 62
     7
 10
510.96335
 20
-1006.574
 11
516.8634
 21
-1006.574
  0
LINE
  8
0
  6
CONTINUOUS
 62
     7
 10
510.96335
 20
-1008.574
 11
518.8634
 21
-1008.574
  0
LINE
  8
0
  6
CONTINUOUS
 62
     7
 10
516.8634
 20
-1006.574
 11
516.8634
 21
-1017.074
  0
LINE
  8
0
  6
CONTINUOUS
 62
     7
 10
518.86334
 20
-1008.574
 11
516.86328
 21
-1006.5739
  0
LINE
  8
0
  6
CONTINUOUS
 62
     7
 10
518.8634
 20
-1008.574
 11
518.8634
 21
-1017.074
  0
LINE
  8
0
  6
CONTINUOUS
 62
     7
 10
524.46338
 20
-1086.574
 11
524.46338
 21
-1086.7677
  0
LINE
  8
0
  6
CONTINUOUS
 62
     7
 10
510.96335
 20
-1017.074
 11
522.66626
 21
-1017.074
  0
LINE
  8
0
  6
CONTINUOUS
 62
     7
 10
518.76917
 20
-1019.324
 11
518.76917
 21
-1027.6841
  0
LINE
  8
0
  6
CONTINUOUS
 62
     7
 10
526.56342
 20
-1019.324
 11
526.56342
 21
-1022.8013
  0
LINE
  8
0
  6
CONTINUOUS
 62
     7
 10
510.96335
 20
-1086.574
 11
536.96338
 21
-1086.574
  0
LINE
  8
0
  6
CONTINUOUS
 62
     7
 10
549.28778
 20
-88.937561
 11
549.28778
 21
-44.432209
  0
LINE
  8
0
  6
CONTINUOUS
 62
     7
 10
551.31537
 20
-92.71846
 11
555.28778
 21
-85.932213
  0
LINE
  8
0
  6
CONTINUOUS
 62
     7
 10
545.27423
 20
-96.18222
 11
513.30133
 21
-96.18222
  0
LINE
  8
0
  6
CONTINUOUS
 62
     7
 10
844.67993
 20
-1014.1002
 11
838.77997
 21
-1014.1002
  0
LINE
  8
0
  6
CONTINUOUS
 62
     7
 10
844.67993
 20
-1016.1002
 11
836.77997
 21
-1016.1002
  0
LINE
  8
0
  6
CONTINUOUS
 62
     7
 10
838.77997
 20
-1014.1002
 11
838.77997
 21
-1024.6002
  0
LINE
  8
0
  6
CONTINUOUS
 62
     7
 10
836.77991
 20
-1016.1002
 11
838.77991
 21
-1014.1002
  0
LINE
  8
0
  6
CONTINUOUS
 62
     7
 10
836.77997
 20
-1016.1002
 11
836.77997
 21
-1024.6002
  0
LINE
  8
0
  6
CONTINUOUS
 62
     7
 10
665.78778
 20
-36.432224
 11
665.78778
 21
-36.62595
  0
LINE
  8
0
  6
CONTINUOUS
 62
     7
 10
844.67993
 20
-1024.6002
 11
832.97705
 21
-1024.6002
  0
LINE
  8
0
  6
CONTINUOUS
 62
     7
 10
836.77997
 20
-1058.292
 11
836.77997
 21
-1075.9084
  0
LINE
  8
0
  6
CONTINUOUS
 62
     7
 10
836.87415
 20
-1026.8502
 11
836.87415
 21
-1037.8502
  0
LINE
  8
0
  6
CONTINUOUS
 62
     7
 10
829.07996
 20
-1026.8502
 11
829.07996
 21
-1037.8502
  0
LINE
  8
0
  6
CONTINUOUS
 62
     7
 10
653.28778
 20
80.567795
 11
653.28778
 21
-99.43222
  0
LINE
  8
0
  6
CENTER
 62
     7
 10
679.28778
 20
97.90403
 11
679.28778
 21
-121.86984
  0
LINE
  8
0
  6
CONTINUOUS
 62
     7
 10
653.12805
 20
-9.432209
 11
671.38782
 21
-9.432209
  0
LINE
  8
0
  6
CONTINUOUS
 62
     7
 10
663.2511
 20
90.567795
 11
695.32446
 21
90.567795
  0
LINE
  8
0
  6
CONTINUOUS
 62
     7
 10
653.28778
 20
80.56781
 11
657.24866
 21
87.169289
  0
LINE
  8
0
  6
CONTINUOUS
 62
     7
 10
659.28778
 20
83.967972
 11
659.28778
 21
25.567791
  0
LINE
  8
0
  6
CENTER
 62
     7
 10
644.62604
 20
-9.432209
 11
714.27606
 21
-9.432209
  0
LINE
  8
0
  6
CONTINUOUS
 62
     7
 10
653.12805
 20
17.567791
 11
679.28778
 21
17.567791
  0
LINE
  8
0
  6
CONTINUOUS
 62
     7
 10
653.12805
 20
-36.432224
 11
679.28778
 21
-36.432224
  0
LINE
  8
0
  6
CONTINUOUS
 62
     7
 10
659.28778
 20
-102.8324
 11
659.28778
 21
-44.432224
  0
LINE
  8
0
  6
CONTINUOUS
 62
     7
 10
653.28784
 20
-99.432205
 11
657.24872
 21
-106.03368
  0
LINE
  8
0
  6
CONTINUOUS
 62
     7
 10
663.2511
 20
-109.43222
 11
695.32446
 21
-109.43222
  0
LINE
  8
0
  6
CONTINUOUS
 62
     7
 10
844.67993
 20
-1014.1002
 11
850.57996
 21
-1014.1002
  0
LINE
  8
0
  6
CONTINUOUS
 62
     7
 10
844.67993
 20
-1016.1002
 11
852.57996
 21
-1016.1002
  0
LINE
  8
0
  6
CONTINUOUS
 62
     7
 10
850.57996
 20
-1014.1002
 11
850.57996
 21
-1024.6002
  0
LINE
  8
0
  6
CONTINUOUS
 62
     7
 10
852.58002
 20
-1016.1002
 11
850.57996
 21
-1014.1002
  0
LINE
  8
0
  6
CONTINUOUS
 62
     7
 10
852.57996
 20
-1016.1002
 11
852.57996
 21
-1024.6002
  0
LINE
  8
0
  6
CONTINUOUS
 62
     7
 10
692.78784
 20
-36.432224
 11
692.78784
 21
-36.62595
  0
LINE
  8
0
  6
CONTINUOUS
 62
     7
 10
844.67993
 20
-1024.6002
 11
856.38287
 21
-1024.6002
  0
LINE
  8
0
  6
CONTINUOUS
 62
     7
 10
852.48572
 20
-1026.8502
 11
852.48572
 21
-1034.4331
  0
LINE
  8
0
  6
CONTINUOUS
 62
     7
 10
860.27997
 20
-1026.8502
 11
860.27997
 21
-1028.7743
  0
LINE
  8
0
  6
CONTINUOUS
 62
     7
 10
705.28784
 20
80.567795
 11
705.28784
 21
-99.43222
  0
LINE
  8
0
  6
CONTINUOUS
 62
     7
 10
705.44757
 20
-9.432209
 11
687.18781
 21
-9.432209
  0
LINE
  8
0
  6
CONTINUOUS
 62
     7
 10
705.28778
 20
80.567787
 11
701.3269
 21
87.169243
  0
LINE
  8
0
  6
CONTINUOUS
 62
     7
 10
699.28784
 20
83.967972
 11
699.28784
 21
25.567791
  0
LINE
  8
0
  6
CONTINUOUS
 62
     7
 10
705.44757
 20
17.567791
 11
679.28778
 21
17.567791
  0
LINE
  8
0
  6
CONTINUOUS
 62
     7
 10
705.44757
 20
-36.432224
 11
679.28778
 21
-36.432224
  0
LINE
  8
0
  6
CONTINUOUS
 62
     7
 10
699.28784
 20
-102.8324
 11
699.28784
 21
-44.432224
  0
LINE
  8
0
  6
CONTINUOUS
 62
     7
 10
705.28784
 20
-99.432205
 11
701.3269
 21
-106.03368
  0
LINE
  8
0
  6
CONTINUOUS
 62
     7
 10
799.28778
 20
105.5678
 11
799.28778
 21
-124.43221
  0
LINE
  8
0
  6
CONTINUOUS
 62
     7
 10
809.61401
 20
117.5678
 11
829.28778
 21
117.5678
  0
LINE
  8
0
  6
CONTINUOUS
 62
     7
 10
803.35303
 20
113.6983
 11
799.28778
 21
105.56779
  0
LINE
  8
0
  6
CONTINUOUS
 62
     7
 10
799.28778
 20
-9.432209
 11
819.78778
 21
-9.432209
  0
LINE
  8
0
  6
CENTER
 62
     7
 10
793.38782
 20
-9.432209
 11
864.40735
 21
-9.432209
  0
LINE
  8
0
  6
CONTINUOUS
 62
     7
 10
574.83966
 20
-1295.1331
 11
567.83966
 21
-1295.1331
  0
LINE
  8
0
  6
CONTINUOUS
 62
     7
 10
574.83966
 20
-1297.6331
 11
565.33966
 21
-1297.6331
  0
LINE
  8
0
  6
CONTINUOUS
 62
     7
 10
565.33966
 20
-1297.6331
 11
565.33966
 21
-1304.433
  0
LINE
  8
0
  6
CONTINUOUS
 62
     7
 10
812.78778
 20
-49.432209
 11
812.78778
 21
-49.950718
  0
LINE
  8
0
  6
CONTINUOUS
 62
     7
 10
567.83966
 20
-1295.1331
 11
567.83966
 21
-1304.433
  0
LINE
  8
0
  6
CONTINUOUS
 62
     7
 10
565.33972
 20
-1297.6331
 11
567.83972
 21
-1295.1331
  0
LINE
  8
0
  6
CONTINUOUS
 62
     7
 10
574.83966
 20
-1304.433
 11
561.07959
 21
-1304.433
  0
LINE
  8
0
  6
CONTINUOUS
 62
     7
 10
565.33966
 20
-1347.8229
 11
565.33966
 21
-1378.4432
  0
LINE
  8
0
  6
CONTINUOUS
 62
     7
 10
556.48969
 20
-1307.083
 11
556.48969
 21
-1320.483
  0
LINE
  8
0
  6
CONTINUOUS
 62
     7
 10
565.66956
 20
-1307.083
 11
565.66956
 21
-1320.483
  0
LINE
  8
0
  6
CONTINUOUS
 62
     7
 10
805.28778
 20
110.75942
 11
805.28778
 21
35.567783
  0
LINE
  8
0
  6
CONTINUOUS
 62
     7
 10
799.28778
 20
30.567783
 11
829.28778
 21
30.567783
  0
LINE
  8
0
  6
CONTINUOUS
 62
     7
 10
809.61401
 20
-136.43221
 11
829.28778
 21
-136.43221
  0
LINE
  8
0
  6
CONTINUOUS
 62
     7
 10
803.35303
 20
-132.56271
 11
799.28778
 21
-124.43221
  0
LINE
  8
0
  6
CONTINUOUS
 62
     7
 10
805.28778
 20
-129.62383
 11
805.28778
 21
-54.432209
  0
LINE
  8
0
  6
CONTINUOUS
 62
     7
 10
799.28778
 20
-49.432209
 11
829.28778
 21
-49.432209
  0
LINE
  8
0
  6
CENTER
 62
     7
 10
829.28778
 20
130.89421
 11
829.28778
 21
-148.74593
  0
LINE
  8
0
  6
CONTINUOUS
 62
     7
 10
859.28784
 20
105.5678
 11
859.28784
 21
-124.43221
  0
LINE
  8
0
  6
CONTINUOUS
 62
     7
 10
848.96161
 20
117.5678
 11
829.28778
 21
117.5678
  0
LINE
  8
0
  6
CONTINUOUS
 62
     7
 10
855.22253
 20
113.6983
 11
859.28784
 21
105.56779
  0
LINE
  8
0
  6
CONTINUOUS
 62
     7
 10
859.28784
 20
-9.432209
 11
838.78778
 21
-9.432209
  0
LINE
  8
0
  6
CONTINUOUS
 62
     7
 10
574.83966
 20
-1295.1331
 11
581.83966
 21
-1295.1331
  0
LINE
  8
0
  6
CONTINUOUS
 62
     7
 10
574.83966
 20
-1297.6331
 11
584.33966
 21
-1297.6331
  0
LINE
  8
0
  6
CONTINUOUS
 62
     7
 10
584.33966
 20
-1297.6331
 11
584.33966
 21
-1304.433
  0
LINE
  8
0
  6
CONTINUOUS
 62
     7
 10
845.78784
 20
-49.432209
 11
845.78784
 21
-49.950718
  0
LINE
  8
0
  6
CONTINUOUS
 62
     7
 10
581.83966
 20
-1295.1331
 11
581.83966
 21
-1304.433
  0
LINE
  8
0
  6
CONTINUOUS
 62
     7
 10
584.33978
 20
-1297.6331
 11
581.83966
 21
-1295.1329
  0
LINE
  8
0
  6
CONTINUOUS
 62
     7
 10
574.83966
 20
-1304.433
 11
588.59979
 21
-1304.433
  0
LINE
  8
0
  6
CONTINUOUS
 62
     7
 10
593.1897
 20
-1307.083
 11
593.1897
 21
-1313.3539
  0
LINE
  8
0
  6
CONTINUOUS
 62
     7
 10
584.00983
 20
-1307.083
 11
584.00983
 21
-1320.0784
  0
LINE
  8
0
  6
CONTINUOUS
 62
     7
 10
853.28784
 20
110.75942
 11
853.28784
 21
35.567783
  0
LINE
  8
0
  6
CONTINUOUS
 62
     7
 10
859.28784
 20
30.567783
 11
829.28778
 21
30.567783
  0
LINE
  8
0
  6
CONTINUOUS
 62
     7
 10
848.96161
 20
-136.43221
 11
829.28778
 21
-136.43221
  0
LINE
  8
0
  6
CONTINUOUS
 62
     7
 10
855.22253
 20
-132.5627
 11
859.28778
 21
-124.43219
  0
LINE
  8
0
  6
CONTINUOUS
 62
     7
 10
853.28784
 20
-129.62383
 11
853.28784
 21
-54.432209
  0
LINE
  8
0
  6
CONTINUOUS
 62
     7
 10
859.28784
 20
-49.432209
 11
829.28778
 21
-49.432209
  0
LINE
  8
0
  6
CONTINUOUS
 62
     7
 10
979.28778
 20
37.567791
 11
948.28778
 21
37.567791
  0
LINE
  8
0
  6
CONTINUOUS
 62
     7
 10
979.28778
 20
-56.432217
 11
948.28778
 21
-56.432217
  0
LINE
  8
0
  6
CENTER
 62
     7
 10
1021.9269
 20
-9.432209
 11
934.33051
 21
-9.432209
  0
LINE
  8
0
  6
CONTINUOUS
 62
     7
 10
-215.06664
 20
-1723.6735
 11
-223.16661
 21
-1723.6735
  0
LINE
  8
0
  6
CONTINUOUS
 62
     7
 10
-215.06664
 20
-1726.6735
 11
-226.16661
 21
-1726.6735
  0
LINE
  8
0
  6
CONTINUOUS
 62
     7
 10
-223.16661
 20
-1723.6735
 11
-223.16661
 21
-1735.8734
  0
LINE
  8
0
  6
CONTINUOUS
 62
     7
 10
-226.16663
 20
-1726.6735
 11
-223.1666
 21
-1723.6735
  0
LINE
  8
0
  6
CONTINUOUS
 62
     7
 10
-226.16661
 20
-1726.6735
 11
-226.16661
 21
-1735.8734
  0
LINE
  8
0
  6
CONTINUOUS
 62
     7
 10
-215.06664
 20
-1735.8734
 11
-230.8983
 21
-1735.8734
  0
LINE
  8
0
  6
CONTINUOUS
 62
     7
 10
-226.16661
 20
-1782.1882
 11
-226.16661
 21
-1827.1586
  0
LINE
  8
0
  6
CONTINUOUS
 62
     7
 10
-225.62999
 20
-1738.915
 11
-225.62999
 21
-1754.6317
  0
LINE
  8
0
  6
CONTINUOUS
 62
     7
 10
-236.16661
 20
-1738.915
 11
-236.16661
 21
-1754.6317
  0
LINE
  8
0
  6
CONTINUOUS
 62
     7
 10
948.28778
 20
136.06779
 11
948.28778
 21
-154.93222
  0
LINE
  8
0
  6
CONTINUOUS
 62
     7
 10
979.28778
 20
148.56779
 11
954.28778
 21
148.56779
  0
LINE
  8
0
  6
CONTINUOUS
 62
     7
 10
954.28784
 20
148.56778
 11
948.28778
 21
136.06773
  0
LINE
  8
0
  6
CONTINUOUS
 62
     7
 10
961.28778
 20
148.56779
 11
961.28778
 21
146.02406
  0
LINE
  8
0
  6
CONTINUOUS
 62
     7
 10
961.28778
 20
99.008888
 11
961.28778
 21
58.816643
  0
LINE
  8
0
  6
CONTINUOUS
 62
     7
 10
965.28778
 20
142.02406
 11
979.28778
 21
142.02406
  0
LINE
  8
0
  6
CONTINUOUS
 62
     7
 10
965.28778
 20
140.11043
 11
979.28778
 21
140.11043
  0
LINE
  8
0
  6
CONTINUOUS
 62
     7
 10
965.28778
 20
108.63132
 11
979.28778
 21
108.63132
  0
LINE
  8
0
  6
CONTINUOUS
 62
     7
 10
965.28778
 20
103.00889
 11
979.28778
 21
103.00889
  0
LINE
  8
0
  6
CONTINUOUS
 62
     7
 10
961.28778
 20
136.11043
 11
961.28778
 21
112.63132
  0
LINE
  8
0
  6
CONTINUOUS
 62
     7
 10
954.28778
 20
140.36302
 11
954.28778
 21
42.567787
  0
LINE
  8
0
  6
CONTINUOUS
 62
     7
 10
968.18781
 20
-9.432209
 11
948.28778
 21
-9.432209
  0
LINE
  8
0
  6
CONTINUOUS
 62
     7
 10
954.28778
 20
-159.22745
 11
954.28778
 21
-61.432217
  0
LINE
  8
0
  6
CONTINUOUS
 62
     7
 10
961.28778
 20
-117.8733
 11
961.28778
 21
-61.034176
  0
LINE
  8
0
  6
CONTINUOUS
 62
     7
 10
965.28778
 20
-121.8733
 11
979.28778
 21
-121.8733
  0
LINE
  8
0
  6
CONTINUOUS
 62
     7
 10
965.28778
 20
-127.49575
 11
979.28778
 21
-127.49575
  0
LINE
  8
0
  6
CONTINUOUS
 62
     7
 10
961.28778
 20
-154.97485
 11
961.28778
 21
-131.49576
  0
LINE
  8
0
  6
CONTINUOUS
 62
     7
 10
965.28778
 20
-158.97485
 11
979.28778
 21
-158.97485
  0
LINE
  8
0
  6
CONTINUOUS
 62
     7
 10
965.28778
 20
-160.88849
 11
979.28778
 21
-160.88849
  0
LINE
  8
0
  6
CONTINUOUS
 62
     7
 10
961.28778
 20
-167.43222
 11
961.28778
 21
-164.88849
  0
LINE
  8
0
  6
CONTINUOUS
 62
     7
 10
979.28778
 20
-167.43222
 11
954.28778
 21
-167.43222
  0
LINE
  8
0
  6
CONTINUOUS
 62
     7
 10
954.28778
 20
-167.43222
 11
948.28778
 21
-154.93224
  0
LINE
  8
0
  6
CENTER
 62
     7
 10
979.28778
 20
156.48857
 11
979.28778
 21
-176.37793
  0
LINE
  8
0
  6
CONTINUOUS
 62
     7
 10
979.28778
 20
37.567791
 11
1010.2878
 21
37.567791
  0
LINE
  8
0
  6
CONTINUOUS
 62
     7
 10
979.28778
 20
-56.432217
 11
1010.2878
 21
-56.432217
  0
LINE
  8
0
  6
CONTINUOUS
 62
     7
 10
-215.06664
 20
-1723.6735
 11
-206.9666
 21
-1723.6735
  0
LINE
  8
0
  6
CONTINUOUS
 62
     7
 10
-215.06664
 20
-1726.6735
 11
-203.9666
 21
-1726.6735
  0
LINE
  8
0
  6
CONTINUOUS
 62
     7
 10
-206.9666
 20
-1723.6735
 11
-206.9666
 21
-1735.8734
  0
LINE
  8
0
  6
CONTINUOUS
 62
     7
 10
-203.96664
 20
-1726.6735
 11
-206.96667
 21
-1723.6735
  0
LINE
  8
0
  6
CONTINUOUS
 62
     7
 10
-203.9666
 20
-1726.6735
 11
-203.9666
 21
-1735.8734
  0
LINE
  8
0
  6
CONTINUOUS
 62
     7
 10
-215.06664
 20
-1735.8734
 11
-199.23491
 21
-1735.8734
  0
LINE
  8
0
  6
CONTINUOUS
 62
     7
 10
-204.50328
 20
-1738.915
 11
-204.50328
 21
-1754.6317
  0
LINE
  8
0
  6
CONTINUOUS
 62
     7
 10
-193.9666
 20
-1738.915
 11
-193.9666
 21
-1754.6317
  0
LINE
  8
0
  6
CONTINUOUS
 62
     7
 10
1010.2878
 20
136.06779
 11
1010.2878
 21
-154.93222
  0
LINE
  8
0
  6
CONTINUOUS
 62
     7
 10
979.28778
 20
148.56779
 11
1004.2878
 21
148.56779
  0
LINE
  8
0
  6
CONTINUOUS
 62
     7
 10
1004.2878
 20
148.56778
 11
1010.2878
 21
136.06776
  0
LINE
  8
0
  6
CONTINUOUS
 62
     7
 10
997.28778
 20
148.56779
 11
997.28778
 21
146.02406
  0
LINE
  8
0
  6
CONTINUOUS
 62
     7
 10
997.28778
 20
99.008888
 11
997.28778
 21
58.816643
  0
LINE
  8
0
  6
CONTINUOUS
 62
     7
 10
993.28778
 20
142.02406
 11
979.28778
 21
142.02406
  0
LINE
  8
0
  6
CONTINUOUS
 62
     7
 10
993.28778
 20
140.11043
 11
979.28778
 21
140.11043
  0
LINE
  8
0
  6
CONTINUOUS
 62
     7
 10
993.28778
 20
108.63132
 11
979.28778
 21
108.63132
  0
LINE
  8
0
  6
CONTINUOUS
 62
     7
 10
993.28778
 20
103.00889
 11
979.28778
 21
103.00889
  0
LINE
  8
0
  6
CONTINUOUS
 62
     7
 10
997.28778
 20
136.11043
 11
997.28778
 21
112.63132
  0
LINE
  8
0
  6
CONTINUOUS
 62
     7
 10
1004.2878
 20
140.36302
 11
1004.2878
 21
42.567787
  0
LINE
  8
0
  6
CONTINUOUS
 62
     7
 10
990.38782
 20
-9.432209
 11
1010.2878
 21
-9.432209
  0
LINE
  8
0
  6
CONTINUOUS
 62
     7
 10
1004.2878
 20
-159.22745
 11
1004.2878
 21
-61.432217
  0
LINE
  8
0
  6
CONTINUOUS
 62
     7
 10
997.28778
 20
-117.8733
 11
997.28778
 21
-61.034176
  0
LINE
  8
0
  6
CONTINUOUS
 62
     7
 10
993.28778
 20
-121.8733
 11
979.28778
 21
-121.8733
  0
LINE
  8
0
  6
CONTINUOUS
 62
     7
 10
993.28778
 20
-127.49575
 11
979.28778
 21
-127.49575
  0
LINE
  8
0
  6
CONTINUOUS
 62
     7
 10
997.28778
 20
-154.97485
 11
997.28778
 21
-131.49576
  0
LINE
  8
0
  6
CONTINUOUS
 62
     7
 10
993.28778
 20
-158.97485
 11
979.28778
 21
-158.97485
  0
LINE
  8
0
  6
CONTINUOUS
 62
     7
 10
993.28778
 20
-160.88849
 11
979.28778
 21
-160.88849
  0
LINE
  8
0
  6
CONTINUOUS
 62
     7
 10
997.28778
 20
-167.43222
 11
997.28778
 21
-164.88849
  0
LINE
  8
0
  6
CONTINUOUS
 62
     7
 10
979.28778
 20
-167.43222
 11
1004.2878
 21
-167.43222
  0
LINE
  8
0
  6
CONTINUOUS
 62
     7
 10
1004.2878
 20
-167.43222
 11
1010.2878
 21
-154.93224
  0
LINE
  8
0
  6
CONTINUOUS
 62
     7
 10
1129.2878
 20
37.567787
 11
1098.2878
 21
37.567787
  0
LINE
  8
0
  6
CONTINUOUS
 62
     7
 10
1129.2878
 20
-56.432209
 11
1098.2878
 21
-56.432209
  0
LINE
  8
0
  6
CENTER
 62
     7
 10
1174.756
 20
-9.432209
 11
1080.606
 21
-9.432209
  0
LINE
  8
0
  6
CONTINUOUS
 62
     7
 10
593.8479
 20
-1726.1821
 11
585.7478
 21
-1726.1821
  0
LINE
  8
0
  6
CONTINUOUS
 62
     7
 10
593.8479
 20
-1729.1821
 11
582.7478
 21
-1729.1821
  0
LINE
  8
0
  6
CONTINUOUS
 62
     7
 10
585.7478
 20
-1726.1821
 11
585.7478
 21
-1738.3822
  0
LINE
  8
0
  6
CONTINUOUS
 62
     7
 10
582.7478
 20
-1729.1821
 11
585.7478
 21
-1726.1821
  0
LINE
  8
0
  6
CONTINUOUS
 62
     7
 10
582.7478
 20
-1729.1821
 11
582.7478
 21
-1738.3822
  0
LINE
  8
0
  6
CONTINUOUS
 62
     7
 10
593.8479
 20
-1738.3822
 11
578.01611
 21
-1738.3822
  0
LINE
  8
0
  6
CONTINUOUS
 62
     7
 10
582.7478
 20
-1784.6967
 11
582.7478
 21
-1829.6676
  0
LINE
  8
0
  6
CONTINUOUS
 62
     7
 10
583.28455
 20
-1741.4238
 11
583.28455
 21
-1757.1405
  0
LINE
  8
0
  6
CONTINUOUS
 62
     7
 10
572.7478
 20
-1741.4238
 11
572.7478
 21
-1757.1405
  0
LINE
  8
0
  6
CONTINUOUS
 62
     7
 10
1129.2878
 20
177.06779
 11
1104.2878
 21
177.06779
  0
LINE
  8
0
  6
CONTINUOUS
 62
     7
 10
1104.2878
 20
177.06783
 11
1098.2877
 21
164.56778
  0
LINE
  8
0
  6
CONTINUOUS
 62
     7
 10
1104.2878
 20
168.86302
 11
1104.2878
 21
42.567791
  0
LINE
  8
0
  6
CONTINUOUS
 62
     7
 10
1118.1877
 20
-9.432209
 11
1098.2878
 21
-9.432209
  0
LINE
  8
0
  6
CONTINUOUS
 62
     7
 10
1098.2878
 20
164.56779
 11
1098.2878
 21
-183.43221
  0
LINE
  8
0
  6
CONTINUOUS
 62
     7
 10
1115.2878
 20
127.14469
 11
1129.2878
 21
127.14469
  0
LINE
  8
0
  6
CONTINUOUS
 62
     7
 10
1115.2878
 20
133.33421
 11
1129.2878
 21
133.33421
  0
LINE
  8
0
  6
CONTINUOUS
 62
     7
 10
1111.2878
 20
177.06779
 11
1111.2878
 21
174.2404
  0
LINE
  8
0
  6
CONTINUOUS
 62
     7
 10
1115.2878
 20
168.14384
 11
1129.2878
 21
168.14384
  0
LINE
  8
0
  6
CONTINUOUS
 62
     7
 10
1115.2878
 20
170.2404
 11
1129.2878
 21
170.2404
  0
LINE
  8
0
  6
CONTINUOUS
 62
     7
 10
1111.2878
 20
164.14384
 11
1111.2878
 21
137.33421
  0
LINE
  8
0
  6
CONTINUOUS
 62
     7
 10
1111.2878
 20
123.14469
 11
1111.2878
 21
58.816658
  0
LINE
  8
0
  6
CONTINUOUS
 62
     7
 10
1104.2878
 20
-187.72743
 11
1104.2878
 21
-61.432209
  0
LINE
  8
0
  6
CONTINUOUS
 62
     7
 10
1111.2878
 20
-142.00911
 11
1111.2878
 21
-61.034153
  0
LINE
  8
0
  6
CONTINUOUS
 62
     7
 10
1115.2878
 20
-146.00911
 11
1129.2878
 21
-146.00911
  0
LINE
  8
0
  6
CONTINUOUS
 62
     7
 10
1115.2878
 20
-152.19862
 11
1129.2878
 21
-152.19862
  0
LINE
  8
0
  6
CONTINUOUS
 62
     7
 10
1111.2878
 20
-183.00826
 11
1111.2878
 21
-156.19862
  0
LINE
  8
0
  6
CONTINUOUS
 62
     7
 10
1115.2878
 20
-187.00826
 11
1129.2878
 21
-187.00826
  0
LINE
  8
0
  6
CONTINUOUS
 62
     7
 10
1115.2878
 20
-189.10481
 11
1129.2878
 21
-189.10481
  0
LINE
  8
0
  6
CONTINUOUS
 62
     7
 10
1111.2878
 20
-195.93221
 11
1111.2878
 21
-193.10481
  0
LINE
  8
0
  6
CONTINUOUS
 62
     7
 10
1129.2878
 20
-195.93221
 11
1104.2878
 21
-195.93221
  0
LINE
  8
0
  6
CONTINUOUS
 62
     7
 10
1104.2877
 20
-195.93219
 11
1098.2877
 21
-183.43219
  0
LINE
  8
0
  6
CENTER
 62
     7
 10
1129.2878
 20
188.56779
 11
1129.2878
 21
-203.65068
  0
LINE
  8
0
  6
CONTINUOUS
 62
     7
 10
1129.2878
 20
37.567787
 11
1160.2878
 21
37.567787
  0
LINE
  8
0
  6
CONTINUOUS
 62
     7
 10
1129.2878
 20
-56.432209
 11
1160.2878
 21
-56.432209
  0
LINE
  8
0
  6
CONTINUOUS
 62
     7
 10
593.8479
 20
-1726.1821
 11
601.94788
 21
-1726.1821
  0
LINE
  8
0
  6
CONTINUOUS
 62
     7
 10
593.8479
 20
-1729.1821
 11
604.94788
 21
-1729.1821
  0
LINE
  8
0
  6
CONTINUOUS
 62
     7
 10
601.94788
 20
-1726.1821
 11
601.94788
 21
-1738.3822
  0
LINE
  8
0
  6
CONTINUOUS
 62
     7
 10
604.94781
 20
-1729.1821
 11
601.94788
 21
-1726.1823
  0
LINE
  8
0
  6
CONTINUOUS
 62
     7
 10
604.94788
 20
-1729.1821
 11
604.94788
 21
-1738.3822
  0
LINE
  8
0
  6
CONTINUOUS
 62
     7
 10
593.8479
 20
-1738.3822
 11
609.67957
 21
-1738.3822
  0
LINE
  8
0
  6
CONTINUOUS
 62
     7
 10
604.41125
 20
-1741.4238
 11
604.41125
 21
-1757.1405
  0
LINE
  8
0
  6
CONTINUOUS
 62
     7
 10
614.94788
 20
-1741.4238
 11
614.94788
 21
-1754.4846
  0
LINE
  8
0
  6
CONTINUOUS
 62
     7
 10
1129.2878
 20
177.06779
 11
1154.2878
 21
177.06779
  0
LINE
  8
0
  6
CONTINUOUS
 62
     7
 10
1154.2877
 20
177.06778
 11
1160.2877
 21
164.56776
  0
LINE
  8
0
  6
CONTINUOUS
 62
     7
 10
1154.2878
 20
168.86302
 11
1154.2878
 21
42.567791
  0
LINE
  8
0
  6
CONTINUOUS
 62
     7
 10
1140.3878
 20
-9.432209
 11
1160.2878
 21
-9.432209
  0
LINE
  8
0
  6
CONTINUOUS
 62
     7
 10
1160.2878
 20
164.56779
 11
1160.2878
 21
-183.43221
  0
LINE
  8
0
  6
CONTINUOUS
 62
     7
 10
1143.2878
 20
127.14469
 11
1129.2878
 21
127.14469
  0
LINE
  8
0
  6
CONTINUOUS
 62
     7
 10
1143.2878
 20
133.33421
 11
1129.2878
 21
133.33421
  0
LINE
  8
0
  6
CONTINUOUS
 62
     7
 10
1147.2878
 20
177.06779
 11
1147.2878
 21
174.2404
  0
LINE
  8
0
  6
CONTINUOUS
 62
     7
 10
1143.2878
 20
168.14384
 11
1129.2878
 21
168.14384
  0
LINE
  8
0
  6
CONTINUOUS
 62
     7
 10
1143.2878
 20
170.2404
 11
1129.2878
 21
170.2404
  0
LINE
  8
0
  6
CONTINUOUS
 62
     7
 10
1147.2878
 20
164.14384
 11
1147.2878
 21
137.33421
  0
LINE
  8
0
  6
CONTINUOUS
 62
     7
 10
1147.2878
 20
123.14469
 11
1147.2878
 21
58.816658
  0
LINE
  8
0
  6
CONTINUOUS
 62
     7
 10
1154.2878
 20
-187.72743
 11
1154.2878
 21
-61.432209
  0
LINE
  8
0
  6
CONTINUOUS
 62
     7
 10
1147.2878
 20
-142.00911
 11
1147.2878
 21
-61.034153
  0
LINE
  8
0
  6
CONTINUOUS
 62
     7
 10
1143.2878
 20
-146.00911
 11
1129.2878
 21
-146.00911
  0
LINE
  8
0
  6
CONTINUOUS
 62
     7
 10
1143.2878
 20
-152.19862
 11
1129.2878
 21
-152.19862
  0
LINE
  8
0
  6
CONTINUOUS
 62
     7
 10
1147.2878
 20
-183.00826
 11
1147.2878
 21
-156.19862
  0
LINE
  8
0
  6
CONTINUOUS
 62
     7
 10
1143.2878
 20
-187.00826
 11
1129.2878
 21
-187.00826
  0
LINE
  8
0
  6
CONTINUOUS
 62
     7
 10
1143.2878
 20
-189.10481
 11
1129.2878
 21
-189.10481
  0
LINE
  8
0
  6
CONTINUOUS
 62
     7
 10
1147.2878
 20
-195.93221
 11
1147.2878
 21
-193.10481
  0
LINE
  8
0
  6
CONTINUOUS
 62
     7
 10
1129.2878
 20
-195.93221
 11
1154.2878
 21
-195.93221
  0
LINE
  8
0
  6
CONTINUOUS
 62
     7
 10
1154.2877
 20
-195.93219
 11
1160.2877
 21
-183.43217
  0
LINE
  8
0
  6
CENTER
 62
     7
 10
-359.00183
 20
-628.03271
 11
-299.00494
 21
-628.03271
  0
LINE
  8
0
  6
CENTER
 62
     7
 10
-327.41635
 20
-572.29828
 11
-327.41635
 21
-682.43689
  0
LINE
  8
0
  6
CONTINUOUS
 62
     7
 10
-305.16635
 20
-608.53271
 11
-305.16635
 21
-647.53271
  0
LINE
  8
0
  6
CONTINUOUS
 62
     7
 10
-349.66635
 20
-608.53271
 11
-349.66635
 21
-647.53271
  0
LINE
  8
0
  6
CONTINUOUS
 62
     7
 10
-349.66629
 20
-647.53271
 11
-342.20956
 21
-665.62854
  0
LINE
  8
0
  6
CONTINUOUS
 62
     7
 10
-305.16635
 20
-647.53278
 11
-312.62308
 21
-665.6286
  0
LINE
  8
0
  6
CONTINUOUS
 62
     7
 10
-305.16635
 20
-608.53278
 11
-312.62308
 21
-590.43689
  0
LINE
  8
0
  6
CONTINUOUS
 62
     7
 10
-349.66632
 20
-608.53271
 11
-342.20959
 21
-590.43689
  0
LINE
  8
0
  6
CONTINUOUS
 62
     7
 10
-342.41635
 20
-605.84491
 11
-342.41635
 21
-650.22058
  0
LINE
  8
0
  6
CONTINUOUS
 62
     7
 10
-312.41635
 20
-605.84491
 11
-312.41635
 21
-650.22058
  0
LINE
  8
0
  6
CONTINUOUS
 62
     7
 10
-312.62308
 20
-665.6286
 11
-305.16635
 21
-630.53271
  0
LINE
  8
0
  6
CONTINUOUS
 62
     7
 10
-305.16632
 20
-625.53271
 11
-312.62305
 21
-590.43689
  0
LINE
  8
0
  6
CONTINUOUS
 62
     7
 10
-342.20959
 20
-590.43695
 11
-349.66632
 21
-625.53271
  0
LINE
  8
0
  6
CONTINUOUS
 62
     7
 10
-349.66635
 20
-630.53271
 11
-342.20959
 21
-665.6286
  0
LINE
  8
0
  6
CONTINUOUS
 62
     7
 10
-342.34827
 20
-650.54102
 11
-339.27512
 21
-665.00507
  0
LINE
  8
0
  6
CONTINUOUS
 62
     7
 10
-315.55756
 20
-665.00513
 11
-312.41635
 21
-650.22064
  0
LINE
  8
0
  6
CONTINUOUS
 62
     7
 10
-312.41632
 20
-605.84491
 11
-315.55756
 21
-591.06042
  0
LINE
  8
0
  6
CONTINUOUS
 62
     7
 10
-339.27512
 20
-591.06042
 11
-342.41632
 21
-605.84491
  0
LINE
  8
0
  6
CONTINUOUS
 62
     7
 10
-338.76965
 20
-603.03271
 11
-316.29239
 21
-603.03271
  0
LINE
  8
0
  6
CONTINUOUS
 62
     7
 10
-338.12744
 20
-653.03271
 11
-315.97128
 21
-653.03271
  0
LINE
  8
0
  6
CENTER
 62
     7
 10
-232.7088
 20
-569.01544
 11
-232.7088
 21
-687.86353
  0
LINE
  8
0
  6
CONTINUOUS
 62
     7
 10
-255.4588
 20
-604.03271
 11
-255.4588
 21
-652.03271
  0
LINE
  8
0
  6
CONTINUOUS
 62
     7
 10
-209.9588
 20
-604.03271
 11
-209.9588
 21
-652.03271
  0
LINE
  8
0
  6
CONTINUOUS
 62
     7
 10
-255.45879
 20
-652.03278
 11
-247.5334
 21
-671.55194
  0
LINE
  8
0
  6
CONTINUOUS
 62
     7
 10
-209.9588
 20
-652.03278
 11
-217.8842
 21
-671.55194
  0
LINE
  8
0
  6
CONTINUOUS
 62
     7
 10
-209.95877
 20
-604.03278
 11
-217.88417
 21
-584.51349
  0
LINE
  8
0
  6
CONTINUOUS
 62
     7
 10
-255.4588
 20
-604.03271
 11
-247.5334
 21
-584.51349
  0
LINE
  8
0
  6
CONTINUOUS
 62
     7
 10
-244.78862
 20
-599.03271
 11
-219.68155
 21
-599.03271
  0
LINE
  8
0
  6
CONTINUOUS
 62
     7
 10
-246.44664
 20
-657.03271
 11
-219.68155
 21
-657.03271
  0
LINE
  8
0
  6
CONTINUOUS
 62
     7
 10
-217.7088
 20
-601.04138
 11
-217.7088
 21
-655.02411
  0
LINE
  8
0
  6
CONTINUOUS
 62
     7
 10
-247.7088
 20
-599.03271
 11
-247.7088
 21
-657.03271
  0
LINE
  8
0
  6
CONTINUOUS
 62
     7
 10
-209.95879
 20
-635.03271
 11
-217.26733
 21
-670.03271
  0
LINE
  8
0
  6
CONTINUOUS
 62
     7
 10
-248.15024
 20
-670.03271
 11
-255.45879
 21
-635.03271
  0
LINE
  8
0
  6
CONTINUOUS
 62
     7
 10
-217.26733
 20
-586.03278
 11
-209.95879
 21
-621.03278
  0
LINE
  8
0
  6
CONTINUOUS
 62
     7
 10
-248.15025
 20
-586.03271
 11
-255.4588
 21
-621.03271
  0
LINE
  8
0
  6
CONTINUOUS
 62
     7
 10
-244.72415
 20
-586.74817
 11
-247.70879
 21
-601.04132
  0
LINE
  8
0
  6
CONTINUOUS
 62
     7
 10
-220.69344
 20
-586.74817
 11
-217.7088
 21
-601.04138
  0
LINE
  8
0
  6
CONTINUOUS
 62
     7
 10
-217.70879
 20
-655.02411
 11
-220.69344
 21
-669.31732
  0
LINE
  8
0
  6
CONTINUOUS
 62
     7
 10
-244.72414
 20
-669.31732
 11
-247.70879
 21
-655.02411
  0
LINE
  8
0
  6
CENTER
 62
     7
 10
-132.89793
 20
-566.59058
 11
-132.89793
 21
-690.28796
  0
LINE
  8
0
  6
CONTINUOUS
 62
     7
 10
-155.64795
 20
-601.03271
 11
-155.64795
 21
-655.03271
  0
LINE
  8
0
  6
CONTINUOUS
 62
     7
 10
-110.14793
 20
-601.03271
 11
-110.14793
 21
-655.03271
  0
LINE
  8
0
  6
CONTINUOUS
 62
     7
 10
-155.64792
 20
-655.03278
 11
-147.72253
 21
-674.55194
  0
LINE
  8
0
  6
CONTINUOUS
 62
     7
 10
-110.14795
 20
-655.03271
 11
-118.07333
 21
-674.55194
  0
LINE
  8
0
  6
CONTINUOUS
 62
     7
 10
-110.14792
 20
-601.03271
 11
-118.07333
 21
-581.51349
  0
LINE
  8
0
  6
CONTINUOUS
 62
     7
 10
-155.64793
 20
-601.03271
 11
-147.72255
 21
-581.51349
  0
LINE
  8
0
  6
CONTINUOUS
 62
     7
 10
-145.74283
 20
-660.03271
 11
-120.93891
 21
-660.03271
  0
LINE
  8
0
  6
CONTINUOUS
 62
     7
 10
-145.2999
 20
-596.03271
 11
-121.38184
 21
-596.03271
  0
LINE
  8
0
  6
CONTINUOUS
 62
     7
 10
-117.89793
 20
-599.47382
 11
-117.89793
 21
-656.59167
  0
LINE
  8
0
  6
CONTINUOUS
 62
     7
 10
-147.89795
 20
-599.47382
 11
-147.89795
 21
-656.59167
  0
LINE
  8
0
  6
CONTINUOUS
 62
     7
 10
-148.3394
 20
-583.03271
 11
-155.64793
 21
-621.53271
  0
LINE
  8
0
  6
CONTINUOUS
 62
     7
 10
-155.64793
 20
-634.53278
 11
-148.33939
 21
-673.03278
  0
LINE
  8
0
  6
CONTINUOUS
 62
     7
 10
-110.14795
 20
-634.53278
 11
-117.45649
 21
-673.03278
  0
LINE
  8
0
  6
CONTINUOUS
 62
     7
 10
-110.14793
 20
-621.53278
 11
-117.45647
 21
-583.03278
  0
LINE
  8
0
  6
CONTINUOUS
 62
     7
 10
-144.9008
 20
-583.68549
 11
-147.89795
 21
-599.47382
  0
LINE
  8
0
  6
CONTINUOUS
 62
     7
 10
-117.89793
 20
-599.47382
 11
-120.89507
 21
-583.68555
  0
LINE
  8
0
  6
CONTINUOUS
 62
     7
 10
-147.89793
 20
-656.59167
 11
-144.90079
 21
-672.38
  0
LINE
  8
0
  6
CONTINUOUS
 62
     7
 10
-117.89794
 20
-656.59167
 11
-120.89508
 21
-672.38
  0
LINE
  8
0
  6
CENTER
 62
     7
 10
-41.213032
 20
-550.87769
 11
-41.213032
 21
-702.25159
  0
LINE
  8
0
  6
CONTINUOUS
 62
     7
 10
-64.463036
 20
-594.78271
 11
-64.463036
 21
-661.28271
  0
LINE
  8
0
  6
CONTINUOUS
 62
     7
 10
-17.963032
 20
-594.78271
 11
-17.963032
 21
-661.28271
  0
LINE
  8
0
  6
CONTINUOUS
 62
     7
 10
-64.463028
 20
-661.28271
 11
-56.178902
 21
-683.19159
  0
LINE
  8
0
  6
CONTINUOUS
 62
     7
 10
-17.963022
 20
-661.28271
 11
-26.247147
 21
-683.19159
  0
LINE
  8
0
  6
CONTINUOUS
 62
     7
 10
-17.963026
 20
-594.78278
 11
-26.247171
 21
-572.8739
  0
LINE
  8
0
  6
CONTINUOUS
 62
     7
 10
-64.46302
 20
-594.78271
 11
-56.178894
 21
-572.87384
  0
LINE
  8
0
  6
CONTINUOUS
 62
     7
 10
-24.213032
 20
-601.9657
 11
-24.213032
 21
-653.55231
  0
LINE
  8
0
  6
CONTINUOUS
 62
     7
 10
-58.213032
 20
-601.9657
 11
-58.213032
 21
-654.09979
  0
LINE
  8
0
  6
CONTINUOUS
 62
     7
 10
-53.486588
 20
-666.53271
 11
-28.939476
 21
-666.53271
  0
LINE
  8
0
  6
CONTINUOUS
 62
     7
 10
-52.66835
 20
-589.53271
 11
-29.348595
 21
-589.53271
  0
LINE
  8
0
  6
CONTINUOUS
 62
     7
 10
-57.184273
 20
-680.53271
 11
-64.463036
 21
-638.53271
  0
LINE
  8
0
  6
CONTINUOUS
 62
     7
 10
-25.496794
 20
-680.53271
 11
-17.963026
 21
-638.53271
  0
LINE
  8
0
  6
CONTINUOUS
 62
     7
 10
-25.241796
 20
-575.53271
 11
-17.963022
 21
-617.53271
  0
LINE
  8
0
  6
CONTINUOUS
 62
     7
 10
-57.184269
 20
-575.53278
 11
-64.463043
 21
-617.53278
  0
LINE
  8
0
  6
CONTINUOUS
 62
     7
 10
-53.735676
 20
-576.13043
 11
-58.213043
 21
-601.96576
  0
LINE
  8
0
  6
CONTINUOUS
 62
     7
 10
-28.690392
 20
-576.13037
 11
-24.213022
 21
-601.9657
  0
LINE
  8
0
  6
CONTINUOUS
 62
     7
 10
-28.941811
 20
-679.91479
 11
-24.213024
 21
-653.55231
  0
LINE
  8
0
  6
CONTINUOUS
 62
     7
 10
-53.735676
 20
-679.93506
 11
-58.213036
 21
-654.09979
  0
LINE
  8
0
  6
CENTER
 62
     7
 10
75.315544
 20
-548.42303
 11
75.315544
 21
-710.43396
  0
LINE
  8
0
  6
CONTINUOUS
 62
     7
 10
52.06554
 20
-585.03271
 11
52.06554
 21
-671.03271
  0
LINE
  8
0
  6
CONTINUOUS
 62
     7
 10
98.565544
 20
-585.03271
 11
98.565544
 21
-671.03271
  0
LINE
  8
0
  6
CONTINUOUS
 62
     7
 10
52.065552
 20
-671.03278
 11
57.024418
 21
-688.67419
  0
LINE
  8
0
  6
CONTINUOUS
 62
     7
 10
98.565567
 20
-671.03271
 11
93.606682
 21
-688.67419
  0
LINE
  8
0
  6
CONTINUOUS
 62
     7
 10
98.565536
 20
-585.03278
 11
93.606659
 21
-567.39124
  0
LINE
  8
0
  6
CONTINUOUS
 62
     7
 10
52.065533
 20
-585.03271
 11
57.024414
 21
-567.39124
  0
LINE
  8
0
  6
CONTINUOUS
 62
     7
 10
56.914368
 20
-567.78278
 11
52.065533
 21
-610.03278
  0
LINE
  8
0
  6
CONTINUOUS
 62
     7
 10
93.716705
 20
-567.78278
 11
98.565544
 21
-610.03278
  0
LINE
  8
0
  6
CONTINUOUS
 62
     7
 10
98.565536
 20
-646.03278
 11
93.716698
 21
-688.28278
  0
LINE
  8
0
  6
CONTINUOUS
 62
     7
 10
52.06554
 20
-646.03278
 11
56.914379
 21
-688.28278
  0
LINE
  8
0
  6
CONTINUOUS
 62
     7
 10
92.315544
 20
-586.271
 11
92.315544
 21
-671.03271
  0
LINE
  8
0
  6
CONTINUOUS
 62
     7
 10
58.315544
 20
-586.271
 11
58.315544
 21
-669.79449
  0
LINE
  8
0
  6
CONTINUOUS
 62
     7
 10
63.041985
 20
-585.03271
 11
87.998215
 21
-585.03271
  0
LINE
  8
0
  6
CONTINUOUS
 62
     7
 10
61.40551
 20
-671.03271
 11
88.407333
 21
-671.03271
  0
LINE
  8
0
  6
CONTINUOUS
 62
     7
 10
60.391544
 20
-568.18182
 11
58.315533
 21
-586.27106
  0
LINE
  8
0
  6
CONTINUOUS
 62
     7
 10
90.239532
 20
-568.18182
 11
92.315536
 21
-586.271
  0
LINE
  8
0
  6
CONTINUOUS
 62
     7
 10
92.315536
 20
-669.79449
 11
90.239525
 21
-687.88373
  0
LINE
  8
0
  6
CONTINUOUS
 62
     7
 10
58.31554
 20
-669.79449
 11
60.391556
 21
-687.88373
  0
LINE
  8
0
  6
CENTER
 62
     7
 10
185.11047
 20
-538.22791
 11
185.11047
 21
-715.86609
  0
LINE
  8
0
  6
CONTINUOUS
 62
     7
 10
208.36047
 20
-580.53271
 11
208.36047
 21
-675.53271
  0
LINE
  8
0
  6
CONTINUOUS
 62
     7
 10
161.86047
 20
-580.53271
 11
161.86047
 21
-675.53271
  0
LINE
  8
0
  6
CONTINUOUS
 62
     7
 10
161.86049
 20
-580.53278
 11
166.60878
 21
-560.20996
  0
LINE
  8
0
  6
CONTINUOUS
 62
     7
 10
208.36047
 20
-580.53271
 11
203.61218
 21
-560.20996
  0
LINE
  8
0
  6
CONTINUOUS
 62
     7
 10
161.86047
 20
-675.53271
 11
166.60876
 21
-695.85559
  0
LINE
  8
0
  6
CONTINUOUS
 62
     7
 10
208.36047
 20
-675.53278
 11
203.61218
 21
-695.85559
  0
LINE
  8
0
  6
CONTINUOUS
 62
     7
 10
168.11047
 20
-580.4101
 11
168.11047
 21
-675.6554
  0
LINE
  8
0
  6
CONTINUOUS
 62
     7
 10
202.11047
 20
-580.4101
 11
202.11047
 21
-675.62634
  0
LINE
  8
0
  6
CONTINUOUS
 62
     7
 10
172.15451
 20
-576.03271
 11
197.09801
 21
-576.03271
  0
LINE
  8
0
  6
CONTINUOUS
 62
     7
 10
172.49158
 20
-680.03271
 11
196.76094
 21
-680.03271
  0
LINE
  8
0
  6
CONTINUOUS
 62
     7
 10
208.36047
 20
-649.03271
 11
203.50716
 21
-696.28271
  0
LINE
  8
0
  6
CONTINUOUS
 62
     7
 10
161.86049
 20
-649.03271
 11
166.70857
 21
-696.28271
  0
LINE
  8
0
  6
CONTINUOUS
 62
     7
 10
161.86049
 20
-607.03271
 11
166.70857
 21
-559.78278
  0
LINE
  8
0
  6
CONTINUOUS
 62
     7
 10
203.51239
 20
-559.78271
 11
208.36049
 21
-607.03271
  0
LINE
  8
0
  6
CONTINUOUS
 62
     7
 10
168.11047
 20
-580.4101
 11
170.19029
 21
-560.14001
  0
LINE
  8
0
  6
CONTINUOUS
 62
     7
 10
200.03067
 20
-560.13995
 11
202.11049
 21
-580.4101
  0
LINE
  8
0
  6
CONTINUOUS
 62
     7
 10
202.11047
 20
-675.62634
 11
200.02547
 21
-695.92511
  0
LINE
  8
0
  6
CONTINUOUS
 62
     7
 10
168.11049
 20
-675.6554
 11
170.19029
 21
-695.92548
  0
LINE
  8
0
  6
CENTER
 62
     7
 10
285.11047
 20
-520.34442
 11
285.11047
 21
-737.10529
  0
LINE
  8
0
  6
CONTINUOUS
 62
     7
 10
259.11047
 20
-567.53271
 11
259.11047
 21
-688.53271
  0
LINE
  8
0
  6
CONTINUOUS
 62
     7
 10
311.11047
 20
-567.53271
 11
311.11047
 21
-688.53271
  0
LINE
  8
0
  6
CONTINUOUS
 62
     7
 10
259.1105
 20
-688.53278
 11
266.8334
 21
-715.72394
  0
LINE
  8
0
  6
CONTINUOUS
 62
     7
 10
311.11047
 20
-688.53278
 11
303.38757
 21
-715.72388
  0
LINE
  8
0
  6
CONTINUOUS
 62
     7
 10
311.11047
 20
-567.53278
 11
303.3876
 21
-540.34167
  0
LINE
  8
0
  6
CONTINUOUS
 62
     7
 10
259.11047
 20
-567.53278
 11
266.83337
 21
-540.34161
  0
LINE
  8
0
  6
CONTINUOUS
 62
     7
 10
259.11047
 20
-654.03278
 11
266.83337
 21
-715.72382
  0
LINE
  8
0
  6
CONTINUOUS
 62
     7
 10
303.44186
 20
-715.53278
 11
311.11047
 21
-654.03278
  0
LINE
  8
0
  6
CONTINUOUS
 62
     7
 10
311.11047
 20
-602.03271
 11
303.44186
 21
-540.53271
  0
LINE
  8
0
  6
CONTINUOUS
 62
     7
 10
259.11047
 20
-602.03271
 11
266.77911
 21
-540.53271
  0
LINE
  8
0
  6
CONTINUOUS
 62
     7
 10
266.11047
 20
-578.22205
 11
270.74835
 21
-541.02765
  0
LINE
  8
0
  6
CONTINUOUS
 62
     7
 10
304.11047
 20
-578.22205
 11
299.4726
 21
-541.02765
  0
LINE
  8
0
  6
CONTINUOUS
 62
     7
 10
266.11047
 20
-677.74756
 11
270.8024
 21
-715.22699
  0
LINE
  8
0
  6
CONTINUOUS
 62
     7
 10
299.4726
 20
-715.03778
 11
304.11047
 21
-677.84344
  0
LINE
  8
0
  6
CONTINUOUS
 62
     7
 10
304.11047
 20
-578.22211
 11
304.11047
 21
-677.84338
  0
LINE
  8
0
  6
CONTINUOUS
 62
     7
 10
266.11047
 20
-578.22211
 11
266.11047
 21
-677.74756
  0
LINE
  8
0
  6
CONTINUOUS
 62
     7
 10
271.2478
 20
-691.53271
 11
298.67624
 21
-691.53271
  0
LINE
  8
0
  6
CONTINUOUS
 62
     7
 10
271.62875
 20
-564.53271
 11
296.39053
 21
-564.53271
  0
LINE
  8
0
  6
CENTER
 62
     7
 10
519.69006
 20
-493.21509
 11
519.69006
 21
-758.72089
  0
LINE
  8
0
  6
CONTINUOUS
 62
     7
 10
493.69009
 20
-553.83984
 11
493.69009
 21
-701.83984
  0
LINE
  8
0
  6
CONTINUOUS
 62
     7
 10
545.69006
 20
-553.83984
 11
545.69006
 21
-701.83984
  0
LINE
  8
0
  6
CONTINUOUS
 62
     7
 10
499.69009
 20
-564.83051
 11
499.69009
 21
-690.84912
  0
LINE
  8
0
  6
CONTINUOUS
 62
     7
 10
539.69006
 20
-564.83051
 11
539.69006
 21
-690.84912
  0
LINE
  8
0
  6
CONTINUOUS
 62
     7
 10
493.69009
 20
-701.83978
 11
495.78384
 21
-725.45905
  0
LINE
  8
0
  6
CONTINUOUS
 62
     7
 10
545.69
 20
-701.83978
 11
543.59625
 21
-725.45905
  0
LINE
  8
0
  6
CONTINUOUS
 62
     7
 10
545.69006
 20
-553.83978
 11
543.59631
 21
-530.22064
  0
LINE
  8
0
  6
CONTINUOUS
 62
     7
 10
493.69009
 20
-553.83984
 11
495.78384
 21
-530.22064
  0
LINE
  8
0
  6
CONTINUOUS
 62
     7
 10
493.69006
 20
-667.83978
 11
496.32877
 21
-728.83984
  0
LINE
  8
0
  6
CONTINUOUS
 62
     7
 10
545.69006
 20
-667.83984
 11
543.05133
 21
-728.83978
  0
LINE
  8
0
  6
CONTINUOUS
 62
     7
 10
545.69006
 20
-587.83978
 11
543.05139
 21
-526.83984
  0
LINE
  8
0
  6
CONTINUOUS
 62
     7
 10
493.69006
 20
-587.83984
 11
496.3288
 21
-526.83978
  0
LINE
  8
0
  6
CONTINUOUS
 62
     7
 10
499.69006
 20
-690.84906
 11
501.3241
 21
-728.62378
  0
LINE
  8
0
  6
CONTINUOUS
 62
     7
 10
539.69006
 20
-690.84912
 11
538.05603
 21
-728.62372
  0
LINE
  8
0
  6
CONTINUOUS
 62
     7
 10
539.69006
 20
-564.83057
 11
538.05603
 21
-527.05591
  0
LINE
  8
0
  6
CONTINUOUS
 62
     7
 10
499.69006
 20
-564.83051
 11
501.3241
 21
-527.05591
  0
LINE
  8
0
  6
CONTINUOUS
 62
     7
 10
503.3649
 20
-545.83984
 11
534.38586
 21
-545.83984
  0
LINE
  8
0
  6
CONTINUOUS
 62
     7
 10
503.3649
 20
-709.83984
 11
534.96033
 21
-709.83984
  0
LINE
  8
0
  6
CENTER
 62
     7
 10
483.67062
 20
-627.83984
 11
555.76355
 21
-627.83984
  0
LINE
  8
0
  6
CENTER
 62
     7
 10
669.69006
 20
-473.57037
 11
669.69006
 21
-773.98981
  0
LINE
  8
0
  6
CONTINUOUS
 62
     7
 10
695.69006
 20
-539.83984
 11
695.69006
 21
-715.83984
  0
LINE
  8
0
  6
CONTINUOUS
 62
     7
 10
643.69006
 20
-539.83984
 11
643.69006
 21
-715.83984
  0
LINE
  8
0
  6
CONTINUOUS
 62
     7
 10
643.69006
 20
-715.83984
 11
645.77997
 21
-739.91541
  0
LINE
  8
0
  6
CONTINUOUS
 62
     7
 10
695.69006
 20
-715.83978
 11
693.6001
 21
-739.91541
  0
LINE
  8
0
  6
CONTINUOUS
 62
     7
 10
695.69
 20
-539.83978
 11
693.6001
 21
-515.76428
  0
LINE
  8
0
  6
CONTINUOUS
 62
     7
 10
643.69006
 20
-539.83978
 11
645.77997
 21
-515.76422
  0
LINE
  8
0
  6
CONTINUOUS
 62
     7
 10
649.69006
 20
-552.77686
 11
649.69006
 21
-702.90277
  0
LINE
  8
0
  6
CONTINUOUS
 62
     7
 10
689.69006
 20
-552.77686
 11
689.69006
 21
-702.90277
  0
LINE
  8
0
  6
CONTINUOUS
 62
     7
 10
652.63922
 20
-532.83984
 11
684.30505
 21
-532.83984
  0
LINE
  8
0
  6
CONTINUOUS
 62
     7
 10
652.63922
 20
-722.83984
 11
684.30505
 21
-722.83984
  0
LINE
  8
0
  6
CONTINUOUS
 62
     7
 10
643.69012
 20
-679.83978
 11
646.45221
 21
-743.83978
  0
LINE
  8
0
  6
CONTINUOUS
 62
     7
 10
695.69006
 20
-679.83978
 11
692.92798
 21
-743.83984
  0
LINE
  8
0
  6
CONTINUOUS
 62
     7
 10
695.69012
 20
-575.83984
 11
692.92798
 21
-511.83984
  0
LINE
  8
0
  6
CONTINUOUS
 62
     7
 10
643.69006
 20
-575.83984
 11
646.45215
 21
-511.83981
  0
LINE
  8
0
  6
CONTINUOUS
 62
     7
 10
649.69006
 20
-552.77692
 11
651.44751
 21
-512.05542
  0
LINE
  8
0
  6
CONTINUOUS
 62
     7
 10
689.69012
 20
-552.77686
 11
687.93268
 21
-512.05542
  0
LINE
  8
0
  6
CONTINUOUS
 62
     7
 10
649.69012
 20
-702.90277
 11
651.44757
 21
-743.62421
  0
LINE
  8
0
  6
CONTINUOUS
 62
     7
 10
689.69006
 20
-702.90277
 11
687.93262
 21
-743.62427
  0
LINE
  8
0
  6
CENTER
 62
     7
 10
819.69006
 20
-444.70749
 11
819.69006
 21
-808.64093
  0
LINE
  8
0
  6
CONTINUOUS
 62
     7
 10
849.69006
 20
-512.83984
 11
849.69006
 21
-742.83984
  0
LINE
  8
0
  6
CONTINUOUS
 62
     7
 10
789.69006
 20
-512.83984
 11
789.69006
 21
-742.83984
  0
LINE
  8
0
  6
CONTINUOUS
 62
     7
 10
789.69006
 20
-742.83984
 11
791.77515
 21
-769.5213
  0
LINE
  8
0
  6
CONTINUOUS
 62
     7
 10
849.69006
 20
-742.83984
 11
847.60498
 21
-769.5213
  0
LINE
  8
0
  6
CONTINUOUS
 62
     7
 10
849.69012
 20
-512.83978
 11
847.60498
 21
-486.15833
  0
LINE
  8
0
  6
CONTINUOUS
 62
     7
 10
789.69006
 20
-512.83984
 11
791.77521
 21
-486.15833
  0
LINE
  8
0
  6
CONTINUOUS
 62
     7
 10
795.69006
 20
-561.92365
 11
795.69006
 21
-693.75598
  0
LINE
  8
0
  6
CONTINUOUS
 62
     7
 10
843.69006
 20
-561.92365
 11
843.69006
 21
-693.75598
  0
LINE
  8
0
  6
CONTINUOUS
 62
     7
 10
789.69012
 20
-693.83984
 11
791.8222
 21
-770.12292
  0
LINE
  8
0
  6
CONTINUOUS
 62
     7
 10
849.69012
 20
-693.83984
 11
847.55798
 21
-770.12292
  0
LINE
  8
0
  6
CONTINUOUS
 62
     7
 10
795.69012
 20
-693.75598
 11
797.36102
 21
-753.53888
  0
LINE
  8
0
  6
CONTINUOUS
 62
     7
 10
843.69012
 20
-693.75598
 11
842.00195
 21
-754.15393
  0
LINE
  8
0
  6
CONTINUOUS
 62
     7
 10
789.69012
 20
-561.83978
 11
791.82227
 21
-485.55673
  0
LINE
  8
0
  6
CONTINUOUS
 62
     7
 10
849.69006
 20
-561.83978
 11
847.55798
 21
-485.5567
  0
LINE
  8
0
  6
CONTINUOUS
 62
     7
 10
795.69012
 20
-561.92365
 11
797.37201
 21
-501.7493
  0
LINE
  8
0
  6
CONTINUOUS
 62
     7
 10
843.69006
 20
-561.92365
 11
842.03577
 21
-502.73438
  0
LINE
  8
0
  6
CENTER
 62
     7
 10
969.69006
 20
-406.42755
 11
969.69006
 21
-852.03925
  0
LINE
  8
0
  6
CONTINUOUS
 62
     7
 10
1000.6901
 20
-482.33981
 11
1000.6901
 21
-773.33984
  0
LINE
  8
0
  6
CONTINUOUS
 62
     7
 10
938.69006
 20
-482.33981
 11
938.69006
 21
-773.33984
  0
LINE
  8
0
  6
CONTINUOUS
 62
     7
 10
938.69012
 20
-773.33984
 11
941.8443
 21
-803.27393
  0
LINE
  8
0
  6
CONTINUOUS
 62
     7
 10
1000.6901
 20
-773.33984
 11
997.53595
 21
-803.27393
  0
LINE
  8
0
  6
CONTINUOUS
 62
     7
 10
1000.6901
 20
-482.33978
 11
997.53595
 21
-452.40573
  0
LINE
  8
0
  6
CONTINUOUS
 62
     7
 10
938.69
 20
-482.33981
 11
941.84418
 21
-452.4057
  0
LINE
  8
0
  6
CONTINUOUS
 62
     7
 10
944.69006
 20
-476.55615
 11
944.69006
 21
-782.12964
  0
LINE
  8
0
  6
CONTINUOUS
 62
     7
 10
994.69006
 20
-474.56113
 11
994.69006
 21
-781.13214
  0
LINE
  8
0
  6
CONTINUOUS
 62
     7
 10
950.69006
 20
-480.54623
 11
950.69006
 21
-524.26935
  0
LINE
  8
0
  6
CONTINUOUS
 62
     7
 10
988.69006
 20
-480.21371
 11
988.69006
 21
-516.83984
  0
LINE
  8
0
  6
CONTINUOUS
 62
     7
 10
950.69006
 20
-582.83984
 11
988.69006
 21
-582.83984
  0
LINE
  8
0
  6
CONTINUOUS
 62
     7
 10
950.69006
 20
-672.83984
 11
988.69006
 21
-672.83984
  0
LINE
  8
0
  6
CONTINUOUS
 62
     7
 10
950.69006
 20
-522.83984
 11
988.69006
 21
-522.83984
  0
LINE
  8
0
  6
CONTINUOUS
 62
     7
 10
950.69006
 20
-732.83984
 11
988.69006
 21
-732.83984
  0
LINE
  8
0
  6
CONTINUOUS
 62
     7
 10
950.69006
 20
-678.83984
 11
988.69006
 21
-678.83984
  0
LINE
  8
0
  6
CONTINUOUS
 62
     7
 10
950.69006
 20
-738.83984
 11
988.69006
 21
-738.83984
  0
LINE
  8
0
  6
CONTINUOUS
 62
     7
 10
950.69006
 20
-576.83984
 11
988.69006
 21
-576.83984
  0
LINE
  8
0
  6
CONTINUOUS
 62
     7
 10
950.69006
 20
-516.83984
 11
988.69006
 21
-516.83984
  0
LINE
  8
0
  6
CONTINUOUS
 62
     7
 10
950.69006
 20
-522.83984
 11
950.69006
 21
-576.83984
  0
LINE
  8
0
  6
CONTINUOUS
 62
     7
 10
950.69006
 20
-582.83984
 11
950.69006
 21
-672.83984
  0
LINE
  8
0
  6
CONTINUOUS
 62
     7
 10
950.69006
 20
-678.83984
 11
950.69006
 21
-732.83984
  0
LINE
  8
0
  6
CONTINUOUS
 62
     7
 10
950.69006
 20
-738.83984
 11
950.69006
 21
-775.47949
  0
LINE
  8
0
  6
CONTINUOUS
 62
     7
 10
988.69006
 20
-738.83984
 11
988.69006
 21
-775.47949
  0
LINE
  8
0
  6
CONTINUOUS
 62
     7
 10
988.69006
 20
-678.83984
 11
988.69006
 21
-732.83984
  0
LINE
  8
0
  6
CONTINUOUS
 62
     7
 10
988.69006
 20
-582.83984
 11
988.69006
 21
-672.83984
  0
LINE
  8
0
  6
CONTINUOUS
 62
     7
 10
988.69006
 20
-522.83984
 11
988.69006
 21
-576.83984
  0
LINE
  8
0
  6
CENTER
 62
     7
 10
1119.6901
 20
-379.75479
 11
1119.6901
 21
-875.84418
  0
LINE
  8
0
  6
CONTINUOUS
 62
     7
 10
1150.6901
 20
-456.33981
 11
1150.6901
 21
-799.33984
  0
LINE
  8
0
  6
CONTINUOUS
 62
     7
 10
1088.6901
 20
-456.33981
 11
1088.6901
 21
-799.33984
  0
LINE
  8
0
  6
CONTINUOUS
 62
     7
 10
1088.6901
 20
-799.33984
 11
1091.8392
 21
-829.7262
  0
LINE
  8
0
  6
CONTINUOUS
 62
     7
 10
1150.6902
 20
-799.33984
 11
1147.541
 21
-829.7262
  0
LINE
  8
0
  6
CONTINUOUS
 62
     7
 10
1150.6901
 20
-456.33984
 11
1147.5409
 21
-425.95346
  0
LINE
  8
0
  6
CONTINUOUS
 62
     7
 10
1088.6902
 20
-456.33984
 11
1091.8394
 21
-425.95343
  0
LINE
  8
0
  6
CONTINUOUS
 62
     7
 10
1094.6901
 20
-450.28815
 11
1094.6901
 21
-804.07507
  0
LINE
  8
0
  6
CONTINUOUS
 62
     7
 10
1144.6901
 20
-450.95316
 11
1144.6901
 21
-804.40759
  0
LINE
  8
0
  6
CONTINUOUS
 62
     7
 10
1101.6901
 20
-456.27325
 11
1101.6901
 21
-500.83981
  0
LINE
  8
0
  6
CONTINUOUS
 62
     7
 10
1137.6901
 20
-457.27078
 11
1137.6901
 21
-500.83981
  0
LINE
  8
0
  6
CONTINUOUS
 62
     7
 10
1101.6901
 20
-577.83984
 11
1137.6901
 21
-577.83984
  0
LINE
  8
0
  6
CONTINUOUS
 62
     7
 10
1101.6901
 20
-677.83984
 11
1137.6901
 21
-677.83984
  0
LINE
  8
0
  6
CONTINUOUS
 62
     7
 10
1101.6901
 20
-747.83984
 11
1137.6901
 21
-747.83984
  0
LINE
  8
0
  6
CONTINUOUS
 62
     7
 10
1101.6901
 20
-507.83981
 11
1137.6901
 21
-507.83981
  0
LINE
  8
0
  6
CONTINUOUS
 62
     7
 10
1101.6901
 20
-754.83984
 11
1137.6901
 21
-754.83984
  0
LINE
  8
0
  6
CONTINUOUS
 62
     7
 10
1101.6901
 20
-684.83984
 11
1137.6901
 21
-684.83984
  0
LINE
  8
0
  6
CONTINUOUS
 62
     7
 10
1101.6901
 20
-570.83984
 11
1137.6901
 21
-570.83984
  0
LINE
  8
0
  6
CONTINUOUS
 62
     7
 10
1101.6901
 20
-500.83981
 11
1137.6901
 21
-500.83981
  0
LINE
  8
0
  6
CONTINUOUS
 62
     7
 10
1101.6901
 20
-754.83984
 11
1101.6901
 21
-799.7525
  0
LINE
  8
0
  6
CONTINUOUS
 62
     7
 10
1137.6901
 20
-754.83984
 11
1137.6901
 21
-797.75745
  0
LINE
  8
0
  6
CONTINUOUS
 62
     7
 10
1101.6901
 20
-684.83984
 11
1101.6901
 21
-747.83984
  0
LINE
  8
0
  6
CONTINUOUS
 62
     7
 10
1137.6901
 20
-684.83984
 11
1137.6901
 21
-747.83984
  0
LINE
  8
0
  6
CONTINUOUS
 62
     7
 10
1101.6901
 20
-577.83984
 11
1101.6901
 21
-677.83984
  0
LINE
  8
0
  6
CONTINUOUS
 62
     7
 10
1137.6901
 20
-577.83984
 11
1137.6901
 21
-677.83984
  0
LINE
  8
0
  6
CONTINUOUS
 62
     7
 10
1101.6901
 20
-507.83981
 11
1101.6901
 21
-570.83984
  0
LINE
  8
0
  6
CONTINUOUS
 62
     7
 10
1137.6901
 20
-507.83981
 11
1137.6901
 21
-570.83984
  0
LINE
  8
0
  6
CONTINUOUS
 62
     7
 10
838.0401
 20
-772.83984
 11
828.86511
 21
-756.9483
  0
LINE
  8
0
  6
CONTINUOUS
 62
     7
 10
828.86511
 20
-756.94824
 11
810.51508
 21
-756.94824
  0
LINE
  8
0
  6
CONTINUOUS
 62
     7
 10
801.34009
 20
-772.83984
 11
810.51508
 21
-756.94824
  0
LINE
  8
0
  6
CONTINUOUS
 62
     7
 10
810.51514
 20
-788.73138
 11
801.34015
 21
-772.83984
  0
LINE
  8
0
  6
CONTINUOUS
 62
     7
 10
828.86511
 20
-788.73138
 11
810.51508
 21
-788.73138
  0
LINE
  8
0
  6
CONTINUOUS
 62
     7
 10
838.0401
 20
-772.83984
 11
828.86511
 21
-788.73145
  0
LINE
  8
0
  6
CONTINUOUS
 62
     7
 10
810.51508
 20
-498.73135
 11
801.34009
 21
-482.83981
  0
LINE
  8
0
  6
CONTINUOUS
 62
     7
 10
828.86511
 20
-498.73138
 11
810.51508
 21
-498.73138
  0
LINE
  8
0
  6
CONTINUOUS
 62
     7
 10
838.0401
 20
-482.83981
 11
828.86505
 21
-498.73138
  0
LINE
  8
0
  6
CONTINUOUS
 62
     7
 10
838.0401
 20
-482.83978
 11
828.86511
 21
-466.94824
  0
LINE
  8
0
  6
CONTINUOUS
 62
     7
 10
828.86511
 20
-466.94824
 11
810.51508
 21
-466.94824
  0
LINE
  8
0
  6
CONTINUOUS
 62
     7
 10
801.34009
 20
-482.83981
 11
810.51508
 21
-466.94824
  0
LINE
  8
0
  6
CONTINUOUS
 62
     7
 10
535.2901
 20
-526.83984
 11
527.49011
 21
-513.32983
  0
LINE
  8
0
  6
CONTINUOUS
 62
     7
 10
527.49011
 20
-513.32983
 11
511.89008
 21
-513.32983
  0
LINE
  8
0
  6
CONTINUOUS
 62
     7
 10
504.09009
 20
-526.83984
 11
511.89008
 21
-513.32983
  0
LINE
  8
0
  6
CONTINUOUS
 62
     7
 10
511.89011
 20
-540.34985
 11
504.09009
 21
-526.83978
  0
LINE
  8
0
  6
CONTINUOUS
 62
     7
 10
527.49011
 20
-540.34979
 11
511.89008
 21
-540.34979
  0
LINE
  8
0
  6
CONTINUOUS
 62
     7
 10
535.2901
 20
-526.83984
 11
527.49011
 21
-540.34985
  0
LINE
  8
0
  6
CONTINUOUS
 62
     7
 10
661.89008
 20
-525.34979
 11
654.09009
 21
-511.83981
  0
LINE
  8
0
  6
CONTINUOUS
 62
     7
 10
685.2901
 20
-511.83981
 11
677.49011
 21
-498.32983
  0
LINE
  8
0
  6
CONTINUOUS
 62
     7
 10
685.2901
 20
-511.83984
 11
677.49011
 21
-525.34985
  0
LINE
  8
0
  6
CONTINUOUS
 62
     7
 10
677.49011
 20
-498.32983
 11
661.89008
 21
-498.32983
  0
LINE
  8
0
  6
CONTINUOUS
 62
     7
 10
654.09009
 20
-511.83981
 11
661.89008
 21
-498.32983
  0
LINE
  8
0
  6
CONTINUOUS
 62
     7
 10
677.49011
 20
-525.34979
 11
661.89008
 21
-525.34979
  0
LINE
  8
0
  6
CONTINUOUS
 62
     7
 10
661.89008
 20
-757.34979
 11
654.09009
 21
-743.83984
  0
LINE
  8
0
  6
CONTINUOUS
 62
     7
 10
685.2901
 20
-743.83984
 11
677.49011
 21
-730.32983
  0
LINE
  8
0
  6
CONTINUOUS
 62
     7
 10
685.2901
 20
-743.83984
 11
677.49011
 21
-757.34985
  0
LINE
  8
0
  6
CONTINUOUS
 62
     7
 10
677.49011
 20
-730.32983
 11
661.89008
 21
-730.32983
  0
LINE
  8
0
  6
CONTINUOUS
 62
     7
 10
654.09009
 20
-743.83984
 11
661.89008
 21
-730.32983
  0
LINE
  8
0
  6
CONTINUOUS
 62
     7
 10
677.49011
 20
-757.34979
 11
661.89008
 21
-757.34979
  0
LINE
  8
0
  6
CONTINUOUS
 62
     7
 10
511.89011
 20
-742.34985
 11
504.09009
 21
-728.83978
  0
LINE
  8
0
  6
CONTINUOUS
 62
     7
 10
535.2901
 20
-728.83984
 11
527.49011
 21
-715.32983
  0
LINE
  8
0
  6
CONTINUOUS
 62
     7
 10
535.2901
 20
-728.83984
 11
527.49011
 21
-742.34979
  0
LINE
  8
0
  6
CONTINUOUS
 62
     7
 10
527.49011
 20
-715.32983
 11
511.89008
 21
-715.32983
  0
LINE
  8
0
  6
CONTINUOUS
 62
     7
 10
504.09009
 20
-728.83978
 11
511.89008
 21
-715.32983
  0
LINE
  8
0
  6
CONTINUOUS
 62
     7
 10
527.49011
 20
-742.34979
 11
511.89008
 21
-742.34979
  0
LINE
  8
0
  6
CONTINUOUS
 62
     7
 10
-31.109396
 20
-575.53271
 11
-36.161217
 21
-566.78271
  0
LINE
  8
0
  6
CONTINUOUS
 62
     7
 10
-36.161217
 20
-566.78271
 11
-46.264847
 21
-566.78271
  0
LINE
  8
0
  6
CONTINUOUS
 62
     7
 10
-51.316666
 20
-575.53271
 11
-46.264847
 21
-566.78271
  0
LINE
  8
0
  6
CONTINUOUS
 62
     7
 10
-46.264839
 20
-584.28271
 11
-51.316658
 21
-575.53271
  0
LINE
  8
0
  6
CONTINUOUS
 62
     7
 10
-36.161217
 20
-584.28271
 11
-46.264847
 21
-584.28271
  0
LINE
  8
0
  6
CONTINUOUS
 62
     7
 10
-31.109402
 20
-575.53271
 11
-36.161221
 21
-584.28271
  0
LINE
  8
0
  6
CONTINUOUS
 62
     7
 10
-332.46817
 20
-600.78271
 11
-337.51999
 21
-592.03271
  0
LINE
  8
0
  6
CONTINUOUS
 62
     7
 10
-322.36453
 20
-600.78271
 11
-332.46817
 21
-600.78271
  0
LINE
  8
0
  6
CONTINUOUS
 62
     7
 10
-317.31271
 20
-592.03271
 11
-322.36453
 21
-600.78271
  0
LINE
  8
0
  6
CONTINUOUS
 62
     7
 10
-317.31274
 20
-592.03271
 11
-322.36456
 21
-583.28271
  0
LINE
  8
0
  6
CONTINUOUS
 62
     7
 10
-322.36453
 20
-583.28271
 11
-332.46817
 21
-583.28271
  0
LINE
  8
0
  6
CONTINUOUS
 62
     7
 10
-337.51996
 20
-592.03271
 11
-332.46814
 21
-583.28271
  0
LINE
  8
0
  6
CONTINUOUS
 62
     7
 10
-332.46817
 20
-672.78271
 11
-337.51999
 21
-664.03271
  0
LINE
  8
0
  6
CONTINUOUS
 62
     7
 10
-322.36453
 20
-672.78271
 11
-332.46817
 21
-672.78271
  0
LINE
  8
0
  6
CONTINUOUS
 62
     7
 10
-317.31274
 20
-664.03271
 11
-322.36453
 21
-672.78271
  0
LINE
  8
0
  6
CONTINUOUS
 62
     7
 10
-317.31274
 20
-664.03271
 11
-322.36456
 21
-655.28271
  0
LINE
  8
0
  6
CONTINUOUS
 62
     7
 10
-322.36453
 20
-655.28271
 11
-332.46817
 21
-655.28271
  0
LINE
  8
0
  6
CONTINUOUS
 62
     7
 10
-337.51996
 20
-664.03271
 11
-332.46817
 21
-655.28271
  0
LINE
  8
0
  6
CONTINUOUS
 62
     7
 10
-237.76062
 20
-678.78271
 11
-242.81244
 21
-670.03271
  0
LINE
  8
0
  6
CONTINUOUS
 62
     7
 10
-227.65698
 20
-678.78271
 11
-237.7606
 21
-678.78271
  0
LINE
  8
0
  6
CONTINUOUS
 62
     7
 10
-222.60516
 20
-670.03271
 11
-227.65698
 21
-678.78271
  0
LINE
  8
0
  6
CONTINUOUS
 62
     7
 10
-222.60516
 20
-670.03271
 11
-227.65698
 21
-661.28271
  0
LINE
  8
0
  6
CONTINUOUS
 62
     7
 10
-227.65698
 20
-661.28271
 11
-237.7606
 21
-661.28271
  0
LINE
  8
0
  6
CONTINUOUS
 62
     7
 10
-242.81244
 20
-670.03271
 11
-237.76062
 21
-661.28271
  0
LINE
  8
0
  6
CONTINUOUS
 62
     7
 10
-237.7606
 20
-594.78271
 11
-242.81242
 21
-586.03271
  0
LINE
  8
0
  6
CONTINUOUS
 62
     7
 10
-227.65698
 20
-594.78271
 11
-237.7606
 21
-594.78271
  0
LINE
  8
0
  6
CONTINUOUS
 62
     7
 10
-222.60516
 20
-586.03271
 11
-227.65698
 21
-594.78271
  0
LINE
  8
0
  6
CONTINUOUS
 62
     7
 10
-222.60516
 20
-586.03271
 11
-227.65698
 21
-577.28271
  0
LINE
  8
0
  6
CONTINUOUS
 62
     7
 10
-227.65698
 20
-577.28271
 11
-237.7606
 21
-577.28271
  0
LINE
  8
0
  6
CONTINUOUS
 62
     7
 10
-242.81242
 20
-586.03271
 11
-237.7606
 21
-577.28271
  0
LINE
  8
0
  6
CONTINUOUS
 62
     7
 10
-137.94975
 20
-591.78271
 11
-143.00157
 21
-583.03271
  0
LINE
  8
0
  6
CONTINUOUS
 62
     7
 10
-127.84612
 20
-591.78271
 11
-137.94975
 21
-591.78271
  0
LINE
  8
0
  6
CONTINUOUS
 62
     7
 10
-122.79431
 20
-583.03271
 11
-127.84613
 21
-591.78271
  0
LINE
  8
0
  6
CONTINUOUS
 62
     7
 10
-122.7943
 20
-583.03271
 11
-127.84612
 21
-574.28271
  0
LINE
  8
0
  6
CONTINUOUS
 62
     7
 10
-127.84612
 20
-574.28271
 11
-137.94975
 21
-574.28271
  0
LINE
  8
0
  6
CONTINUOUS
 62
     7
 10
-143.00157
 20
-583.03271
 11
-137.94975
 21
-574.28271
  0
LINE
  8
0
  6
CONTINUOUS
 62
     7
 10
-137.94975
 20
-681.78271
 11
-143.00156
 21
-673.03271
  0
LINE
  8
0
  6
CONTINUOUS
 62
     7
 10
-127.84612
 20
-681.78271
 11
-137.94975
 21
-681.78271
  0
LINE
  8
0
  6
CONTINUOUS
 62
     7
 10
-122.7943
 20
-673.03271
 11
-127.84612
 21
-681.78271
  0
LINE
  8
0
  6
CONTINUOUS
 62
     7
 10
-122.79431
 20
-673.03271
 11
-127.84612
 21
-664.28271
  0
LINE
  8
0
  6
CONTINUOUS
 62
     7
 10
-127.84612
 20
-664.28271
 11
-137.94975
 21
-664.28271
  0
LINE
  8
0
  6
CONTINUOUS
 62
     7
 10
-143.00156
 20
-673.03271
 11
-137.94974
 21
-664.28271
  0
LINE
  8
0
  6
CONTINUOUS
 62
     7
 10
-46.264851
 20
-689.28271
 11
-51.316639
 21
-680.53271
  0
LINE
  8
0
  6
CONTINUOUS
 62
     7
 10
-36.161217
 20
-689.28271
 11
-46.264847
 21
-689.28271
  0
LINE
  8
0
  6
CONTINUOUS
 62
     7
 10
-31.109409
 20
-680.53271
 11
-36.161228
 21
-689.28271
  0
LINE
  8
0
  6
CONTINUOUS
 62
     7
 10
-31.109406
 20
-680.53271
 11
-36.161194
 21
-671.78271
  0
LINE
  8
0
  6
CONTINUOUS
 62
     7
 10
-36.161217
 20
-671.78271
 11
-46.264847
 21
-671.78271
  0
LINE
  8
0
  6
CONTINUOUS
 62
     7
 10
-51.316673
 20
-680.53271
 11
-46.264854
 21
-671.78271
  0
LINE
  8
0
  6
CONTINUOUS
 62
     7
 10
197.92766
 20
-559.78271
 11
191.51906
 21
-548.68268
  0
LINE
  8
0
  6
CONTINUOUS
 62
     7
 10
191.51907
 20
-548.68274
 11
178.70189
 21
-548.68274
  0
LINE
  8
0
  6
CONTINUOUS
 62
     7
 10
172.2933
 20
-559.78271
 11
178.70189
 21
-548.68274
  0
LINE
  8
0
  6
CONTINUOUS
 62
     7
 10
178.70189
 20
-570.88269
 11
172.29329
 21
-559.78271
  0
LINE
  8
0
  6
CONTINUOUS
 62
     7
 10
191.51907
 20
-570.88269
 11
178.70189
 21
-570.88269
  0
LINE
  8
0
  6
CONTINUOUS
 62
     7
 10
197.92764
 20
-559.78271
 11
191.51906
 21
-570.88269
  0
LINE
  8
0
  6
CONTINUOUS
 62
     7
 10
68.906967
 20
-578.88275
 11
62.498367
 21
-567.78271
  0
LINE
  8
0
  6
CONTINUOUS
 62
     7
 10
62.498379
 20
-567.78271
 11
68.90696
 21
-556.68274
  0
LINE
  8
0
  6
CONTINUOUS
 62
     7
 10
81.724129
 20
-556.68274
 11
68.906952
 21
-556.68274
  0
LINE
  8
0
  6
CONTINUOUS
 62
     7
 10
88.132744
 20
-567.78271
 11
81.724144
 21
-556.68274
  0
LINE
  8
0
  6
CONTINUOUS
 62
     7
 10
88.132713
 20
-567.78271
 11
81.724129
 21
-578.88269
  0
LINE
  8
0
  6
CONTINUOUS
 62
     7
 10
81.724129
 20
-578.88269
 11
68.906952
 21
-578.88269
  0
LINE
  8
0
  6
CONTINUOUS
 62
     7
 10
68.90696
 20
-699.38269
 11
62.49839
 21
-688.28271
  0
LINE
  8
0
  6
CONTINUOUS
 62
     7
 10
62.498383
 20
-688.28271
 11
68.906952
 21
-677.18274
  0
LINE
  8
0
  6
CONTINUOUS
 62
     7
 10
81.724129
 20
-677.18274
 11
68.906952
 21
-677.18274
  0
LINE
  8
0
  6
CONTINUOUS
 62
     7
 10
88.132706
 20
-688.28271
 11
81.724136
 21
-677.18274
  0
LINE
  8
0
  6
CONTINUOUS
 62
     7
 10
88.132698
 20
-688.28271
 11
81.724129
 21
-699.38269
  0
LINE
  8
0
  6
CONTINUOUS
 62
     7
 10
81.724129
 20
-699.38269
 11
68.906952
 21
-699.38269
  0
LINE
  8
0
  6
CONTINUOUS
 62
     7
 10
178.70189
 20
-707.38269
 11
172.29329
 21
-696.28271
  0
LINE
  8
0
  6
CONTINUOUS
 62
     7
 10
172.2933
 20
-696.28271
 11
178.70189
 21
-685.18274
  0
LINE
  8
0
  6
CONTINUOUS
 62
     7
 10
191.51907
 20
-685.18274
 11
178.70189
 21
-685.18274
  0
LINE
  8
0
  6
CONTINUOUS
 62
     7
 10
197.92766
 20
-696.28271
 11
191.51906
 21
-685.18268
  0
LINE
  8
0
  6
CONTINUOUS
 62
     7
 10
197.92767
 20
-696.28271
 11
191.51909
 21
-707.38275
  0
LINE
  8
0
  6
CONTINUOUS
 62
     7
 10
191.51907
 20
-707.38269
 11
178.70189
 21
-707.38269
  0
LINE
  8
0
  6
CONTINUOUS
 62
     7
 10
278.7019
 20
-726.63275
 11
272.2933
 21
-715.53271
  0
LINE
  8
0
  6
CONTINUOUS
 62
     7
 10
272.2933
 20
-715.53271
 11
278.7019
 21
-704.43274
  0
LINE
  8
0
  6
CONTINUOUS
 62
     7
 10
291.51907
 20
-704.43274
 11
278.7019
 21
-704.43274
  0
LINE
  8
0
  6
CONTINUOUS
 62
     7
 10
297.92767
 20
-715.53271
 11
291.51907
 21
-704.43274
  0
LINE
  8
0
  6
CONTINUOUS
 62
     7
 10
297.92767
 20
-715.53271
 11
291.51907
 21
-726.63275
  0
LINE
  8
0
  6
CONTINUOUS
 62
     7
 10
291.51907
 20
-726.63269
 11
278.7019
 21
-726.63269
  0
LINE
  8
0
  6
CONTINUOUS
 62
     7
 10
278.7019
 20
-551.63275
 11
272.2933
 21
-540.53271
  0
LINE
  8
0
  6
CONTINUOUS
 62
     7
 10
272.2933
 20
-540.53278
 11
278.70187
 21
-529.43274
  0
LINE
  8
0
  6
CONTINUOUS
 62
     7
 10
291.51907
 20
-529.43274
 11
278.7019
 21
-529.43274
  0
LINE
  8
0
  6
CONTINUOUS
 62
     7
 10
297.92767
 20
-540.53271
 11
291.51907
 21
-529.43274
  0
LINE
  8
0
  6
CONTINUOUS
 62
     7
 10
297.92764
 20
-540.53278
 11
291.51907
 21
-551.63275
  0
LINE
  8
0
  6
CONTINUOUS
 62
     7
 10
291.51907
 20
-551.63275
 11
278.7019
 21
-551.63275
  0
LINE
  8
0
  6
CONTINUOUS
 62
     7
 10
990.76337
 20
-801.33978
 11
980.22675
 21
-783.08984
  0
LINE
  8
0
  6
CONTINUOUS
 62
     7
 10
980.22675
 20
-783.08984
 11
959.15344
 21
-783.08984
  0
LINE
  8
0
  6
CONTINUOUS
 62
     7
 10
948.61682
 20
-801.33984
 11
959.15344
 21
-783.08984
  0
LINE
  8
0
  6
CONTINUOUS
 62
     7
 10
959.15344
 20
-819.58978
 11
948.61682
 21
-801.33984
  0
LINE
  8
0
  6
CONTINUOUS
 62
     7
 10
980.22675
 20
-819.58984
 11
959.15344
 21
-819.58984
  0
LINE
  8
0
  6
CONTINUOUS
 62
     7
 10
990.76337
 20
-801.33984
 11
980.22675
 21
-819.58984
  0
LINE
  8
0
  6
CONTINUOUS
 62
     7
 10
980.22675
 20
-436.08981
 11
959.15344
 21
-436.08981
  0
LINE
  8
0
  6
CONTINUOUS
 62
     7
 10
990.76337
 20
-454.33981
 11
980.22668
 21
-436.08978
  0
LINE
  8
0
  6
CONTINUOUS
 62
     7
 10
948.61682
 20
-454.33984
 11
959.15344
 21
-436.08984
  0
LINE
  8
0
  6
CONTINUOUS
 62
     7
 10
959.15344
 20
-472.58981
 11
948.61676
 21
-454.33978
  0
LINE
  8
0
  6
CONTINUOUS
 62
     7
 10
980.22675
 20
-472.58981
 11
959.15344
 21
-472.58981
  0
LINE
  8
0
  6
CONTINUOUS
 62
     7
 10
990.76337
 20
-454.33984
 11
980.22675
 21
-472.58984
  0
LINE
  8
0
  6
CONTINUOUS
 62
     7
 10
1130.2267
 20
-409.58981
 11
1109.1534
 21
-409.58981
  0
LINE
  8
0
  6
CONTINUOUS
 62
     7
 10
1140.7634
 20
-427.83984
 11
1130.2267
 21
-409.58981
  0
LINE
  8
0
  6
CONTINUOUS
 62
     7
 10
1098.6168
 20
-427.83981
 11
1109.1534
 21
-409.58981
  0
LINE
  8
0
  6
CONTINUOUS
 62
     7
 10
1109.1534
 20
-446.08984
 11
1098.6168
 21
-427.83981
  0
LINE
  8
0
  6
CONTINUOUS
 62
     7
 10
1130.2267
 20
-446.08981
 11
1109.1534
 21
-446.08981
  0
LINE
  8
0
  6
CONTINUOUS
 62
     7
 10
1140.7634
 20
-427.83981
 11
1130.2267
 21
-446.08981
  0
LINE
  8
0
  6
CONTINUOUS
 62
     7
 10
1130.2267
 20
-809.58984
 11
1109.1534
 21
-809.58984
  0
LINE
  8
0
  6
CONTINUOUS
 62
     7
 10
1140.7634
 20
-827.83984
 11
1130.2268
 21
-809.58984
  0
LINE
  8
0
  6
CONTINUOUS
 62
     7
 10
1098.6168
 20
-827.83984
 11
1109.1534
 21
-809.58984
  0
LINE
  8
0
  6
CONTINUOUS
 62
     7
 10
1109.1534
 20
-846.08984
 11
1098.6168
 21
-827.83984
  0
LINE
  8
0
  6
CONTINUOUS
 62
     7
 10
1130.2267
 20
-846.08984
 11
1109.1534
 21
-846.08984
  0
LINE
  8
0
  6
CONTINUOUS
 62
     7
 10
1140.7634
 20
-827.83984
 11
1130.2267
 21
-846.08984
  0
LINE
  8
0
  6
CENTER
 62
     7
 10
-73.708893
 20
-628.03271
 11
-9.3614998
 21
-628.03271
  0
LINE
  8
0
  6
CENTER
 62
     7
 10
41.878094
 20
-628.03271
 11
106.8213
 21
-628.03271
  0
LINE
  8
0
  6
CENTER
 62
     7
 10
151.50699
 20
-628.03271
 11
217.64182
 21
-628.03271
  0
LINE
  8
0
  6
CENTER
 62
     7
 10
248.62389
 20
-628.03271
 11
319.52518
 21
-628.03271
  0
LINE
  8
0
  6
CENTER
 62
     7
 10
630.23969
 20
-627.83984
 11
706.5033
 21
-627.83984
  0
LINE
  8
0
  6
CENTER
 62
     7
 10
776.80878
 20
-627.83984
 11
860.81787
 21
-627.83984
  0
LINE
  8
0
  6
CENTER
 62
     7
 10
925.76105
 20
-627.83984
 11
1010.0681
 21
-627.83984
  0
LINE
  8
0
  6
CENTER
 62
     7
 10
1073.2239
 20
-627.83984
 11
1163.7869
 21
-627.83984
  0
LINE
  8
0
  6
CENTER
 62
     7
 10
-262.68033
 20
-628.03271
 11
-203.09158
 21
-628.03271
  0
LINE
  8
0
  6
CENTER
 62
     7
 10
-165.13438
 20
-628.03271
 11
-101.11612
 21
-628.03271
  0
LINE
  8
0
  6
CENTER
 62
     7
 10
-298.71378
 20
-1039.3695
 11
-298.71378
 21
-1107.5278
  0
LINE
  8
0
  6
CONTINUOUS
 62
     7
 10
-287.56699
 20
-1056.1177
 11
-251.21376
 21
-1056.1177
  0
LINE
  8
0
  6
CONTINUOUS
 62
     7
 10
-251.21375
 20
-1056.1178
 11
-251.65118
 21
-1061.1177
  0
LINE
  8
0
  6
CONTINUOUS
 62
     7
 10
-279.21378
 20
-1072.1177
 11
-278.37524
 21
-1056.1177
  0
LINE
  8
0
  6
CONTINUOUS
 62
     7
 10
-262.71378
 20
-1056.1177
 11
-296.77499
 21
-1052.7142
  0
LINE
  8
0
  6
CONTINUOUS
 62
     7
 10
-283.46378
 20
-1072.1177
 11
-261.71378
 21
-1072.1177
  0
LINE
  8
0
  6
CENTER
 62
     7
 10
-351.90311
 20
-1072.1177
 11
-244.38515
 21
-1072.1177
  0
LINE
  8
0
  6
CONTINUOUS
 62
     7
 10
-334.71375
 20
-1056.1177
 11
-300.65253
 21
-1052.7144
  0
LINE
  8
0
  6
CONTINUOUS
 62
     7
 10
-309.8605
 20
-1056.1177
 11
-346.21371
 21
-1056.1177
  0
LINE
  8
0
  6
CONTINUOUS
 62
     7
 10
-318.21375
 20
-1072.1177
 11
-319.05225
 21
-1056.1177
  0
LINE
  8
0
  6
CONTINUOUS
 62
     7
 10
-346.21375
 20
-1056.1178
 11
-345.77631
 21
-1061.1178
  0
LINE
  8
0
  6
CONTINUOUS
 62
     7
 10
-313.96371
 20
-1072.1177
 11
-335.71371
 21
-1072.1177
  0
LINE
  8
0
  6
CONTINUOUS
 62
     7
 10
-287.56699
 20
-1088.1177
 11
-251.21376
 21
-1088.1177
  0
LINE
  8
0
  6
CONTINUOUS
 62
     7
 10
-251.21371
 20
-1088.1177
 11
-251.65115
 21
-1083.1177
  0
LINE
  8
0
  6
CONTINUOUS
 62
     7
 10
-279.21375
 20
-1072.1178
 11
-278.37521
 21
-1088.1178
  0
LINE
  8
0
  6
CONTINUOUS
 62
     7
 10
-262.71375
 20
-1088.1177
 11
-296.77496
 21
-1091.5211
  0
LINE
  8
0
  6
CONTINUOUS
 62
     7
 10
-334.71378
 20
-1088.1177
 11
-300.65256
 21
-1091.521
  0
LINE
  8
0
  6
CONTINUOUS
 62
     7
 10
-309.8605
 20
-1088.1177
 11
-346.21371
 21
-1088.1177
  0
LINE
  8
0
  6
CONTINUOUS
 62
     7
 10
-318.21378
 20
-1072.1178
 11
-319.05228
 21
-1088.1177
  0
LINE
  8
0
  6
CONTINUOUS
 62
     7
 10
-346.21378
 20
-1088.1177
 11
-345.77634
 21
-1083.1178
  0
LINE
  8
0
  6
CONTINUOUS
 62
     7
 10
-312.9725
 20
14.151134
 11
-312.9725
 21
8.0844536
  0
LINE
  8
0
  6
CONTINUOUS
 62
     7
 10
-307.71863
 20
14.151134
 11
-307.71863
 21
8.0844536
  0
LINE
  8
0
  6
CONTINUOUS
 62
     7
 10
-322.66476
 20
14.151134
 11
-322.66476
 21
8.0844536
  0
LINE
  8
0
  6
CONTINUOUS
 62
     7
 10
-327.91861
 20
14.151134
 11
-327.91861
 21
8.0844536
  0
LINE
  8
0
  6
CONTINUOUS
 62
     7
 10
-325.29172
 20
15.667797
 11
-317.81863
 21
15.667797
  0
LINE
  8
0
  6
CONTINUOUS
 62
     7
 10
-322.56863
 20
21.067791
 11
-322.56863
 21
15.667797
  0
LINE
  8
0
  6
CONTINUOUS
 62
     7
 10
-321.06863
 20
22.567791
 11
-321.06863
 21
15.667797
  0
LINE
  8
0
  6
CONTINUOUS
 62
     7
 10
-321.06863
 20
22.567791
 11
-317.81863
 21
22.567791
  0
LINE
  8
0
  6
CONTINUOUS
 62
     7
 10
-322.56863
 20
21.067791
 11
-317.81863
 21
21.067791
  0
LINE
  8
0
  6
CONTINUOUS
 62
     7
 10
-322.56863
 20
21.067802
 11
-321.06863
 21
22.567804
  0
LINE
  8
0
  6
CONTINUOUS
 62
     7
 10
-313.06863
 20
21.067793
 11
-314.56863
 21
22.567804
  0
LINE
  8
0
  6
CONTINUOUS
 62
     7
 10
-313.06863
 20
21.067791
 11
-317.81863
 21
21.067791
  0
LINE
  8
0
  6
CONTINUOUS
 62
     7
 10
-314.56863
 20
22.567791
 11
-317.81863
 21
22.567791
  0
LINE
  8
0
  6
CONTINUOUS
 62
     7
 10
-314.56863
 20
22.567791
 11
-314.56863
 21
15.667797
  0
LINE
  8
0
  6
CONTINUOUS
 62
     7
 10
-313.06863
 20
21.067791
 11
-313.06863
 21
15.667797
  0
LINE
  8
0
  6
CONTINUOUS
 62
     7
 10
-310.34555
 20
15.667797
 11
-317.81863
 21
15.667797
  0
LINE
  8
0
  6
CONTINUOUS
 62
     7
 10
-326.4686
 20
-25.432209
 11
-326.4686
 21
-25.694294
  0
LINE
  8
0
  6
CONTINUOUS
 62
     7
 10
-309.16861
 20
-25.432209
 11
-309.16861
 21
-25.694294
  0
LINE
  8
0
  6
CONTINUOUS
 62
     7
 10
-257.96378
 20
-1070.068
 11
-257.96378
 21
-1074.7258
  0
LINE
  8
0
  6
CONTINUOUS
 62
     7
 10
-331.46371
 20
-1040.1177
 11
-334.71371
 21
-1040.1177
  0
LINE
  8
0
  6
CONTINUOUS
 62
     7
 10
-329.96371
 20
-1041.6177
 11
-334.71371
 21
-1041.6177
  0
LINE
  8
0
  6
CONTINUOUS
 62
     7
 10
-329.96371
 20
-1041.6177
 11
-329.96371
 21
-1047.0177
  0
LINE
  8
0
  6
CONTINUOUS
 62
     7
 10
-329.96375
 20
-1041.6177
 11
-331.46378
 21
-1040.1177
  0
LINE
  8
0
  6
CONTINUOUS
 62
     7
 10
-331.46371
 20
-1040.1177
 11
-331.46371
 21
-1047.0177
  0
LINE
  8
0
  6
CONTINUOUS
 62
     7
 10
-324.61374
 20
-1048.5344
 11
-324.61374
 21
-1055.1085
  0
LINE
  8
0
  6
CONTINUOUS
 62
     7
 10
-327.24063
 20
-1047.0177
 11
-334.71371
 21
-1047.0177
  0
LINE
  8
0
  6
CONTINUOUS
 62
     7
 10
-329.86758
 20
-1048.5344
 11
-329.86758
 21
-1054.6011
  0
LINE
  8
0
  6
CONTINUOUS
 62
     7
 10
-337.96371
 20
-1040.1177
 11
-334.71371
 21
-1040.1177
  0
LINE
  8
0
  6
CONTINUOUS
 62
     7
 10
-339.46371
 20
-1041.6177
 11
-334.71371
 21
-1041.6177
  0
LINE
  8
0
  6
CONTINUOUS
 62
     7
 10
-339.46371
 20
-1041.6177
 11
-339.46371
 21
-1047.0177
  0
LINE
  8
0
  6
CONTINUOUS
 62
     7
 10
-339.46378
 20
-1041.6177
 11
-337.96378
 21
-1040.1177
  0
LINE
  8
0
  6
CONTINUOUS
 62
     7
 10
-337.96371
 20
-1040.1177
 11
-337.96371
 21
-1047.0177
  0
LINE
  8
0
  6
CONTINUOUS
 62
     7
 10
-344.81375
 20
-1048.5344
 11
-344.81375
 21
-1054.6011
  0
LINE
  8
0
  6
CONTINUOUS
 62
     7
 10
-342.1868
 20
-1047.0177
 11
-334.71371
 21
-1047.0177
  0
LINE
  8
0
  6
CONTINUOUS
 62
     7
 10
-339.55984
 20
-1048.5344
 11
-339.55984
 21
-1054.6011
  0
LINE
  8
0
  6
CONTINUOUS
 62
     7
 10
-339.46371
 20
-1070.068
 11
-339.46371
 21
-1074.7258
  0
LINE
  8
0
  6
CONTINUOUS
 62
     7
 10
-343.36374
 20
-1088.1177
 11
-343.36374
 21
-1088.3798
  0
LINE
  8
0
  6
CONTINUOUS
 62
     7
 10
-98.662338
 20
-1053.6089
 11
-135.90987
 21
-1046.0841
  0
LINE
  8
0
  6
CONTINUOUS
 62
     7
 10
-87.162361
 20
-1053.609
 11
-122.77381
 21
-1053.609
  0
LINE
  8
0
  6
CONTINUOUS
 62
     7
 10
-116.66235
 20
-1069.609
 11
-115.82383
 21
-1053.609
  0
LINE
  8
0
  6
CONTINUOUS
 62
     7
 10
-87.162346
 20
-1053.609
 11
-87.599785
 21
-1058.609
  0
LINE
  8
0
  6
CENTER
 62
     7
 10
-201.21637
 20
-1069.609
 11
-84.276192
 21
-1069.609
  0
LINE
  8
0
  6
CONTINUOUS
 62
     7
 10
-121.01234
 20
-1069.609
 11
-96.662361
 21
-1069.609
  0
LINE
  8
0
  6
CENTER
 62
     7
 10
-140.66235
 20
-1032.5089
 11
-140.66235
 21
-1110.0068
  0
LINE
  8
0
  6
CONTINUOUS
 62
     7
 10
-194.16235
 20
-1053.609
 11
-158.5509
 21
-1053.609
  0
LINE
  8
0
  6
CONTINUOUS
 62
     7
 10
-164.66237
 20
-1069.609
 11
-165.50089
 21
-1053.609
  0
LINE
  8
0
  6
CONTINUOUS
 62
     7
 10
-182.66237
 20
-1053.609
 11
-145.41484
 21
-1046.0842
  0
LINE
  8
0
  6
CONTINUOUS
 62
     7
 10
-194.16237
 20
-1053.6089
 11
-193.72491
 21
-1058.609
  0
LINE
  8
0
  6
CONTINUOUS
 62
     7
 10
-160.31238
 20
-1069.609
 11
-184.66235
 21
-1069.609
  0
LINE
  8
0
  6
CONTINUOUS
 62
     7
 10
-98.662354
 20
-1085.609
 11
-135.90988
 21
-1093.1338
  0
LINE
  8
0
  6
CONTINUOUS
 62
     7
 10
-87.162361
 20
-1085.609
 11
-122.77381
 21
-1085.609
  0
LINE
  8
0
  6
CONTINUOUS
 62
     7
 10
-116.66238
 20
-1069.609
 11
-115.82385
 21
-1085.609
  0
LINE
  8
0
  6
CONTINUOUS
 62
     7
 10
-87.162376
 20
-1085.609
 11
-87.599823
 21
-1080.6089
  0
LINE
  8
0
  6
CONTINUOUS
 62
     7
 10
-194.16235
 20
-1085.609
 11
-158.5509
 21
-1085.609
  0
LINE
  8
0
  6
CONTINUOUS
 62
     7
 10
-164.66234
 20
-1069.609
 11
-165.50085
 21
-1085.609
  0
LINE
  8
0
  6
CONTINUOUS
 62
     7
 10
-182.66234
 20
-1085.6089
 11
-145.41481
 21
-1093.1337
  0
LINE
  8
0
  6
CONTINUOUS
 62
     7
 10
-194.16238
 20
-1085.609
 11
-193.72493
 21
-1080.6089
  0
LINE
  8
0
  6
CONTINUOUS
 62
     7
 10
-226.36108
 20
22.567791
 11
-223.11108
 21
22.567791
  0
LINE
  8
0
  6
CONTINUOUS
 62
     7
 10
-227.86108
 20
21.067791
 11
-223.11108
 21
21.067791
  0
LINE
  8
0
  6
CONTINUOUS
 62
     7
 10
-227.86108
 20
21.067791
 11
-227.86108
 21
15.667767
  0
LINE
  8
0
  6
CONTINUOUS
 62
     7
 10
-227.8611
 20
21.06776
 11
-226.3611
 21
22.56776
  0
LINE
  8
0
  6
CONTINUOUS
 62
     7
 10
-226.36108
 20
22.567791
 11
-226.36108
 21
15.667767
  0
LINE
  8
0
  6
CONTINUOUS
 62
     7
 10
-233.21109
 20
14.151104
 11
-233.21109
 21
8.0844536
  0
LINE
  8
0
  6
CONTINUOUS
 62
     7
 10
-230.58417
 20
15.667767
 11
-223.11108
 21
15.667767
  0
LINE
  8
0
  6
CONTINUOUS
 62
     7
 10
-227.95721
 20
14.151104
 11
-227.95721
 21
8.0844536
  0
LINE
  8
0
  6
CONTINUOUS
 62
     7
 10
-219.8611
 20
22.567791
 11
-223.11108
 21
22.567791
  0
LINE
  8
0
  6
CONTINUOUS
 62
     7
 10
-218.3611
 20
21.067791
 11
-223.11108
 21
21.067791
  0
LINE
  8
0
  6
CONTINUOUS
 62
     7
 10
-218.3611
 20
21.067791
 11
-218.3611
 21
15.667767
  0
LINE
  8
0
  6
CONTINUOUS
 62
     7
 10
-218.3611
 20
21.067749
 11
-219.8611
 21
22.56776
  0
LINE
  8
0
  6
CONTINUOUS
 62
     7
 10
-219.8611
 20
22.567791
 11
-219.8611
 21
15.667767
  0
LINE
  8
0
  6
CONTINUOUS
 62
     7
 10
-213.01109
 20
14.151104
 11
-213.01109
 21
8.0844536
  0
LINE
  8
0
  6
CONTINUOUS
 62
     7
 10
-215.63805
 20
15.667767
 11
-223.11108
 21
15.667767
  0
LINE
  8
0
  6
CONTINUOUS
 62
     7
 10
-218.265
 20
14.151104
 11
-218.265
 21
8.0844536
  0
LINE
  8
0
  6
CONTINUOUS
 62
     7
 10
-179.41235
 20
-1037.609
 11
-182.66235
 21
-1037.609
  0
LINE
  8
0
  6
CONTINUOUS
 62
     7
 10
-177.91235
 20
-1039.109
 11
-182.66235
 21
-1039.109
  0
LINE
  8
0
  6
CONTINUOUS
 62
     7
 10
-177.91235
 20
-1039.109
 11
-177.91235
 21
-1044.509
  0
LINE
  8
0
  6
CONTINUOUS
 62
     7
 10
-177.91232
 20
-1039.109
 11
-179.41234
 21
-1037.609
  0
LINE
  8
0
  6
CONTINUOUS
 62
     7
 10
-179.41235
 20
-1037.609
 11
-179.41235
 21
-1044.509
  0
LINE
  8
0
  6
CONTINUOUS
 62
     7
 10
-172.56232
 20
-1046.0256
 11
-172.56232
 21
-1051.5686
  0
LINE
  8
0
  6
CONTINUOUS
 62
     7
 10
-175.18927
 20
-1044.509
 11
-182.66235
 21
-1044.509
  0
LINE
  8
0
  6
CONTINUOUS
 62
     7
 10
-177.81622
 20
-1046.0256
 11
-177.81622
 21
-1052.0923
  0
LINE
  8
0
  6
CONTINUOUS
 62
     7
 10
-185.91235
 20
-1037.609
 11
-182.66235
 21
-1037.609
  0
LINE
  8
0
  6
CONTINUOUS
 62
     7
 10
-187.41235
 20
-1039.109
 11
-182.66235
 21
-1039.109
  0
LINE
  8
0
  6
CONTINUOUS
 62
     7
 10
-187.41235
 20
-1039.109
 11
-187.41235
 21
-1044.509
  0
LINE
  8
0
  6
CONTINUOUS
 62
     7
 10
-187.41234
 20
-1039.109
 11
-185.91232
 21
-1037.609
  0
LINE
  8
0
  6
CONTINUOUS
 62
     7
 10
-185.91235
 20
-1037.609
 11
-185.91235
 21
-1044.509
  0
LINE
  8
0
  6
CONTINUOUS
 62
     7
 10
-192.76233
 20
-1046.0256
 11
-192.76233
 21
-1052.0923
  0
LINE
  8
0
  6
CONTINUOUS
 62
     7
 10
-190.13538
 20
-1044.509
 11
-182.66235
 21
-1044.509
  0
LINE
  8
0
  6
CONTINUOUS
 62
     7
 10
-187.50842
 20
-1046.0256
 11
-187.50842
 21
-1052.0923
  0
LINE
  8
0
  6
CENTER
 62
     7
 10
22.406546
 20
-1029.4094
 11
22.406546
 21
-1108.765
  0
LINE
  8
0
  6
CENTER
 62
     7
 10
-36.095165
 20
-1067.1002
 11
83.916222
 21
-1067.1002
  0
LINE
  8
0
  6
CONTINUOUS
 62
     7
 10
67.40654
 20
-1051.1002
 11
29.32728
 21
-1041.0022
  0
LINE
  8
0
  6
CONTINUOUS
 62
     7
 10
78.906548
 20
-1051.1002
 11
44.155109
 21
-1051.1002
  0
LINE
  8
0
  6
CONTINUOUS
 62
     7
 10
49.406548
 20
-1067.1002
 11
50.245068
 21
-1051.1002
  0
LINE
  8
0
  6
CONTINUOUS
 62
     7
 10
78.906563
 20
-1051.1002
 11
78.469109
 21
-1056.1002
  0
LINE
  8
0
  6
CONTINUOUS
 62
     7
 10
45.106556
 20
-1067.1002
 11
69.406548
 21
-1067.1002
  0
LINE
  8
0
  6
CONTINUOUS
 62
     7
 10
-22.593437
 20
-1051.1002
 11
15.485852
 21
-1041.0022
  0
LINE
  8
0
  6
CONTINUOUS
 62
     7
 10
-34.093456
 20
-1051.1002
 11
0.65800989
 21
-1051.1002
  0
LINE
  8
0
  6
CONTINUOUS
 62
     7
 10
-4.5934439
 20
-1067.1002
 11
-5.4319625
 21
-1051.1002
  0
LINE
  8
0
  6
CONTINUOUS
 62
     7
 10
-34.093437
 20
-1051.1002
 11
-33.655998
 21
-1056.1002
  0
LINE
  8
0
  6
CONTINUOUS
 62
     7
 10
-0.29346716
 20
-1067.1002
 11
-24.593454
 21
-1067.1002
  0
LINE
  8
0
  6
CONTINUOUS
 62
     7
 10
67.406517
 20
-1083.1001
 11
29.327288
 21
-1093.1981
  0
LINE
  8
0
  6
CONTINUOUS
 62
     7
 10
78.906548
 20
-1083.1002
 11
44.155109
 21
-1083.1002
  0
LINE
  8
0
  6
CONTINUOUS
 62
     7
 10
49.406559
 20
-1067.1002
 11
50.245083
 21
-1083.1002
  0
LINE
  8
0
  6
CONTINUOUS
 62
     7
 10
78.906555
 20
-1083.1002
 11
78.469116
 21
-1078.1002
  0
LINE
  8
0
  6
CONTINUOUS
 62
     7
 10
-22.593462
 20
-1083.1002
 11
15.485828
 21
-1093.1981
  0
LINE
  8
0
  6
CONTINUOUS
 62
     7
 10
-34.093456
 20
-1083.1002
 11
0.65800989
 21
-1083.1002
  0
LINE
  8
0
  6
CONTINUOUS
 62
     7
 10
-4.5934491
 20
-1067.1002
 11
-5.4319744
 21
-1083.1002
  0
LINE
  8
0
  6
CONTINUOUS
 62
     7
 10
-34.09346
 20
-1083.1001
 11
-33.656021
 21
-1078.1002
  0
LINE
  8
0
  6
CONTINUOUS
 62
     7
 10
-126.55022
 20
22.567791
 11
-123.30022
 21
22.567791
  0
LINE
  8
0
  6
CONTINUOUS
 62
     7
 10
-128.05023
 20
21.067791
 11
-123.30022
 21
21.067791
  0
LINE
  8
0
  6
CONTINUOUS
 62
     7
 10
-128.05023
 20
21.067791
 11
-128.05023
 21
15.667767
  0
LINE
  8
0
  6
CONTINUOUS
 62
     7
 10
-128.05022
 20
21.067776
 11
-126.55022
 21
22.567778
  0
LINE
  8
0
  6
CONTINUOUS
 62
     7
 10
-126.55022
 20
22.567791
 11
-126.55022
 21
15.667767
  0
LINE
  8
0
  6
CONTINUOUS
 62
     7
 10
-133.40024
 20
14.151104
 11
-133.40024
 21
8.0844536
  0
LINE
  8
0
  6
CONTINUOUS
 62
     7
 10
-130.77328
 20
15.667767
 11
-123.30022
 21
15.667767
  0
LINE
  8
0
  6
CONTINUOUS
 62
     7
 10
-128.14633
 20
14.151104
 11
-128.14633
 21
8.0844536
  0
LINE
  8
0
  6
CONTINUOUS
 62
     7
 10
-120.05022
 20
22.567791
 11
-123.30022
 21
22.567791
  0
LINE
  8
0
  6
CONTINUOUS
 62
     7
 10
-118.55022
 20
21.067791
 11
-123.30022
 21
21.067791
  0
LINE
  8
0
  6
CONTINUOUS
 62
     7
 10
-118.55022
 20
21.067791
 11
-118.55022
 21
15.667767
  0
LINE
  8
0
  6
CONTINUOUS
 62
     7
 10
-118.55023
 20
21.067787
 11
-120.05022
 21
22.567778
  0
LINE
  8
0
  6
CONTINUOUS
 62
     7
 10
-120.05022
 20
22.567791
 11
-120.05022
 21
15.667767
  0
LINE
  8
0
  6
CONTINUOUS
 62
     7
 10
-113.20021
 20
14.151104
 11
-113.20021
 21
8.0844536
  0
LINE
  8
0
  6
CONTINUOUS
 62
     7
 10
-115.82714
 20
15.667767
 11
-123.30022
 21
15.667767
  0
LINE
  8
0
  6
CONTINUOUS
 62
     7
 10
-118.45409
 20
14.151104
 11
-118.45409
 21
8.0844536
  0
LINE
  8
0
  6
CONTINUOUS
 62
     7
 10
-93.912361
 20
-1067.808
 11
-93.912361
 21
-1071.41
  0
LINE
  8
0
  6
CONTINUOUS
 62
     7
 10
-187.41235
 20
-1067.808
 11
-187.41235
 21
-1071.41
  0
LINE
  8
0
  6
CONTINUOUS
 62
     7
 10
72.156548
 20
-1065.2992
 11
72.156548
 21
-1068.9012
  0
LINE
  8
0
  6
CONTINUOUS
 62
     7
 10
-12.493419
 20
-1043.5168
 11
-12.493419
 21
-1048.4219
  0
LINE
  8
0
  6
CONTINUOUS
 62
     7
 10
-17.747324
 20
-1043.5168
 11
-17.747324
 21
-1049.8151
  0
LINE
  8
0
  6
CONTINUOUS
 62
     7
 10
-32.693493
 20
-1043.5168
 11
-32.693493
 21
-1049.5835
  0
LINE
  8
0
  6
CONTINUOUS
 62
     7
 10
-27.439585
 20
-1043.5168
 11
-27.439585
 21
-1049.5835
  0
LINE
  8
0
  6
CONTINUOUS
 62
     7
 10
-19.343454
 20
-1035.1002
 11
-22.593454
 21
-1035.1002
  0
LINE
  8
0
  6
CONTINUOUS
 62
     7
 10
-17.843454
 20
-1036.6002
 11
-22.593454
 21
-1036.6002
  0
LINE
  8
0
  6
CONTINUOUS
 62
     7
 10
-17.843454
 20
-1036.6002
 11
-17.843454
 21
-1042.0002
  0
LINE
  8
0
  6
CONTINUOUS
 62
     7
 10
-17.843485
 20
-1036.6002
 11
-19.343452
 21
-1035.1002
  0
LINE
  8
0
  6
CONTINUOUS
 62
     7
 10
-19.343454
 20
-1035.1002
 11
-19.343454
 21
-1042.0002
  0
LINE
  8
0
  6
CONTINUOUS
 62
     7
 10
-15.120372
 20
-1042.0002
 11
-22.593454
 21
-1042.0002
  0
LINE
  8
0
  6
CONTINUOUS
 62
     7
 10
-25.843454
 20
-1035.1002
 11
-22.593454
 21
-1035.1002
  0
LINE
  8
0
  6
CONTINUOUS
 62
     7
 10
-27.343454
 20
-1036.6002
 11
-22.593454
 21
-1036.6002
  0
LINE
  8
0
  6
CONTINUOUS
 62
     7
 10
-27.343454
 20
-1036.6002
 11
-27.343454
 21
-1042.0002
  0
LINE
  8
0
  6
CONTINUOUS
 62
     7
 10
-27.343418
 20
-1036.6002
 11
-25.843449
 21
-1035.1002
  0
LINE
  8
0
  6
CONTINUOUS
 62
     7
 10
-25.843454
 20
-1035.1002
 11
-25.843454
 21
-1042.0002
  0
LINE
  8
0
  6
CONTINUOUS
 62
     7
 10
-30.066538
 20
-1042.0002
 11
-22.593454
 21
-1042.0002
  0
LINE
  8
0
  6
CONTINUOUS
 62
     7
 10
-27.343454
 20
-1065.2992
 11
-27.343454
 21
-1068.9012
  0
LINE
  8
0
  6
CENTER
 62
     7
 10
200.52797
 20
-1022.7521
 11
200.52797
 21
-1118.9779
  0
LINE
  8
0
  6
CONTINUOUS
 62
     7
 10
253.02789
 20
-1053.609
 11
212.08467
 21
-1038.432
  0
LINE
  8
0
  6
CONTINUOUS
 62
     7
 10
229.67525
 20
-1053.609
 11
266.02795
 21
-1053.609
  0
LINE
  8
0
  6
CONTINUOUS
 62
     7
 10
233.77794
 20
-1069.6089
 11
234.61646
 21
-1053.6089
  0
LINE
  8
0
  6
CONTINUOUS
 62
     7
 10
266.02789
 20
-1053.609
 11
265.59045
 21
-1058.609
  0
LINE
  8
0
  6
CENTER
 62
     7
 10
269.56076
 20
-1069.609
 11
128.98488
 21
-1069.609
  0
LINE
  8
0
  6
CONTINUOUS
 62
     7
 10
229.27797
 20
-1069.609
 11
254.02797
 21
-1069.609
  0
LINE
  8
0
  6
CONTINUOUS
 62
     7
 10
148.02798
 20
-1053.609
 11
188.97122
 21
-1038.432
  0
LINE
  8
0
  6
CONTINUOUS
 62
     7
 10
171.38075
 20
-1053.609
 11
135.02797
 21
-1053.609
  0
LINE
  8
0
  6
CONTINUOUS
 62
     7
 10
167.27797
 20
-1069.609
 11
166.43944
 21
-1053.609
  0
LINE
  8
0
  6
CONTINUOUS
 62
     7
 10
135.02792
 20
-1053.609
 11
135.46536
 21
-1058.609
  0
LINE
  8
0
  6
CONTINUOUS
 62
     7
 10
171.77797
 20
-1069.609
 11
147.02797
 21
-1069.609
  0
LINE
  8
0
  6
CONTINUOUS
 62
     7
 10
253.02795
 20
-1085.609
 11
212.08478
 21
-1100.786
  0
LINE
  8
0
  6
CONTINUOUS
 62
     7
 10
229.67525
 20
-1085.609
 11
266.02795
 21
-1085.609
  0
LINE
  8
0
  6
CONTINUOUS
 62
     7
 10
233.77797
 20
-1069.609
 11
234.6165
 21
-1085.609
  0
LINE
  8
0
  6
CONTINUOUS
 62
     7
 10
266.02792
 20
-1085.609
 11
265.59048
 21
-1080.609
  0
LINE
  8
0
  6
CONTINUOUS
 62
     7
 10
148.02792
 20
-1085.609
 11
188.97116
 21
-1100.786
  0
LINE
  8
0
  6
CONTINUOUS
 62
     7
 10
171.38075
 20
-1085.609
 11
135.02797
 21
-1085.609
  0
LINE
  8
0
  6
CONTINUOUS
 62
     7
 10
167.27792
 20
-1069.6089
 11
166.43939
 21
-1085.609
  0
LINE
  8
0
  6
CONTINUOUS
 62
     7
 10
135.02794
 20
-1085.609
 11
135.46539
 21
-1080.6089
  0
LINE
  8
0
  6
CONTINUOUS
 62
     7
 10
-34.865318
 20
22.567791
 11
-31.61532
 21
22.567791
  0
LINE
  8
0
  6
CONTINUOUS
 62
     7
 10
-36.365318
 20
21.067791
 11
-31.61532
 21
21.067791
  0
LINE
  8
0
  6
CONTINUOUS
 62
     7
 10
-36.365318
 20
21.067791
 11
-36.365318
 21
15.667767
  0
LINE
  8
0
  6
CONTINUOUS
 62
     7
 10
-36.365284
 20
21.067736
 11
-34.865273
 21
22.567749
  0
LINE
  8
0
  6
CONTINUOUS
 62
     7
 10
-34.865318
 20
22.567791
 11
-34.865318
 21
15.667767
  0
LINE
  8
0
  6
CONTINUOUS
 62
     7
 10
-41.715324
 20
14.151104
 11
-41.715324
 21
8.0844536
  0
LINE
  8
0
  6
CONTINUOUS
 62
     7
 10
-39.088371
 20
15.667767
 11
-31.61532
 21
15.667767
  0
LINE
  8
0
  6
CONTINUOUS
 62
     7
 10
-36.461418
 20
14.151104
 11
-36.461418
 21
8.0844536
  0
LINE
  8
0
  6
CONTINUOUS
 62
     7
 10
-28.365335
 20
22.567791
 11
-31.61532
 21
22.567791
  0
LINE
  8
0
  6
CONTINUOUS
 62
     7
 10
-26.865335
 20
21.067791
 11
-31.61532
 21
21.067791
  0
LINE
  8
0
  6
CONTINUOUS
 62
     7
 10
-26.865335
 20
21.067791
 11
-26.865335
 21
15.667767
  0
LINE
  8
0
  6
CONTINUOUS
 62
     7
 10
-26.865307
 20
21.067736
 11
-28.365318
 21
22.567749
  0
LINE
  8
0
  6
CONTINUOUS
 62
     7
 10
-28.365335
 20
22.567791
 11
-28.365335
 21
15.667767
  0
LINE
  8
0
  6
CONTINUOUS
 62
     7
 10
-21.515314
 20
14.151104
 11
-21.515314
 21
8.0844536
  0
LINE
  8
0
  6
CONTINUOUS
 62
     7
 10
-24.142282
 20
15.667767
 11
-31.61532
 21
15.667767
  0
LINE
  8
0
  6
CONTINUOUS
 62
     7
 10
-26.769236
 20
14.151104
 11
-26.769236
 21
8.0844536
  0
LINE
  8
0
  6
CONTINUOUS
 62
     7
 10
257.77795
 20
-1067.001
 11
257.77795
 21
-1072.217
  0
LINE
  8
0
  6
CONTINUOUS
 62
     7
 10
151.27797
 20
-1037.609
 11
148.02797
 21
-1037.609
  0
LINE
  8
0
  6
CONTINUOUS
 62
     7
 10
152.77797
 20
-1039.109
 11
148.02797
 21
-1039.109
  0
LINE
  8
0
  6
CONTINUOUS
 62
     7
 10
152.77797
 20
-1039.109
 11
152.77797
 21
-1044.509
  0
LINE
  8
0
  6
CONTINUOUS
 62
     7
 10
152.77792
 20
-1039.109
 11
151.27791
 21
-1037.609
  0
LINE
  8
0
  6
CONTINUOUS
 62
     7
 10
151.27797
 20
-1037.609
 11
151.27797
 21
-1044.509
  0
LINE
  8
0
  6
CONTINUOUS
 62
     7
 10
158.12801
 20
-1046.0256
 11
158.12801
 21
-1049.8651
  0
LINE
  8
0
  6
CONTINUOUS
 62
     7
 10
155.50105
 20
-1044.509
 11
148.02797
 21
-1044.509
  0
LINE
  8
0
  6
CONTINUOUS
 62
     7
 10
152.8741
 20
-1046.0256
 11
152.8741
 21
-1051.8126
  0
LINE
  8
0
  6
CONTINUOUS
 62
     7
 10
144.77797
 20
-1037.609
 11
148.02797
 21
-1037.609
  0
LINE
  8
0
  6
CONTINUOUS
 62
     7
 10
143.27797
 20
-1039.109
 11
148.02797
 21
-1039.109
  0
LINE
  8
0
  6
CONTINUOUS
 62
     7
 10
143.27797
 20
-1039.109
 11
143.27797
 21
-1044.509
  0
LINE
  8
0
  6
CONTINUOUS
 62
     7
 10
143.27798
 20
-1039.109
 11
144.778
 21
-1037.609
  0
LINE
  8
0
  6
CONTINUOUS
 62
     7
 10
144.77797
 20
-1037.609
 11
144.77797
 21
-1044.509
  0
LINE
  8
0
  6
CONTINUOUS
 62
     7
 10
137.92799
 20
-1046.0256
 11
137.92799
 21
-1052.0923
  0
LINE
  8
0
  6
CONTINUOUS
 62
     7
 10
140.55495
 20
-1044.509
 11
148.02797
 21
-1044.509
  0
LINE
  8
0
  6
CONTINUOUS
 62
     7
 10
143.1819
 20
-1046.0256
 11
143.1819
 21
-1052.0923
  0
LINE
  8
0
  6
CONTINUOUS
 62
     7
 10
143.27797
 20
-1067.001
 11
143.27797
 21
-1072.217
  0
LINE
  8
0
  6
CONTINUOUS
 62
     7
 10
-248.18759
 20
-1275.3267
 11
-246.35034
 21
-1254.3267
  0
LINE
  8
0
  6
CONTINUOUS
 62
     7
 10
-254.88751
 20
-1275.3267
 11
-227.9375
 21
-1275.3267
  0
LINE
  8
0
  6
CENTER
 62
     7
 10
-291.1875
 20
-1219.6056
 11
-291.1875
 21
-1330.6249
  0
LINE
  8
0
  6
CONTINUOUS
 62
     7
 10
-230.93755
 20
-1254.3267
 11
-274.27893
 21
-1235.7906
  0
LINE
  8
0
  6
CONTINUOUS
 62
     7
 10
-253.66418
 20
-1254.3267
 11
-216.6875
 21
-1254.3267
  0
LINE
  8
0
  6
CONTINUOUS
 62
     7
 10
-216.68759
 20
-1254.3267
 11
-217.12503
 21
-1259.3267
  0
LINE
  8
0
  6
CENTER
 62
     7
 10
-214.34526
 20
-1275.3267
 11
-367.47256
 21
-1275.3267
  0
LINE
  8
0
  6
CONTINUOUS
 62
     7
 10
-327.48755
 20
-1275.3267
 11
-354.4375
 21
-1275.3267
  0
LINE
  8
0
  6
CONTINUOUS
 62
     7
 10
-334.18753
 20
-1275.3267
 11
-336.02481
 21
-1254.3267
  0
LINE
  8
0
  6
CONTINUOUS
 62
     7
 10
-328.71082
 20
-1254.3267
 11
-365.6875
 21
-1254.3267
  0
LINE
  8
0
  6
CONTINUOUS
 62
     7
 10
-351.43756
 20
-1254.3267
 11
-308.09616
 21
-1235.7906
  0
LINE
  8
0
  6
CONTINUOUS
 62
     7
 10
-365.68756
 20
-1254.3267
 11
-365.25009
 21
-1259.3267
  0
LINE
  8
0
  6
CONTINUOUS
 62
     7
 10
-248.18756
 20
-1275.3267
 11
-246.3503
 21
-1296.3267
  0
LINE
  8
0
  6
CONTINUOUS
 62
     7
 10
-230.93756
 20
-1296.3267
 11
-274.27899
 21
-1314.8627
  0
LINE
  8
0
  6
CONTINUOUS
 62
     7
 10
-253.66418
 20
-1296.3267
 11
-216.6875
 21
-1296.3267
  0
LINE
  8
0
  6
CONTINUOUS
 62
     7
 10
-216.68756
 20
-1296.3267
 11
-217.125
 21
-1291.3265
  0
LINE
  8
0
  6
CONTINUOUS
 62
     7
 10
-334.18759
 20
-1275.3267
 11
-336.02484
 21
-1296.3265
  0
LINE
  8
0
  6
CONTINUOUS
 62
     7
 10
-328.71082
 20
-1296.3267
 11
-365.6875
 21
-1296.3267
  0
LINE
  8
0
  6
CONTINUOUS
 62
     7
 10
-351.43756
 20
-1296.3267
 11
-308.09613
 21
-1314.8627
  0
LINE
  8
0
  6
CONTINUOUS
 62
     7
 10
-365.68759
 20
-1296.3267
 11
-365.25015
 21
-1291.3267
  0
LINE
  8
0
  6
CONTINUOUS
 62
     7
 10
84.913254
 20
32.567791
 11
80.563248
 21
32.567791
  0
LINE
  8
0
  6
CONTINUOUS
 62
     7
 10
84.913254
 20
30.567791
 11
78.563248
 21
30.567791
  0
LINE
  8
0
  6
CONTINUOUS
 62
     7
 10
84.913254
 20
23.867779
 11
75.267563
 21
23.867779
  0
LINE
  8
0
  6
CONTINUOUS
 62
     7
 10
78.471848
 20
22.017773
 11
78.471848
 21
13.417797
  0
LINE
  8
0
  6
CONTINUOUS
 62
     7
 10
72.063248
 20
22.017773
 11
72.063248
 21
13.417797
  0
LINE
  8
0
  6
CONTINUOUS
 62
     7
 10
80.563248
 20
32.567791
 11
80.563248
 21
23.867779
  0
LINE
  8
0
  6
CONTINUOUS
 62
     7
 10
78.563248
 20
30.567791
 11
78.563248
 21
23.867779
  0
LINE
  8
0
  6
CONTINUOUS
 62
     7
 10
78.563248
 20
30.567789
 11
80.563255
 21
32.567791
  0
LINE
  8
0
  6
CONTINUOUS
 62
     7
 10
84.913254
 20
32.567791
 11
89.26326
 21
32.567791
  0
LINE
  8
0
  6
CONTINUOUS
 62
     7
 10
84.913254
 20
30.567791
 11
91.26326
 21
30.567791
  0
LINE
  8
0
  6
CONTINUOUS
 62
     7
 10
84.913254
 20
23.867779
 11
94.558975
 21
23.867779
  0
LINE
  8
0
  6
CONTINUOUS
 62
     7
 10
91.35466
 20
22.017773
 11
91.35466
 21
13.417797
  0
LINE
  8
0
  6
CONTINUOUS
 62
     7
 10
97.76326
 20
22.017773
 11
97.76326
 21
13.417797
  0
LINE
  8
0
  6
CONTINUOUS
 62
     7
 10
89.26326
 20
32.567791
 11
89.26326
 21
23.867779
  0
LINE
  8
0
  6
CONTINUOUS
 62
     7
 10
91.26326
 20
30.567791
 11
91.26326
 21
23.867779
  0
LINE
  8
0
  6
CONTINUOUS
 62
     7
 10
91.263245
 20
30.567789
 11
89.263245
 21
32.567791
  0
LINE
  8
0
  6
CONTINUOUS
 62
     7
 10
-224.58752
 20
-1273.5125
 11
-224.58752
 21
-1277.1409
  0
LINE
  8
0
  6
CONTINUOUS
 62
     7
 10
-351.4375
 20
-1233.3267
 11
-347.08752
 21
-1233.3267
  0
LINE
  8
0
  6
CONTINUOUS
 62
     7
 10
-351.4375
 20
-1235.3267
 11
-345.08752
 21
-1235.3267
  0
LINE
  8
0
  6
CONTINUOUS
 62
     7
 10
-351.4375
 20
-1242.0267
 11
-341.79181
 21
-1242.0267
  0
LINE
  8
0
  6
CONTINUOUS
 62
     7
 10
-344.99609
 20
-1243.8767
 11
-344.99609
 21
-1251.5718
  0
LINE
  8
0
  6
CONTINUOUS
 62
     7
 10
-338.58752
 20
-1243.8767
 11
-338.58752
 21
-1248.8311
  0
LINE
  8
0
  6
CONTINUOUS
 62
     7
 10
-347.08752
 20
-1233.3267
 11
-347.08752
 21
-1242.0267
  0
LINE
  8
0
  6
CONTINUOUS
 62
     7
 10
-345.08752
 20
-1235.3267
 11
-345.08752
 21
-1242.0267
  0
LINE
  8
0
  6
CONTINUOUS
 62
     7
 10
-345.08752
 20
-1235.3267
 11
-347.08752
 21
-1233.3267
  0
LINE
  8
0
  6
CONTINUOUS
 62
     7
 10
-351.4375
 20
-1233.3267
 11
-355.78754
 21
-1233.3267
  0
LINE
  8
0
  6
CONTINUOUS
 62
     7
 10
-351.4375
 20
-1235.3267
 11
-357.78754
 21
-1235.3267
  0
LINE
  8
0
  6
CONTINUOUS
 62
     7
 10
-351.4375
 20
-1242.0267
 11
-361.08325
 21
-1242.0267
  0
LINE
  8
0
  6
CONTINUOUS
 62
     7
 10
-357.87891
 20
-1243.8767
 11
-357.87891
 21
-1252.4767
  0
LINE
  8
0
  6
CONTINUOUS
 62
     7
 10
-364.28754
 20
-1243.8767
 11
-364.28754
 21
-1252.4767
  0
LINE
  8
0
  6
CONTINUOUS
 62
     7
 10
-355.78754
 20
-1233.3267
 11
-355.78754
 21
-1242.0267
  0
LINE
  8
0
  6
CONTINUOUS
 62
     7
 10
-357.78754
 20
-1235.3267
 11
-357.78754
 21
-1242.0267
  0
LINE
  8
0
  6
CONTINUOUS
 62
     7
 10
-357.78754
 20
-1235.3267
 11
-355.78757
 21
-1233.3267
  0
LINE
  8
0
  6
CONTINUOUS
 62
     7
 10
-357.78754
 20
-1273.5125
 11
-357.78754
 21
-1277.1409
  0
LINE
  8
0
  6
CONTINUOUS
 62
     7
 10
-7.1848307
 20
-1249.3092
 11
-55.665634
 21
-1227.1185
  0
LINE
  8
0
  6
CONTINUOUS
 62
     7
 10
-27.934803
 20
-1270.3092
 11
-26.834242
 21
-1249.3092
  0
LINE
  8
0
  6
CONTINUOUS
 62
     7
 10
-32.829056
 20
-1249.3092
 11
7.0652018
 21
-1249.3092
  0
LINE
  8
0
  6
CONTINUOUS
 62
     7
 10
-32.834824
 20
-1270.3092
 11
-4.1847982
 21
-1270.3092
  0
LINE
  8
0
  6
CENTER
 62
     7
 10
10.529447
 20
-1270.3092
 11
-161.84337
 21
-1270.3092
  0
LINE
  8
0
  6
CONTINUOUS
 62
     7
 10
7.0652027
 20
-1249.3092
 11
6.6277642
 21
-1254.3092
  0
LINE
  8
0
  6
CENTER
 62
     7
 10
-75.434799
 20
-1209.4785
 11
-75.434799
 21
-1334.3835
  0
LINE
  8
0
  6
CONTINUOUS
 62
     7
 10
-143.68481
 20
-1249.3091
 11
-95.204033
 21
-1227.1185
  0
LINE
  8
0
  6
CONTINUOUS
 62
     7
 10
-118.04057
 20
-1249.3092
 11
-157.9348
 21
-1249.3092
  0
LINE
  8
0
  6
CONTINUOUS
 62
     7
 10
-122.93481
 20
-1270.3091
 11
-124.03538
 21
-1249.3091
  0
LINE
  8
0
  6
CONTINUOUS
 62
     7
 10
-157.93481
 20
-1249.3092
 11
-157.49738
 21
-1254.3092
  0
LINE
  8
0
  6
CONTINUOUS
 62
     7
 10
-118.03484
 20
-1270.3092
 11
-146.6848
 21
-1270.3092
  0
LINE
  8
0
  6
CONTINUOUS
 62
     7
 10
-7.1848245
 20
-1291.3091
 11
-55.665657
 21
-1313.4998
  0
LINE
  8
0
  6
CONTINUOUS
 62
     7
 10
-27.934797
 20
-1270.3091
 11
-26.834234
 21
-1291.3091
  0
LINE
  8
0
  6
CONTINUOUS
 62
     7
 10
-32.829056
 20
-1291.3092
 11
7.0652018
 21
-1291.3092
  0
LINE
  8
0
  6
CONTINUOUS
 62
     7
 10
7.0652103
 20
-1291.3092
 11
6.6277719
 21
-1286.3092
  0
LINE
  8
0
  6
CONTINUOUS
 62
     7
 10
-143.68484
 20
-1291.3092
 11
-95.20401
 21
-1313.4998
  0
LINE
  8
0
  6
CONTINUOUS
 62
     7
 10
-118.04057
 20
-1291.3092
 11
-157.9348
 21
-1291.3092
  0
LINE
  8
0
  6
CONTINUOUS
 62
     7
 10
-122.93481
 20
-1270.3092
 11
-124.03537
 21
-1291.3092
  0
LINE
  8
0
  6
CONTINUOUS
 62
     7
 10
-157.93478
 20
-1291.3092
 11
-157.49736
 21
-1286.3092
  0
LINE
  8
0
  6
CONTINUOUS
 62
     7
 10
194.70819
 20
32.567791
 11
190.35818
 21
32.567791
  0
LINE
  8
0
  6
CONTINUOUS
 62
     7
 10
194.70819
 20
30.567791
 11
188.35818
 21
30.567791
  0
LINE
  8
0
  6
CONTINUOUS
 62
     7
 10
194.70819
 20
23.867779
 11
185.06247
 21
23.867779
  0
LINE
  8
0
  6
CONTINUOUS
 62
     7
 10
188.26675
 20
22.017773
 11
188.26675
 21
13.417797
  0
LINE
  8
0
  6
CONTINUOUS
 62
     7
 10
181.85818
 20
22.017773
 11
181.85818
 21
13.417797
  0
LINE
  8
0
  6
CONTINUOUS
 62
     7
 10
190.35818
 20
32.567791
 11
190.35818
 21
23.867779
  0
LINE
  8
0
  6
CONTINUOUS
 62
     7
 10
188.35818
 20
30.567791
 11
188.35818
 21
23.867779
  0
LINE
  8
0
  6
CONTINUOUS
 62
     7
 10
188.35815
 20
30.567808
 11
190.35815
 21
32.56781
  0
LINE
  8
0
  6
CONTINUOUS
 62
     7
 10
194.70819
 20
32.567791
 11
199.0582
 21
32.567791
  0
LINE
  8
0
  6
CONTINUOUS
 62
     7
 10
194.70819
 20
30.567791
 11
201.0582
 21
30.567791
  0
LINE
  8
0
  6
CONTINUOUS
 62
     7
 10
194.70819
 20
23.867779
 11
204.35391
 21
23.867779
  0
LINE
  8
0
  6
CONTINUOUS
 62
     7
 10
201.14963
 20
22.017773
 11
201.14963
 21
13.417797
  0
LINE
  8
0
  6
CONTINUOUS
 62
     7
 10
207.5582
 20
22.017773
 11
207.5582
 21
13.417797
  0
LINE
  8
0
  6
CONTINUOUS
 62
     7
 10
199.0582
 20
32.567791
 11
199.0582
 21
23.867779
  0
LINE
  8
0
  6
CONTINUOUS
 62
     7
 10
201.0582
 20
30.567791
 11
201.0582
 21
23.867779
  0
LINE
  8
0
  6
CONTINUOUS
 62
     7
 10
201.0582
 20
30.567808
 11
199.0582
 21
32.56781
  0
LINE
  8
0
  6
CONTINUOUS
 62
     7
 10
-0.83479232
 20
-1268.4949
 11
-0.83479232
 21
-1272.1234
  0
LINE
  8
0
  6
CONTINUOUS
 62
     7
 10
-143.6848
 20
-1228.3092
 11
-139.33482
 21
-1228.3092
  0
LINE
  8
0
  6
CONTINUOUS
 62
     7
 10
-143.6848
 20
-1230.3092
 11
-137.33482
 21
-1230.3092
  0
LINE
  8
0
  6
CONTINUOUS
 62
     7
 10
-143.6848
 20
-1237.0092
 11
-134.03911
 21
-1237.0092
  0
LINE
  8
0
  6
CONTINUOUS
 62
     7
 10
-137.24339
 20
-1238.8591
 11
-137.24339
 21
-1246.3608
  0
LINE
  8
0
  6
CONTINUOUS
 62
     7
 10
-130.83482
 20
-1238.8591
 11
-130.83482
 21
-1243.4275
  0
LINE
  8
0
  6
CONTINUOUS
 62
     7
 10
-139.33482
 20
-1228.3092
 11
-139.33482
 21
-1237.0092
  0
LINE
  8
0
  6
CONTINUOUS
 62
     7
 10
-137.33482
 20
-1230.3092
 11
-137.33482
 21
-1237.0092
  0
LINE
  8
0
  6
CONTINUOUS
 62
     7
 10
-137.33473
 20
-1230.3091
 11
-139.33473
 21
-1228.3091
  0
LINE
  8
0
  6
CONTINUOUS
 62
     7
 10
-143.6848
 20
-1228.3092
 11
-148.03484
 21
-1228.3092
  0
LINE
  8
0
  6
CONTINUOUS
 62
     7
 10
-143.6848
 20
-1230.3092
 11
-150.03484
 21
-1230.3092
  0
LINE
  8
0
  6
CONTINUOUS
 62
     7
 10
-143.6848
 20
-1237.0092
 11
-153.33055
 21
-1237.0092
  0
LINE
  8
0
  6
CONTINUOUS
 62
     7
 10
-150.12627
 20
-1238.8591
 11
-150.12627
 21
-1247.4591
  0
LINE
  8
0
  6
CONTINUOUS
 62
     7
 10
-156.53484
 20
-1238.8591
 11
-156.53484
 21
-1247.4591
  0
LINE
  8
0
  6
CONTINUOUS
 62
     7
 10
-148.03484
 20
-1228.3092
 11
-148.03484
 21
-1237.0092
  0
LINE
  8
0
  6
CONTINUOUS
 62
     7
 10
-150.03484
 20
-1230.3092
 11
-150.03484
 21
-1237.0092
  0
LINE
  8
0
  6
CONTINUOUS
 62
     7
 10
-150.03477
 20
-1230.3091
 11
-148.03477
 21
-1228.3091
  0
LINE
  8
0
  6
CONTINUOUS
 62
     7
 10
-150.03484
 20
-1268.4949
 11
-150.03484
 21
-1272.1234
  0
LINE
  8
0
  6
CENTER
 62
     7
 10
175.44044
 20
-1186.5417
 11
175.44044
 21
-1349.0591
  0
LINE
  8
0
  6
CENTER
 62
     7
 10
278.81039
 20
-1267.8004
 11
69.620087
 21
-1267.8004
  0
LINE
  8
0
  6
CONTINUOUS
 62
     7
 10
230.6404
 20
-1267.8004
 11
264.94043
 21
-1267.8004
  0
LINE
  8
0
  6
CONTINUOUS
 62
     7
 10
235.9404
 20
-1267.8005
 11
237.27679
 21
-1242.3004
  0
LINE
  8
0
  6
CONTINUOUS
 62
     7
 10
276.9404
 20
-1242.3004
 11
276.41547
 21
-1248.3004
  0
LINE
  8
0
  6
CONTINUOUS
 62
     7
 10
230.30391
 20
-1242.3004
 11
276.94043
 21
-1242.3004
  0
LINE
  8
0
  6
CONTINUOUS
 62
     7
 10
262.94043
 20
-1242.3004
 11
201.33736
 21
-1213.1232
  0
LINE
  8
0
  6
CONTINUOUS
 62
     7
 10
87.940475
 20
-1242.3004
 11
149.54349
 21
-1213.1232
  0
LINE
  8
0
  6
CONTINUOUS
 62
     7
 10
120.57698
 20
-1242.3004
 11
73.940445
 21
-1242.3004
  0
LINE
  8
0
  6
CONTINUOUS
 62
     7
 10
114.94041
 20
-1267.8004
 11
113.60401
 21
-1242.3004
  0
LINE
  8
0
  6
CONTINUOUS
 62
     7
 10
73.940422
 20
-1242.3004
 11
74.465347
 21
-1248.3004
  0
LINE
  8
0
  6
CONTINUOUS
 62
     7
 10
120.24043
 20
-1267.8004
 11
85.940445
 21
-1267.8004
  0
LINE
  8
0
  6
CONTINUOUS
 62
     7
 10
235.9404
 20
-1267.8004
 11
237.27679
 21
-1293.3005
  0
LINE
  8
0
  6
CONTINUOUS
 62
     7
 10
276.94043
 20
-1293.3004
 11
276.4155
 21
-1287.3004
  0
LINE
  8
0
  6
CONTINUOUS
 62
     7
 10
230.30391
 20
-1293.3004
 11
276.94043
 21
-1293.3004
  0
LINE
  8
0
  6
CONTINUOUS
 62
     7
 10
262.94043
 20
-1293.3004
 11
201.33733
 21
-1322.4777
  0
LINE
  8
0
  6
CONTINUOUS
 62
     7
 10
87.940392
 20
-1293.3005
 11
149.54346
 21
-1322.4778
  0
LINE
  8
0
  6
CONTINUOUS
 62
     7
 10
120.57698
 20
-1293.3004
 11
73.940445
 21
-1293.3004
  0
LINE
  8
0
  6
CONTINUOUS
 62
     7
 10
114.94038
 20
-1267.8005
 11
113.60399
 21
-1293.3004
  0
LINE
  8
0
  6
CONTINUOUS
 62
     7
 10
73.940384
 20
-1293.3004
 11
74.465317
 21
-1287.3004
  0
LINE
  8
0
  6
CONTINUOUS
 62
     7
 10
307.5582
 20
26.517803
 11
307.5582
 21
17.917797
  0
LINE
  8
0
  6
CONTINUOUS
 62
     7
 10
294.70819
 20
35.067791
 11
290.35818
 21
35.067791
  0
LINE
  8
0
  6
CONTINUOUS
 62
     7
 10
294.70819
 20
33.067791
 11
288.35818
 21
33.067791
  0
LINE
  8
0
  6
CONTINUOUS
 62
     7
 10
294.70819
 20
28.367809
 11
285.06247
 21
28.367809
  0
LINE
  8
0
  6
CONTINUOUS
 62
     7
 10
281.85818
 20
26.517803
 11
281.85818
 21
17.917797
  0
LINE
  8
0
  6
CONTINUOUS
 62
     7
 10
290.35818
 20
35.067791
 11
290.35818
 21
28.367809
  0
LINE
  8
0
  6
CONTINUOUS
 62
     7
 10
288.35818
 20
33.067791
 11
288.35818
 21
28.367809
  0
LINE
  8
0
  6
CONTINUOUS
 62
     7
 10
288.35815
 20
33.067795
 11
290.35815
 21
35.067795
  0
LINE
  8
0
  6
CONTINUOUS
 62
     7
 10
288.26675
 20
26.517803
 11
288.26675
 21
17.917797
  0
LINE
  8
0
  6
CONTINUOUS
 62
     7
 10
294.70819
 20
35.067791
 11
299.0582
 21
35.067791
  0
LINE
  8
0
  6
CONTINUOUS
 62
     7
 10
294.70819
 20
33.067791
 11
301.0582
 21
33.067791
  0
LINE
  8
0
  6
CONTINUOUS
 62
     7
 10
294.70819
 20
28.367809
 11
304.35391
 21
28.367809
  0
LINE
  8
0
  6
CONTINUOUS
 62
     7
 10
299.0582
 20
35.067791
 11
299.0582
 21
28.367809
  0
LINE
  8
0
  6
CONTINUOUS
 62
     7
 10
301.0582
 20
33.067791
 11
301.0582
 21
28.367809
  0
LINE
  8
0
  6
CONTINUOUS
 62
     7
 10
301.0582
 20
33.067795
 11
299.0582
 21
35.067795
  0
LINE
  8
0
  6
CONTINUOUS
 62
     7
 10
301.14963
 20
26.517803
 11
301.14963
 21
17.917797
  0
LINE
  8
0
  6
CONTINUOUS
 62
     7
 10
269.29041
 20
-1265.2656
 11
269.29041
 21
-1270.3352
  0
LINE
  8
0
  6
CONTINUOUS
 62
     7
 10
87.940445
 20
-1223.3004
 11
92.290421
 21
-1223.3004
  0
LINE
  8
0
  6
CONTINUOUS
 62
     7
 10
87.940445
 20
-1225.3004
 11
94.290421
 21
-1225.3004
  0
LINE
  8
0
  6
CONTINUOUS
 62
     7
 10
87.940445
 20
-1230.0004
 11
97.586136
 21
-1230.0004
  0
LINE
  8
0
  6
CONTINUOUS
 62
     7
 10
100.79042
 20
-1231.8503
 11
100.79042
 21
-1236.2142
  0
LINE
  8
0
  6
CONTINUOUS
 62
     7
 10
92.290421
 20
-1223.3004
 11
92.290421
 21
-1230.0004
  0
LINE
  8
0
  6
CONTINUOUS
 62
     7
 10
94.290421
 20
-1225.3004
 11
94.290421
 21
-1230.0004
  0
LINE
  8
0
  6
CONTINUOUS
 62
     7
 10
94.290512
 20
-1225.3004
 11
92.290512
 21
-1223.3004
  0
LINE
  8
0
  6
CONTINUOUS
 62
     7
 10
94.381851
 20
-1231.8503
 11
94.381851
 21
-1239.2495
  0
LINE
  8
0
  6
CONTINUOUS
 62
     7
 10
87.940445
 20
-1223.3004
 11
83.590408
 21
-1223.3004
  0
LINE
  8
0
  6
CONTINUOUS
 62
     7
 10
87.940445
 20
-1225.3004
 11
81.590408
 21
-1225.3004
  0
LINE
  8
0
  6
CONTINUOUS
 62
     7
 10
87.940445
 20
-1230.0004
 11
78.294693
 21
-1230.0004
  0
LINE
  8
0
  6
CONTINUOUS
 62
     7
 10
75.090408
 20
-1231.8503
 11
75.090408
 21
-1240.4504
  0
LINE
  8
0
  6
CONTINUOUS
 62
     7
 10
83.590408
 20
-1223.3004
 11
83.590408
 21
-1230.0004
  0
LINE
  8
0
  6
CONTINUOUS
 62
     7
 10
81.590408
 20
-1225.3004
 11
81.590408
 21
-1230.0004
  0
LINE
  8
0
  6
CONTINUOUS
 62
     7
 10
81.590431
 20
-1225.3004
 11
83.590477
 21
-1223.3004
  0
LINE
  8
0
  6
CONTINUOUS
 62
     7
 10
81.498978
 20
-1231.8503
 11
81.498978
 21
-1240.4504
  0
LINE
  8
0
  6
CONTINUOUS
 62
     7
 10
81.590408
 20
-1265.2656
 11
81.590408
 21
-1270.3352
  0
LINE
  8
0
  6
CENTER
 62
     7
 10
611.96338
 20
-967.29218
 11
611.96338
 21
-1156.824
  0
LINE
  8
0
  6
CONTINUOUS
 62
     7
 10
688.46332
 20
-1059.574
 11
689.87836
 21
-1032.574
  0
LINE
  8
0
  6
CONTINUOUS
 62
     7
 10
683.54028
 20
-1032.574
 11
731.46338
 21
-1032.574
  0
LINE
  8
0
  6
CONTINUOUS
 62
     7
 10
730.89471
 20
-1039.074
 11
731.46338
 21
-1032.574
  0
LINE
  8
0
  6
CONTINUOUS
 62
     7
 10
709.79755
 20
-1030.5908
 11
652.57568
 21
-994.74426
  0
LINE
  8
0
  6
CONTINUOUS
 62
     7
 10
679.8634
 20
-1059.574
 11
714.96338
 21
-1059.574
  0
LINE
  8
0
  6
CENTER
 62
     7
 10
734.96729
 20
-1059.574
 11
486.44919
 21
-1059.574
  0
LINE
  8
0
  6
CONTINUOUS
 62
     7
 10
544.06335
 20
-1059.574
 11
508.96335
 21
-1059.574
  0
LINE
  8
0
  6
CONTINUOUS
 62
     7
 10
535.46332
 20
-1059.574
 11
534.04834
 21
-1032.574
  0
LINE
  8
0
  6
CONTINUOUS
 62
     7
 10
514.12921
 20
-1030.5908
 11
571.35101
 21
-994.74432
  0
LINE
  8
0
  6
CONTINUOUS
 62
     7
 10
493.03204
 20
-1039.074
 11
492.46335
 21
-1032.574
  0
LINE
  8
0
  6
CONTINUOUS
 62
     7
 10
540.38647
 20
-1032.574
 11
492.46335
 21
-1032.574
  0
LINE
  8
0
  6
CONTINUOUS
 62
     7
 10
688.46338
 20
-1059.574
 11
689.87836
 21
-1086.574
  0
LINE
  8
0
  6
CONTINUOUS
 62
     7
 10
683.54028
 20
-1086.574
 11
731.46338
 21
-1086.574
  0
LINE
  8
0
  6
CONTINUOUS
 62
     7
 10
730.89471
 20
-1080.074
 11
731.46338
 21
-1086.574
  0
LINE
  8
0
  6
CONTINUOUS
 62
     7
 10
709.79761
 20
-1088.5571
 11
652.57574
 21
-1124.4037
  0
LINE
  8
0
  6
CONTINUOUS
 62
     7
 10
535.46338
 20
-1059.5739
 11
534.04834
 21
-1086.574
  0
LINE
  8
0
  6
CONTINUOUS
 62
     7
 10
514.12915
 20
-1088.5573
 11
571.35095
 21
-1124.4037
  0
LINE
  8
0
  6
CONTINUOUS
 62
     7
 10
493.03201
 20
-1080.074
 11
492.46335
 21
-1086.574
  0
LINE
  8
0
  6
CONTINUOUS
 62
     7
 10
540.38647
 20
-1086.574
 11
492.46335
 21
-1086.574
  0
LINE
  8
0
  6
CENTER
 62
     7
 10
960.67993
 20
-959.58173
 11
960.67993
 21
-1175.4662
  0
LINE
  8
0
  6
CONTINUOUS
 62
     7
 10
1073.2638
 20
-1037.6201
 11
1013.5558
 21
-994.27075
  0
LINE
  8
0
  6
CONTINUOUS
 62
     7
 10
1046.5345
 20
-1040.1002
 11
1094.6799
 21
-1040.1002
  0
LINE
  8
0
  6
CONTINUOUS
 62
     7
 10
1050.6799
 20
-1067.1002
 11
1052.095
 21
-1040.1002
  0
LINE
  8
0
  6
CONTINUOUS
 62
     7
 10
1041.2799
 20
-1067.1002
 11
1078.6799
 21
-1067.1002
  0
LINE
  8
0
  6
CENTER
 62
     7
 10
1103.021
 20
-1067.1002
 11
821.03241
 21
-1067.1002
  0
LINE
  8
0
  6
CONTINUOUS
 62
     7
 10
1094.1112
 20
-1046.6002
 11
1094.6799
 21
-1040.1002
  0
LINE
  8
0
  6
CONTINUOUS
 62
     7
 10
870.67993
 20
-1067.1002
 11
869.26489
 21
-1040.1003
  0
LINE
  8
0
  6
CONTINUOUS
 62
     7
 10
874.82538
 20
-1040.1002
 11
826.67993
 21
-1040.1002
  0
LINE
  8
0
  6
CONTINUOUS
 62
     7
 10
848.09607
 20
-1037.62
 11
907.80408
 21
-994.27063
  0
LINE
  8
0
  6
CONTINUOUS
 62
     7
 10
827.24872
 20
-1046.6002
 11
826.67999
 21
-1040.1002
  0
LINE
  8
0
  6
CONTINUOUS
 62
     7
 10
880.07996
 20
-1067.1002
 11
842.67993
 21
-1067.1002
  0
LINE
  8
0
  6
CONTINUOUS
 62
     7
 10
1073.2638
 20
-1096.5803
 11
1013.5558
 21
-1139.9297
  0
LINE
  8
0
  6
CONTINUOUS
 62
     7
 10
1046.5345
 20
-1094.1002
 11
1094.6799
 21
-1094.1002
  0
LINE
  8
0
  6
CONTINUOUS
 62
     7
 10
1050.6799
 20
-1067.1003
 11
1052.095
 21
-1094.1002
  0
LINE
  8
0
  6
CONTINUOUS
 62
     7
 10
1094.1113
 20
-1087.6002
 11
1094.6799
 21
-1094.1002
  0
LINE
  8
0
  6
CONTINUOUS
 62
     7
 10
870.67999
 20
-1067.1002
 11
869.26501
 21
-1094.1002
  0
LINE
  8
0
  6
CONTINUOUS
 62
     7
 10
874.82538
 20
-1094.1002
 11
826.67993
 21
-1094.1002
  0
LINE
  8
0
  6
CONTINUOUS
 62
     7
 10
848.09601
 20
-1096.5804
 11
907.80402
 21
-1139.9298
  0
LINE
  8
0
  6
CONTINUOUS
 62
     7
 10
827.2486
 20
-1087.6002
 11
826.67993
 21
-1094.1002
  0
LINE
  8
0
  6
CENTER
 62
     7
 10
553.81818
 20
-1363.1331
 11
894.37994
 21
-1363.1331
  0
LINE
  8
0
  6
CENTER
 62
     7
 10
719.83972
 20
-1226.5837
 11
719.83972
 21
-1504.0381
  0
LINE
  8
0
  6
CONTINUOUS
 62
     7
 10
827.659
 20
-1323.1331
 11
887.33972
 21
-1323.1331
  0
LINE
  8
0
  6
CONTINUOUS
 62
     7
 10
834.83972
 20
-1363.1331
 11
836.93604
 21
-1323.1329
  0
LINE
  8
0
  6
CONTINUOUS
 62
     7
 10
825.78967
 20
-1363.1331
 11
865.83972
 21
-1363.1331
  0
LINE
  8
0
  6
CONTINUOUS
 62
     7
 10
887.33972
 20
-1323.1331
 11
886.81476
 21
-1329.1331
  0
LINE
  8
0
  6
CONTINUOUS
 62
     7
 10
859.0481
 20
-1322.5532
 11
787.79755
 21
-1270.3606
  0
LINE
  8
0
  6
CONTINUOUS
 62
     7
 10
612.02039
 20
-1323.1331
 11
552.33966
 21
-1323.1331
  0
LINE
  8
0
  6
CONTINUOUS
 62
     7
 10
604.83972
 20
-1363.1331
 11
602.74341
 21
-1323.1331
  0
LINE
  8
0
  6
CONTINUOUS
 62
     7
 10
552.33972
 20
-1323.1331
 11
552.86462
 21
-1329.1331
  0
LINE
  8
0
  6
CONTINUOUS
 62
     7
 10
580.63129
 20
-1322.5532
 11
651.88184
 21
-1270.3606
  0
LINE
  8
0
  6
CONTINUOUS
 62
     7
 10
613.88971
 20
-1363.1331
 11
573.83966
 21
-1363.1331
  0
LINE
  8
0
  6
CONTINUOUS
 62
     7
 10
827.659
 20
-1403.1331
 11
887.33972
 21
-1403.1331
  0
LINE
  8
0
  6
CONTINUOUS
 62
     7
 10
834.83972
 20
-1363.1332
 11
836.93604
 21
-1403.1331
  0
LINE
  8
0
  6
CONTINUOUS
 62
     7
 10
887.33972
 20
-1403.1331
 11
886.81476
 21
-1397.1331
  0
LINE
  8
0
  6
CONTINUOUS
 62
     7
 10
859.04816
 20
-1403.7129
 11
787.79761
 21
-1455.9055
  0
LINE
  8
0
  6
CONTINUOUS
 62
     7
 10
612.02039
 20
-1403.1331
 11
552.33966
 21
-1403.1331
  0
LINE
  8
0
  6
CONTINUOUS
 62
     7
 10
604.83972
 20
-1363.1329
 11
602.74341
 21
-1403.1331
  0
LINE
  8
0
  6
CONTINUOUS
 62
     7
 10
552.33972
 20
-1403.1329
 11
552.86462
 21
-1397.1331
  0
LINE
  8
0
  6
CONTINUOUS
 62
     7
 10
580.63129
 20
-1403.7129
 11
651.88177
 21
-1455.9055
  0
LINE
  8
0
  6
CENTER
 62
     7
 10
-41.566643
 20
-1641.0049
 11
-41.566643
 21
-1978.4948
  0
LINE
  8
0
  6
CENTER
 62
     7
 10
-250.56532
 20
-1804.6735
 11
163.63148
 21
-1804.6735
  0
LINE
  8
0
  6
CONTINUOUS
 62
     7
 10
103.93338
 20
-1804.6733
 11
108.04535
 21
-1757.6733
  0
LINE
  8
0
  6
CONTINUOUS
 62
     7
 10
99.664558
 20
-1757.6735
 11
158.9334
 21
-1757.6735
  0
LINE
  8
0
  6
CONTINUOUS
 62
     7
 10
139.9334
 20
-1797.2212
 11
139.9334
 21
-1797.6735
  0
LINE
  8
0
  6
CONTINUOUS
 62
     7
 10
89.933388
 20
-1804.6735
 11
131.9334
 21
-1804.6735
  0
LINE
  8
0
  6
CONTINUOUS
 62
     7
 10
158.32097
 20
-1764.6733
 11
158.9334
 21
-1757.6733
  0
LINE
  8
0
  6
CONTINUOUS
 62
     7
 10
-187.06662
 20
-1804.6735
 11
-191.17859
 21
-1757.6735
  0
LINE
  8
0
  6
CONTINUOUS
 62
     7
 10
-182.79784
 20
-1757.6735
 11
-242.06664
 21
-1757.6735
  0
LINE
  8
0
  6
CONTINUOUS
 62
     7
 10
-223.06664
 20
-1797.2212
 11
-223.06664
 21
-1797.6735
  0
LINE
  8
0
  6
CONTINUOUS
 62
     7
 10
-241.45421
 20
-1764.6735
 11
-242.06662
 21
-1757.6735
  0
LINE
  8
0
  6
CONTINUOUS
 62
     7
 10
-173.06664
 20
-1804.6735
 11
-215.06664
 21
-1804.6735
  0
LINE
  8
0
  6
CONTINUOUS
 62
     7
 10
103.9334
 20
-1804.6735
 11
108.04536
 21
-1851.6735
  0
LINE
  8
0
  6
CONTINUOUS
 62
     7
 10
99.664558
 20
-1851.6735
 11
158.9334
 21
-1851.6735
  0
LINE
  8
0
  6
CONTINUOUS
 62
     7
 10
139.9334
 20
-1812.1257
 11
139.9334
 21
-1811.6735
  0
LINE
  8
0
  6
CONTINUOUS
 62
     7
 10
158.32098
 20
-1844.6735
 11
158.93341
 21
-1851.6735
  0
LINE
  8
0
  6
CONTINUOUS
 62
     7
 10
-187.06665
 20
-1804.6733
 11
-191.17862
 21
-1851.6735
  0
LINE
  8
0
  6
CONTINUOUS
 62
     7
 10
-182.79784
 20
-1851.6735
 11
-242.06664
 21
-1851.6735
  0
LINE
  8
0
  6
CONTINUOUS
 62
     7
 10
-223.06664
 20
-1812.1257
 11
-223.06664
 21
-1811.6735
  0
LINE
  8
0
  6
CONTINUOUS
 62
     7
 10
-241.45424
 20
-1844.6735
 11
-242.06667
 21
-1851.6735
  0
LINE
  8
0
  6
CONTINUOUS
 62
     7
 10
1020.2355
 20
-1767.1821
 11
1020.848
 21
-1760.1821
  0
LINE
  8
0
  6
CONTINUOUS
 62
     7
 10
962.51398
 20
-1760.1821
 11
1020.8479
 21
-1760.1821
  0
LINE
  8
0
  6
CONTINUOUS
 62
     7
 10
965.3479
 20
-1807.1821
 11
969.4599
 21
-1760.1821
  0
LINE
  8
0
  6
CONTINUOUS
 62
     7
 10
950.44794
 20
-1807.1821
 11
994.8479
 21
-1807.1821
  0
LINE
  8
0
  6
CENTER
 62
     7
 10
561.31183
 20
-1807.1821
 11
1027.3878
 21
-1807.1821
  0
LINE
  8
0
  6
CENTER
 62
     7
 10
793.8479
 20
-1609.5336
 11
793.8479
 21
-2019.9789
  0
LINE
  8
0
  6
CONTINUOUS
 62
     7
 10
567.46033
 20
-1767.1821
 11
566.8479
 21
-1760.1821
  0
LINE
  8
0
  6
CONTINUOUS
 62
     7
 10
625.18182
 20
-1760.1821
 11
566.8479
 21
-1760.1821
  0
LINE
  8
0
  6
CONTINUOUS
 62
     7
 10
622.3479
 20
-1807.1821
 11
618.23596
 21
-1760.1821
  0
LINE
  8
0
  6
CONTINUOUS
 62
     7
 10
637.24792
 20
-1807.1821
 11
592.8479
 21
-1807.1821
  0
LINE
  8
0
  6
CONTINUOUS
 62
     7
 10
1020.2355
 20
-1847.1823
 11
1020.8479
 21
-1854.1823
  0
LINE
  8
0
  6
CONTINUOUS
 62
     7
 10
962.51398
 20
-1854.1821
 11
1020.8479
 21
-1854.1821
  0
LINE
  8
0
  6
CONTINUOUS
 62
     7
 10
965.3479
 20
-1807.1821
 11
969.45984
 21
-1854.1823
  0
LINE
  8
0
  6
CONTINUOUS
 62
     7
 10
567.46033
 20
-1847.1823
 11
566.8479
 21
-1854.1821
  0
LINE
  8
0
  6
CONTINUOUS
 62
     7
 10
625.18182
 20
-1854.1821
 11
566.8479
 21
-1854.1821
  0
LINE
  8
0
  6
CONTINUOUS
 62
     7
 10
622.3479
 20
-1807.1821
 11
618.2359
 21
-1854.1821
  0
LINE
  8
0
  6
CONTINUOUS
 62
     7
 10
542.78778
 20
-36.432209
 11
542.78778
 21
-36.625965
  0
LINE
  8
0
  6
CONTINUOUS
 62
     7
 10
529.28778
 20
43.567791
 11
523.38782
 21
43.567791
  0
LINE
  8
0
  6
CONTINUOUS
 62
     7
 10
529.28778
 20
41.567791
 11
521.38782
 21
41.567791
  0
LINE
  8
0
  6
CONTINUOUS
 62
     7
 10
523.38782
 20
43.567791
 11
523.38782
 21
33.067791
  0
LINE
  8
0
  6
CONTINUOUS
 62
     7
 10
521.38776
 20
41.567791
 11
523.38776
 21
43.567795
  0
LINE
  8
0
  6
CONTINUOUS
 62
     7
 10
521.38782
 20
41.567791
 11
521.38782
 21
33.067791
  0
LINE
  8
0
  6
CONTINUOUS
 62
     7
 10
529.28778
 20
33.067791
 11
517.5849
 21
33.067791
  0
LINE
  8
0
  6
CONTINUOUS
 62
     7
 10
521.48199
 20
30.817791
 11
521.48199
 21
19.817791
  0
LINE
  8
0
  6
CONTINUOUS
 62
     7
 10
513.68781
 20
30.817791
 11
513.68781
 21
19.817791
  0
LINE
  8
0
  6
CONTINUOUS
 62
     7
 10
529.28778
 20
43.567791
 11
535.18781
 21
43.567791
  0
LINE
  8
0
  6
CONTINUOUS
 62
     7
 10
529.28778
 20
41.567791
 11
537.18781
 21
41.567791
  0
LINE
  8
0
  6
CONTINUOUS
 62
     7
 10
535.18781
 20
43.567791
 11
535.18781
 21
33.067791
  0
LINE
  8
0
  6
CONTINUOUS
 62
     7
 10
537.18774
 20
41.567791
 11
535.18774
 21
43.567795
  0
LINE
  8
0
  6
CONTINUOUS
 62
     7
 10
537.18781
 20
41.567791
 11
537.18781
 21
33.067791
  0
LINE
  8
0
  6
CONTINUOUS
 62
     7
 10
529.28778
 20
33.067791
 11
540.99066
 21
33.067791
  0
LINE
  8
0
  6
CONTINUOUS
 62
     7
 10
537.09357
 20
30.817791
 11
537.09357
 21
19.817791
  0
LINE
  8
0
  6
CONTINUOUS
 62
     7
 10
544.88782
 20
30.817791
 11
544.88782
 21
19.817791
  0
LINE
  8
0
  6
CONTINUOUS
 62
     7
 10
529.28778
 20
-36.432209
 11
555.28778
 21
-36.432209
  0
LINE
  8
0
  6
CONTINUOUS
 62
     7
 10
515.78778
 20
-36.432209
 11
515.78778
 21
-36.625965
  0
LINE
  8
0
  6
CONTINUOUS
 62
     7
 10
537.18781
 20
2.7254908
 11
537.18781
 21
-21.589893
  0
LINE
  8
0
  6
CONTINUOUS
 62
     7
 10
521.38782
 20
2.7254908
 11
521.38782
 21
-21.589893
  0
LINE
  8
0
  6
CONTINUOUS
 62
     7
 10
726.46338
 20
-1086.574
 11
726.46338
 21
-1086.7677
  0
LINE
  8
0
  6
CONTINUOUS
 62
     7
 10
712.96338
 20
-1006.574
 11
707.06342
 21
-1006.574
  0
LINE
  8
0
  6
CONTINUOUS
 62
     7
 10
712.96338
 20
-1008.574
 11
705.06342
 21
-1008.574
  0
LINE
  8
0
  6
CONTINUOUS
 62
     7
 10
707.06342
 20
-1006.574
 11
707.06342
 21
-1017.074
  0
LINE
  8
0
  6
CONTINUOUS
 62
     7
 10
705.06329
 20
-1008.5739
 11
707.06329
 21
-1006.5739
  0
LINE
  8
0
  6
CONTINUOUS
 62
     7
 10
705.06342
 20
-1008.574
 11
705.06342
 21
-1017.074
  0
LINE
  8
0
  6
CONTINUOUS
 62
     7
 10
712.96338
 20
-1017.074
 11
701.2605
 21
-1017.074
  0
LINE
  8
0
  6
CONTINUOUS
 62
     7
 10
705.15759
 20
-1019.324
 11
705.15759
 21
-1027.6841
  0
LINE
  8
0
  6
CONTINUOUS
 62
     7
 10
697.3634
 20
-1019.324
 11
697.3634
 21
-1022.8015
  0
LINE
  8
0
  6
CONTINUOUS
 62
     7
 10
712.96338
 20
-1006.574
 11
718.8634
 21
-1006.574
  0
LINE
  8
0
  6
CONTINUOUS
 62
     7
 10
712.96338
 20
-1008.574
 11
720.8634
 21
-1008.574
  0
LINE
  8
0
  6
CONTINUOUS
 62
     7
 10
718.8634
 20
-1006.574
 11
718.8634
 21
-1017.074
  0
LINE
  8
0
  6
CONTINUOUS
 62
     7
 10
720.86334
 20
-1008.574
 11
718.86328
 21
-1006.5739
  0
LINE
  8
0
  6
CONTINUOUS
 62
     7
 10
720.8634
 20
-1008.574
 11
720.8634
 21
-1017.074
  0
LINE
  8
0
  6
CONTINUOUS
 62
     7
 10
712.96338
 20
-1017.074
 11
724.66626
 21
-1017.074
  0
LINE
  8
0
  6
CONTINUOUS
 62
     7
 10
720.76917
 20
-1019.324
 11
720.76917
 21
-1030.324
  0
LINE
  8
0
  6
CONTINUOUS
 62
     7
 10
728.56342
 20
-1019.324
 11
728.56342
 21
-1030.324
  0
LINE
  8
0
  6
CONTINUOUS
 62
     7
 10
712.96338
 20
-1086.574
 11
731.46338
 21
-1086.574
  0
LINE
  8
0
  6
CONTINUOUS
 62
     7
 10
699.46338
 20
-1086.574
 11
699.46338
 21
-1086.7677
  0
LINE
  8
0
  6
CONTINUOUS
 62
     7
 10
720.8634
 20
-1050.9608
 11
720.8634
 21
-1068.187
  0
LINE
  8
0
  6
CONTINUOUS
 62
     7
 10
671.38782
 20
2.1237757
 11
671.38782
 21
-20.988209
  0
LINE
  8
0
  6
CONTINUOUS
 62
     7
 10
687.18781
 20
2.1237757
 11
687.18781
 21
-20.988209
  0
LINE
  8
0
  6
CONTINUOUS
 62
     7
 10
687.09357
 20
30.817791
 11
687.09357
 21
19.817791
  0
LINE
  8
0
  6
CONTINUOUS
 62
     7
 10
679.28778
 20
43.567791
 11
673.38782
 21
43.567791
  0
LINE
  8
0
  6
CONTINUOUS
 62
     7
 10
679.28778
 20
41.567791
 11
671.38782
 21
41.567791
  0
LINE
  8
0
  6
CONTINUOUS
 62
     7
 10
673.38782
 20
43.567791
 11
673.38782
 21
33.067791
  0
LINE
  8
0
  6
CONTINUOUS
 62
     7
 10
671.38782
 20
41.567814
 11
673.38782
 21
43.567818
  0
LINE
  8
0
  6
CONTINUOUS
 62
     7
 10
671.38782
 20
41.567791
 11
671.38782
 21
33.067791
  0
LINE
  8
0
  6
CONTINUOUS
 62
     7
 10
679.28778
 20
33.067791
 11
667.5849
 21
33.067791
  0
LINE
  8
0
  6
CONTINUOUS
 62
     7
 10
671.48199
 20
30.817791
 11
671.48199
 21
19.817791
  0
LINE
  8
0
  6
CONTINUOUS
 62
     7
 10
663.68781
 20
30.817791
 11
663.68781
 21
19.817791
  0
LINE
  8
0
  6
CONTINUOUS
 62
     7
 10
679.28778
 20
43.567791
 11
685.18781
 21
43.567791
  0
LINE
  8
0
  6
CONTINUOUS
 62
     7
 10
679.28778
 20
41.567791
 11
687.18781
 21
41.567791
  0
LINE
  8
0
  6
CONTINUOUS
 62
     7
 10
685.18781
 20
43.567791
 11
685.18781
 21
33.067791
  0
LINE
  8
0
  6
CONTINUOUS
 62
     7
 10
687.18781
 20
41.567814
 11
685.18781
 21
43.567818
  0
LINE
  8
0
  6
CONTINUOUS
 62
     7
 10
687.18781
 20
41.567791
 11
687.18781
 21
33.067791
  0
LINE
  8
0
  6
CONTINUOUS
 62
     7
 10
679.28778
 20
33.067791
 11
690.99072
 21
33.067791
  0
LINE
  8
0
  6
CONTINUOUS
 62
     7
 10
694.88782
 20
30.817791
 11
694.88782
 21
19.817791
  0
LINE
  8
0
  6
CONTINUOUS
 62
     7
 10
1084.58
 20
-1058.2919
 11
1084.58
 21
-1075.9087
  0
LINE
  8
0
  6
CONTINUOUS
 62
     7
 10
1084.4857
 20
-1026.8502
 11
1084.4857
 21
-1037.8502
  0
LINE
  8
0
  6
CONTINUOUS
 62
     7
 10
1076.6799
 20
-1014.1002
 11
1070.78
 21
-1014.1002
  0
LINE
  8
0
  6
CONTINUOUS
 62
     7
 10
1076.6799
 20
-1016.1002
 11
1068.78
 21
-1016.1002
  0
LINE
  8
0
  6
CONTINUOUS
 62
     7
 10
1070.78
 20
-1014.1002
 11
1070.78
 21
-1024.6002
  0
LINE
  8
0
  6
CONTINUOUS
 62
     7
 10
1068.7799
 20
-1016.1002
 11
1070.78
 21
-1014.1002
  0
LINE
  8
0
  6
CONTINUOUS
 62
     7
 10
1068.78
 20
-1016.1002
 11
1068.78
 21
-1024.6002
  0
LINE
  8
0
  6
CONTINUOUS
 62
     7
 10
1076.6799
 20
-1024.6002
 11
1064.9771
 21
-1024.6002
  0
LINE
  8
0
  6
CONTINUOUS
 62
     7
 10
1068.8741
 20
-1026.8502
 11
1068.8741
 21
-1034.4331
  0
LINE
  8
0
  6
CONTINUOUS
 62
     7
 10
1061.08
 20
-1026.8502
 11
1061.08
 21
-1028.7743
  0
LINE
  8
0
  6
CONTINUOUS
 62
     7
 10
1076.6799
 20
-1014.1002
 11
1082.58
 21
-1014.1002
  0
LINE
  8
0
  6
CONTINUOUS
 62
     7
 10
1076.6799
 20
-1016.1002
 11
1084.58
 21
-1016.1002
  0
LINE
  8
0
  6
CONTINUOUS
 62
     7
 10
1082.58
 20
-1014.1002
 11
1082.58
 21
-1024.6002
  0
LINE
  8
0
  6
CONTINUOUS
 62
     7
 10
1084.58
 20
-1016.1002
 11
1082.58
 21
-1014.1002
  0
LINE
  8
0
  6
CONTINUOUS
 62
     7
 10
1084.58
 20
-1016.1002
 11
1084.58
 21
-1024.6002
  0
LINE
  8
0
  6
CONTINUOUS
 62
     7
 10
1076.6799
 20
-1024.6002
 11
1088.3829
 21
-1024.6002
  0
LINE
  8
0
  6
CONTINUOUS
 62
     7
 10
1092.28
 20
-1026.8502
 11
1092.28
 21
-1037.8502
  0
LINE
  8
0
  6
CONTINUOUS
 62
     7
 10
829.28778
 20
58.567783
 11
822.28778
 21
58.567783
  0
LINE
  8
0
  6
CONTINUOUS
 62
     7
 10
829.28778
 20
56.067783
 11
819.78778
 21
56.067783
  0
LINE
  8
0
  6
CONTINUOUS
 62
     7
 10
819.78778
 20
56.067783
 11
819.78778
 21
49.26778
  0
LINE
  8
0
  6
CONTINUOUS
 62
     7
 10
822.28778
 20
58.567783
 11
822.28778
 21
49.26778
  0
LINE
  8
0
  6
CONTINUOUS
 62
     7
 10
819.78784
 20
56.067776
 11
822.28778
 21
58.567768
  0
LINE
  8
0
  6
CONTINUOUS
 62
     7
 10
829.28778
 20
49.26778
 11
815.52771
 21
49.26778
  0
LINE
  8
0
  6
CONTINUOUS
 62
     7
 10
810.93781
 20
46.617786
 11
810.93781
 21
33.217793
  0
LINE
  8
0
  6
CONTINUOUS
 62
     7
 10
820.11768
 20
46.617786
 11
820.11768
 21
33.217793
  0
LINE
  8
0
  6
CONTINUOUS
 62
     7
 10
829.28778
 20
58.567783
 11
836.28778
 21
58.567783
  0
LINE
  8
0
  6
CONTINUOUS
 62
     7
 10
829.28778
 20
56.067783
 11
838.78778
 21
56.067783
  0
LINE
  8
0
  6
CONTINUOUS
 62
     7
 10
838.78778
 20
56.067783
 11
838.78778
 21
49.26778
  0
LINE
  8
0
  6
CONTINUOUS
 62
     7
 10
836.28778
 20
58.567783
 11
836.28778
 21
49.26778
  0
LINE
  8
0
  6
CONTINUOUS
 62
     7
 10
838.78784
 20
56.067776
 11
836.28784
 21
58.56781
  0
LINE
  8
0
  6
CONTINUOUS
 62
     7
 10
829.28778
 20
49.26778
 11
843.04791
 21
49.26778
  0
LINE
  8
0
  6
CONTINUOUS
 62
     7
 10
847.63782
 20
46.617786
 11
847.63782
 21
33.217793
  0
LINE
  8
0
  6
CONTINUOUS
 62
     7
 10
838.45795
 20
46.617786
 11
838.45795
 21
33.217793
  0
LINE
  8
0
  6
CONTINUOUS
 62
     7
 10
819.78778
 20
11.983906
 11
819.78778
 21
-30.848316
  0
LINE
  8
0
  6
CONTINUOUS
 62
     7
 10
838.78778
 20
11.983906
 11
838.78778
 21
-30.848316
  0
LINE
  8
0
  6
CONTINUOUS
 62
     7
 10
864.83972
 20
-1295.1331
 11
857.83972
 21
-1295.1331
  0
LINE
  8
0
  6
CONTINUOUS
 62
     7
 10
864.83972
 20
-1297.6331
 11
855.33972
 21
-1297.6331
  0
LINE
  8
0
  6
CONTINUOUS
 62
     7
 10
855.33972
 20
-1297.6331
 11
855.33972
 21
-1304.433
  0
LINE
  8
0
  6
CONTINUOUS
 62
     7
 10
857.83972
 20
-1295.1331
 11
857.83972
 21
-1304.433
  0
LINE
  8
0
  6
CONTINUOUS
 62
     7
 10
855.33972
 20
-1297.6329
 11
857.83972
 21
-1295.1329
  0
LINE
  8
0
  6
CONTINUOUS
 62
     7
 10
864.83972
 20
-1304.433
 11
851.07965
 21
-1304.433
  0
LINE
  8
0
  6
CONTINUOUS
 62
     7
 10
846.48975
 20
-1307.083
 11
846.48975
 21
-1313.3539
  0
LINE
  8
0
  6
CONTINUOUS
 62
     7
 10
855.66962
 20
-1307.083
 11
855.66962
 21
-1320.0784
  0
LINE
  8
0
  6
CONTINUOUS
 62
     7
 10
864.83972
 20
-1295.1331
 11
871.83972
 21
-1295.1331
  0
LINE
  8
0
  6
CONTINUOUS
 62
     7
 10
864.83972
 20
-1297.6331
 11
874.33972
 21
-1297.6331
  0
LINE
  8
0
  6
CONTINUOUS
 62
     7
 10
874.33972
 20
-1297.6331
 11
874.33972
 21
-1304.433
  0
LINE
  8
0
  6
CONTINUOUS
 62
     7
 10
871.83972
 20
-1295.1331
 11
871.83972
 21
-1304.433
  0
LINE
  8
0
  6
CONTINUOUS
 62
     7
 10
874.33978
 20
-1297.6329
 11
871.83978
 21
-1295.1329
  0
LINE
  8
0
  6
CONTINUOUS
 62
     7
 10
864.83972
 20
-1304.433
 11
878.59985
 21
-1304.433
  0
LINE
  8
0
  6
CONTINUOUS
 62
     7
 10
883.18976
 20
-1307.083
 11
883.18976
 21
-1320.483
  0
LINE
  8
0
  6
CONTINUOUS
 62
     7
 10
874.00989
 20
-1307.083
 11
874.00989
 21
-1320.483
  0
LINE
  8
0
  6
CONTINUOUS
 62
     7
 10
874.33972
 20
-1347.8231
 11
874.33972
 21
-1378.443
  0
LINE
  8
0
  6
CONTINUOUS
 62
     7
 10
979.28778
 20
71.567787
 11
971.18781
 21
71.567787
  0
LINE
  8
0
  6
CONTINUOUS
 62
     7
 10
979.28778
 20
68.567787
 11
968.18781
 21
68.567787
  0
LINE
  8
0
  6
CONTINUOUS
 62
     7
 10
971.18781
 20
71.567787
 11
971.18781
 21
59.367775
  0
LINE
  8
0
  6
CONTINUOUS
 62
     7
 10
968.18781
 20
68.567825
 11
971.18774
 21
71.567802
  0
LINE
  8
0
  6
CONTINUOUS
 62
     7
 10
968.18781
 20
68.567787
 11
968.18781
 21
59.367775
  0
LINE
  8
0
  6
CONTINUOUS
 62
     7
 10
979.28778
 20
59.367775
 11
963.45612
 21
59.367775
  0
LINE
  8
0
  6
CONTINUOUS
 62
     7
 10
968.72443
 20
56.326118
 11
968.72443
 21
40.609444
  0
LINE
  8
0
  6
CONTINUOUS
 62
     7
 10
958.18781
 20
56.326118
 11
958.18781
 21
40.609444
  0
LINE
  8
0
  6
CONTINUOUS
 62
     7
 10
979.28778
 20
71.567787
 11
987.38782
 21
71.567787
  0
LINE
  8
0
  6
CONTINUOUS
 62
     7
 10
979.28778
 20
68.567787
 11
990.38782
 21
68.567787
  0
LINE
  8
0
  6
CONTINUOUS
 62
     7
 10
987.38782
 20
71.567787
 11
987.38782
 21
59.367775
  0
LINE
  8
0
  6
CONTINUOUS
 62
     7
 10
990.38776
 20
68.567825
 11
987.38776
 21
71.567802
  0
LINE
  8
0
  6
CONTINUOUS
 62
     7
 10
990.38782
 20
68.567787
 11
990.38782
 21
59.367775
  0
LINE
  8
0
  6
CONTINUOUS
 62
     7
 10
979.28778
 20
59.367775
 11
995.11951
 21
59.367775
  0
LINE
  8
0
  6
CONTINUOUS
 62
     7
 10
989.85114
 20
56.326118
 11
989.85114
 21
40.609444
  0
LINE
  8
0
  6
CONTINUOUS
 62
     7
 10
1000.3878
 20
56.326118
 11
1000.3878
 21
40.609444
  0
LINE
  8
0
  6
CONTINUOUS
 62
     7
 10
968.18781
 20
16.639477
 11
968.18781
 21
-35.503918
  0
LINE
  8
0
  6
CONTINUOUS
 62
     7
 10
990.38782
 20
16.639477
 11
990.38782
 21
-35.503918
  0
LINE
  8
0
  6
CONTINUOUS
 62
     7
 10
131.9334
 20
-1723.6735
 11
123.83341
 21
-1723.6735
  0
LINE
  8
0
  6
CONTINUOUS
 62
     7
 10
131.9334
 20
-1726.6735
 11
120.83341
 21
-1726.6735
  0
LINE
  8
0
  6
CONTINUOUS
 62
     7
 10
123.83341
 20
-1723.6735
 11
123.83341
 21
-1735.8734
  0
LINE
  8
0
  6
CONTINUOUS
 62
     7
 10
120.83334
 20
-1726.6733
 11
123.83337
 21
-1723.6733
  0
LINE
  8
0
  6
CONTINUOUS
 62
     7
 10
120.83341
 20
-1726.6735
 11
120.83341
 21
-1735.8734
  0
LINE
  8
0
  6
CONTINUOUS
 62
     7
 10
131.9334
 20
-1735.8734
 11
116.10172
 21
-1735.8734
  0
LINE
  8
0
  6
CONTINUOUS
 62
     7
 10
121.37003
 20
-1738.915
 11
121.37003
 21
-1754.6317
  0
LINE
  8
0
  6
CONTINUOUS
 62
     7
 10
110.83341
 20
-1738.915
 11
110.83341
 21
-1754.6317
  0
LINE
  8
0
  6
CONTINUOUS
 62
     7
 10
131.9334
 20
-1723.6735
 11
140.03343
 21
-1723.6735
  0
LINE
  8
0
  6
CONTINUOUS
 62
     7
 10
131.9334
 20
-1726.6735
 11
143.03343
 21
-1726.6735
  0
LINE
  8
0
  6
CONTINUOUS
 62
     7
 10
140.03343
 20
-1723.6735
 11
140.03343
 21
-1735.8734
  0
LINE
  8
0
  6
CONTINUOUS
 62
     7
 10
143.03333
 20
-1726.6733
 11
140.03339
 21
-1723.6735
  0
LINE
  8
0
  6
CONTINUOUS
 62
     7
 10
143.03343
 20
-1726.6735
 11
143.03343
 21
-1735.8734
  0
LINE
  8
0
  6
CONTINUOUS
 62
     7
 10
131.9334
 20
-1735.8734
 11
147.76512
 21
-1735.8734
  0
LINE
  8
0
  6
CONTINUOUS
 62
     7
 10
142.49675
 20
-1738.915
 11
142.49675
 21
-1754.6317
  0
LINE
  8
0
  6
CONTINUOUS
 62
     7
 10
153.03343
 20
-1738.915
 11
153.03343
 21
-1754.6317
  0
LINE
  8
0
  6
CONTINUOUS
 62
     7
 10
143.03343
 20
-1782.1881
 11
143.03343
 21
-1827.1587
  0
LINE
  8
0
  6
CONTINUOUS
 62
     7
 10
1118.1877
 20
16.639488
 11
1118.1877
 21
-35.503895
  0
LINE
  8
0
  6
CONTINUOUS
 62
     7
 10
1140.3878
 20
16.639488
 11
1140.3878
 21
-35.503895
  0
LINE
  8
0
  6
CONTINUOUS
 62
     7
 10
1108.1877
 20
56.326122
 11
1108.1877
 21
40.609444
  0
LINE
  8
0
  6
CONTINUOUS
 62
     7
 10
1118.7245
 20
56.326122
 11
1118.7245
 21
40.609444
  0
LINE
  8
0
  6
CONTINUOUS
 62
     7
 10
1129.2878
 20
59.367775
 11
1113.4561
 21
59.367775
  0
LINE
  8
0
  6
CONTINUOUS
 62
     7
 10
1139.8512
 20
56.326122
 11
1139.8512
 21
40.609444
  0
LINE
  8
0
  6
CONTINUOUS
 62
     7
 10
1150.3878
 20
56.326122
 11
1150.3878
 21
40.609444
  0
LINE
  8
0
  6
CONTINUOUS
 62
     7
 10
1129.2878
 20
59.367775
 11
1145.1195
 21
59.367775
  0
LINE
  8
0
  6
CONTINUOUS
 62
     7
 10
1121.1877
 20
71.567787
 11
1121.1877
 21
59.367775
  0
LINE
  8
0
  6
CONTINUOUS
 62
     7
 10
1118.1877
 20
68.567787
 11
1118.1877
 21
59.367775
  0
LINE
  8
0
  6
CONTINUOUS
 62
     7
 10
1129.2878
 20
68.567787
 11
1118.1877
 21
68.567787
  0
LINE
  8
0
  6
CONTINUOUS
 62
     7
 10
1129.2878
 20
71.567787
 11
1121.1877
 21
71.567787
  0
LINE
  8
0
  6
CONTINUOUS
 62
     7
 10
1118.1877
 20
68.56778
 11
1121.1877
 21
71.567757
  0
LINE
  8
0
  6
CONTINUOUS
 62
     7
 10
1129.2878
 20
71.567787
 11
1137.3878
 21
71.567787
  0
LINE
  8
0
  6
CONTINUOUS
 62
     7
 10
1129.2878
 20
68.567787
 11
1140.3878
 21
68.567787
  0
LINE
  8
0
  6
CONTINUOUS
 62
     7
 10
1140.3877
 20
68.56778
 11
1137.3878
 21
71.567757
  0
LINE
  8
0
  6
CONTINUOUS
 62
     7
 10
1137.3878
 20
71.567787
 11
1137.3878
 21
59.367775
  0
LINE
  8
0
  6
CONTINUOUS
 62
     7
 10
1140.3878
 20
68.567787
 11
1140.3878
 21
59.367775
  0
LINE
  8
0
  6
CONTINUOUS
 62
     7
 10
1004.9479
 20
-1784.697
 11
1004.9479
 21
-1829.6674
  0
LINE
  8
0
  6
CONTINUOUS
 62
     7
 10
972.7478
 20
-1741.4238
 11
972.7478
 21
-1754.4843
  0
LINE
  8
0
  6
CONTINUOUS
 62
     7
 10
983.28455
 20
-1741.4238
 11
983.28455
 21
-1757.1405
  0
LINE
  8
0
  6
CONTINUOUS
 62
     7
 10
993.8479
 20
-1738.3822
 11
978.01611
 21
-1738.3822
  0
LINE
  8
0
  6
CONTINUOUS
 62
     7
 10
1004.4113
 20
-1741.4238
 11
1004.4113
 21
-1757.1405
  0
LINE
  8
0
  6
CONTINUOUS
 62
     7
 10
1014.9479
 20
-1741.4238
 11
1014.9479
 21
-1757.1405
  0
LINE
  8
0
  6
CONTINUOUS
 62
     7
 10
993.8479
 20
-1738.3822
 11
1009.6796
 21
-1738.3822
  0
LINE
  8
0
  6
CONTINUOUS
 62
     7
 10
985.7478
 20
-1726.1821
 11
985.7478
 21
-1738.3822
  0
LINE
  8
0
  6
CONTINUOUS
 62
     7
 10
982.7478
 20
-1729.1821
 11
982.7478
 21
-1738.3822
  0
LINE
  8
0
  6
CONTINUOUS
 62
     7
 10
993.8479
 20
-1729.1821
 11
982.7478
 21
-1729.1821
  0
LINE
  8
0
  6
CONTINUOUS
 62
     7
 10
993.8479
 20
-1726.1821
 11
985.7478
 21
-1726.1821
  0
LINE
  8
0
  6
CONTINUOUS
 62
     7
 10
982.74786
 20
-1729.1823
 11
985.74786
 21
-1726.1823
  0
LINE
  8
0
  6
CONTINUOUS
 62
     7
 10
993.8479
 20
-1726.1821
 11
1001.9479
 21
-1726.1821
  0
LINE
  8
0
  6
CONTINUOUS
 62
     7
 10
993.8479
 20
-1729.1821
 11
1004.9479
 21
-1729.1821
  0
LINE
  8
0
  6
CONTINUOUS
 62
     7
 10
1004.9479
 20
-1729.1823
 11
1001.9478
 21
-1726.1821
  0
LINE
  8
0
  6
CONTINUOUS
 62
     7
 10
1001.9479
 20
-1726.1821
 11
1001.9479
 21
-1738.3822
  0
LINE
  8
0
  6
CONTINUOUS
 62
     7
 10
1004.9479
 20
-1729.1821
 11
1004.9479
 21
-1738.3822
  0
ARC
  8
0
  6
CONTINUOUS
 62
     7
 10
-330.83951
 20
15.567791
 40
4
 50
90.000003
 51
142.65065
  0
ARC
  8
0
  6
CONTINUOUS
 62
     7
 10
-262.71378
 20
-1083.6177
 40
11
 50
232.53091
 51
270
  0
ARC
  8
0
  6
CONTINUOUS
 62
     7
 10
-266.3638
 20
-1088.3798
 40
5
 50
186.87626
 51
232.53093
  0
ARC
  8
0
  6
CONTINUOUS
 62
     7
 10
-329.81863
 20
9.567791
 40
3
 50
179.99999
 51
270
  0
ARC
  8
0
  6
CONTINUOUS
 62
     7
 10
-330.83951
 20
-34.432209
 40
4
 50
217.34935
 51
270
  0
ARC
  8
0
  6
CONTINUOUS
 62
     7
 10
-329.81863
 20
-28.432209
 40
3
 50
90.000003
 51
180.00001
  0
ARC
  8
0
  6
CONTINUOUS
 62
     7
 10
-304.79776
 20
15.567791
 40
4
 50
37.349356
 51
89.999996
  0
ARC
  8
0
  6
CONTINUOUS
 62
     7
 10
-262.71378
 20
-1083.6177
 40
11
 50
270
 51
307.46909
  0
ARC
  8
0
  6
CONTINUOUS
 62
     7
 10
-259.06375
 20
-1088.3798
 40
5
 50
307.46908
 51
359.99999
  0
ARC
  8
0
  6
CONTINUOUS
 62
     7
 10
-305.81863
 20
9.567791
 40
3
 50
270
 51
5.0089561E-006
  0
ARC
  8
0
  6
CONTINUOUS
 62
     7
 10
-304.79776
 20
-34.432209
 40
4
 50
270
 51
322.65064
  0
ARC
  8
0
  6
CONTINUOUS
 62
     7
 10
-305.81863
 20
-28.432209
 40
3
 50
359.99999
 51
89.999996
  0
ARC
  8
0
  6
CONTINUOUS
 62
     7
 10
-98.662361
 20
-1081.1089
 40
11
 50
232.53091
 51
270
  0
ARC
  8
0
  6
CONTINUOUS
 62
     7
 10
-102.31239
 20
-1085.8711
 40
5
 50
196.76758
 51
232.53087
  0
ARC
  8
0
  6
CONTINUOUS
 62
     7
 10
-235.77731
 20
18.817791
 40
5
 50
90.000003
 51
140.04246
  0
ARC
  8
0
  6
CONTINUOUS
 62
     7
 10
-235.11108
 20
9.567791
 40
3
 50
179.99999
 51
270
  0
ARC
  8
0
  6
CONTINUOUS
 62
     7
 10
-235.77731
 20
-37.682209
 40
5
 50
219.95754
 51
270
  0
ARC
  8
0
  6
CONTINUOUS
 62
     7
 10
-235.11108
 20
-28.432209
 40
3
 50
90.000003
 51
180.00001
  0
ARC
  8
0
  6
CONTINUOUS
 62
     7
 10
-98.662361
 20
-1081.1089
 40
11
 50
270
 51
307.46909
  0
ARC
  8
0
  6
CONTINUOUS
 62
     7
 10
-95.012398
 20
-1085.8711
 40
5
 50
307.46907
 51
359.99999
  0
ARC
  8
0
  6
CONTINUOUS
 62
     7
 10
-210.4449
 20
18.817791
 40
5
 50
39.957546
 51
89.999996
  0
ARC
  8
0
  6
CONTINUOUS
 62
     7
 10
-211.1111
 20
9.567791
 40
3
 50
270
 51
5.0089561E-006
  0
ARC
  8
0
  6
CONTINUOUS
 62
     7
 10
-210.4449
 20
-37.682209
 40
5
 50
270
 51
320.04245
  0
ARC
  8
0
  6
CONTINUOUS
 62
     7
 10
-211.1111
 20
-28.432209
 40
3
 50
359.99999
 51
89.999996
  0
ARC
  8
0
  6
CONTINUOUS
 62
     7
 10
253.02797
 20
-1081.1089
 40
11
 50
232.53091
 51
270
  0
ARC
  8
0
  6
CONTINUOUS
 62
     7
 10
249.37794
 20
-1085.8711
 40
5
 50
212.1437
 51
232.53093
  0
ARC
  8
0
  6
CONTINUOUS
 62
     7
 10
-43.615318
 20
11.567791
 40
5
 50
179.99999
 51
270
  0
ARC
  8
0
  6
CONTINUOUS
 62
     7
 10
-43.615318
 20
-30.432209
 40
5
 50
90.000003
 51
180.00001
  0
ARC
  8
0
  6
CONTINUOUS
 62
     7
 10
-45.527611
 20
26.567791
 40
6
 50
90.000003
 51
144.46233
  0
ARC
  8
0
  6
CONTINUOUS
 62
     7
 10
-45.527611
 20
-45.432209
 40
6
 50
215.53767
 51
270
  0
ARC
  8
0
  6
CONTINUOUS
 62
     7
 10
253.02797
 20
-1081.1089
 40
11
 50
270
 51
307.46909
  0
ARC
  8
0
  6
CONTINUOUS
 62
     7
 10
256.67792
 20
-1085.8711
 40
5
 50
307.46907
 51
359.99999
  0
ARC
  8
0
  6
CONTINUOUS
 62
     7
 10
-19.61532
 20
11.567791
 40
5
 50
270
 51
5.0089561E-006
  0
ARC
  8
0
  6
CONTINUOUS
 62
     7
 10
-19.61532
 20
-30.432209
 40
5
 50
359.99999
 51
89.999996
  0
ARC
  8
0
  6
CONTINUOUS
 62
     7
 10
-17.703028
 20
26.567791
 40
6
 50
35.537676
 51
89.999996
  0
ARC
  8
0
  6
CONTINUOUS
 62
     7
 10
-17.703028
 20
-45.432209
 40
6
 50
270
 51
324.46232
  0
ARC
  8
0
  6
CONTINUOUS
 62
     7
 10
67.406548
 20
-1078.6002
 40
11
 50
232.53091
 51
270
  0
ARC
  8
0
  6
CONTINUOUS
 62
     7
 10
63.75655
 20
-1083.3623
 40
5
 50
202.69447
 51
232.53093
  0
ARC
  8
0
  6
CONTINUOUS
 62
     7
 10
-135.96643
 20
21.817791
 40
5
 50
90.000003
 51
140.04246
  0
ARC
  8
0
  6
CONTINUOUS
 62
     7
 10
-135.30023
 20
9.567791
 40
3
 50
179.99999
 51
270
  0
ARC
  8
0
  6
CONTINUOUS
 62
     7
 10
-135.96643
 20
-40.682209
 40
5
 50
219.95754
 51
270
  0
ARC
  8
0
  6
CONTINUOUS
 62
     7
 10
-135.30023
 20
-28.432209
 40
3
 50
90.000003
 51
180.00001
  0
ARC
  8
0
  6
CONTINUOUS
 62
     7
 10
67.406548
 20
-1078.6002
 40
11
 50
270
 51
307.46909
  0
ARC
  8
0
  6
CONTINUOUS
 62
     7
 10
71.056572
 20
-1083.3623
 40
5
 50
307.46907
 51
359.99999
  0
ARC
  8
0
  6
CONTINUOUS
 62
     7
 10
-110.63399
 20
21.817791
 40
5
 50
39.957546
 51
89.999996
  0
ARC
  8
0
  6
CONTINUOUS
 62
     7
 10
-111.30022
 20
9.567791
 40
3
 50
270
 51
8.6514222E-006
  0
ARC
  8
0
  6
CONTINUOUS
 62
     7
 10
-110.63399
 20
-40.682209
 40
5
 50
270
 51
320.04245
  0
ARC
  8
0
  6
CONTINUOUS
 62
     7
 10
-111.30022
 20
-28.432209
 40
3
 50
359.99999
 51
89.999996
  0
ARC
  8
0
  6
CONTINUOUS
 62
     7
 10
-230.9375
 20
-1290.3267
 40
15
 50
242.33599
 51
270
  0
ARC
  8
0
  6
CONTINUOUS
 62
     7
 10
-234.1875
 20
-1296.5265
 40
8
 50
211.01699
 51
242.33599
  0
ARC
  8
0
  6
CONTINUOUS
 62
     7
 10
70.599686
 20
34.567791
 40
6
 50
90.000003
 51
138.2397
  0
ARC
  8
0
  6
CONTINUOUS
 62
     7
 10
70.599686
 20
-53.432209
 40
6
 50
221.7603
 51
270
  0
ARC
  8
0
  6
CONTINUOUS
 62
     7
 10
73.913254
 20
-36.432209
 40
6
 50
90.000003
 51
180.00001
  0
ARC
  8
0
  6
CONTINUOUS
 62
     7
 10
73.913254
 20
17.567791
 40
6
 50
179.99999
 51
270
  0
ARC
  8
0
  6
CONTINUOUS
 62
     7
 10
-230.9375
 20
-1290.3267
 40
15
 50
270
 51
297.66401
  0
ARC
  8
0
  6
CONTINUOUS
 62
     7
 10
-227.6875
 20
-1296.5265
 40
8
 50
297.66401
 51
5.0089553E-006
  0
ARC
  8
0
  6
CONTINUOUS
 62
     7
 10
99.226822
 20
34.567791
 40
6
 50
41.760306
 51
89.999996
  0
ARC
  8
0
  6
CONTINUOUS
 62
     7
 10
99.226822
 20
-53.432209
 40
6
 50
270
 51
318.23969
  0
ARC
  8
0
  6
CONTINUOUS
 62
     7
 10
95.913254
 20
-36.432209
 40
6
 50
359.99999
 51
89.999996
  0
ARC
  8
0
  6
CONTINUOUS
 62
     7
 10
95.913254
 20
17.567791
 40
6
 50
270
 51
5.0089561E-006
  0
ARC
  8
0
  6
CONTINUOUS
 62
     7
 10
-7.1847982
 20
-1285.3092
 40
15
 50
242.33599
 51
270
  0
ARC
  8
0
  6
CONTINUOUS
 62
     7
 10
-10.434798
 20
-1291.5089
 40
8
 50
213.01108
 51
242.33599
  0
ARC
  8
0
  6
CONTINUOUS
 62
     7
 10
180.94287
 20
41.567791
 40
6
 50
90.000003
 51
146.6593
  0
ARC
  8
0
  6
CONTINUOUS
 62
     7
 10
184.70819
 20
18.567791
 40
7
 50
179.99999
 51
270
  0
ARC
  8
0
  6
CONTINUOUS
 62
     7
 10
180.94287
 20
-60.432194
 40
6
 50
213.3407
 51
270
  0
ARC
  8
0
  6
CONTINUOUS
 62
     7
 10
184.70819
 20
-37.432209
 40
7
 50
90.000003
 51
180.00001
  0
ARC
  8
0
  6
CONTINUOUS
 62
     7
 10
-7.1847982
 20
-1285.3092
 40
15
 50
270
 51
297.66401
  0
ARC
  8
0
  6
CONTINUOUS
 62
     7
 10
-3.9347985
 20
-1291.5089
 40
8
 50
297.66401
 51
8.6514214E-006
  0
ARC
  8
0
  6
CONTINUOUS
 62
     7
 10
208.47351
 20
41.567791
 40
6
 50
33.340704
 51
89.999996
  0
ARC
  8
0
  6
CONTINUOUS
 62
     7
 10
204.70819
 20
18.567791
 40
7
 50
270
 51
5.0089561E-006
  0
ARC
  8
0
  6
CONTINUOUS
 62
     7
 10
208.47351
 20
-60.432194
 40
6
 50
270
 51
326.6593
  0
ARC
  8
0
  6
CONTINUOUS
 62
     7
 10
204.70819
 20
-37.432209
 40
7
 50
359.99999
 51
89.999996
  0
ARC
  8
0
  6
CONTINUOUS
 62
     7
 10
279.81107
 20
56.567791
 40
7
 50
90.000003
 51
150.75117
  0
ARC
  8
0
  6
CONTINUOUS
 62
     7
 10
259.69043
 20
-1293.5002
 40
8
 50
214.04738
 51
242.33599
  0
ARC
  8
0
  6
CONTINUOUS
 62
     7
 10
262.94043
 20
-1287.3004
 40
15
 50
242.33599
 51
270
  0
ARC
  8
0
  6
CONTINUOUS
 62
     7
 10
283.70819
 20
24.067791
 40
8
 50
179.99999
 51
270
  0
ARC
  8
0
  6
CONTINUOUS
 62
     7
 10
283.70819
 20
-42.932209
 40
8
 50
90.000003
 51
180.00001
  0
ARC
  8
0
  6
CONTINUOUS
 62
     7
 10
279.81107
 20
-75.432205
 40
7
 50
209.24883
 51
270
  0
ARC
  8
0
  6
CONTINUOUS
 62
     7
 10
309.60532
 20
56.567791
 40
7
 50
29.248834
 51
89.999996
  0
ARC
  8
0
  6
CONTINUOUS
 62
     7
 10
266.19043
 20
-1293.5002
 40
8
 50
297.66401
 51
8.6514214E-006
  0
ARC
  8
0
  6
CONTINUOUS
 62
     7
 10
262.94043
 20
-1287.3004
 40
15
 50
270
 51
297.66401
  0
ARC
  8
0
  6
CONTINUOUS
 62
     7
 10
305.70819
 20
24.067791
 40
8
 50
270
 51
5.0089561E-006
  0
ARC
  8
0
  6
CONTINUOUS
 62
     7
 10
305.70819
 20
-42.932209
 40
8
 50
359.99999
 51
89.999996
  0
ARC
  8
0
  6
CONTINUOUS
 62
     7
 10
309.60532
 20
-75.432205
 40
7
 50
270
 51
330.75117
  0
ARC
  8
0
  6
CONTINUOUS
 62
     7
 10
513.30133
 20
70.317795
 40
7
 50
90.000003
 51
149.65675
  0
ARC
  8
0
  6
CONTINUOUS
 62
     7
 10
517.28778
 20
25.567791
 40
8
 50
179.99999
 51
270
  0
ARC
  8
0
  6
CONTINUOUS
 62
     7
 10
507.46335
 20
-1086.7677
 40
10
 50
179.99999
 51
244.05553
  0
ARC
  8
0
  6
CONTINUOUS
 62
     7
 10
510.96335
 20
-1079.574
 40
18
 50
244.05552
 51
270
  0
ARC
  8
0
  6
CONTINUOUS
 62
     7
 10
517.28778
 20
-44.432209
 40
8
 50
90.000003
 51
180.00001
  0
ARC
  8
0
  6
CONTINUOUS
 62
     7
 10
513.30133
 20
-89.18222
 40
7
 50
210.34325
 51
270
  0
ARC
  8
0
  6
CONTINUOUS
 62
     7
 10
545.27423
 20
70.317795
 40
7
 50
30.343249
 51
89.999996
  0
ARC
  8
0
  6
CONTINUOUS
 62
     7
 10
541.28778
 20
25.567791
 40
8
 50
270
 51
5.0089561E-006
  0
ARC
  8
0
  6
CONTINUOUS
 62
     7
 10
514.46338
 20
-1086.7677
 40
10
 50
295.94448
 51
318.18262
  0
ARC
  8
0
  6
CONTINUOUS
 62
     7
 10
510.96335
 20
-1079.574
 40
18
 50
270
 51
295.94448
  0
ARC
  8
0
  6
CONTINUOUS
 62
     7
 10
541.28778
 20
-44.432209
 40
8
 50
359.99999
 51
89.999996
  0
ARC
  8
0
  6
CONTINUOUS
 62
     7
 10
545.27423
 20
-89.18222
 40
7
 50
270
 51
329.65675
  0
ARC
  8
0
  6
CONTINUOUS
 62
     7
 10
844.67993
 20
-1087.1002
 40
18
 50
244.05552
 51
270
  0
ARC
  8
0
  6
CONTINUOUS
 62
     7
 10
841.17993
 20
-1094.2939
 40
10
 50
179.99999
 51
244.05553
  0
ARC
  8
0
  6
CONTINUOUS
 62
     7
 10
663.2511
 20
83.567795
 40
7
 50
90.000003
 51
149.03624
  0
ARC
  8
0
  6
CONTINUOUS
 62
     7
 10
667.28778
 20
25.567791
 40
8
 50
179.99999
 51
270
  0
ARC
  8
0
  6
CONTINUOUS
 62
     7
 10
667.28778
 20
-44.432224
 40
8
 50
90.000003
 51
180.00001
  0
ARC
  8
0
  6
CONTINUOUS
 62
     7
 10
663.2511
 20
-102.43222
 40
7
 50
210.96376
 51
270
  0
ARC
  8
0
  6
CONTINUOUS
 62
     7
 10
844.67993
 20
-1087.1002
 40
18
 50
270
 51
295.94448
  0
ARC
  8
0
  6
CONTINUOUS
 62
     7
 10
848.17993
 20
-1094.2939
 40
10
 50
295.94447
 51
313.06928
  0
ARC
  8
0
  6
CONTINUOUS
 62
     7
 10
695.32446
 20
83.567795
 40
7
 50
30.963758
 51
89.999996
  0
ARC
  8
0
  6
CONTINUOUS
 62
     7
 10
691.28784
 20
25.567791
 40
8
 50
270
 51
5.0089561E-006
  0
ARC
  8
0
  6
CONTINUOUS
 62
     7
 10
691.28784
 20
-44.432224
 40
8
 50
359.99999
 51
89.999996
  0
ARC
  8
0
  6
CONTINUOUS
 62
     7
 10
695.32446
 20
-102.43222
 40
7
 50
270
 51
329.03624
  0
ARC
  8
0
  6
CONTINUOUS
 62
     7
 10
809.61401
 20
110.5678
 40
7
 50
90.000003
 51
153.43495
  0
ARC
  8
0
  6
CONTINUOUS
 62
     7
 10
574.83966
 20
-1390.1329
 40
25
 50
244.32071
 51
270
  0
ARC
  8
0
  6
CONTINUOUS
 62
     7
 10
568.33966
 20
-1403.6515
 40
10
 50
179.99999
 51
244.3207
  0
ARC
  8
0
  6
CONTINUOUS
 62
     7
 10
810.28778
 20
35.567783
 40
5
 50
179.99999
 51
270
  0
ARC
  8
0
  6
CONTINUOUS
 62
     7
 10
809.61401
 20
-129.43221
 40
7
 50
206.56505
 51
270
  0
ARC
  8
0
  6
CONTINUOUS
 62
     7
 10
810.28778
 20
-54.432209
 40
5
 50
90.000003
 51
180.00001
  0
ARC
  8
0
  6
CONTINUOUS
 62
     7
 10
848.96161
 20
110.5678
 40
7
 50
26.565046
 51
89.999996
  0
ARC
  8
0
  6
CONTINUOUS
 62
     7
 10
574.83966
 20
-1390.1329
 40
25
 50
270
 51
295.6793
  0
ARC
  8
0
  6
CONTINUOUS
 62
     7
 10
581.33966
 20
-1403.6515
 40
10
 50
295.6793
 51
321.09314
  0
ARC
  8
0
  6
CONTINUOUS
 62
     7
 10
848.28784
 20
35.567783
 40
5
 50
270
 51
5.0089561E-006
  0
ARC
  8
0
  6
CONTINUOUS
 62
     7
 10
848.96161
 20
-129.43221
 40
7
 50
270
 51
333.43495
  0
ARC
  8
0
  6
CONTINUOUS
 62
     7
 10
848.28784
 20
-54.432209
 40
5
 50
359.99999
 51
89.999996
  0
ARC
  8
0
  6
CONTINUOUS
 62
     7
 10
-222.56664
 20
-1851.585
 40
11.5
 50
180.44076
 51
246.08347
  0
ARC
  8
0
  6
CONTINUOUS
 62
     7
 10
-215.06664
 20
-1834.6735
 40
30
 50
246.08347
 51
270
  0
ARC
  8
0
  6
CONTINUOUS
 62
     7
 10
965.28778
 20
112.63132
 40
4
 50
179.99999
 51
270
  0
ARC
  8
0
  6
CONTINUOUS
 62
     7
 10
965.28778
 20
99.008888
 40
4
 50
90.000003
 51
180.00001
  0
ARC
  8
0
  6
CONTINUOUS
 62
     7
 10
965.28778
 20
146.02406
 40
4
 50
179.99999
 51
270
  0
ARC
  8
0
  6
CONTINUOUS
 62
     7
 10
965.28778
 20
136.11043
 40
4
 50
90.000003
 51
180.00001
  0
ARC
  8
0
  6
CONTINUOUS
 62
     7
 10
959.28778
 20
42.567787
 40
5
 50
179.99999
 51
270
  0
ARC
  8
0
  6
CONTINUOUS
 62
     7
 10
959.28778
 20
-61.432217
 40
5
 50
90.000003
 51
180.00001
  0
ARC
  8
0
  6
CONTINUOUS
 62
     7
 10
965.28778
 20
-117.8733
 40
4
 50
179.99999
 51
270
  0
ARC
  8
0
  6
CONTINUOUS
 62
     7
 10
965.28778
 20
-131.49576
 40
4
 50
90.000003
 51
180.00001
  0
ARC
  8
0
  6
CONTINUOUS
 62
     7
 10
965.28778
 20
-154.97485
 40
4
 50
179.99999
 51
270
  0
ARC
  8
0
  6
CONTINUOUS
 62
     7
 10
965.28778
 20
-164.88849
 40
4
 50
90.000003
 51
180.00001
  0
ARC
  8
0
  6
CONTINUOUS
 62
     7
 10
-207.56664
 20
-1851.585
 40
11.5
 50
293.91653
 51
359.55924
  0
ARC
  8
0
  6
CONTINUOUS
 62
     7
 10
-215.06664
 20
-1834.6735
 40
30
 50
270
 51
293.91653
  0
ARC
  8
0
  6
CONTINUOUS
 62
     7
 10
993.28778
 20
112.63132
 40
4
 50
270
 51
5.0089561E-006
  0
ARC
  8
0
  6
CONTINUOUS
 62
     7
 10
993.28778
 20
99.008888
 40
4
 50
359.99999
 51
89.999996
  0
ARC
  8
0
  6
CONTINUOUS
 62
     7
 10
993.28778
 20
146.02406
 40
4
 50
270
 51
5.0089561E-006
  0
ARC
  8
0
  6
CONTINUOUS
 62
     7
 10
993.28778
 20
136.11043
 40
4
 50
359.99999
 51
89.999996
  0
ARC
  8
0
  6
CONTINUOUS
 62
     7
 10
999.28778
 20
42.567787
 40
5
 50
270
 51
5.0089561E-006
  0
ARC
  8
0
  6
CONTINUOUS
 62
     7
 10
999.28778
 20
-61.432217
 40
5
 50
359.99999
 51
89.999996
  0
ARC
  8
0
  6
CONTINUOUS
 62
     7
 10
993.28778
 20
-117.8733
 40
4
 50
270
 51
5.0089561E-006
  0
ARC
  8
0
  6
CONTINUOUS
 62
     7
 10
993.28778
 20
-131.49576
 40
4
 50
359.99999
 51
89.999996
  0
ARC
  8
0
  6
CONTINUOUS
 62
     7
 10
993.28778
 20
-154.97485
 40
4
 50
270
 51
5.0089561E-006
  0
ARC
  8
0
  6
CONTINUOUS
 62
     7
 10
993.28778
 20
-164.88849
 40
4
 50
359.99999
 51
89.999996
  0
ARC
  8
0
  6
CONTINUOUS
 62
     7
 10
586.3479
 20
-1854.0938
 40
11.5
 50
180.44076
 51
246.08347
  0
ARC
  8
0
  6
CONTINUOUS
 62
     7
 10
593.8479
 20
-1837.1821
 40
30
 50
246.08347
 51
270
  0
ARC
  8
0
  6
CONTINUOUS
 62
     7
 10
1109.2878
 20
42.567791
 40
5
 50
179.99999
 51
270
  0
ARC
  8
0
  6
CONTINUOUS
 62
     7
 10
1115.2878
 20
174.2404
 40
4
 50
179.99999
 51
270
  0
ARC
  8
0
  6
CONTINUOUS
 62
     7
 10
1115.2878
 20
164.14384
 40
4
 50
90.000003
 51
180.00001
  0
ARC
  8
0
  6
CONTINUOUS
 62
     7
 10
1115.2878
 20
137.33421
 40
4
 50
179.99999
 51
270
  0
ARC
  8
0
  6
CONTINUOUS
 62
     7
 10
1115.2878
 20
123.14469
 40
4
 50
90.000003
 51
180.00001
  0
ARC
  8
0
  6
CONTINUOUS
 62
     7
 10
1109.2878
 20
-61.432209
 40
5
 50
90.000003
 51
180.00001
  0
ARC
  8
0
  6
CONTINUOUS
 62
     7
 10
1115.2878
 20
-142.00911
 40
4
 50
179.99999
 51
270
  0
ARC
  8
0
  6
CONTINUOUS
 62
     7
 10
1115.2878
 20
-156.19862
 40
4
 50
90.000003
 51
180.00001
  0
ARC
  8
0
  6
CONTINUOUS
 62
     7
 10
1115.2878
 20
-193.10481
 40
4
 50
90.000003
 51
180.00001
  0
ARC
  8
0
  6
CONTINUOUS
 62
     7
 10
1115.2878
 20
-183.00826
 40
4
 50
179.99999
 51
270
  0
ARC
  8
0
  6
CONTINUOUS
 62
     7
 10
601.3479
 20
-1854.0938
 40
11.5
 50
293.91653
 51
353.63423
  0
ARC
  8
0
  6
CONTINUOUS
 62
     7
 10
593.8479
 20
-1837.1821
 40
30
 50
270
 51
293.91653
  0
ARC
  8
0
  6
CONTINUOUS
 62
     7
 10
1149.2878
 20
42.567791
 40
5
 50
270
 51
5.0089561E-006
  0
ARC
  8
0
  6
CONTINUOUS
 62
     7
 10
1143.2878
 20
174.2404
 40
4
 50
270
 51
5.0089561E-006
  0
ARC
  8
0
  6
CONTINUOUS
 62
     7
 10
1143.2878
 20
164.14384
 40
4
 50
359.99999
 51
89.999996
  0
ARC
  8
0
  6
CONTINUOUS
 62
     7
 10
1143.2878
 20
137.33421
 40
4
 50
270
 51
5.0089561E-006
  0
ARC
  8
0
  6
CONTINUOUS
 62
     7
 10
1143.2878
 20
123.14469
 40
4
 50
359.99999
 51
89.999996
  0
ARC
  8
0
  6
CONTINUOUS
 62
     7
 10
1149.2878
 20
-61.432209
 40
5
 50
359.99999
 51
89.999996
  0
ARC
  8
0
  6
CONTINUOUS
 62
     7
 10
1143.2878
 20
-142.00911
 40
4
 50
270
 51
5.0089561E-006
  0
ARC
  8
0
  6
CONTINUOUS
 62
     7
 10
1143.2878
 20
-156.19862
 40
4
 50
359.99999
 51
89.999996
  0
ARC
  8
0
  6
CONTINUOUS
 62
     7
 10
1143.2878
 20
-193.10481
 40
4
 50
359.99999
 51
89.999996
  0
ARC
  8
0
  6
CONTINUOUS
 62
     7
 10
1143.2878
 20
-183.00826
 40
4
 50
270
 51
5.0089561E-006
  0
ARC
  8
0
  6
CONTINUOUS
 62
     7
 10
-327.41635
 20
-659.53271
 40
16
 50
202.39504
 51
337.60496
  0
ARC
  8
0
  6
CONTINUOUS
 62
     7
 10
-327.41635
 20
-596.53271
 40
16
 50
22.395038
 51
157.60496
  0
ARC
  8
0
  6
CONTINUOUS
 62
     7
 10
-232.7088
 20
-590.53271
 40
16
 50
22.098637
 51
157.90137
  0
ARC
  8
0
  6
CONTINUOUS
 62
     7
 10
-232.7088
 20
-665.53271
 40
16
 50
202.09863
 51
337.90136
  0
ARC
  8
0
  6
CONTINUOUS
 62
     7
 10
-132.89793
 20
-587.53271
 40
16
 50
22.098637
 51
157.90137
  0
ARC
  8
0
  6
CONTINUOUS
 62
     7
 10
-132.89793
 20
-668.53271
 40
16
 50
202.09863
 51
337.90136
  0
ARC
  8
0
  6
CONTINUOUS
 62
     7
 10
-41.213032
 20
-677.53271
 40
16
 50
200.71249
 51
339.28751
  0
ARC
  8
0
  6
CONTINUOUS
 62
     7
 10
-41.213032
 20
-578.53271
 40
16
 50
20.712494
 51
159.28751
  0
ARC
  8
0
  6
CONTINUOUS
 62
     7
 10
75.315544
 20
-572.53271
 40
19
 50
15.700242
 51
164.29976
  0
ARC
  8
0
  6
CONTINUOUS
 62
     7
 10
75.315544
 20
-683.53271
 40
19
 50
195.70024
 51
344.29976
  0
ARC
  8
0
  6
CONTINUOUS
 62
     7
 10
185.11047
 20
-564.53271
 40
19
 50
13.150865
 51
166.84913
  0
ARC
  8
0
  6
CONTINUOUS
 62
     7
 10
185.11047
 20
-691.53271
 40
19
 50
193.15087
 51
346.84913
  0
ARC
  8
0
  6
CONTINUOUS
 62
     7
 10
285.11047
 20
-710.53271
 40
19
 50
195.85576
 51
344.14423
  0
ARC
  8
0
  6
CONTINUOUS
 62
     7
 10
285.11047
 20
-545.53278
 40
19
 50
15.855765
 51
164.14424
  0
ARC
  8
0
  6
CONTINUOUS
 62
     7
 10
519.69006
 20
-532.33984
 40
24
 50
5.0657959
 51
174.9342
  0
ARC
  8
0
  6
CONTINUOUS
 62
     7
 10
519.69006
 20
-723.33984
 40
24
 50
185.0658
 51
354.9342
  0
ARC
  8
0
  6
CONTINUOUS
 62
     7
 10
669.69006
 20
-737.83984
 40
24
 50
184.96121
 51
355.03878
  0
ARC
  8
0
  6
CONTINUOUS
 62
     7
 10
669.69006
 20
-517.83984
 40
24
 50
4.9612151
 51
175.03879
  0
ARC
  8
0
  6
CONTINUOUS
 62
     7
 10
819.69006
 20
-767.33984
 40
28
 50
184.46848
 51
355.53152
  0
ARC
  8
0
  6
CONTINUOUS
 62
     7
 10
819.69006
 20
-488.33981
 40
28
 50
4.4684788
 51
175.53152
  0
ARC
  8
0
  6
CONTINUOUS
 62
     7
 10
819.69006
 20
-772.83984
 40
28
 50
48.137811
 51
129.02342
  0
ARC
  8
0
  6
CONTINUOUS
 62
     7
 10
819.69006
 20
-482.83981
 40
28
 50
228.38111
 51
313.29767
  0
ARC
  8
0
  6
CONTINUOUS
 62
     7
 10
969.69006
 20
-455.33981
 40
28
 50
6.015059
 51
173.98494
  0
ARC
  8
0
  6
CONTINUOUS
 62
     7
 10
969.69006
 20
-800.33984
 40
28
 50
186.01506
 51
353.98494
  0
ARC
  8
0
  6
CONTINUOUS
 62
     7
 10
969.69006
 20
-454.33981
 40
29
 50
210.45032
 51
329.54968
  0
ARC
  8
0
  6
CONTINUOUS
 62
     7
 10
969.69006
 20
-801.33984
 40
29
 50
30.450315
 51
149.54968
  0
ARC
  8
0
  6
CONTINUOUS
 62
     7
 10
1119.6901
 20
-428.83981
 40
28
 50
5.9168682
 51
174.08314
  0
ARC
  8
0
  6
CONTINUOUS
 62
     7
 10
1119.6901
 20
-826.83984
 40
28
 50
185.91686
 51
354.08313
  0
ARC
  8
0
  6
CONTINUOUS
 62
     7
 10
1119.6901
 20
-427.83981
 40
29
 50
210.45032
 51
329.54968
  0
ARC
  8
0
  6
CONTINUOUS
 62
     7
 10
1119.6901
 20
-827.83984
 40
29
 50
30.450315
 51
149.54968
  0
CIRCLE
  8
0
  6
CONTINUOUS
 62
     7
 10
-232.7088
 20
-670.03271
 40
4.7624998
  0
CIRCLE
  8
0
  6
CONTINUOUS
 62
     7
 10
-232.7088
 20
-670.03271
 40
3.9024999
  0
CIRCLE
  8
0
  6
CONTINUOUS
 62
     7
 10
-327.41635
 20
-592.03271
 40
3.9024999
  0
CIRCLE
  8
0
  6
CONTINUOUS
 62
     7
 10
-327.41635
 20
-592.03271
 40
4.7624998
  0
CIRCLE
  8
0
  6
CONTINUOUS
 62
     7
 10
-327.41635
 20
-664.03271
 40
3.9024999
  0
CIRCLE
  8
0
  6
CONTINUOUS
 62
     7
 10
-327.41635
 20
-664.03271
 40
4.7624998
  0
CIRCLE
  8
0
  6
CONTINUOUS
 62
     7
 10
-232.7088
 20
-586.03271
 40
3.9024999
  0
CIRCLE
  8
0
  6
CONTINUOUS
 62
     7
 10
-232.7088
 20
-586.03271
 40
4.7624998
  0
CIRCLE
  8
0
  6
CONTINUOUS
 62
     7
 10
-132.89793
 20
-583.03271
 40
3.9024999
  0
CIRCLE
  8
0
  6
CONTINUOUS
 62
     7
 10
-132.89793
 20
-583.03271
 40
4.7624998
  0
CIRCLE
  8
0
  6
CONTINUOUS
 62
     7
 10
-41.213032
 20
-575.53271
 40
3.9024999
  0
CIRCLE
  8
0
  6
CONTINUOUS
 62
     7
 10
-41.213032
 20
-575.53271
 40
4.7624998
  0
CIRCLE
  8
0
  6
CONTINUOUS
 62
     7
 10
-41.213032
 20
-680.53271
 40
3.9024999
  0
CIRCLE
  8
0
  6
CONTINUOUS
 62
     7
 10
-41.213032
 20
-680.53271
 40
4.7624998
  0
CIRCLE
  8
0
  6
CONTINUOUS
 62
     7
 10
-132.89793
 20
-673.03271
 40
3.9024999
  0
CIRCLE
  8
0
  6
CONTINUOUS
 62
     7
 10
-132.89793
 20
-673.03271
 40
4.7624998
  0
CIRCLE
  8
0
  6
CONTINUOUS
 62
     7
 10
185.11047
 20
-696.28271
 40
6.3499999
  0
CIRCLE
  8
0
  6
CONTINUOUS
 62
     7
 10
185.11047
 20
-696.28271
 40
5.2919998
  0
CIRCLE
  8
0
  6
CONTINUOUS
 62
     7
 10
75.315544
 20
-567.78271
 40
5.2919998
  0
CIRCLE
  8
0
  6
CONTINUOUS
 62
     7
 10
75.315544
 20
-567.78271
 40
6.3499999
  0
CIRCLE
  8
0
  6
CONTINUOUS
 62
     7
 10
75.315544
 20
-688.28271
 40
5.2919998
  0
CIRCLE
  8
0
  6
CONTINUOUS
 62
     7
 10
75.315544
 20
-688.28271
 40
6.3499999
  0
CIRCLE
  8
0
  6
CONTINUOUS
 62
     7
 10
185.11047
 20
-559.78271
 40
5.2919998
  0
CIRCLE
  8
0
  6
CONTINUOUS
 62
     7
 10
185.11047
 20
-559.78271
 40
6.3499999
  0
CIRCLE
  8
0
  6
CONTINUOUS
 62
     7
 10
285.11047
 20
-540.53278
 40
5.2919998
  0
CIRCLE
  8
0
  6
CONTINUOUS
 62
     7
 10
285.11047
 20
-540.53278
 40
6.3499999
  0
CIRCLE
  8
0
  6
CONTINUOUS
 62
     7
 10
285.11047
 20
-715.53271
 40
5.2919998
  0
CIRCLE
  8
0
  6
CONTINUOUS
 62
     7
 10
285.11047
 20
-715.53271
 40
6.3499999
  0
CIRCLE
  8
0
  6
CONTINUOUS
 62
     7
 10
519.69006
 20
-526.83984
 40
7.9375
  0
CIRCLE
  8
0
  6
CONTINUOUS
 62
     7
 10
519.69006
 20
-526.83984
 40
6.6880002
  0
CIRCLE
  8
0
  6
CONTINUOUS
 62
     7
 10
519.69006
 20
-728.83984
 40
6.6880002
  0
CIRCLE
  8
0
  6
CONTINUOUS
 62
     7
 10
519.69006
 20
-728.83984
 40
7.9375
  0
CIRCLE
  8
0
  6
CONTINUOUS
 62
     7
 10
669.69006
 20
-743.83984
 40
6.6880002
  0
CIRCLE
  8
0
  6
CONTINUOUS
 62
     7
 10
669.69006
 20
-743.83984
 40
7.9375
  0
CIRCLE
  8
0
  6
CONTINUOUS
 62
     7
 10
669.69006
 20
-511.83981
 40
6.6880002
  0
CIRCLE
  8
0
  6
CONTINUOUS
 62
     7
 10
669.69006
 20
-511.83981
 40
7.9375
  0
CIRCLE
  8
0
  6
CONTINUOUS
 62
     7
 10
819.69006
 20
-772.83984
 40
9.5249996
  0
CIRCLE
  8
0
  6
CONTINUOUS
 62
     7
 10
819.69006
 20
-772.83984
 40
8.1494999
  0
CIRCLE
  8
0
  6
CONTINUOUS
 62
     7
 10
819.69006
 20
-482.83981
 40
8.1494999
  0
CIRCLE
  8
0
  6
CONTINUOUS
 62
     7
 10
819.69006
 20
-482.83981
 40
9.5249996
  0
CIRCLE
  8
0
  6
CONTINUOUS
 62
     7
 10
969.69006
 20
-801.33984
 40
11.1125
  0
CIRCLE
  8
0
  6
CONTINUOUS
 62
     7
 10
969.69006
 20
-801.33984
 40
9.5845003
  0
CIRCLE
  8
0
  6
CONTINUOUS
 62
     7
 10
969.69006
 20
-454.33981
 40
9.5845003
  0
CIRCLE
  8
0
  6
CONTINUOUS
 62
     7
 10
969.69006
 20
-454.33981
 40
11.1125
  0
CIRCLE
  8
0
  6
CONTINUOUS
 62
     7
 10
1119.6901
 20
-427.83981
 40
9.5845003
  0
CIRCLE
  8
0
  6
CONTINUOUS
 62
     7
 10
1119.6901
 20
-427.83981
 40
11.1125
  0
CIRCLE
  8
0
  6
CONTINUOUS
 62
     7
 10
1119.6901
 20
-827.83984
 40
9.5845003
  0
CIRCLE
  8
0
  6
CONTINUOUS
 62
     7
 10
1119.6901
 20
-827.83984
 40
11.1125
  0
ARC
  8
0
  6
CONTINUOUS
 62
     7
 10
-298.71378
 20
-1072.1177
 40
29
 50
36.547611
 51
143.57642
  0
ARC
  8
0
  6
CONTINUOUS
 62
     7
 10
-298.71378
 20
-1072.1177
 40
19.5
 50
55.136162
 51
90.000003
  0
ARC
  8
0
  6
CONTINUOUS
 62
     7
 10
-247.01143
 20
-1071.0913
 40
11
 50
114.94797
 51
168.56593
  0
ARC
  8
0
  6
CONTINUOUS
 62
     7
 10
-298.71378
 20
-1072.1177
 40
15.25
 50
0
 51
180.00001
  0
ARC
  8
0
  6
CONTINUOUS
 62
     7
 10
-261.71378
 20
-1068.1177
 40
4
 50
270
 51
348.56593
  0
ARC
  8
0
  6
CONTINUOUS
 62
     7
 10
-298.71378
 20
-1072.1177
 40
19.5
 50
89.999996
 51
124.86384
  0
ARC
  8
0
  6
CONTINUOUS
 62
     7
 10
-350.41605
 20
-1071.0913
 40
11
 50
11.434073
 51
65.052026
  0
ARC
  8
0
  6
CONTINUOUS
 62
     7
 10
-335.71371
 20
-1068.1177
 40
4
 50
191.43407
 51
270
  0
ARC
  8
0
  6
CONTINUOUS
 62
     7
 10
-335.71371
 20
-1076.1177
 40
4
 50
90.000003
 51
168.56593
  0
ARC
  8
0
  6
CONTINUOUS
 62
     7
 10
-350.41605
 20
-1073.1442
 40
11
 50
294.94797
 51
348.56593
  0
ARC
  8
0
  6
CONTINUOUS
 62
     7
 10
-298.71378
 20
-1072.1177
 40
19.5
 50
235.13616
 51
270
  0
ARC
  8
0
  6
CONTINUOUS
 62
     7
 10
-298.71378
 20
-1072.1177
 40
29
 50
216.42358
 51
323.45239
  0
ARC
  8
0
  6
CONTINUOUS
 62
     7
 10
-298.71378
 20
-1072.1177
 40
19.5
 50
270
 51
304.86384
  0
ARC
  8
0
  6
CONTINUOUS
 62
     7
 10
-247.01143
 20
-1073.1442
 40
11
 50
191.43407
 51
245.05203
  0
ARC
  8
0
  6
CONTINUOUS
 62
     7
 10
-298.71378
 20
-1072.1177
 40
15.25
 50
179.99999
 51
1.0017912E-005
  0
ARC
  8
0
  6
CONTINUOUS
 62
     7
 10
-261.71378
 20
-1076.1177
 40
4
 50
11.434073
 51
89.999996
  0
ARC
  8
0
  6
CONTINUOUS
 62
     7
 10
-321.46866
 20
-25.694294
 40
5
 50
180.00001
 51
232.53093
  0
ARC
  8
0
  6
CONTINUOUS
 62
     7
 10
-317.81863
 20
-20.932209
 40
11
 50
232.53091
 51
270
  0
ARC
  8
0
  6
CONTINUOUS
 62
     7
 10
-317.81863
 20
-20.932209
 40
11
 50
270
 51
307.46909
  0
ARC
  8
0
  6
CONTINUOUS
 62
     7
 10
-314.16861
 20
-25.694294
 40
5
 50
307.46908
 51
359.99999
  0
ARC
  8
0
  6
CONTINUOUS
 62
     7
 10
-338.36374
 20
-1088.3798
 40
5
 50
180.00001
 51
232.53093
  0
ARC
  8
0
  6
CONTINUOUS
 62
     7
 10
-334.71371
 20
-1083.6177
 40
11
 50
232.53091
 51
270
  0
ARC
  8
0
  6
CONTINUOUS
 62
     7
 10
-334.71371
 20
-1083.6177
 40
11
 50
270
 51
307.46909
  0
ARC
  8
0
  6
CONTINUOUS
 62
     7
 10
-331.06369
 20
-1088.3798
 40
5
 50
307.46907
 51
353.12374
  0
ARC
  8
0
  6
CONTINUOUS
 62
     7
 10
-140.66235
 20
-1069.609
 40
19.65
 50
0
 51
180.00001
  0
ARC
  8
0
  6
CONTINUOUS
 62
     7
 10
-140.66235
 20
-1069.609
 40
24
 50
41.810317
 51
90.000003
  0
ARC
  8
0
  6
CONTINUOUS
 62
     7
 10
-140.66235
 20
-1069.609
 40
33.25
 50
34.782479
 51
145.21753
  0
ARC
  8
0
  6
CONTINUOUS
 62
     7
 10
-82.790962
 20
-1068.5022
 40
11
 50
115.92331
 51
172.22823
  0
ARC
  8
0
  6
CONTINUOUS
 62
     7
 10
-96.662361
 20
-1066.609
 40
3
 50
270
 51
5.0089548E-006
  0
ARC
  8
0
  6
CONTINUOUS
 62
     7
 10
-140.66235
 20
-1069.609
 40
24
 50
89.999996
 51
138.18969
  0
ARC
  8
0
  6
CONTINUOUS
 62
     7
 10
-198.53375
 20
-1068.5022
 40
11
 50
7.7717666
 51
64.076689
  0
ARC
  8
0
  6
CONTINUOUS
 62
     7
 10
-184.66235
 20
-1066.609
 40
3
 50
179.99999
 51
270
  0
ARC
  8
0
  6
CONTINUOUS
 62
     7
 10
-184.66235
 20
-1072.609
 40
3
 50
90.000003
 51
180.00001
  0
ARC
  8
0
  6
CONTINUOUS
 62
     7
 10
-140.66235
 20
-1069.609
 40
19.65
 50
179.99999
 51
1.0017913E-005
  0
ARC
  8
0
  6
CONTINUOUS
 62
     7
 10
-140.66235
 20
-1069.609
 40
24
 50
270
 51
318.18968
  0
ARC
  8
0
  6
CONTINUOUS
 62
     7
 10
-140.66235
 20
-1069.609
 40
33.25
 50
214.78247
 51
325.21752
  0
ARC
  8
0
  6
CONTINUOUS
 62
     7
 10
-82.790962
 20
-1070.7158
 40
11
 50
187.77177
 51
244.07669
  0
ARC
  8
0
  6
CONTINUOUS
 62
     7
 10
-96.662361
 20
-1072.609
 40
3
 50
359.99999
 51
89.999996
  0
ARC
  8
0
  6
CONTINUOUS
 62
     7
 10
-140.66235
 20
-1069.609
 40
24
 50
221.81031
 51
270
  0
ARC
  8
0
  6
CONTINUOUS
 62
     7
 10
-198.53375
 20
-1070.7158
 40
11
 50
295.92331
 51
352.22823
  0
ARC
  8
0
  6
CONTINUOUS
 62
     7
 10
-223.11108
 20
-20.932209
 40
11
 50
270
 51
307.46909
  0
ARC
  8
0
  6
CONTINUOUS
 62
     7
 10
-219.46111
 20
-25.694324
 40
5
 50
307.46907
 51
359.99999
  0
ARC
  8
0
  6
CONTINUOUS
 62
     7
 10
-223.11108
 20
-20.932209
 40
11
 50
232.53091
 51
270
  0
ARC
  8
0
  6
CONTINUOUS
 62
     7
 10
-226.76111
 20
-25.694324
 40
5
 50
180.00001
 51
232.53093
  0
ARC
  8
0
  6
CONTINUOUS
 62
     7
 10
-179.01233
 20
-1085.8711
 40
5
 50
307.46912
 51
343.23243
  0
ARC
  8
0
  6
CONTINUOUS
 62
     7
 10
-182.66235
 20
-1081.1089
 40
11
 50
270
 51
307.46909
  0
ARC
  8
0
  6
CONTINUOUS
 62
     7
 10
-186.31232
 20
-1085.8711
 40
5
 50
180.00001
 51
232.53093
  0
ARC
  8
0
  6
CONTINUOUS
 62
     7
 10
-182.66235
 20
-1081.1089
 40
11
 50
232.53091
 51
270
  0
ARC
  8
0
  6
CONTINUOUS
 62
     7
 10
22.406546
 20
-1067.1002
 40
22.700001
 50
0
 51
180.00001
  0
ARC
  8
0
  6
CONTINUOUS
 62
     7
 10
22.406546
 20
-1067.1002
 40
27
 50
36.341203
 51
90.000003
  0
ARC
  8
0
  6
CONTINUOUS
 62
     7
 10
22.406546
 20
-1067.1002
 40
36.25
 50
33.292289
 51
146.70771
  0
ARC
  8
0
  6
CONTINUOUS
 62
     7
 10
69.406548
 20
-1064.1002
 40
3
 50
270
 51
0
  0
ARC
  8
0
  6
CONTINUOUS
 62
     7
 10
83.277946
 20
-1065.9934
 40
11
 50
115.92332
 51
171.23045
  0
ARC
  8
0
  6
CONTINUOUS
 62
     7
 10
22.406546
 20
-1067.1002
 40
27
 50
89.999996
 51
143.6588
  0
ARC
  8
0
  6
CONTINUOUS
 62
     7
 10
-38.464855
 20
-1065.9934
 40
11
 50
8.769548
 51
64.076675
  0
ARC
  8
0
  6
CONTINUOUS
 62
     7
 10
-24.593454
 20
-1064.1002
 40
3
 50
179.99999
 51
270
  0
ARC
  8
0
  6
CONTINUOUS
 62
     7
 10
-24.593454
 20
-1070.1002
 40
3
 50
89.999996
 51
180.00001
  0
ARC
  8
0
  6
CONTINUOUS
 62
     7
 10
22.406546
 20
-1067.1002
 40
22.700001
 50
179.99999
 51
1.0017913E-005
  0
ARC
  8
0
  6
CONTINUOUS
 62
     7
 10
22.406546
 20
-1067.1002
 40
27
 50
270
 51
323.6588
  0
ARC
  8
0
  6
CONTINUOUS
 62
     7
 10
22.406546
 20
-1067.1002
 40
36.25
 50
213.29229
 51
326.70771
  0
ARC
  8
0
  6
CONTINUOUS
 62
     7
 10
69.406548
 20
-1070.1002
 40
3
 50
0
 51
90.000003
  0
ARC
  8
0
  6
CONTINUOUS
 62
     7
 10
83.277946
 20
-1068.207
 40
11
 50
188.76955
 51
244.07668
  0
ARC
  8
0
  6
CONTINUOUS
 62
     7
 10
22.406546
 20
-1067.1002
 40
27
 50
216.3412
 51
270
  0
ARC
  8
0
  6
CONTINUOUS
 62
     7
 10
-38.464855
 20
-1068.207
 40
11
 50
295.92332
 51
351.23045
  0
ARC
  8
0
  6
CONTINUOUS
 62
     7
 10
-123.30022
 20
-20.932209
 40
11
 50
270
 51
307.46909
  0
ARC
  8
0
  6
CONTINUOUS
 62
     7
 10
-119.6502
 20
-25.694324
 40
5
 50
307.46907
 51
359.99999
  0
ARC
  8
0
  6
CONTINUOUS
 62
     7
 10
-123.30022
 20
-20.932209
 40
11
 50
232.53091
 51
270
  0
ARC
  8
0
  6
CONTINUOUS
 62
     7
 10
-126.95022
 20
-25.694324
 40
5
 50
180.00001
 51
232.53093
  0
ARC
  8
0
  6
CONTINUOUS
 62
     7
 10
-26.243479
 20
-1083.3623
 40
5
 50
180.00001
 51
232.53093
  0
ARC
  8
0
  6
CONTINUOUS
 62
     7
 10
-22.593454
 20
-1078.6002
 40
11
 50
232.53091
 51
270
  0
ARC
  8
0
  6
CONTINUOUS
 62
     7
 10
-22.593454
 20
-1078.6002
 40
11
 50
270
 51
307.46909
  0
ARC
  8
0
  6
CONTINUOUS
 62
     7
 10
-18.94343
 20
-1083.3623
 40
5
 50
307.46907
 51
337.30552
  0
ARC
  8
0
  6
CONTINUOUS
 62
     7
 10
200.52797
 20
-1069.609
 40
33.25
 50
28.764003
 51
90.000003
  0
ARC
  8
0
  6
CONTINUOUS
 62
     7
 10
200.52797
 20
-1069.609
 40
28.75
 50
0
 51
180.00001
  0
ARC
  8
0
  6
CONTINUOUS
 62
     7
 10
200.52797
 20
-1069.609
 40
42
 50
32.002636
 51
147.99737
  0
ARC
  8
0
  6
CONTINUOUS
 62
     7
 10
268.59399
 20
-1069.191
 40
11
 50
105.84541
 51
163.85228
  0
ARC
  8
0
  6
CONTINUOUS
 62
     7
 10
254.02797
 20
-1065.609
 40
4
 50
270
 51
0
  0
ARC
  8
0
  6
CONTINUOUS
 62
     7
 10
200.52797
 20
-1069.609
 40
33.25
 50
89.999996
 51
151.236
  0
ARC
  8
0
  6
CONTINUOUS
 62
     7
 10
147.02797
 20
-1065.609
 40
4
 50
180.00001
 51
270
  0
ARC
  8
0
  6
CONTINUOUS
 62
     7
 10
132.46193
 20
-1069.191
 40
11
 50
16.147723
 51
74.154592
  0
ARC
  8
0
  6
CONTINUOUS
 62
     7
 10
132.46193
 20
-1070.027
 40
11
 50
285.84541
 51
343.85228
  0
ARC
  8
0
  6
CONTINUOUS
 62
     7
 10
200.52797
 20
-1069.609
 40
33.25
 50
270
 51
331.236
  0
ARC
  8
0
  6
CONTINUOUS
 62
     7
 10
200.52797
 20
-1069.609
 40
28.75
 50
179.99999
 51
1.0017913E-005
  0
ARC
  8
0
  6
CONTINUOUS
 62
     7
 10
200.52797
 20
-1069.609
 40
42
 50
212.00263
 51
327.99736
  0
ARC
  8
0
  6
CONTINUOUS
 62
     7
 10
268.59399
 20
-1070.027
 40
11
 50
196.14772
 51
254.15459
  0
ARC
  8
0
  6
CONTINUOUS
 62
     7
 10
254.02797
 20
-1073.609
 40
4
 50
0
 51
90.000003
  0
ARC
  8
0
  6
CONTINUOUS
 62
     7
 10
200.52797
 20
-1069.609
 40
33.25
 50
208.764
 51
270
  0
ARC
  8
0
  6
CONTINUOUS
 62
     7
 10
147.02797
 20
-1073.609
 40
4
 50
89.999996
 51
180.00001
  0
ARC
  8
0
  6
CONTINUOUS
 62
     7
 10
-27.965342
 20
-25.694324
 40
5
 50
307.46907
 51
359.99999
  0
ARC
  8
0
  6
CONTINUOUS
 62
     7
 10
-31.61532
 20
-20.932209
 40
11
 50
270
 51
307.46909
  0
ARC
  8
0
  6
CONTINUOUS
 62
     7
 10
-31.61532
 20
-20.932209
 40
11
 50
232.53091
 51
270
  0
ARC
  8
0
  6
CONTINUOUS
 62
     7
 10
-35.265312
 20
-25.694324
 40
5
 50
180.00001
 51
232.53093
  0
ARC
  8
0
  6
CONTINUOUS
 62
     7
 10
148.02797
 20
-1081.1089
 40
11
 50
232.53091
 51
270
  0
ARC
  8
0
  6
CONTINUOUS
 62
     7
 10
144.37801
 20
-1085.8711
 40
5
 50
180.00001
 51
232.53093
  0
ARC
  8
0
  6
CONTINUOUS
 62
     7
 10
148.02797
 20
-1081.1089
 40
11
 50
270
 51
307.46909
  0
ARC
  8
0
  6
CONTINUOUS
 62
     7
 10
151.67799
 20
-1085.8711
 40
5
 50
307.46907
 51
327.8563
  0
ARC
  8
0
  6
CONTINUOUS
 62
     7
 10
-291.1875
 20
-1275.3267
 40
36.299999
 50
0
 51
180.00001
  0
ARC
  8
0
  6
CONTINUOUS
 62
     7
 10
-207.00311
 20
-1272.9849
 40
17
 50
126.54144
 51
175.47097
  0
ARC
  8
0
  6
CONTINUOUS
 62
     7
 10
-291.1875
 20
-1275.3267
 40
43
 50
29.23364
 51
90.000003
  0
ARC
  8
0
  6
CONTINUOUS
 62
     7
 10
-291.1875
 20
-1275.3267
 40
50
 50
36.161378
 51
151.17456
  0
ARC
  8
0
  6
CONTINUOUS
 62
     7
 10
-227.9375
 20
-1271.3267
 40
4
 50
270
 51
0
  0
ARC
  8
0
  6
CONTINUOUS
 62
     7
 10
-291.1875
 20
-1275.3267
 40
43
 50
89.999996
 51
150.76636
  0
ARC
  8
0
  6
CONTINUOUS
 62
     7
 10
-375.37195
 20
-1272.9849
 40
17
 50
4.529025
 51
53.458562
  0
ARC
  8
0
  6
CONTINUOUS
 62
     7
 10
-354.4375
 20
-1271.3267
 40
4
 50
179.99999
 51
270
  0
ARC
  8
0
  6
CONTINUOUS
 62
     7
 10
-354.4375
 20
-1279.3267
 40
4
 50
89.999996
 51
180.00001
  0
ARC
  8
0
  6
CONTINUOUS
 62
     7
 10
-291.1875
 20
-1275.3267
 40
36.299999
 50
179.99999
 51
1.0017913E-005
  0
ARC
  8
0
  6
CONTINUOUS
 62
     7
 10
-207.00311
 20
-1277.6685
 40
17
 50
184.52903
 51
233.45856
  0
ARC
  8
0
  6
CONTINUOUS
 62
     7
 10
-291.1875
 20
-1275.3267
 40
43
 50
270
 51
330.76636
  0
ARC
  8
0
  6
CONTINUOUS
 62
     7
 10
-291.1875
 20
-1275.3267
 40
50
 50
208.82544
 51
323.83862
  0
ARC
  8
0
  6
CONTINUOUS
 62
     7
 10
-227.9375
 20
-1279.3267
 40
4
 50
0
 51
90.000003
  0
ARC
  8
0
  6
CONTINUOUS
 62
     7
 10
-291.1875
 20
-1275.3267
 40
43
 50
209.23364
 51
270
  0
ARC
  8
0
  6
CONTINUOUS
 62
     7
 10
-375.37195
 20
-1277.6685
 40
17
 50
306.54144
 51
355.47097
  0
ARC
  8
0
  6
CONTINUOUS
 62
     7
 10
84.913254
 20
-24.432209
 40
15
 50
242.33599
 51
270
  0
ARC
  8
0
  6
CONTINUOUS
 62
     7
 10
81.663254
 20
-30.632008
 40
8
 50
179.99999
 51
242.33599
  0
ARC
  8
0
  6
CONTINUOUS
 62
     7
 10
88.163254
 20
-30.632008
 40
8
 50
297.66401
 51
5.0089561E-006
  0
ARC
  8
0
  6
CONTINUOUS
 62
     7
 10
84.913254
 20
-24.432209
 40
15
 50
270
 51
297.66401
  0
ARC
  8
0
  6
CONTINUOUS
 62
     7
 10
-351.4375
 20
-1290.3267
 40
15
 50
242.33599
 51
270
  0
ARC
  8
0
  6
CONTINUOUS
 62
     7
 10
-354.6875
 20
-1296.5265
 40
8
 50
179.99999
 51
242.33599
  0
ARC
  8
0
  6
CONTINUOUS
 62
     7
 10
-351.4375
 20
-1290.3267
 40
15
 50
270
 51
297.66401
  0
ARC
  8
0
  6
CONTINUOUS
 62
     7
 10
-348.1875
 20
-1296.5265
 40
8
 50
297.66401
 51
328.98301
  0
ARC
  8
0
  6
CONTINUOUS
 62
     7
 10
-75.434799
 20
-1270.3092
 40
42.599998
 50
0
 51
180.00001
  0
ARC
  8
0
  6
CONTINUOUS
 62
     7
 10
-75.434799
 20
-1270.3092
 40
47.5
 50
26.238283
 51
90.000003
  0
ARC
  8
0
  6
CONTINUOUS
 62
     7
 10
-75.434799
 20
-1270.3092
 40
57
 50
31.848195
 51
148.15182
  0
ARC
  8
0
  6
CONTINUOUS
 62
     7
 10
16.749619
 20
-1267.9674
 40
17
 50
126.54144
 51
175.47097
  0
ARC
  8
0
  6
CONTINUOUS
 62
     7
 10
-4.1847982
 20
-1266.3092
 40
4
 50
270
 51
355.47097
  0
ARC
  8
0
  6
CONTINUOUS
 62
     7
 10
-75.434799
 20
-1270.3092
 40
47.5
 50
89.999996
 51
153.76172
  0
ARC
  8
0
  6
CONTINUOUS
 62
     7
 10
-167.61925
 20
-1267.9674
 40
17
 50
4.529025
 51
53.458562
  0
ARC
  8
0
  6
CONTINUOUS
 62
     7
 10
-146.6848
 20
-1266.3092
 40
4
 50
184.52903
 51
270
  0
ARC
  8
0
  6
CONTINUOUS
 62
     7
 10
-75.434799
 20
-1270.3092
 40
42.599998
 50
179.99999
 51
1.0017913E-005
  0
ARC
  8
0
  6
CONTINUOUS
 62
     7
 10
-75.434799
 20
-1270.3092
 40
47.5
 50
270
 51
333.76172
  0
ARC
  8
0
  6
CONTINUOUS
 62
     7
 10
-75.434799
 20
-1270.3092
 40
57
 50
211.84818
 51
328.1518
  0
ARC
  8
0
  6
CONTINUOUS
 62
     7
 10
16.749619
 20
-1272.6509
 40
17
 50
184.52903
 51
233.45856
  0
ARC
  8
0
  6
CONTINUOUS
 62
     7
 10
-4.1847982
 20
-1274.3092
 40
4
 50
4.5290314
 51
90.000003
  0
ARC
  8
0
  6
CONTINUOUS
 62
     7
 10
-75.434799
 20
-1270.3092
 40
47.5
 50
206.23828
 51
270
  0
ARC
  8
0
  6
CONTINUOUS
 62
     7
 10
-167.61925
 20
-1272.6509
 40
17
 50
306.54144
 51
355.47097
  0
ARC
  8
0
  6
CONTINUOUS
 62
     7
 10
-146.6848
 20
-1274.3092
 40
4
 50
89.999996
 51
175.47097
  0
ARC
  8
0
  6
CONTINUOUS
 62
     7
 10
197.95819
 20
-30.632008
 40
8
 50
297.66401
 51
8.6514222E-006
  0
ARC
  8
0
  6
CONTINUOUS
 62
     7
 10
194.70819
 20
-24.432209
 40
15
 50
242.33599
 51
270
  0
ARC
  8
0
  6
CONTINUOUS
 62
     7
 10
191.45819
 20
-30.632008
 40
8
 50
179.99999
 51
242.33599
  0
ARC
  8
0
  6
CONTINUOUS
 62
     7
 10
194.70819
 20
-24.432209
 40
15
 50
270
 51
297.66401
  0
ARC
  8
0
  6
CONTINUOUS
 62
     7
 10
-146.9348
 20
-1291.5089
 40
8
 50
179.99999
 51
242.33599
  0
ARC
  8
0
  6
CONTINUOUS
 62
     7
 10
-140.4348
 20
-1291.5089
 40
8
 50
297.66401
 51
326.98893
  0
ARC
  8
0
  6
CONTINUOUS
 62
     7
 10
-143.6848
 20
-1285.3092
 40
15
 50
270
 51
297.66401
  0
ARC
  8
0
  6
CONTINUOUS
 62
     7
 10
-143.6848
 20
-1285.3092
 40
15
 50
242.33599
 51
270
  0
ARC
  8
0
  6
CONTINUOUS
 62
     7
 10
175.44044
 20
-1267.8004
 40
55.200001
 50
0
 51
180.00001
  0
ARC
  8
0
  6
CONTINUOUS
 62
     7
 10
264.94043
 20
-1262.8004
 40
5
 50
270
 51
0
  0
ARC
  8
0
  6
CONTINUOUS
 62
     7
 10
290.93164
 20
-1263.4755
 40
21
 50
133.72883
 51
178.51234
  0
ARC
  8
0
  6
CONTINUOUS
 62
     7
 10
175.44044
 20
-1267.8004
 40
60.5
 50
24.928541
 51
90.000003
  0
ARC
  8
0
  6
CONTINUOUS
 62
     7
 10
175.44044
 20
-1267.8004
 40
73
 50
30.628535
 51
149.37147
  0
ARC
  8
0
  6
CONTINUOUS
 62
     7
 10
175.44044
 20
-1267.8004
 40
60.5
 50
89.999996
 51
155.07145
  0
ARC
  8
0
  6
CONTINUOUS
 62
     7
 10
59.949169
 20
-1263.4755
 40
21
 50
1.4876648
 51
46.271168
  0
ARC
  8
0
  6
CONTINUOUS
 62
     7
 10
85.940445
 20
-1262.8004
 40
5
 50
179.99999
 51
270
  0
ARC
  8
0
  6
CONTINUOUS
 62
     7
 10
85.940445
 20
-1272.8004
 40
5
 50
89.999996
 51
180.00001
  0
ARC
  8
0
  6
CONTINUOUS
 62
     7
 10
175.44044
 20
-1267.8004
 40
55.200001
 50
179.99999
 51
1.0017913E-005
  0
ARC
  8
0
  6
CONTINUOUS
 62
     7
 10
264.94043
 20
-1272.8004
 40
5
 50
0
 51
90.000003
  0
ARC
  8
0
  6
CONTINUOUS
 62
     7
 10
290.93164
 20
-1272.1254
 40
21
 50
181.48766
 51
226.27117
  0
ARC
  8
0
  6
CONTINUOUS
 62
     7
 10
175.44044
 20
-1267.8004
 40
60.5
 50
270
 51
335.07146
  0
ARC
  8
0
  6
CONTINUOUS
 62
     7
 10
175.44044
 20
-1267.8004
 40
73
 50
210.62853
 51
329.37146
  0
ARC
  8
0
  6
CONTINUOUS
 62
     7
 10
175.44044
 20
-1267.8004
 40
60.5
 50
204.92855
 51
270
  0
ARC
  8
0
  6
CONTINUOUS
 62
     7
 10
59.949169
 20
-1272.1254
 40
21
 50
313.72883
 51
358.51234
  0
ARC
  8
0
  6
CONTINUOUS
 62
     7
 10
297.95819
 20
-35.132008
 40
8
 50
297.66401
 51
8.6514222E-006
  0
ARC
  8
0
  6
CONTINUOUS
 62
     7
 10
294.70819
 20
-28.932209
 40
15
 50
270
 51
297.66401
  0
ARC
  8
0
  6
CONTINUOUS
 62
     7
 10
294.70819
 20
-28.932209
 40
15
 50
242.33599
 51
270
  0
ARC
  8
0
  6
CONTINUOUS
 62
     7
 10
291.45819
 20
-35.132008
 40
8
 50
179.99999
 51
242.33599
  0
ARC
  8
0
  6
CONTINUOUS
 62
     7
 10
91.190445
 20
-1293.5002
 40
8
 50
297.66401
 51
325.95261
  0
ARC
  8
0
  6
CONTINUOUS
 62
     7
 10
87.940445
 20
-1287.3004
 40
15
 50
270
 51
297.66401
  0
ARC
  8
0
  6
CONTINUOUS
 62
     7
 10
87.940445
 20
-1287.3004
 40
15
 50
242.33599
 51
270
  0
ARC
  8
0
  6
CONTINUOUS
 62
     7
 10
84.690445
 20
-1293.5002
 40
8
 50
179.99999
 51
242.33599
  0
ARC
  8
0
  6
CONTINUOUS
 62
     7
 10
611.96338
 20
-1059.574
 40
67.900002
 50
0
 51
180.00001
  0
ARC
  8
0
  6
CONTINUOUS
 62
     7
 10
611.96338
 20
-1059.574
 40
76.5
 50
20.667316
 51
90.000003
  0
ARC
  8
0
  6
CONTINUOUS
 62
     7
 10
611.96338
 20
-1059.574
 40
86.75
 50
29.800682
 51
150.19932
  0
ARC
  8
0
  6
CONTINUOUS
 62
     7
 10
740.78693
 20
-1057.5981
 40
21
 50
118.10295
 51
173.3206
  0
ARC
  8
0
  6
CONTINUOUS
 62
     7
 10
714.96338
 20
-1054.574
 40
5
 50
270
 51
353.3206
  0
ARC
  8
0
  6
CONTINUOUS
 62
     7
 10
716.69904
 20
-1019.574
 40
13
 50
237.93503
 51
270
  0
ARC
  8
0
  6
CONTINUOUS
 62
     7
 10
611.96338
 20
-1059.574
 40
76.5
 50
89.999996
 51
159.33269
  0
ARC
  8
0
  6
CONTINUOUS
 62
     7
 10
508.96335
 20
-1054.574
 40
5
 50
186.6794
 51
270
  0
ARC
  8
0
  6
CONTINUOUS
 62
     7
 10
483.1398
 20
-1057.5981
 40
21
 50
6.6794008
 51
61.897053
  0
ARC
  8
0
  6
CONTINUOUS
 62
     7
 10
507.22769
 20
-1019.574
 40
13
 50
270
 51
302.06498
  0
ARC
  8
0
  6
CONTINUOUS
 62
     7
 10
507.22769
 20
-1099.574
 40
13
 50
57.935024
 51
89.999996
  0
ARC
  8
0
  6
CONTINUOUS
 62
     7
 10
611.96338
 20
-1059.574
 40
67.900002
 50
179.99999
 51
1.0017913E-005
  0
ARC
  8
0
  6
CONTINUOUS
 62
     7
 10
611.96338
 20
-1059.574
 40
76.5
 50
270
 51
339.33268
  0
ARC
  8
0
  6
CONTINUOUS
 62
     7
 10
611.96338
 20
-1059.574
 40
86.75
 50
209.80068
 51
330.19932
  0
ARC
  8
0
  6
CONTINUOUS
 62
     7
 10
740.78693
 20
-1061.5498
 40
21
 50
186.6794
 51
241.89705
  0
ARC
  8
0
  6
CONTINUOUS
 62
     7
 10
714.96338
 20
-1064.574
 40
5
 50
6.6794016
 51
90.000003
  0
ARC
  8
0
  6
CONTINUOUS
 62
     7
 10
716.69904
 20
-1099.574
 40
13
 50
90.000003
 51
122.06497
  0
ARC
  8
0
  6
CONTINUOUS
 62
     7
 10
611.96338
 20
-1059.574
 40
76.5
 50
200.66731
 51
270
  0
ARC
  8
0
  6
CONTINUOUS
 62
     7
 10
508.96335
 20
-1064.574
 40
5
 50
89.999996
 51
173.3206
  0
ARC
  8
0
  6
CONTINUOUS
 62
     7
 10
483.1398
 20
-1061.5498
 40
21
 50
298.10295
 51
353.3206
  0
ARC
  8
0
  6
CONTINUOUS
 62
     7
 10
960.67993
 20
-1067.1002
 40
80.599998
 50
0
 51
180.00001
  0
ARC
  8
0
  6
CONTINUOUS
 62
     7
 10
960.67993
 20
-1067.1002
 40
90
 50
17.457603
 51
90.000003
  0
ARC
  8
0
  6
CONTINUOUS
 62
     7
 10
960.67993
 20
-1067.1002
 40
100
 50
28.177571
 51
151.82243
  0
ARC
  8
0
  6
CONTINUOUS
 62
     7
 10
1078.6799
 20
-1062.1002
 40
5
 50
270
 51
353.97365
  0
ARC
  8
0
  6
CONTINUOUS
 62
     7
 10
1104.5363
 20
-1064.8298
 40
21
 50
119.76398
 51
173.97365
  0
ARC
  8
0
  6
CONTINUOUS
 62
     7
 10
1080.9015
 20
-1027.1002
 40
13
 50
234.0195
 51
270
  0
ARC
  8
0
  6
CONTINUOUS
 62
     7
 10
960.67993
 20
-1067.1002
 40
90
 50
89.999996
 51
162.5424
  0
ARC
  8
0
  6
CONTINUOUS
 62
     7
 10
816.82361
 20
-1064.8298
 40
21
 50
6.0263527
 51
60.236019
  0
ARC
  8
0
  6
CONTINUOUS
 62
     7
 10
842.67993
 20
-1062.1002
 40
5
 50
186.02635
 51
270
  0
ARC
  8
0
  6
CONTINUOUS
 62
     7
 10
840.45844
 20
-1027.1002
 40
13
 50
270
 51
305.9805
  0
ARC
  8
0
  6
CONTINUOUS
 62
     7
 10
840.45844
 20
-1107.1002
 40
13
 50
54.019498
 51
89.999996
  0
ARC
  8
0
  6
CONTINUOUS
 62
     7
 10
960.67993
 20
-1067.1002
 40
80.599998
 50
179.99999
 51
1.0017913E-005
  0
ARC
  8
0
  6
CONTINUOUS
 62
     7
 10
960.67993
 20
-1067.1002
 40
90
 50
270
 51
342.5424
  0
ARC
  8
0
  6
CONTINUOUS
 62
     7
 10
960.67993
 20
-1067.1002
 40
100
 50
208.17757
 51
331.82243
  0
ARC
  8
0
  6
CONTINUOUS
 62
     7
 10
1078.6799
 20
-1072.1002
 40
5
 50
6.0263532
 51
90.000003
  0
ARC
  8
0
  6
CONTINUOUS
 62
     7
 10
1104.5363
 20
-1069.3706
 40
21
 50
186.02635
 51
240.23602
  0
ARC
  8
0
  6
CONTINUOUS
 62
     7
 10
1080.9015
 20
-1107.1002
 40
13
 50
90.000003
 51
125.9805
  0
ARC
  8
0
  6
CONTINUOUS
 62
     7
 10
960.67993
 20
-1067.1002
 40
90
 50
197.4576
 51
270
  0
ARC
  8
0
  6
CONTINUOUS
 62
     7
 10
816.82361
 20
-1069.3706
 40
21
 50
299.76398
 51
353.97365
  0
ARC
  8
0
  6
CONTINUOUS
 62
     7
 10
842.67993
 20
-1072.1002
 40
5
 50
89.999996
 51
173.97365
  0
ARC
  8
0
  6
CONTINUOUS
 62
     7
 10
719.83972
 20
-1363.1331
 40
105.95
 50
0
 51
180.00001
  0
ARC
  8
0
  6
CONTINUOUS
 62
     7
 10
719.83972
 20
-1363.1331
 40
115
 50
20.354406
 51
90.000003
  0
ARC
  8
0
  6
CONTINUOUS
 62
     7
 10
719.83972
 20
-1363.1331
 40
127
 50
28.668701
 51
151.33132
  0
ARC
  8
0
  6
CONTINUOUS
 62
     7
 10
865.83972
 20
-1356.1331
 40
7
 50
270
 51
356.81782
  0
ARC
  8
0
  6
CONTINUOUS
 62
     7
 10
910.77032
 20
-1358.6311
 40
38
 50
129.08032
 51
176.81782
  0
ARC
  8
0
  6
CONTINUOUS
 62
     7
 10
860.82092
 20
-1320.1331
 40
3
 50
233.7764
 51
270
  0
ARC
  8
0
  6
CONTINUOUS
 62
     7
 10
578.85846
 20
-1320.1331
 40
3
 50
270
 51
306.2236
  0
ARC
  8
0
  6
CONTINUOUS
 62
     7
 10
719.83972
 20
-1363.1331
 40
115
 50
89.999996
 51
159.64559
  0
ARC
  8
0
  6
CONTINUOUS
 62
     7
 10
528.90912
 20
-1358.6311
 40
38
 50
3.1821802
 51
50.919685
  0
ARC
  8
0
  6
CONTINUOUS
 62
     7
 10
573.83966
 20
-1356.1331
 40
7
 50
183.18218
 51
270
  0
ARC
  8
0
  6
CONTINUOUS
 62
     7
 10
573.83966
 20
-1370.1331
 40
7
 50
89.999996
 51
176.81782
  0
ARC
  8
0
  6
CONTINUOUS
 62
     7
 10
719.83972
 20
-1363.1331
 40
105.95
 50
179.99999
 51
1.0017913E-005
  0
ARC
  8
0
  6
CONTINUOUS
 62
     7
 10
719.83972
 20
-1363.1331
 40
115
 50
270
 51
339.64559
  0
ARC
  8
0
  6
CONTINUOUS
 62
     7
 10
719.83972
 20
-1363.1331
 40
127
 50
208.66877
 51
331.3313
  0
ARC
  8
0
  6
CONTINUOUS
 62
     7
 10
865.83972
 20
-1370.1331
 40
7
 50
3.1821845
 51
90.000003
  0
ARC
  8
0
  6
CONTINUOUS
 62
     7
 10
910.77032
 20
-1367.6351
 40
38
 50
183.18218
 51
230.91968
  0
ARC
  8
0
  6
CONTINUOUS
 62
     7
 10
860.82092
 20
-1406.1331
 40
3
 50
90.000003
 51
126.2236
  0
ARC
  8
0
  6
CONTINUOUS
 62
     7
 10
578.85846
 20
-1406.1331
 40
3
 50
53.776398
 51
89.999996
  0
ARC
  8
0
  6
CONTINUOUS
 62
     7
 10
719.83972
 20
-1363.1331
 40
115
 50
200.35441
 51
270
  0
ARC
  8
0
  6
CONTINUOUS
 62
     7
 10
528.90912
 20
-1367.6351
 40
38
 50
309.08031
 51
356.81782
  0
ARC
  8
0
  6
CONTINUOUS
 62
     7
 10
-41.566643
 20
-1804.6735
 40
131.5
 50
0
 51
180.00001
  0
ARC
  8
0
  6
CONTINUOUS
 62
     7
 10
-41.566643
 20
-1804.6735
 40
145.5
 50
20.213233
 51
159.78677
  0
ARC
  8
0
  6
CONTINUOUS
 62
     7
 10
-41.566643
 20
-1804.6735
 40
158
 50
18.603572
 51
161.39643
  0
ARC
  8
0
  6
CONTINUOUS
 62
     7
 10
177.9334
 20
-1797.2212
 40
38
 50
121.0721
 51
180.00001
  0
ARC
  8
0
  6
CONTINUOUS
 62
     7
 10
99.664558
 20
-1752.6735
 40
5
 50
200.21323
 51
270
  0
ARC
  8
0
  6
CONTINUOUS
 62
     7
 10
112.91639
 20
-1752.6735
 40
5
 50
198.60357
 51
270
  0
ARC
  8
0
  6
CONTINUOUS
 62
     7
 10
132.9334
 20
-1797.6735
 40
7
 50
270
 51
0
  0
ARC
  8
0
  6
CONTINUOUS
 62
     7
 10
-216.06664
 20
-1797.6735
 40
7
 50
180.00001
 51
270
  0
ARC
  8
0
  6
CONTINUOUS
 62
     7
 10
-196.04967
 20
-1752.6735
 40
5
 50
270
 51
341.39643
  0
ARC
  8
0
  6
CONTINUOUS
 62
     7
 10
-261.06665
 20
-1797.2212
 40
38
 50
359.99999
 51
58.927901
  0
ARC
  8
0
  6
CONTINUOUS
 62
     7
 10
-182.79784
 20
-1752.6735
 40
5
 50
270
 51
339.78677
  0
ARC
  8
0
  6
CONTINUOUS
 62
     7
 10
-182.79784
 20
-1856.6735
 40
5
 50
20.213229
 51
89.999996
  0
ARC
  8
0
  6
CONTINUOUS
 62
     7
 10
-41.566643
 20
-1804.6735
 40
131.5
 50
179.99999
 51
1.0017913E-005
  0
ARC
  8
0
  6
CONTINUOUS
 62
     7
 10
-41.566643
 20
-1804.6735
 40
145.5
 50
200.21323
 51
339.78677
  0
ARC
  8
0
  6
CONTINUOUS
 62
     7
 10
-41.566643
 20
-1804.6735
 40
158
 50
198.60357
 51
341.39643
  0
ARC
  8
0
  6
CONTINUOUS
 62
     7
 10
177.9334
 20
-1812.1257
 40
38
 50
179.99999
 51
238.92791
  0
ARC
  8
0
  6
CONTINUOUS
 62
     7
 10
99.664558
 20
-1856.6735
 40
5
 50
90.000003
 51
159.78677
  0
ARC
  8
0
  6
CONTINUOUS
 62
     7
 10
112.91639
 20
-1856.6735
 40
5
 50
90.000003
 51
161.39643
  0
ARC
  8
0
  6
CONTINUOUS
 62
     7
 10
132.9334
 20
-1811.6735
 40
7
 50
0
 51
90.000003
  0
ARC
  8
0
  6
CONTINUOUS
 62
     7
 10
-216.06664
 20
-1811.6735
 40
7
 50
89.999996
 51
180.00001
  0
ARC
  8
0
  6
CONTINUOUS
 62
     7
 10
-196.04967
 20
-1856.6735
 40
5
 50
18.603572
 51
89.999996
  0
ARC
  8
0
  6
CONTINUOUS
 62
     7
 10
-261.06665
 20
-1812.1257
 40
38
 50
301.0721
 51
5.0089563E-006
  0
ARC
  8
0
  6
CONTINUOUS
 62
     7
 10
793.8479
 20
-1807.1821
 40
156.60001
 50
0
 51
180.00001
  0
ARC
  8
0
  6
CONTINUOUS
 62
     7
 10
793.8479
 20
-1807.1821
 40
171.5
 50
17.134607
 51
162.8654
  0
ARC
  8
0
  6
CONTINUOUS
 62
     7
 10
793.8479
 20
-1807.1821
 40
186.5
 50
15.755954
 51
164.24404
  0
ARC
  8
0
  6
CONTINUOUS
 62
     7
 10
962.51398
 20
-1755.1821
 40
5
 50
197.1346
 51
270
  0
ARC
  8
0
  6
CONTINUOUS
 62
     7
 10
978.15271
 20
-1755.1821
 40
5
 50
195.75596
 51
270
  0
ARC
  8
0
  6
CONTINUOUS
 62
     7
 10
994.8479
 20
-1800.1821
 40
7
 50
270
 51
0.57586333
  0
ARC
  8
0
  6
CONTINUOUS
 62
     7
 10
1039.8479
 20
-1799.7299
 40
38
 50
121.0721
 51
180.00001
  0
ARC
  8
0
  6
CONTINUOUS
 62
     7
 10
547.8479
 20
-1799.7299
 40
38
 50
0
 51
58.927901
  0
ARC
  8
0
  6
CONTINUOUS
 62
     7
 10
592.8479
 20
-1800.1821
 40
7
 50
179.42414
 51
270
  0
ARC
  8
0
  6
CONTINUOUS
 62
     7
 10
609.54315
 20
-1755.1821
 40
5
 50
270
 51
344.24405
  0
ARC
  8
0
  6
CONTINUOUS
 62
     7
 10
625.18182
 20
-1755.1821
 40
5
 50
270
 51
342.86539
  0
ARC
  8
0
  6
CONTINUOUS
 62
     7
 10
609.54315
 20
-1859.1821
 40
5
 50
15.755954
 51
90.000003
  0
ARC
  8
0
  6
CONTINUOUS
 62
     7
 10
547.8479
 20
-1814.6345
 40
38
 50
301.0721
 51
0
  0
ARC
  8
0
  6
CONTINUOUS
 62
     7
 10
592.8479
 20
-1814.1821
 40
7
 50
90.000003
 51
180.57586
  0
ARC
  8
0
  6
CONTINUOUS
 62
     7
 10
625.18182
 20
-1859.1821
 40
5
 50
17.134607
 51
90.000003
  0
ARC
  8
0
  6
CONTINUOUS
 62
     7
 10
793.8479
 20
-1807.1821
 40
156.60001
 50
179.99999
 51
1.0017913E-005
  0
ARC
  8
0
  6
CONTINUOUS
 62
     7
 10
793.8479
 20
-1807.1821
 40
171.5
 50
197.1346
 51
342.86539
  0
ARC
  8
0
  6
CONTINUOUS
 62
     7
 10
793.8479
 20
-1807.1821
 40
186.5
 50
195.75596
 51
344.24405
  0
ARC
  8
0
  6
CONTINUOUS
 62
     7
 10
962.51398
 20
-1859.1821
 40
5
 50
90.000003
 51
162.8654
  0
ARC
  8
0
  6
CONTINUOUS
 62
     7
 10
978.15271
 20
-1859.1821
 40
5
 50
90.000003
 51
164.24404
  0
ARC
  8
0
  6
CONTINUOUS
 62
     7
 10
994.8479
 20
-1814.1821
 40
7
 50
359.42414
 51
90.000003
  0
ARC
  8
0
  6
CONTINUOUS
 62
     7
 10
1039.8479
 20
-1814.6345
 40
38
 50
179.99999
 51
238.92791
  0
ARC
  8
0
  6
CONTINUOUS
 62
     7
 10
532.78778
 20
-36.625965
 40
10
 50
295.94448
 51
5.0089561E-006
  0
ARC
  8
0
  6
CONTINUOUS
 62
     7
 10
529.28778
 20
-29.432209
 40
18
 50
270
 51
295.94448
  0
ARC
  8
0
  6
CONTINUOUS
 62
     7
 10
529.28778
 20
-29.432209
 40
18
 50
244.05552
 51
270
  0
ARC
  8
0
  6
CONTINUOUS
 62
     7
 10
525.78778
 20
-36.625965
 40
10
 50
179.99999
 51
244.05553
  0
ARC
  8
0
  6
CONTINUOUS
 62
     7
 10
716.46338
 20
-1086.7677
 40
10
 50
295.94448
 51
5.0089556E-006
  0
ARC
  8
0
  6
CONTINUOUS
 62
     7
 10
712.96338
 20
-1079.574
 40
18
 50
270
 51
295.94448
  0
ARC
  8
0
  6
CONTINUOUS
 62
     7
 10
712.96338
 20
-1079.574
 40
18
 50
244.05552
 51
270
  0
ARC
  8
0
  6
CONTINUOUS
 62
     7
 10
709.46338
 20
-1086.7677
 40
10
 50
221.81721
 51
244.05553
  0
ARC
  8
0
  6
CONTINUOUS
 62
     7
 10
679.28778
 20
-29.432224
 40
18
 50
244.05552
 51
270
  0
ARC
  8
0
  6
CONTINUOUS
 62
     7
 10
675.78778
 20
-36.62595
 40
10
 50
179.99999
 51
244.05553
  0
ARC
  8
0
  6
CONTINUOUS
 62
     7
 10
682.78778
 20
-36.62595
 40
10
 50
295.94447
 51
8.6514222E-006
  0
ARC
  8
0
  6
CONTINUOUS
 62
     7
 10
679.28778
 20
-29.432224
 40
18
 50
270
 51
295.94448
  0
ARC
  8
0
  6
CONTINUOUS
 62
     7
 10
1076.6799
 20
-1087.1002
 40
18
 50
244.05552
 51
270
  0
ARC
  8
0
  6
CONTINUOUS
 62
     7
 10
1073.1799
 20
-1094.2939
 40
10
 50
226.93054
 51
244.05553
  0
ARC
  8
0
  6
CONTINUOUS
 62
     7
 10
1080.1799
 20
-1094.2939
 40
10
 50
295.94447
 51
8.6514227E-006
  0
ARC
  8
0
  6
CONTINUOUS
 62
     7
 10
1076.6799
 20
-1087.1002
 40
18
 50
270
 51
295.94448
  0
ARC
  8
0
  6
CONTINUOUS
 62
     7
 10
835.78778
 20
-49.950718
 40
10
 50
295.6793
 51
5.0089561E-006
  0
ARC
  8
0
  6
CONTINUOUS
 62
     7
 10
822.78778
 20
-49.950718
 40
10
 50
179.99999
 51
244.3207
  0
ARC
  8
0
  6
CONTINUOUS
 62
     7
 10
829.28778
 20
-36.432194
 40
25
 50
244.32071
 51
270
  0
ARC
  8
0
  6
CONTINUOUS
 62
     7
 10
829.28778
 20
-36.432194
 40
25
 50
270
 51
295.6793
  0
ARC
  8
0
  6
CONTINUOUS
 62
     7
 10
871.33972
 20
-1403.6515
 40
10
 50
295.6793
 51
5.0089556E-006
  0
ARC
  8
0
  6
CONTINUOUS
 62
     7
 10
858.33972
 20
-1403.6515
 40
10
 50
218.90687
 51
244.32071
  0
ARC
  8
0
  6
CONTINUOUS
 62
     7
 10
864.83972
 20
-1390.1329
 40
25
 50
244.32071
 51
270
  0
ARC
  8
0
  6
CONTINUOUS
 62
     7
 10
864.83972
 20
-1390.1329
 40
25
 50
270
 51
295.6793
  0
ARC
  8
0
  6
CONTINUOUS
 62
     7
 10
971.78778
 20
-56.343746
 40
11.5
 50
180.44076
 51
246.08347
  0
ARC
  8
0
  6
CONTINUOUS
 62
     7
 10
979.28778
 20
-39.432217
 40
30
 50
246.08347
 51
270
  0
ARC
  8
0
  6
CONTINUOUS
 62
     7
 10
979.28778
 20
-39.432217
 40
30
 50
270
 51
293.91653
  0
ARC
  8
0
  6
CONTINUOUS
 62
     7
 10
986.78778
 20
-56.343746
 40
11.5
 50
293.91653
 51
359.55924
  0
ARC
  8
0
  6
CONTINUOUS
 62
     7
 10
124.43339
 20
-1851.585
 40
11.5
 50
180.44076
 51
246.08347
  0
ARC
  8
0
  6
CONTINUOUS
 62
     7
 10
131.9334
 20
-1834.6735
 40
30
 50
246.08347
 51
270
  0
ARC
  8
0
  6
CONTINUOUS
 62
     7
 10
131.9334
 20
-1834.6735
 40
30
 50
270
 51
293.91653
  0
ARC
  8
0
  6
CONTINUOUS
 62
     7
 10
139.4334
 20
-1851.585
 40
11.5
 50
293.91653
 51
359.55924
  0
ARC
  8
0
  6
CONTINUOUS
 62
     7
 10
1121.7878
 20
-56.343739
 40
11.5
 50
180.44076
 51
246.08347
  0
ARC
  8
0
  6
CONTINUOUS
 62
     7
 10
1129.2878
 20
-39.432209
 40
30
 50
246.08347
 51
270
  0
ARC
  8
0
  6
CONTINUOUS
 62
     7
 10
1129.2878
 20
-39.432209
 40
30
 50
270
 51
293.91653
  0
ARC
  8
0
  6
CONTINUOUS
 62
     7
 10
1136.7878
 20
-56.343739
 40
11.5
 50
293.91653
 51
359.55924
  0
ARC
  8
0
  6
CONTINUOUS
 62
     7
 10
986.3479
 20
-1854.0938
 40
11.5
 50
186.36577
 51
246.08347
  0
ARC
  8
0
  6
CONTINUOUS
 62
     7
 10
993.8479
 20
-1837.1821
 40
30
 50
246.08347
 51
270
  0
ARC
  8
0
  6
CONTINUOUS
 62
     7
 10
993.8479
 20
-1837.1821
 40
30
 50
270
 51
293.91653
  0
ARC
  8
0
  6
CONTINUOUS
 62
     7
 10
1001.3479
 20
-1854.0938
 40
11.5
 50
293.91653
 51
359.55924
  0
POLYLINE
  8
0
  6
CONTINUOUS
 62
     7
 66
     1
 10
0
 20
0
  0
VERTEX
  8
0
  6
CONTINUOUS
 62
     7
 10
-267.55991
 20
-1054.6011
 42
-0.018831977
  0
VERTEX
  8
0
  6
CONTINUOUS
 62
     7
 10
-267.87506
 20
-1054.9385
 42
-0.020111516
  0
VERTEX
  8
0
  6
CONTINUOUS
 62
     7
 10
-268.21534
 20
-1055.2504
 42
-0.023109637
  0
VERTEX
  8
0
  6
CONTINUOUS
 62
     7
 10
-268.58119
 20
-1055.532
 42
0
  0
SEQEND
  8
0
  0
POLYLINE
  8
0
  6
CONTINUOUS
 62
     7
 66
     1
 10
0
 20
0
  0
VERTEX
  8
0
  6
CONTINUOUS
 62
     7
 10
-262.71378
 20
-1047.0177
 42
0.05516239
  0
VERTEX
  8
0
  6
CONTINUOUS
 62
     7
 10
-264.41364
 20
-1047.2123
 42
0.045254866
  0
VERTEX
  8
0
  6
CONTINUOUS
 62
     7
 10
-266.04212
 20
-1047.7409
 42
0.039294358
  0
VERTEX
  8
0
  6
CONTINUOUS
 62
     7
 10
-267.55991
 20
-1048.5344
 42
0
  0
SEQEND
  8
0
  0
POLYLINE
  8
0
  6
CONTINUOUS
 62
     7
 66
     1
 10
0
 20
0
  0
VERTEX
  8
0
  6
CONTINUOUS
 62
     7
 10
-262.71378
 20
-1056.1177
 42
-0.05515442
  0
VERTEX
  8
0
  6
CONTINUOUS
 62
     7
 10
-264.41364
 20
-1055.9231
 42
-0.045255557
  0
VERTEX
  8
0
  6
CONTINUOUS
 62
     7
 10
-266.04212
 20
-1055.3946
 42
-0.039301697
  0
VERTEX
  8
0
  6
CONTINUOUS
 62
     7
 10
-267.55991
 20
-1054.6011
 42
0
  0
SEQEND
  8
0
  0
POLYLINE
  8
0
  6
CONTINUOUS
 62
     7
 66
     1
 10
0
 20
0
  0
VERTEX
  8
0
  6
CONTINUOUS
 62
     7
 10
-267.55991
 20
-1048.5344
 42
0.10382404
  0
VERTEX
  8
0
  6
CONTINUOUS
 62
     7
 10
-269.18281
 20
-1047.2561
 42
0.237405
  0
VERTEX
  8
0
  6
CONTINUOUS
 62
     7
 10
-271.19057
 20
-1047.256
 42
0.10385812
  0
VERTEX
  8
0
  6
CONTINUOUS
 62
     7
 10
-272.81375
 20
-1048.5344
 42
0
  0
SEQEND
  8
0
  0
POLYLINE
  8
0
  6
CONTINUOUS
 62
     7
 66
     1
 10
0
 20
0
  0
VERTEX
  8
0
  6
CONTINUOUS
 62
     7
 10
-325.81863
 20
-9.432209
 42
-0.026520172
  0
VERTEX
  8
0
  6
CONTINUOUS
 62
     7
 10
-323.97515
 20
-5.0919651
 42
-0.046413788
  0
VERTEX
  8
0
  6
CONTINUOUS
 62
     7
 10
-321.55936
 20
-1.0475182
 42
-0.21303989
  0
VERTEX
  8
0
  6
CONTINUOUS
 62
     7
 10
-317.81863
 20
1.5677913
 42
0
  0
SEQEND
  8
0
  0
POLYLINE
  8
0
  6
CONTINUOUS
 62
     7
 66
     1
 10
0
 20
0
  0
VERTEX
  8
0
  6
CONTINUOUS
 62
     7
 10
-325.81863
 20
-9.432209
 42
0.026520175
  0
VERTEX
  8
0
  6
CONTINUOUS
 62
     7
 10
-323.97515
 20
-13.772453
 42
0.046413791
  0
VERTEX
  8
0
  6
CONTINUOUS
 62
     7
 10
-321.55936
 20
-17.8169
 42
0.21303989
  0
VERTEX
  8
0
  6
CONTINUOUS
 62
     7
 10
-317.81863
 20
-20.432209
 42
0
  0
SEQEND
  8
0
  0
POLYLINE
  8
0
  6
CONTINUOUS
 62
     7
 66
     1
 10
0
 20
0
  0
VERTEX
  8
0
  6
CONTINUOUS
 62
     7
 10
-309.81863
 20
-9.432209
 42
-0.026520175
  0
VERTEX
  8
0
  6
CONTINUOUS
 62
     7
 10
-311.66212
 20
-13.772453
 42
-0.046413791
  0
VERTEX
  8
0
  6
CONTINUOUS
 62
     7
 10
-314.07791
 20
-17.8169
 42
-0.21303989
  0
VERTEX
  8
0
  6
CONTINUOUS
 62
     7
 10
-317.81863
 20
-20.432209
 42
0
  0
SEQEND
  8
0
  0
POLYLINE
  8
0
  6
CONTINUOUS
 62
     7
 66
     1
 10
0
 20
0
  0
VERTEX
  8
0
  6
CONTINUOUS
 62
     7
 10
-257.86765
 20
-1054.6011
 42
0.10383913
  0
VERTEX
  8
0
  6
CONTINUOUS
 62
     7
 10
-256.24471
 20
-1055.8793
 42
0.23736524
  0
VERTEX
  8
0
  6
CONTINUOUS
 62
     7
 10
-254.23696
 20
-1055.8795
 42
0.10387451
  0
VERTEX
  8
0
  6
CONTINUOUS
 62
     7
 10
-252.61372
 20
-1054.6011
 42
0
  0
SEQEND
  8
0
  0
POLYLINE
  8
0
  6
CONTINUOUS
 62
     7
 66
     1
 10
0
 20
0
  0
VERTEX
  8
0
  6
CONTINUOUS
 62
     7
 10
-262.71378
 20
-1047.0177
 42
-0.05516239
  0
VERTEX
  8
0
  6
CONTINUOUS
 62
     7
 10
-261.01391
 20
-1047.2123
 42
-0.045254866
  0
VERTEX
  8
0
  6
CONTINUOUS
 62
     7
 10
-259.38543
 20
-1047.7409
 42
-0.039294358
  0
VERTEX
  8
0
  6
CONTINUOUS
 62
     7
 10
-257.86765
 20
-1048.5344
 42
0
  0
SEQEND
  8
0
  0
POLYLINE
  8
0
  6
CONTINUOUS
 62
     7
 66
     1
 10
0
 20
0
  0
VERTEX
  8
0
  6
CONTINUOUS
 62
     7
 10
-262.71378
 20
-1056.1177
 42
0.05515442
  0
VERTEX
  8
0
  6
CONTINUOUS
 62
     7
 10
-261.01391
 20
-1055.9231
 42
0.045255557
  0
VERTEX
  8
0
  6
CONTINUOUS
 62
     7
 10
-259.38543
 20
-1055.3946
 42
0.039301697
  0
VERTEX
  8
0
  6
CONTINUOUS
 62
     7
 10
-257.86765
 20
-1054.6011
 42
0
  0
SEQEND
  8
0
  0
POLYLINE
  8
0
  6
CONTINUOUS
 62
     7
 66
     1
 10
0
 20
0
  0
VERTEX
  8
0
  6
CONTINUOUS
 62
     7
 10
-257.86765
 20
-1048.5344
 42
-0.10382552
  0
VERTEX
  8
0
  6
CONTINUOUS
 62
     7
 10
-256.24472
 20
-1047.2561
 42
-0.23740076
  0
VERTEX
  8
0
  6
CONTINUOUS
 62
     7
 10
-254.23695
 20
-1047.256
 42
-0.10386092
  0
VERTEX
  8
0
  6
CONTINUOUS
 62
     7
 10
-252.61372
 20
-1048.5344
 42
0
  0
SEQEND
  8
0
  0
POLYLINE
  8
0
  6
CONTINUOUS
 62
     7
 66
     1
 10
0
 20
0
  0
VERTEX
  8
0
  6
CONTINUOUS
 62
     7
 10
-309.81863
 20
-9.432209
 42
0.026520172
  0
VERTEX
  8
0
  6
CONTINUOUS
 62
     7
 10
-311.66212
 20
-5.0919651
 42
0.046413788
  0
VERTEX
  8
0
  6
CONTINUOUS
 62
     7
 10
-314.07791
 20
-1.0475182
 42
0.21303989
  0
VERTEX
  8
0
  6
CONTINUOUS
 62
     7
 10
-317.81863
 20
1.5677913
 42
0
  0
SEQEND
  8
0
  0
POLYLINE
  8
0
  6
CONTINUOUS
 62
     7
 66
     1
 10
0
 20
0
  0
VERTEX
  8
0
  6
CONTINUOUS
 62
     7
 10
-103.50849
 20
-1052.0923
 42
-0.0084525788
  0
VERTEX
  8
0
  6
CONTINUOUS
 62
     7
 10
-103.64737
 20
-1052.2473
 42
-0.0085447573
  0
VERTEX
  8
0
  6
CONTINUOUS
 62
     7
 10
-103.79194
 20
-1052.398
 42
-0.0087454625
  0
VERTEX
  8
0
  6
CONTINUOUS
 62
     7
 10
-103.94112
 20
-1052.5431
 42
0
  0
SEQEND
  8
0
  0
POLYLINE
  8
0
  6
CONTINUOUS
 62
     7
 66
     1
 10
0
 20
0
  0
VERTEX
  8
0
  6
CONTINUOUS
 62
     7
 10
-98.662361
 20
-1044.509
 42
0.05515442
  0
VERTEX
  8
0
  6
CONTINUOUS
 62
     7
 10
-100.36222
 20
-1044.7036
 42
0.045255557
  0
VERTEX
  8
0
  6
CONTINUOUS
 62
     7
 10
-101.9907
 20
-1045.2321
 42
0.039301697
  0
VERTEX
  8
0
  6
CONTINUOUS
 62
     7
 10
-103.50849
 20
-1046.0256
 42
0
  0
SEQEND
  8
0
  0
POLYLINE
  8
0
  6
CONTINUOUS
 62
     7
 66
     1
 10
0
 20
0
  0
VERTEX
  8
0
  6
CONTINUOUS
 62
     7
 10
-98.662361
 20
-1053.609
 42
-0.05516239
  0
VERTEX
  8
0
  6
CONTINUOUS
 62
     7
 10
-100.36223
 20
-1053.4144
 42
-0.045254866
  0
VERTEX
  8
0
  6
CONTINUOUS
 62
     7
 10
-101.99071
 20
-1052.8858
 42
-0.039294358
  0
VERTEX
  8
0
  6
CONTINUOUS
 62
     7
 10
-103.50849
 20
-1052.0923
 42
0
  0
SEQEND
  8
0
  0
POLYLINE
  8
0
  6
CONTINUOUS
 62
     7
 66
     1
 10
0
 20
0
  0
VERTEX
  8
0
  6
CONTINUOUS
 62
     7
 10
-103.50849
 20
-1046.0256
 42
0.10383888
  0
VERTEX
  8
0
  6
CONTINUOUS
 62
     7
 10
-105.13142
 20
-1044.7474
 42
0.23736507
  0
VERTEX
  8
0
  6
CONTINUOUS
 62
     7
 10
-107.13916
 20
-1044.7472
 42
0.1038747
  0
VERTEX
  8
0
  6
CONTINUOUS
 62
     7
 10
-108.7624
 20
-1046.0256
 42
0
  0
SEQEND
  8
0
  0
POLYLINE
  8
0
  6
CONTINUOUS
 62
     7
 66
     1
 10
0
 20
0
  0
VERTEX
  8
0
  6
CONTINUOUS
 62
     7
 10
-229.56177
 20
-9.432209
 42
-0.021695157
  0
VERTEX
  8
0
  6
CONTINUOUS
 62
     7
 10
-228.13866
 20
-5.2602294
 42
-0.038166349
  0
VERTEX
  8
0
  6
CONTINUOUS
 62
     7
 10
-226.25954
 20
-1.2758321
 42
-0.22070391
  0
VERTEX
  8
0
  6
CONTINUOUS
 62
     7
 10
-223.11108
 20
1.5677913
 42
0
  0
SEQEND
  8
0
  0
POLYLINE
  8
0
  6
CONTINUOUS
 62
     7
 66
     1
 10
0
 20
0
  0
VERTEX
  8
0
  6
CONTINUOUS
 62
     7
 10
-229.56177
 20
-9.432209
 42
0.021695159
  0
VERTEX
  8
0
  6
CONTINUOUS
 62
     7
 10
-228.13866
 20
-13.604189
 42
0.038166351
  0
VERTEX
  8
0
  6
CONTINUOUS
 62
     7
 10
-226.25954
 20
-17.588586
 42
0.22070391
  0
VERTEX
  8
0
  6
CONTINUOUS
 62
     7
 10
-223.11108
 20
-20.432209
 42
0
  0
SEQEND
  8
0
  0
POLYLINE
  8
0
  6
CONTINUOUS
 62
     7
 66
     1
 10
0
 20
0
  0
VERTEX
  8
0
  6
CONTINUOUS
 62
     7
 10
-93.816292
 20
-1046.0256
 42
-0.10383888
  0
VERTEX
  8
0
  6
CONTINUOUS
 62
     7
 10
-92.193365
 20
-1044.7474
 42
-0.23736507
  0
VERTEX
  8
0
  6
CONTINUOUS
 62
     7
 10
-90.185627
 20
-1044.7472
 42
-0.1038747
  0
VERTEX
  8
0
  6
CONTINUOUS
 62
     7
 10
-88.562386
 20
-1046.0256
 42
0
  0
SEQEND
  8
0
  0
POLYLINE
  8
0
  6
CONTINUOUS
 62
     7
 66
     1
 10
0
 20
0
  0
VERTEX
  8
0
  6
CONTINUOUS
 62
     7
 10
-216.66045
 20
-9.432209
 42
0.021694338
  0
VERTEX
  8
0
  6
CONTINUOUS
 62
     7
 10
-218.08354
 20
-5.2602334
 42
0.038166145
  0
VERTEX
  8
0
  6
CONTINUOUS
 62
     7
 10
-219.96264
 20
-1.2758353
 42
0.22070512
  0
VERTEX
  8
0
  6
CONTINUOUS
 62
     7
 10
-223.11108
 20
1.5677913
 42
0
  0
SEQEND
  8
0
  0
POLYLINE
  8
0
  6
CONTINUOUS
 62
     7
 66
     1
 10
0
 20
0
  0
VERTEX
  8
0
  6
CONTINUOUS
 62
     7
 10
-216.66045
 20
-9.432209
 42
-0.021694341
  0
VERTEX
  8
0
  6
CONTINUOUS
 62
     7
 10
-218.08354
 20
-13.604185
 42
-0.038166148
  0
VERTEX
  8
0
  6
CONTINUOUS
 62
     7
 10
-219.96264
 20
-17.588583
 42
-0.22070512
  0
VERTEX
  8
0
  6
CONTINUOUS
 62
     7
 10
-223.11108
 20
-20.432209
 42
0
  0
SEQEND
  8
0
  0
POLYLINE
  8
0
  6
CONTINUOUS
 62
     7
 66
     1
 10
0
 20
0
  0
VERTEX
  8
0
  6
CONTINUOUS
 62
     7
 10
-93.816292
 20
-1052.0923
 42
0.10382527
  0
VERTEX
  8
0
  6
CONTINUOUS
 62
     7
 10
-92.193374
 20
-1053.3706
 42
0.23740059
  0
VERTEX
  8
0
  6
CONTINUOUS
 62
     7
 10
-90.185617
 20
-1053.3708
 42
0.10386111
  0
VERTEX
  8
0
  6
CONTINUOUS
 62
     7
 10
-88.562386
 20
-1052.0923
 42
0
  0
SEQEND
  8
0
  0
POLYLINE
  8
0
  6
CONTINUOUS
 62
     7
 66
     1
 10
0
 20
0
  0
VERTEX
  8
0
  6
CONTINUOUS
 62
     7
 10
-98.662361
 20
-1044.509
 42
-0.055155285
  0
VERTEX
  8
0
  6
CONTINUOUS
 62
     7
 10
-96.962519
 20
-1044.7036
 42
-0.045256511
  0
VERTEX
  8
0
  6
CONTINUOUS
 62
     7
 10
-95.334059
 20
-1045.2321
 42
-0.039300076
  0
VERTEX
  8
0
  6
CONTINUOUS
 62
     7
 10
-93.816292
 20
-1046.0256
 42
0
  0
SEQEND
  8
0
  0
POLYLINE
  8
0
  6
CONTINUOUS
 62
     7
 66
     1
 10
0
 20
0
  0
VERTEX
  8
0
  6
CONTINUOUS
 62
     7
 10
-98.662361
 20
-1053.609
 42
0.055163254
  0
VERTEX
  8
0
  6
CONTINUOUS
 62
     7
 10
-96.962512
 20
-1053.4144
 42
0.04525582
  0
VERTEX
  8
0
  6
CONTINUOUS
 62
     7
 10
-95.334057
 20
-1052.8858
 42
0.039292737
  0
VERTEX
  8
0
  6
CONTINUOUS
 62
     7
 10
-93.816292
 20
-1052.0923
 42
0
  0
SEQEND
  8
0
  0
POLYLINE
  8
0
  6
CONTINUOUS
 62
     7
 66
     1
 10
0
 20
0
  0
VERTEX
  8
0
  6
CONTINUOUS
 62
     7
 10
253.02797
 20
-1044.509
 42
0.05515442
  0
VERTEX
  8
0
  6
CONTINUOUS
 62
     7
 10
251.32811
 20
-1044.7036
 42
0.045255557
  0
VERTEX
  8
0
  6
CONTINUOUS
 62
     7
 10
249.69963
 20
-1045.2321
 42
0.039301697
  0
VERTEX
  8
0
  6
CONTINUOUS
 62
     7
 10
248.18184
 20
-1046.0256
 42
0
  0
SEQEND
  8
0
  0
POLYLINE
  8
0
  6
CONTINUOUS
 62
     7
 66
     1
 10
0
 20
0
  0
VERTEX
  8
0
  6
CONTINUOUS
 62
     7
 10
257.87408
 20
-1052.0923
 42
-0.039293314
  0
VERTEX
  8
0
  6
CONTINUOUS
 62
     7
 10
256.35633
 20
-1052.8858
 42
-0.04525522
  0
VERTEX
  8
0
  6
CONTINUOUS
 62
     7
 10
254.72785
 20
-1053.4144
 42
-0.055163112
  0
VERTEX
  8
0
  6
CONTINUOUS
 62
     7
 10
253.02797
 20
-1053.609
 42
0
  0
SEQEND
  8
0
  0
POLYLINE
  8
0
  6
CONTINUOUS
 62
     7
 66
     1
 10
0
 20
0
  0
VERTEX
  8
0
  6
CONTINUOUS
 62
     7
 10
248.18184
 20
-1046.0256
 42
0.10383888
  0
VERTEX
  8
0
  6
CONTINUOUS
 62
     7
 10
246.55891
 20
-1044.7474
 42
0.23736507
  0
VERTEX
  8
0
  6
CONTINUOUS
 62
     7
 10
244.55117
 20
-1044.7472
 42
0.1038747
  0
VERTEX
  8
0
  6
CONTINUOUS
 62
     7
 10
242.92793
 20
-1046.0256
 42
0
  0
SEQEND
  8
0
  0
POLYLINE
  8
0
  6
CONTINUOUS
 62
     7
 66
     1
 10
0
 20
0
  0
VERTEX
  8
0
  6
CONTINUOUS
 62
     7
 10
-40.152885
 20
-9.432209
 42
-0.028087228
  0
VERTEX
  8
0
  6
CONTINUOUS
 62
     7
 10
-38.156778
 20
-5.0344093
 42
-0.048929622
  0
VERTEX
  8
0
  6
CONTINUOUS
 62
     7
 10
-35.550402
 20
-0.97459434
 42
-0.20799863
  0
VERTEX
  8
0
  6
CONTINUOUS
 62
     7
 10
-31.61532
 20
1.5677913
 42
0
  0
SEQEND
  8
0
  0
POLYLINE
  8
0
  6
CONTINUOUS
 62
     7
 66
     1
 10
0
 20
0
  0
VERTEX
  8
0
  6
CONTINUOUS
 62
     7
 10
-40.152885
 20
-9.432209
 42
0.028087231
  0
VERTEX
  8
0
  6
CONTINUOUS
 62
     7
 10
-38.156778
 20
-13.830009
 42
0.048929625
  0
VERTEX
  8
0
  6
CONTINUOUS
 62
     7
 10
-35.550402
 20
-17.889823
 42
0.20799863
  0
VERTEX
  8
0
  6
CONTINUOUS
 62
     7
 10
-31.61532
 20
-20.432209
 42
0
  0
SEQEND
  8
0
  0
POLYLINE
  8
0
  6
CONTINUOUS
 62
     7
 66
     1
 10
0
 20
0
  0
VERTEX
  8
0
  6
CONTINUOUS
 62
     7
 10
-23.077768
 20
-9.432209
 42
-0.028087008
  0
VERTEX
  8
0
  6
CONTINUOUS
 62
     7
 10
-25.073873
 20
-13.830007
 42
-0.048929596
  0
VERTEX
  8
0
  6
CONTINUOUS
 62
     7
 10
-27.680242
 20
-17.889823
 42
-0.20799896
  0
VERTEX
  8
0
  6
CONTINUOUS
 62
     7
 10
-31.61532
 20
-20.432209
 42
0
  0
SEQEND
  8
0
  0
POLYLINE
  8
0
  6
CONTINUOUS
 62
     7
 66
     1
 10
0
 20
0
  0
VERTEX
  8
0
  6
CONTINUOUS
 62
     7
 10
257.87402
 20
-1052.0923
 42
0.10382527
  0
VERTEX
  8
0
  6
CONTINUOUS
 62
     7
 10
259.49694
 20
-1053.3706
 42
0.23740059
  0
VERTEX
  8
0
  6
CONTINUOUS
 62
     7
 10
261.5047
 20
-1053.3708
 42
0.10386111
  0
VERTEX
  8
0
  6
CONTINUOUS
 62
     7
 10
263.12793
 20
-1052.0923
 42
0
  0
SEQEND
  8
0
  0
POLYLINE
  8
0
  6
CONTINUOUS
 62
     7
 66
     1
 10
0
 20
0
  0
VERTEX
  8
0
  6
CONTINUOUS
 62
     7
 10
253.02797
 20
-1044.509
 42
-0.055155501
  0
VERTEX
  8
0
  6
CONTINUOUS
 62
     7
 10
254.72781
 20
-1044.7036
 42
-0.045256749
  0
VERTEX
  8
0
  6
CONTINUOUS
 62
     7
 10
256.35626
 20
-1045.2321
 42
-0.039299671
  0
VERTEX
  8
0
  6
CONTINUOUS
 62
     7
 10
257.87402
 20
-1046.0256
 42
0
  0
SEQEND
  8
0
  0
POLYLINE
  8
0
  6
CONTINUOUS
 62
     7
 66
     1
 10
0
 20
0
  0
VERTEX
  8
0
  6
CONTINUOUS
 62
     7
 10
253.02797
 20
-1053.609
 42
0.055163471
  0
VERTEX
  8
0
  6
CONTINUOUS
 62
     7
 10
254.72781
 20
-1053.4144
 42
0.045256058
  0
VERTEX
  8
0
  6
CONTINUOUS
 62
     7
 10
256.35626
 20
-1052.8858
 42
0.039292332
  0
VERTEX
  8
0
  6
CONTINUOUS
 62
     7
 10
257.87402
 20
-1052.0923
 42
0
  0
SEQEND
  8
0
  0
POLYLINE
  8
0
  6
CONTINUOUS
 62
     7
 66
     1
 10
0
 20
0
  0
VERTEX
  8
0
  6
CONTINUOUS
 62
     7
 10
257.87402
 20
-1046.0256
 42
-0.10383888
  0
VERTEX
  8
0
  6
CONTINUOUS
 62
     7
 10
259.49695
 20
-1044.7474
 42
-0.23736507
  0
VERTEX
  8
0
  6
CONTINUOUS
 62
     7
 10
261.50469
 20
-1044.7472
 42
-0.1038747
  0
VERTEX
  8
0
  6
CONTINUOUS
 62
     7
 10
263.12793
 20
-1046.0256
 42
0
  0
SEQEND
  8
0
  0
POLYLINE
  8
0
  6
CONTINUOUS
 62
     7
 66
     1
 10
0
 20
0
  0
VERTEX
  8
0
  6
CONTINUOUS
 62
     7
 10
-23.077768
 20
-9.432209
 42
0.028087005
  0
VERTEX
  8
0
  6
CONTINUOUS
 62
     7
 10
-25.073873
 20
-5.0344105
 42
0.048929593
  0
VERTEX
  8
0
  6
CONTINUOUS
 62
     7
 10
-27.680242
 20
-0.97459501
 42
0.20799897
  0
VERTEX
  8
0
  6
CONTINUOUS
 62
     7
 10
-31.61532
 20
1.5677913
 42
0
  0
SEQEND
  8
0
  0
POLYLINE
  8
0
  6
CONTINUOUS
 62
     7
 66
     1
 10
0
 20
0
  0
VERTEX
  8
0
  6
CONTINUOUS
 62
     7
 10
67.406548
 20
-1042.0002
 42
0.055154799
  0
VERTEX
  8
0
  6
CONTINUOUS
 62
     7
 10
65.706694
 20
-1042.1948
 42
0.045255974
  0
VERTEX
  8
0
  6
CONTINUOUS
 62
     7
 10
64.078222
 20
-1042.7233
 42
0.039300988
  0
VERTEX
  8
0
  6
CONTINUOUS
 62
     7
 10
62.560444
 20
-1043.5168
 42
0
  0
SEQEND
  8
0
  0
POLYLINE
  8
0
  6
CONTINUOUS
 62
     7
 66
     1
 10
0
 20
0
  0
VERTEX
  8
0
  6
CONTINUOUS
 62
     7
 10
72.252678
 20
-1049.5835
 42
-0.039293719
  0
VERTEX
  8
0
  6
CONTINUOUS
 62
     7
 10
70.734917
 20
-1050.377
 42
-0.045254981
  0
VERTEX
  8
0
  6
CONTINUOUS
 62
     7
 10
69.106434
 20
-1050.9056
 42
-0.055162897
  0
VERTEX
  8
0
  6
CONTINUOUS
 62
     7
 10
67.406548
 20
-1051.1002
 42
0
  0
SEQEND
  8
0
  0
POLYLINE
  8
0
  6
CONTINUOUS
 62
     7
 66
     1
 10
0
 20
0
  0
VERTEX
  8
0
  6
CONTINUOUS
 62
     7
 10
62.560444
 20
-1043.5168
 42
0.10383888
  0
VERTEX
  8
0
  6
CONTINUOUS
 62
     7
 10
60.937517
 20
-1042.2386
 42
0.23736507
  0
VERTEX
  8
0
  6
CONTINUOUS
 62
     7
 10
58.929779
 20
-1042.2385
 42
0.1038747
  0
VERTEX
  8
0
  6
CONTINUOUS
 62
     7
 10
57.306538
 20
-1043.5168
 42
0
  0
SEQEND
  8
0
  0
POLYLINE
  8
0
  6
CONTINUOUS
 62
     7
 66
     1
 10
0
 20
0
  0
VERTEX
  8
0
  6
CONTINUOUS
 62
     7
 10
-129.11685
 20
-9.432209
 42
-0.019615567
  0
VERTEX
  8
0
  6
CONTINUOUS
 62
     7
 10
-127.85687
 20
-5.3288168
 42
-0.03445755
  0
VERTEX
  8
0
  6
CONTINUOUS
 62
     7
 10
-126.19011
 20
-1.3754147
 42
-0.2192055
  0
VERTEX
  8
0
  6
CONTINUOUS
 62
     7
 10
-123.30022
 20
1.5677913
 42
0
  0
SEQEND
  8
0
  0
POLYLINE
  8
0
  6
CONTINUOUS
 62
     7
 66
     1
 10
0
 20
0
  0
VERTEX
  8
0
  6
CONTINUOUS
 62
     7
 10
-129.11685
 20
-9.432209
 42
0.01961557
  0
VERTEX
  8
0
  6
CONTINUOUS
 62
     7
 10
-127.85687
 20
-13.535601
 42
0.034457552
  0
VERTEX
  8
0
  6
CONTINUOUS
 62
     7
 10
-126.19011
 20
-17.489003
 42
0.2192055
  0
VERTEX
  8
0
  6
CONTINUOUS
 62
     7
 10
-123.30022
 20
-20.432209
 42
0
  0
SEQEND
  8
0
  0
POLYLINE
  8
0
  6
CONTINUOUS
 62
     7
 66
     1
 10
0
 20
0
  0
VERTEX
  8
0
  6
CONTINUOUS
 62
     7
 10
-117.4836
 20
-9.432209
 42
-0.019615431
  0
VERTEX
  8
0
  6
CONTINUOUS
 62
     7
 10
-118.74359
 20
-13.5356
 42
-0.034457514
  0
VERTEX
  8
0
  6
CONTINUOUS
 62
     7
 10
-120.41034
 20
-17.489003
 42
-0.21920569
  0
VERTEX
  8
0
  6
CONTINUOUS
 62
     7
 10
-123.30022
 20
-20.432209
 42
0
  0
SEQEND
  8
0
  0
POLYLINE
  8
0
  6
CONTINUOUS
 62
     7
 66
     1
 10
0
 20
0
  0
VERTEX
  8
0
  6
CONTINUOUS
 62
     7
 10
72.252678
 20
-1043.5168
 42
-0.10383826
  0
VERTEX
  8
0
  6
CONTINUOUS
 62
     7
 10
73.875597
 20
-1042.2386
 42
-0.23736727
  0
VERTEX
  8
0
  6
CONTINUOUS
 62
     7
 10
75.883338
 20
-1042.2385
 42
-0.10387321
  0
VERTEX
  8
0
  6
CONTINUOUS
 62
     7
 10
77.506554
 20
-1043.5168
 42
0
  0
SEQEND
  8
0
  0
POLYLINE
  8
0
  6
CONTINUOUS
 62
     7
 66
     1
 10
0
 20
0
  0
VERTEX
  8
0
  6
CONTINUOUS
 62
     7
 10
-117.4836
 20
-9.432209
 42
0.019615429
  0
VERTEX
  8
0
  6
CONTINUOUS
 62
     7
 10
-118.74359
 20
-5.3288175
 42
0.034457512
  0
VERTEX
  8
0
  6
CONTINUOUS
 62
     7
 10
-120.41034
 20
-1.3754152
 42
0.21920569
  0
VERTEX
  8
0
  6
CONTINUOUS
 62
     7
 10
-123.30022
 20
1.5677913
 42
0
  0
SEQEND
  8
0
  0
POLYLINE
  8
0
  6
CONTINUOUS
 62
     7
 66
     1
 10
0
 20
0
  0
VERTEX
  8
0
  6
CONTINUOUS
 62
     7
 10
72.252678
 20
-1049.5835
 42
0.10382465
  0
VERTEX
  8
0
  6
CONTINUOUS
 62
     7
 10
73.875588
 20
-1050.8618
 42
0.23740279
  0
VERTEX
  8
0
  6
CONTINUOUS
 62
     7
 10
75.883347
 20
-1050.862
 42
0.10385961
  0
VERTEX
  8
0
  6
CONTINUOUS
 62
     7
 10
77.506554
 20
-1049.5835
 42
0
  0
SEQEND
  8
0
  0
POLYLINE
  8
0
  6
CONTINUOUS
 62
     7
 66
     1
 10
0
 20
0
  0
VERTEX
  8
0
  6
CONTINUOUS
 62
     7
 10
67.406548
 20
-1042.0002
 42
-0.05515442
  0
VERTEX
  8
0
  6
CONTINUOUS
 62
     7
 10
69.106409
 20
-1042.1948
 42
-0.045255557
  0
VERTEX
  8
0
  6
CONTINUOUS
 62
     7
 10
70.734891
 20
-1042.7233
 42
-0.039301697
  0
VERTEX
  8
0
  6
CONTINUOUS
 62
     7
 10
72.252678
 20
-1043.5168
 42
0
  0
SEQEND
  8
0
  0
POLYLINE
  8
0
  6
CONTINUOUS
 62
     7
 66
     1
 10
0
 20
0
  0
VERTEX
  8
0
  6
CONTINUOUS
 62
     7
 10
67.406548
 20
-1051.1002
 42
0.05516239
  0
VERTEX
  8
0
  6
CONTINUOUS
 62
     7
 10
69.106416
 20
-1050.9056
 42
0.045254866
  0
VERTEX
  8
0
  6
CONTINUOUS
 62
     7
 10
70.734892
 20
-1050.377
 42
0.039294358
  0
VERTEX
  8
0
  6
CONTINUOUS
 62
     7
 10
72.252678
 20
-1049.5835
 42
0
  0
SEQEND
  8
0
  0
POLYLINE
  8
0
  6
CONTINUOUS
 62
     7
 66
     1
 10
0
 20
0
  0
VERTEX
  8
0
  6
CONTINUOUS
 62
     7
 10
-237.37891
 20
-1243.8767
 42
0.10383422
  0
VERTEX
  8
0
  6
CONTINUOUS
 62
     7
 10
-239.35852
 20
-1242.3175
 42
0.23737562
  0
VERTEX
  8
0
  6
CONTINUOUS
 62
     7
 10
-241.80751
 20
-1242.3173
 42
0.1038715
  0
VERTEX
  8
0
  6
CONTINUOUS
 62
     7
 10
-243.78754
 20
-1243.8767
 42
0
  0
SEQEND
  8
0
  0
POLYLINE
  8
0
  6
CONTINUOUS
 62
     7
 66
     1
 10
0
 20
0
  0
VERTEX
  8
0
  6
CONTINUOUS
 62
     7
 10
-237.37891
 20
-1243.8767
 42
-0.037569831
  0
VERTEX
  8
0
  6
CONTINUOUS
 62
     7
 10
-235.34363
 20
-1242.9007
 42
-0.042426399
  0
VERTEX
  8
0
  6
CONTINUOUS
 62
     7
 10
-233.18033
 20
-1242.2596
 42
-0.050271197
  0
VERTEX
  8
0
  6
CONTINUOUS
 62
     7
 10
-230.9375
 20
-1242.0267
 42
0
  0
SEQEND
  8
0
  0
POLYLINE
  8
0
  6
CONTINUOUS
 62
     7
 66
     1
 10
0
 20
0
  0
VERTEX
  8
0
  6
CONTINUOUS
 62
     7
 10
76.247391
 20
-9.432209
 42
-0.018919053
  0
VERTEX
  8
0
  6
CONTINUOUS
 62
     7
 10
78.113263
 20
-3.1252682
 42
-0.033203428
  0
VERTEX
  8
0
  6
CONTINUOUS
 62
     7
 10
80.582571
 20
2.9676047
 42
-0.21786577
  0
VERTEX
  8
0
  6
CONTINUOUS
 62
     7
 10
84.913254
 20
7.5677915
 42
0
  0
SEQEND
  8
0
  0
POLYLINE
  8
0
  6
CONTINUOUS
 62
     7
 66
     1
 10
0
 20
0
  0
VERTEX
  8
0
  6
CONTINUOUS
 62
     7
 10
76.247391
 20
-9.432209
 42
0.018919055
  0
VERTEX
  8
0
  6
CONTINUOUS
 62
     7
 10
78.113263
 20
-15.73915
 42
0.03320343
  0
VERTEX
  8
0
  6
CONTINUOUS
 62
     7
 10
80.582571
 20
-21.832022
 42
0.21786577
  0
VERTEX
  8
0
  6
CONTINUOUS
 62
     7
 10
84.913254
 20
-26.432209
 42
0
  0
SEQEND
  8
0
  0
POLYLINE
  8
0
  6
CONTINUOUS
 62
     7
 66
     1
 10
0
 20
0
  0
VERTEX
  8
0
  6
CONTINUOUS
 62
     7
 10
93.579147
 20
-9.432209
 42
0.018919413
  0
VERTEX
  8
0
  6
CONTINUOUS
 62
     7
 10
91.713268
 20
-3.1252656
 42
0.033203532
  0
VERTEX
  8
0
  6
CONTINUOUS
 62
     7
 10
89.243947
 20
2.967607
 42
0.21786528
  0
VERTEX
  8
0
  6
CONTINUOUS
 62
     7
 10
84.913254
 20
7.5677915
 42
0
  0
SEQEND
  8
0
  0
POLYLINE
  8
0
  6
CONTINUOUS
 62
     7
 66
     1
 10
0
 20
0
  0
VERTEX
  8
0
  6
CONTINUOUS
 62
     7
 10
93.579147
 20
-9.432209
 42
-0.018919415
  0
VERTEX
  8
0
  6
CONTINUOUS
 62
     7
 10
91.713268
 20
-15.739152
 42
-0.033203534
  0
VERTEX
  8
0
  6
CONTINUOUS
 62
     7
 10
89.243947
 20
-21.832025
 42
-0.21786529
  0
VERTEX
  8
0
  6
CONTINUOUS
 62
     7
 10
84.913254
 20
-26.432209
 42
0
  0
SEQEND
  8
0
  0
POLYLINE
  8
0
  6
CONTINUOUS
 62
     7
 66
     1
 10
0
 20
0
  0
VERTEX
  8
0
  6
CONTINUOUS
 62
     7
 10
-224.49609
 20
-1252.4767
 42
-0.037569831
  0
VERTEX
  8
0
  6
CONTINUOUS
 62
     7
 10
-226.53137
 20
-1253.4527
 42
-0.042426399
  0
VERTEX
  8
0
  6
CONTINUOUS
 62
     7
 10
-228.69467
 20
-1254.0938
 42
-0.050271197
  0
VERTEX
  8
0
  6
CONTINUOUS
 62
     7
 10
-230.9375
 20
-1254.3267
 42
0
  0
SEQEND
  8
0
  0
POLYLINE
  8
0
  6
CONTINUOUS
 62
     7
 66
     1
 10
0
 20
0
  0
VERTEX
  8
0
  6
CONTINUOUS
 62
     7
 10
-224.49609
 20
-1243.8767
 42
-0.10383321
  0
VERTEX
  8
0
  6
CONTINUOUS
 62
     7
 10
-222.5165
 20
-1242.3175
 42
-0.23737923
  0
VERTEX
  8
0
  6
CONTINUOUS
 62
     7
 10
-220.0675
 20
-1242.3173
 42
-0.10386905
  0
VERTEX
  8
0
  6
CONTINUOUS
 62
     7
 10
-218.08752
 20
-1243.8767
 42
0
  0
SEQEND
  8
0
  0
POLYLINE
  8
0
  6
CONTINUOUS
 62
     7
 66
     1
 10
0
 20
0
  0
VERTEX
  8
0
  6
CONTINUOUS
 62
     7
 10
-224.49609
 20
-1252.4767
 42
0.10383321
  0
VERTEX
  8
0
  6
CONTINUOUS
 62
     7
 10
-222.5165
 20
-1254.0359
 42
0.23737923
  0
VERTEX
  8
0
  6
CONTINUOUS
 62
     7
 10
-220.0675
 20
-1254.0361
 42
0.10386905
  0
VERTEX
  8
0
  6
CONTINUOUS
 62
     7
 10
-218.08752
 20
-1252.4767
 42
0
  0
SEQEND
  8
0
  0
POLYLINE
  8
0
  6
CONTINUOUS
 62
     7
 66
     1
 10
0
 20
0
  0
VERTEX
  8
0
  6
CONTINUOUS
 62
     7
 10
-224.49609
 20
-1243.8767
 42
0.037569831
  0
VERTEX
  8
0
  6
CONTINUOUS
 62
     7
 10
-226.53137
 20
-1242.9007
 42
0.042426399
  0
VERTEX
  8
0
  6
CONTINUOUS
 62
     7
 10
-228.69467
 20
-1242.2596
 42
0.050271197
  0
VERTEX
  8
0
  6
CONTINUOUS
 62
     7
 10
-230.9375
 20
-1242.0267
 42
0
  0
SEQEND
  8
0
  0
POLYLINE
  8
0
  6
CONTINUOUS
 62
     7
 66
     1
 10
0
 20
0
  0
VERTEX
  8
0
  6
CONTINUOUS
 62
     7
 10
-13.626235
 20
-1238.8591
 42
0.10383323
  0
VERTEX
  8
0
  6
CONTINUOUS
 62
     7
 10
-15.605831
 20
-1237.2999
 42
0.23737924
  0
VERTEX
  8
0
  6
CONTINUOUS
 62
     7
 10
-18.054827
 20
-1237.2997
 42
0.10386904
  0
VERTEX
  8
0
  6
CONTINUOUS
 62
     7
 10
-20.034805
 20
-1238.8591
 42
0
  0
SEQEND
  8
0
  0
POLYLINE
  8
0
  6
CONTINUOUS
 62
     7
 66
     1
 10
0
 20
0
  0
VERTEX
  8
0
  6
CONTINUOUS
 62
     7
 10
-13.626235
 20
-1238.8591
 42
-0.037570398
  0
VERTEX
  8
0
  6
CONTINUOUS
 62
     7
 10
-11.590951
 20
-1237.8831
 42
-0.042426054
  0
VERTEX
  8
0
  6
CONTINUOUS
 62
     7
 10
-9.4276378
 20
-1237.242
 42
-0.050270906
  0
VERTEX
  8
0
  6
CONTINUOUS
 62
     7
 10
-7.1847982
 20
-1237.0092
 42
0
  0
SEQEND
  8
0
  0
POLYLINE
  8
0
  6
CONTINUOUS
 62
     7
 66
     1
 10
0
 20
0
  0
VERTEX
  8
0
  6
CONTINUOUS
 62
     7
 10
186.21185
 20
-9.432209
 42
-0.018552788
  0
VERTEX
  8
0
  6
CONTINUOUS
 62
     7
 10
188.03544
 20
-3.1433475
 42
-0.032541329
  0
VERTEX
  8
0
  6
CONTINUOUS
 62
     7
 10
190.44926
 20
2.9404464
 42
-0.2170056
  0
VERTEX
  8
0
  6
CONTINUOUS
 62
     7
 10
194.70819
 20
7.5677915
 42
0
  0
SEQEND
  8
0
  0
POLYLINE
  8
0
  6
CONTINUOUS
 62
     7
 66
     1
 10
0
 20
0
  0
VERTEX
  8
0
  6
CONTINUOUS
 62
     7
 10
186.21185
 20
-9.432209
 42
0.018552789
  0
VERTEX
  8
0
  6
CONTINUOUS
 62
     7
 10
188.03544
 20
-15.72107
 42
0.032541331
  0
VERTEX
  8
0
  6
CONTINUOUS
 62
     7
 10
190.44926
 20
-21.804864
 42
0.2170056
  0
VERTEX
  8
0
  6
CONTINUOUS
 62
     7
 10
194.70819
 20
-26.432209
 42
0
  0
SEQEND
  8
0
  0
POLYLINE
  8
0
  6
CONTINUOUS
 62
     7
 66
     1
 10
0
 20
0
  0
VERTEX
  8
0
  6
CONTINUOUS
 62
     7
 10
203.2045
 20
-9.432209
 42
-0.018552428
  0
VERTEX
  8
0
  6
CONTINUOUS
 62
     7
 10
201.38092
 20
-15.721068
 42
-0.032541226
  0
VERTEX
  8
0
  6
CONTINUOUS
 62
     7
 10
198.96711
 20
-21.804862
 42
-0.21700608
  0
VERTEX
  8
0
  6
CONTINUOUS
 62
     7
 10
194.70819
 20
-26.432209
 42
0
  0
SEQEND
  8
0
  0
POLYLINE
  8
0
  6
CONTINUOUS
 62
     7
 66
     1
 10
0
 20
0
  0
VERTEX
  8
0
  6
CONTINUOUS
 62
     7
 10
-0.74336165
 20
-1238.8591
 42
-0.10383322
  0
VERTEX
  8
0
  6
CONTINUOUS
 62
     7
 10
1.236234
 20
-1237.2999
 42
-0.23737921
  0
VERTEX
  8
0
  6
CONTINUOUS
 62
     7
 10
3.6852289
 20
-1237.2997
 42
-0.10386906
  0
VERTEX
  8
0
  6
CONTINUOUS
 62
     7
 10
5.6652079
 20
-1238.8591
 42
0
  0
SEQEND
  8
0
  0
POLYLINE
  8
0
  6
CONTINUOUS
 62
     7
 66
     1
 10
0
 20
0
  0
VERTEX
  8
0
  6
CONTINUOUS
 62
     7
 10
-0.74336165
 20
-1238.8591
 42
0.037570395
  0
VERTEX
  8
0
  6
CONTINUOUS
 62
     7
 10
-2.7786453
 20
-1237.8831
 42
0.042426056
  0
VERTEX
  8
0
  6
CONTINUOUS
 62
     7
 10
-4.9419587
 20
-1237.242
 42
0.050270908
  0
VERTEX
  8
0
  6
CONTINUOUS
 62
     7
 10
-7.1847982
 20
-1237.0092
 42
0
  0
SEQEND
  8
0
  0
POLYLINE
  8
0
  6
CONTINUOUS
 62
     7
 66
     1
 10
0
 20
0
  0
VERTEX
  8
0
  6
CONTINUOUS
 62
     7
 10
-0.74336165
 20
-1247.4591
 42
0.10382206
  0
VERTEX
  8
0
  6
CONTINUOUS
 62
     7
 10
1.2362244
 20
-1249.0184
 42
0.23740833
  0
VERTEX
  8
0
  6
CONTINUOUS
 62
     7
 10
3.6852384
 20
-1249.0186
 42
0.10385792
  0
VERTEX
  8
0
  6
CONTINUOUS
 62
     7
 10
5.6652079
 20
-1247.4591
 42
0
  0
SEQEND
  8
0
  0
POLYLINE
  8
0
  6
CONTINUOUS
 62
     7
 66
     1
 10
0
 20
0
  0
VERTEX
  8
0
  6
CONTINUOUS
 62
     7
 10
-0.74336165
 20
-1247.4591
 42
-0.037564799
  0
VERTEX
  8
0
  6
CONTINUOUS
 62
     7
 10
-2.7786465
 20
-1248.4352
 42
-0.042425628
  0
VERTEX
  8
0
  6
CONTINUOUS
 62
     7
 10
-4.9419547
 20
-1249.0763
 42
-0.050276892
  0
VERTEX
  8
0
  6
CONTINUOUS
 62
     7
 10
-7.1847982
 20
-1249.3092
 42
0
  0
SEQEND
  8
0
  0
POLYLINE
  8
0
  6
CONTINUOUS
 62
     7
 66
     1
 10
0
 20
0
  0
VERTEX
  8
0
  6
CONTINUOUS
 62
     7
 10
203.2045
 20
-9.432209
 42
0.018552426
  0
VERTEX
  8
0
  6
CONTINUOUS
 62
     7
 10
201.38092
 20
-3.14335
 42
0.032541224
  0
VERTEX
  8
0
  6
CONTINUOUS
 62
     7
 10
198.96711
 20
2.9404441
 42
0.21700608
  0
VERTEX
  8
0
  6
CONTINUOUS
 62
     7
 10
194.70819
 20
7.5677915
 42
0
  0
SEQEND
  8
0
  0
POLYLINE
  8
0
  6
CONTINUOUS
 62
     7
 66
     1
 10
0
 20
0
  0
VERTEX
  8
0
  6
CONTINUOUS
 62
     7
 10
256.49896
 20
-1231.8503
 42
0.10383301
  0
VERTEX
  8
0
  6
CONTINUOUS
 62
     7
 10
254.51937
 20
-1230.2911
 42
0.23737909
  0
VERTEX
  8
0
  6
CONTINUOUS
 62
     7
 10
252.07039
 20
-1230.2909
 42
0.10386921
  0
VERTEX
  8
0
  6
CONTINUOUS
 62
     7
 10
250.09041
 20
-1231.8503
 42
0
  0
SEQEND
  8
0
  0
POLYLINE
  8
0
  6
CONTINUOUS
 62
     7
 66
     1
 10
0
 20
0
  0
VERTEX
  8
0
  6
CONTINUOUS
 62
     7
 10
256.49896
 20
-1231.8503
 42
-0.037570965
  0
VERTEX
  8
0
  6
CONTINUOUS
 62
     7
 10
258.53426
 20
-1230.8743
 42
-0.04242571
  0
VERTEX
  8
0
  6
CONTINUOUS
 62
     7
 10
260.69758
 20
-1230.2332
 42
-0.050270615
  0
VERTEX
  8
0
  6
CONTINUOUS
 62
     7
 10
262.94043
 20
-1230.0004
 42
0
  0
SEQEND
  8
0
  0
POLYLINE
  8
0
  6
CONTINUOUS
 62
     7
 66
     1
 10
0
 20
0
  0
VERTEX
  8
0
  6
CONTINUOUS
 62
     7
 10
286.56879
 20
-9.432209
 42
-0.015489623
  0
VERTEX
  8
0
  6
CONTINUOUS
 62
     7
 10
288.27107
 20
-2.3860588
 42
-0.026983439
  0
VERTEX
  8
0
  6
CONTINUOUS
 62
     7
 10
290.52603
 20
4.5012045
 42
-0.2047347
  0
VERTEX
  8
0
  6
CONTINUOUS
 62
     7
 10
294.70819
 20
10.067791
 42
0
  0
SEQEND
  8
0
  0
POLYLINE
  8
0
  6
CONTINUOUS
 62
     7
 66
     1
 10
0
 20
0
  0
VERTEX
  8
0
  6
CONTINUOUS
 62
     7
 10
286.56879
 20
-9.432209
 42
0.015489623
  0
VERTEX
  8
0
  6
CONTINUOUS
 62
     7
 10
288.27107
 20
-16.478359
 42
0.026983439
  0
VERTEX
  8
0
  6
CONTINUOUS
 62
     7
 10
290.52603
 20
-23.365623
 42
0.2047347
  0
VERTEX
  8
0
  6
CONTINUOUS
 62
     7
 10
294.70819
 20
-28.932209
 42
0
  0
SEQEND
  8
0
  0
POLYLINE
  8
0
  6
CONTINUOUS
 62
     7
 66
     1
 10
0
 20
0
  0
VERTEX
  8
0
  6
CONTINUOUS
 62
     7
 10
269.38184
 20
-1231.8503
 42
0.037569831
  0
VERTEX
  8
0
  6
CONTINUOUS
 62
     7
 10
267.34656
 20
-1230.8743
 42
0.042426399
  0
VERTEX
  8
0
  6
CONTINUOUS
 62
     7
 10
265.18326
 20
-1230.2332
 42
0.050271197
  0
VERTEX
  8
0
  6
CONTINUOUS
 62
     7
 10
262.94043
 20
-1230.0004
 42
0
  0
SEQEND
  8
0
  0
POLYLINE
  8
0
  6
CONTINUOUS
 62
     7
 66
     1
 10
0
 20
0
  0
VERTEX
  8
0
  6
CONTINUOUS
 62
     7
 10
302.8476
 20
-9.432209
 42
0.015489623
  0
VERTEX
  8
0
  6
CONTINUOUS
 62
     7
 10
301.14531
 20
-2.3860588
 42
0.026983439
  0
VERTEX
  8
0
  6
CONTINUOUS
 62
     7
 10
298.89035
 20
4.5012045
 42
0.2047347
  0
VERTEX
  8
0
  6
CONTINUOUS
 62
     7
 10
294.70819
 20
10.067791
 42
0
  0
SEQEND
  8
0
  0
POLYLINE
  8
0
  6
CONTINUOUS
 62
     7
 66
     1
 10
0
 20
0
  0
VERTEX
  8
0
  6
CONTINUOUS
 62
     7
 10
302.8476
 20
-9.432209
 42
-0.015489623
  0
VERTEX
  8
0
  6
CONTINUOUS
 62
     7
 10
301.14531
 20
-16.478359
 42
-0.026983439
  0
VERTEX
  8
0
  6
CONTINUOUS
 62
     7
 10
298.89035
 20
-23.365623
 42
-0.2047347
  0
VERTEX
  8
0
  6
CONTINUOUS
 62
     7
 10
294.70819
 20
-28.932209
 42
0
  0
SEQEND
  8
0
  0
POLYLINE
  8
0
  6
CONTINUOUS
 62
     7
 66
     1
 10
0
 20
0
  0
VERTEX
  8
0
  6
CONTINUOUS
 62
     7
 10
269.38184
 20
-1240.4504
 42
-0.037569831
  0
VERTEX
  8
0
  6
CONTINUOUS
 62
     7
 10
267.34656
 20
-1241.4265
 42
-0.042426399
  0
VERTEX
  8
0
  6
CONTINUOUS
 62
     7
 10
265.18326
 20
-1242.0676
 42
-0.050271197
  0
VERTEX
  8
0
  6
CONTINUOUS
 62
     7
 10
262.94043
 20
-1242.3004
 42
0
  0
SEQEND
  8
0
  0
POLYLINE
  8
0
  6
CONTINUOUS
 62
     7
 66
     1
 10
0
 20
0
  0
VERTEX
  8
0
  6
CONTINUOUS
 62
     7
 10
269.38184
 20
-1240.4504
 42
0.10383321
  0
VERTEX
  8
0
  6
CONTINUOUS
 62
     7
 10
271.36143
 20
-1242.0097
 42
0.23737923
  0
VERTEX
  8
0
  6
CONTINUOUS
 62
     7
 10
273.81043
 20
-1242.0098
 42
0.10386905
  0
VERTEX
  8
0
  6
CONTINUOUS
 62
     7
 10
275.79041
 20
-1240.4504
 42
0
  0
SEQEND
  8
0
  0
POLYLINE
  8
0
  6
CONTINUOUS
 62
     7
 66
     1
 10
0
 20
0
  0
VERTEX
  8
0
  6
CONTINUOUS
 62
     7
 10
269.38184
 20
-1231.8503
 42
-0.10383321
  0
VERTEX
  8
0
  6
CONTINUOUS
 62
     7
 10
271.36143
 20
-1230.2911
 42
-0.23737923
  0
VERTEX
  8
0
  6
CONTINUOUS
 62
     7
 10
273.81043
 20
-1230.2909
 42
-0.10386905
  0
VERTEX
  8
0
  6
CONTINUOUS
 62
     7
 10
275.79041
 20
-1231.8503
 42
0
  0
SEQEND
  8
0
  0
POLYLINE
  8
0
  6
CONTINUOUS
 62
     7
 66
     1
 10
0
 20
0
  0
VERTEX
  8
0
  6
CONTINUOUS
 62
     7
 10
516.58698
 20
-9.432209
 42
-0.022865837
  0
VERTEX
  8
0
  6
CONTINUOUS
 62
     7
 10
519.4183
 20
-1.5832551
 42
-0.040222268
  0
VERTEX
  8
0
  6
CONTINUOUS
 62
     7
 10
523.1517
 20
5.8723969
 42
-0.22011619
  0
VERTEX
  8
0
  6
CONTINUOUS
 62
     7
 10
529.28778
 20
11.067791
 42
0
  0
SEQEND
  8
0
  0
POLYLINE
  8
0
  6
CONTINUOUS
 62
     7
 66
     1
 10
0
 20
0
  0
VERTEX
  8
0
  6
CONTINUOUS
 62
     7
 10
516.58698
 20
-9.432209
 42
0.022865837
  0
VERTEX
  8
0
  6
CONTINUOUS
 62
     7
 10
519.4183
 20
-17.281163
 42
0.040222268
  0
VERTEX
  8
0
  6
CONTINUOUS
 62
     7
 10
523.1517
 20
-24.736815
 42
0.22011619
  0
VERTEX
  8
0
  6
CONTINUOUS
 62
     7
 10
529.28778
 20
-29.932209
 42
0
  0
SEQEND
  8
0
  0
POLYLINE
  8
0
  6
CONTINUOUS
 62
     7
 66
     1
 10
0
 20
0
  0
VERTEX
  8
0
  6
CONTINUOUS
 62
     7
 10
503.15756
 20
-1019.324
 42
-0.037645749
  0
VERTEX
  8
0
  6
CONTINUOUS
 62
     7
 10
505.62314
 20
-1018.1373
 42
-0.042544968
  0
VERTEX
  8
0
  6
CONTINUOUS
 62
     7
 10
508.24473
 20
-1017.3574
 42
-0.050467933
  0
VERTEX
  8
0
  6
CONTINUOUS
 62
     7
 10
510.96335
 20
-1017.074
 42
0
  0
SEQEND
  8
0
  0
POLYLINE
  8
0
  6
CONTINUOUS
 62
     7
 66
     1
 10
0
 20
0
  0
VERTEX
  8
0
  6
CONTINUOUS
 62
     7
 10
503.15756
 20
-1030.324
 42
-0.10378388
  0
VERTEX
  8
0
  6
CONTINUOUS
 62
     7
 10
500.75092
 20
-1032.2199
 42
-0.23753115
  0
VERTEX
  8
0
  6
CONTINUOUS
 62
     7
 10
497.77043
 20
-1032.2201
 42
-0.10380826
  0
VERTEX
  8
0
  6
CONTINUOUS
 62
     7
 10
495.36337
 20
-1030.324
 42
0
  0
SEQEND
  8
0
  0
POLYLINE
  8
0
  6
CONTINUOUS
 62
     7
 66
     1
 10
0
 20
0
  0
VERTEX
  8
0
  6
CONTINUOUS
 62
     7
 10
503.15756
 20
-1019.324
 42
0.10378388
  0
VERTEX
  8
0
  6
CONTINUOUS
 62
     7
 10
500.75092
 20
-1017.428
 42
0.23753115
  0
VERTEX
  8
0
  6
CONTINUOUS
 62
     7
 10
497.77043
 20
-1017.4279
 42
0.10380826
  0
VERTEX
  8
0
  6
CONTINUOUS
 62
     7
 10
495.36337
 20
-1019.324
 42
0
  0
SEQEND
  8
0
  0
POLYLINE
  8
0
  6
CONTINUOUS
 62
     7
 66
     1
 10
0
 20
0
  0
VERTEX
  8
0
  6
CONTINUOUS
 62
     7
 10
503.15756
 20
-1030.324
 42
0.037645749
  0
VERTEX
  8
0
  6
CONTINUOUS
 62
     7
 10
505.62314
 20
-1031.5107
 42
0.042544968
  0
VERTEX
  8
0
  6
CONTINUOUS
 62
     7
 10
508.24473
 20
-1032.2906
 42
0.050467933
  0
VERTEX
  8
0
  6
CONTINUOUS
 62
     7
 10
510.96335
 20
-1032.574
 42
0
  0
SEQEND
  8
0
  0
POLYLINE
  8
0
  6
CONTINUOUS
 62
     7
 66
     1
 10
0
 20
0
  0
VERTEX
  8
0
  6
CONTINUOUS
 62
     7
 10
541.98859
 20
-9.432209
 42
0.022865837
  0
VERTEX
  8
0
  6
CONTINUOUS
 62
     7
 10
539.15726
 20
-1.5832551
 42
0.040222268
  0
VERTEX
  8
0
  6
CONTINUOUS
 62
     7
 10
535.42386
 20
5.8723969
 42
0.22011619
  0
VERTEX
  8
0
  6
CONTINUOUS
 62
     7
 10
529.28778
 20
11.067791
 42
0
  0
SEQEND
  8
0
  0
POLYLINE
  8
0
  6
CONTINUOUS
 62
     7
 66
     1
 10
0
 20
0
  0
VERTEX
  8
0
  6
CONTINUOUS
 62
     7
 10
541.98859
 20
-9.432209
 42
-0.022865837
  0
VERTEX
  8
0
  6
CONTINUOUS
 62
     7
 10
539.15726
 20
-17.281163
 42
-0.040222268
  0
VERTEX
  8
0
  6
CONTINUOUS
 62
     7
 10
535.42386
 20
-24.736815
 42
-0.22011619
  0
VERTEX
  8
0
  6
CONTINUOUS
 62
     7
 10
529.28778
 20
-29.932209
 42
0
  0
SEQEND
  8
0
  0
POLYLINE
  8
0
  6
CONTINUOUS
 62
     7
 66
     1
 10
0
 20
0
  0
VERTEX
  8
0
  6
CONTINUOUS
 62
     7
 10
518.76917
 20
-1019.324
 42
0.037646218
  0
VERTEX
  8
0
  6
CONTINUOUS
 62
     7
 10
516.30358
 20
-1018.1373
 42
0.042544684
  0
VERTEX
  8
0
  6
CONTINUOUS
 62
     7
 10
513.68198
 20
-1017.3574
 42
0.050467692
  0
VERTEX
  8
0
  6
CONTINUOUS
 62
     7
 10
510.96335
 20
-1017.074
 42
0
  0
SEQEND
  8
0
  0
POLYLINE
  8
0
  6
CONTINUOUS
 62
     7
 66
     1
 10
0
 20
0
  0
VERTEX
  8
0
  6
CONTINUOUS
 62
     7
 10
518.76917
 20
-1019.324
 42
-0.1037847
  0
VERTEX
  8
0
  6
CONTINUOUS
 62
     7
 10
521.17583
 20
-1017.428
 42
-0.23752816
  0
VERTEX
  8
0
  6
CONTINUOUS
 62
     7
 10
524.15631
 20
-1017.4279
 42
-0.10381029
  0
VERTEX
  8
0
  6
CONTINUOUS
 62
     7
 10
526.56342
 20
-1019.324
 42
0
  0
SEQEND
  8
0
  0
POLYLINE
  8
0
  6
CONTINUOUS
 62
     7
 66
     1
 10
0
 20
0
  0
VERTEX
  8
0
  6
CONTINUOUS
 62
     7
 10
836.87415
 20
-1026.8502
 42
0.10378388
  0
VERTEX
  8
0
  6
CONTINUOUS
 62
     7
 10
834.4675
 20
-1024.9543
 42
0.23753115
  0
VERTEX
  8
0
  6
CONTINUOUS
 62
     7
 10
831.48701
 20
-1024.9541
 42
0.10380826
  0
VERTEX
  8
0
  6
CONTINUOUS
 62
     7
 10
829.07996
 20
-1026.8502
 42
0
  0
SEQEND
  8
0
  0
POLYLINE
  8
0
  6
CONTINUOUS
 62
     7
 66
     1
 10
0
 20
0
  0
VERTEX
  8
0
  6
CONTINUOUS
 62
     7
 10
836.87415
 20
-1037.8502
 42
-0.10378388
  0
VERTEX
  8
0
  6
CONTINUOUS
 62
     7
 10
834.4675
 20
-1039.7461
 42
-0.23753115
  0
VERTEX
  8
0
  6
CONTINUOUS
 62
     7
 10
831.48701
 20
-1039.7463
 42
-0.10380826
  0
VERTEX
  8
0
  6
CONTINUOUS
 62
     7
 10
829.07996
 20
-1037.8502
 42
0
  0
SEQEND
  8
0
  0
POLYLINE
  8
0
  6
CONTINUOUS
 62
     7
 66
     1
 10
0
 20
0
  0
VERTEX
  8
0
  6
CONTINUOUS
 62
     7
 10
836.87415
 20
-1026.8502
 42
-0.037645749
  0
VERTEX
  8
0
  6
CONTINUOUS
 62
     7
 10
839.33972
 20
-1025.6635
 42
-0.042544968
  0
VERTEX
  8
0
  6
CONTINUOUS
 62
     7
 10
841.96131
 20
-1024.8836
 42
-0.050467933
  0
VERTEX
  8
0
  6
CONTINUOUS
 62
     7
 10
844.67993
 20
-1024.6002
 42
0
  0
SEQEND
  8
0
  0
POLYLINE
  8
0
  6
CONTINUOUS
 62
     7
 66
     1
 10
0
 20
0
  0
VERTEX
  8
0
  6
CONTINUOUS
 62
     7
 10
836.87415
 20
-1037.8502
 42
0.037645749
  0
VERTEX
  8
0
  6
CONTINUOUS
 62
     7
 10
839.33972
 20
-1039.0369
 42
0.042544968
  0
VERTEX
  8
0
  6
CONTINUOUS
 62
     7
 10
841.96131
 20
-1039.8168
 42
0.050467933
  0
VERTEX
  8
0
  6
CONTINUOUS
 62
     7
 10
844.67993
 20
-1040.1002
 42
0
  0
SEQEND
  8
0
  0
POLYLINE
  8
0
  6
CONTINUOUS
 62
     7
 66
     1
 10
0
 20
0
  0
VERTEX
  8
0
  6
CONTINUOUS
 62
     7
 10
667.05017
 20
-9.432209
 42
-0.022068846
  0
VERTEX
  8
0
  6
CONTINUOUS
 62
     7
 10
669.75893
 20
-1.6336795
 42
-0.038826621
  0
VERTEX
  8
0
  6
CONTINUOUS
 62
     7
 10
673.33419
 20
5.8016362
 42
-0.22060284
  0
VERTEX
  8
0
  6
CONTINUOUS
 62
     7
 10
679.28778
 20
11.067791
 42
0
  0
SEQEND
  8
0
  0
POLYLINE
  8
0
  6
CONTINUOUS
 62
     7
 66
     1
 10
0
 20
0
  0
VERTEX
  8
0
  6
CONTINUOUS
 62
     7
 10
667.05017
 20
-9.432209
 42
0.022068791
  0
VERTEX
  8
0
  6
CONTINUOUS
 62
     7
 10
669.75893
 20
-17.230743
 42
0.038826568
  0
VERTEX
  8
0
  6
CONTINUOUS
 62
     7
 10
673.33419
 20
-24.666064
 42
0.22060283
  0
VERTEX
  8
0
  6
CONTINUOUS
 62
     7
 10
679.28778
 20
-29.932224
 42
0
  0
SEQEND
  8
0
  0
POLYLINE
  8
0
  6
CONTINUOUS
 62
     7
 66
     1
 10
0
 20
0
  0
VERTEX
  8
0
  6
CONTINUOUS
 62
     7
 10
691.52545
 20
-9.432209
 42
0.022069429
  0
VERTEX
  8
0
  6
CONTINUOUS
 62
     7
 10
688.81668
 20
-1.6336741
 42
0.038826763
  0
VERTEX
  8
0
  6
CONTINUOUS
 62
     7
 10
685.24139
 20
5.8016405
 42
0.22060197
  0
VERTEX
  8
0
  6
CONTINUOUS
 62
     7
 10
679.28778
 20
11.067791
 42
0
  0
SEQEND
  8
0
  0
POLYLINE
  8
0
  6
CONTINUOUS
 62
     7
 66
     1
 10
0
 20
0
  0
VERTEX
  8
0
  6
CONTINUOUS
 62
     7
 10
691.52545
 20
-9.432209
 42
-0.022069374
  0
VERTEX
  8
0
  6
CONTINUOUS
 62
     7
 10
688.81668
 20
-17.230748
 42
-0.03882671
  0
VERTEX
  8
0
  6
CONTINUOUS
 62
     7
 10
685.24139
 20
-24.666068
 42
-0.22060196
  0
VERTEX
  8
0
  6
CONTINUOUS
 62
     7
 10
679.28778
 20
-29.932224
 42
0
  0
SEQEND
  8
0
  0
POLYLINE
  8
0
  6
CONTINUOUS
 62
     7
 66
     1
 10
0
 20
0
  0
VERTEX
  8
0
  6
CONTINUOUS
 62
     7
 10
852.48572
 20
-1026.8502
 42
-0.10378456
  0
VERTEX
  8
0
  6
CONTINUOUS
 62
     7
 10
854.89239
 20
-1024.9543
 42
-0.23753162
  0
VERTEX
  8
0
  6
CONTINUOUS
 62
     7
 10
857.87292
 20
-1024.9541
 42
-0.10380775
  0
VERTEX
  8
0
  6
CONTINUOUS
 62
     7
 10
860.27997
 20
-1026.8502
 42
0
  0
SEQEND
  8
0
  0
POLYLINE
  8
0
  6
CONTINUOUS
 62
     7
 66
     1
 10
0
 20
0
  0
VERTEX
  8
0
  6
CONTINUOUS
 62
     7
 10
852.48572
 20
-1026.8502
 42
0.037645749
  0
VERTEX
  8
0
  6
CONTINUOUS
 62
     7
 10
850.02014
 20
-1025.6635
 42
0.042544968
  0
VERTEX
  8
0
  6
CONTINUOUS
 62
     7
 10
847.39855
 20
-1024.8836
 42
0.050467933
  0
VERTEX
  8
0
  6
CONTINUOUS
 62
     7
 10
844.67993
 20
-1024.6002
 42
0
  0
SEQEND
  8
0
  0
POLYLINE
  8
0
  6
CONTINUOUS
 62
     7
 66
     1
 10
0
 20
0
  0
VERTEX
  8
0
  6
CONTINUOUS
 62
     7
 10
565.66956
 20
-1320.483
 42
-0.10378275
  0
VERTEX
  8
0
  6
CONTINUOUS
 62
     7
 10
562.83504
 20
-1322.716
 42
-0.23753586
  0
VERTEX
  8
0
  6
CONTINUOUS
 62
     7
 10
559.32465
 20
-1322.7162
 42
-0.10380612
  0
VERTEX
  8
0
  6
CONTINUOUS
 62
     7
 10
556.48969
 20
-1320.483
 42
0
  0
SEQEND
  8
0
  0
POLYLINE
  8
0
  6
CONTINUOUS
 62
     7
 66
     1
 10
0
 20
0
  0
VERTEX
  8
0
  6
CONTINUOUS
 62
     7
 10
565.66956
 20
-1307.083
 42
0.10378275
  0
VERTEX
  8
0
  6
CONTINUOUS
 62
     7
 10
562.83504
 20
-1304.85
 42
0.23753586
  0
VERTEX
  8
0
  6
CONTINUOUS
 62
     7
 10
559.32465
 20
-1304.8498
 42
0.10380612
  0
VERTEX
  8
0
  6
CONTINUOUS
 62
     7
 10
556.48969
 20
-1307.083
 42
0
  0
SEQEND
  8
0
  0
POLYLINE
  8
0
  6
CONTINUOUS
 62
     7
 66
     1
 10
0
 20
0
  0
VERTEX
  8
0
  6
CONTINUOUS
 62
     7
 10
565.66956
 20
-1307.083
 42
-0.03769799
  0
VERTEX
  8
0
  6
CONTINUOUS
 62
     7
 10
568.56541
 20
-1305.6856
 42
-0.04262854
  0
VERTEX
  8
0
  6
CONTINUOUS
 62
     7
 10
571.64527
 20
-1304.7669
 42
-0.050606592
  0
VERTEX
  8
0
  6
CONTINUOUS
 62
     7
 10
574.83966
 20
-1304.433
 42
0
  0
SEQEND
  8
0
  0
POLYLINE
  8
0
  6
CONTINUOUS
 62
     7
 66
     1
 10
0
 20
0
  0
VERTEX
  8
0
  6
CONTINUOUS
 62
     7
 10
565.66956
 20
-1320.483
 42
0.03769799
  0
VERTEX
  8
0
  6
CONTINUOUS
 62
     7
 10
568.56541
 20
-1321.8804
 42
0.04262854
  0
VERTEX
  8
0
  6
CONTINUOUS
 62
     7
 10
571.64527
 20
-1322.7991
 42
0.050606592
  0
VERTEX
  8
0
  6
CONTINUOUS
 62
     7
 10
574.83966
 20
-1323.1331
 42
0
  0
SEQEND
  8
0
  0
POLYLINE
  8
0
  6
CONTINUOUS
 62
     7
 66
     1
 10
0
 20
0
  0
VERTEX
  8
0
  6
CONTINUOUS
 62
     7
 10
813.20209
 20
-9.432209
 42
-0.017566867
  0
VERTEX
  8
0
  6
CONTINUOUS
 62
     7
 10
816.62555
 20
3.0495094
 42
-0.030756427
  0
VERTEX
  8
0
  6
CONTINUOUS
 62
     7
 10
821.15891
 20
15.167257
 42
-0.21407476
  0
VERTEX
  8
0
  6
CONTINUOUS
 62
     7
 10
829.28778
 20
24.567783
 42
0
  0
SEQEND
  8
0
  0
POLYLINE
  8
0
  6
CONTINUOUS
 62
     7
 66
     1
 10
0
 20
0
  0
VERTEX
  8
0
  6
CONTINUOUS
 62
     7
 10
813.20209
 20
-9.432209
 42
0.017566853
  0
VERTEX
  8
0
  6
CONTINUOUS
 62
     7
 10
816.62555
 20
-21.91393
 42
0.030756414
  0
VERTEX
  8
0
  6
CONTINUOUS
 62
     7
 10
821.15891
 20
-34.03168
 42
0.21407474
  0
VERTEX
  8
0
  6
CONTINUOUS
 62
     7
 10
829.28778
 20
-43.432209
 42
0
  0
SEQEND
  8
0
  0
POLYLINE
  8
0
  6
CONTINUOUS
 62
     7
 66
     1
 10
0
 20
0
  0
VERTEX
  8
0
  6
CONTINUOUS
 62
     7
 10
845.37354
 20
-9.432209
 42
-0.017567217
  0
VERTEX
  8
0
  6
CONTINUOUS
 62
     7
 10
841.95006
 20
-21.913935
 42
-0.030756524
  0
VERTEX
  8
0
  6
CONTINUOUS
 62
     7
 10
837.41667
 20
-34.031684
 42
-0.21407428
  0
VERTEX
  8
0
  6
CONTINUOUS
 62
     7
 10
829.28778
 20
-43.432209
 42
0
  0
SEQEND
  8
0
  0
POLYLINE
  8
0
  6
CONTINUOUS
 62
     7
 66
     1
 10
0
 20
0
  0
VERTEX
  8
0
  6
CONTINUOUS
 62
     7
 10
584.00983
 20
-1307.083
 42
-0.10378275
  0
VERTEX
  8
0
  6
CONTINUOUS
 62
     7
 10
586.84434
 20
-1304.85
 42
-0.23753586
  0
VERTEX
  8
0
  6
CONTINUOUS
 62
     7
 10
590.35474
 20
-1304.8498
 42
-0.10380612
  0
VERTEX
  8
0
  6
CONTINUOUS
 62
     7
 10
593.1897
 20
-1307.083
 42
0
  0
SEQEND
  8
0
  0
POLYLINE
  8
0
  6
CONTINUOUS
 62
     7
 66
     1
 10
0
 20
0
  0
VERTEX
  8
0
  6
CONTINUOUS
 62
     7
 10
584.00983
 20
-1307.083
 42
0.03769879
  0
VERTEX
  8
0
  6
CONTINUOUS
 62
     7
 10
581.11395
 20
-1305.6856
 42
0.042628054
  0
VERTEX
  8
0
  6
CONTINUOUS
 62
     7
 10
578.03407
 20
-1304.7669
 42
0.05060618
  0
VERTEX
  8
0
  6
CONTINUOUS
 62
     7
 10
574.83966
 20
-1304.433
 42
0
  0
SEQEND
  8
0
  0
POLYLINE
  8
0
  6
CONTINUOUS
 62
     7
 66
     1
 10
0
 20
0
  0
VERTEX
  8
0
  6
CONTINUOUS
 62
     7
 10
845.37354
 20
-9.432209
 42
0.01756723
  0
VERTEX
  8
0
  6
CONTINUOUS
 62
     7
 10
841.95006
 20
3.0495144
 42
0.030756537
  0
VERTEX
  8
0
  6
CONTINUOUS
 62
     7
 10
837.41667
 20
15.167262
 42
0.2140743
  0
VERTEX
  8
0
  6
CONTINUOUS
 62
     7
 10
829.28778
 20
24.567783
 42
0
  0
SEQEND
  8
0
  0
POLYLINE
  8
0
  6
CONTINUOUS
 62
     7
 66
     1
 10
0
 20
0
  0
VERTEX
  8
0
  6
CONTINUOUS
 62
     7
 10
-225.62999
 20
-1738.915
 42
0.10378644
  0
VERTEX
  8
0
  6
CONTINUOUS
 62
     7
 10
-228.88343
 20
-1736.3521
 42
0.23752474
  0
VERTEX
  8
0
  6
CONTINUOUS
 62
     7
 10
-232.91261
 20
-1736.3518
 42
0.10381082
  0
VERTEX
  8
0
  6
CONTINUOUS
 62
     7
 10
-236.16661
 20
-1738.915
 42
0
  0
SEQEND
  8
0
  0
POLYLINE
  8
0
  6
CONTINUOUS
 62
     7
 66
     1
 10
0
 20
0
  0
VERTEX
  8
0
  6
CONTINUOUS
 62
     7
 10
-225.62999
 20
-1754.6317
 42
-0.10377964
  0
VERTEX
  8
0
  6
CONTINUOUS
 62
     7
 10
-228.88342
 20
-1757.1948
 42
-0.2375425
  0
VERTEX
  8
0
  6
CONTINUOUS
 62
     7
 10
-232.91262
 20
-1757.195
 42
-0.10380403
  0
VERTEX
  8
0
  6
CONTINUOUS
 62
     7
 10
-236.16661
 20
-1754.6317
 42
0
  0
SEQEND
  8
0
  0
POLYLINE
  8
0
  6
CONTINUOUS
 62
     7
 66
     1
 10
0
 20
0
  0
VERTEX
  8
0
  6
CONTINUOUS
 62
     7
 10
-225.62999
 20
-1738.915
 42
-0.0376244
  0
VERTEX
  8
0
  6
CONTINUOUS
 62
     7
 10
-222.29308
 20
-1737.3107
 42
-0.042510736
  0
VERTEX
  8
0
  6
CONTINUOUS
 62
     7
 10
-218.74538
 20
-1736.2564
 42
-0.050410013
  0
VERTEX
  8
0
  6
CONTINUOUS
 62
     7
 10
-215.06664
 20
-1735.8734
 42
0
  0
SEQEND
  8
0
  0
POLYLINE
  8
0
  6
CONTINUOUS
 62
     7
 66
     1
 10
0
 20
0
  0
VERTEX
  8
0
  6
CONTINUOUS
 62
     7
 10
-225.62999
 20
-1754.6317
 42
0.03762099
  0
VERTEX
  8
0
  6
CONTINUOUS
 62
     7
 10
-222.29308
 20
-1756.2361
 42
0.042510473
  0
VERTEX
  8
0
  6
CONTINUOUS
 62
     7
 10
-218.74538
 20
-1757.2904
 42
0.050413661
  0
VERTEX
  8
0
  6
CONTINUOUS
 62
     7
 10
-215.06664
 20
-1757.6735
 42
0
  0
SEQEND
  8
0
  0
POLYLINE
  8
0
  6
CONTINUOUS
 62
     7
 66
     1
 10
0
 20
0
  0
VERTEX
  8
0
  6
CONTINUOUS
 62
     7
 10
959.87134
 20
-9.432209
 42
-0.018022199
  0
VERTEX
  8
0
  6
CONTINUOUS
 62
     7
 10
964.01979
 20
5.3040929
 42
-0.031581898
  0
VERTEX
  8
0
  6
CONTINUOUS
 62
     7
 10
969.51225
 20
19.587575
 42
-0.21554396
  0
VERTEX
  8
0
  6
CONTINUOUS
 62
     7
 10
979.28778
 20
30.567791
 42
0
  0
SEQEND
  8
0
  0
POLYLINE
  8
0
  6
CONTINUOUS
 62
     7
 66
     1
 10
0
 20
0
  0
VERTEX
  8
0
  6
CONTINUOUS
 62
     7
 10
959.87134
 20
-9.432209
 42
0.018022187
  0
VERTEX
  8
0
  6
CONTINUOUS
 62
     7
 10
964.01979
 20
-24.168513
 42
0.031581887
  0
VERTEX
  8
0
  6
CONTINUOUS
 62
     7
 10
969.51225
 20
-38.451998
 42
0.21554395
  0
VERTEX
  8
0
  6
CONTINUOUS
 62
     7
 10
979.28778
 20
-49.432217
 42
0
  0
SEQEND
  8
0
  0
POLYLINE
  8
0
  6
CONTINUOUS
 62
     7
 66
     1
 10
0
 20
0
  0
VERTEX
  8
0
  6
CONTINUOUS
 62
     7
 10
998.70428
 20
-9.432209
 42
-0.018022495
  0
VERTEX
  8
0
  6
CONTINUOUS
 62
     7
 10
994.55582
 20
-24.168518
 42
-0.031581979
  0
VERTEX
  8
0
  6
CONTINUOUS
 62
     7
 10
989.06333
 20
-38.452002
 42
-0.21554355
  0
VERTEX
  8
0
  6
CONTINUOUS
 62
     7
 10
979.28778
 20
-49.432217
 42
0
  0
SEQEND
  8
0
  0
POLYLINE
  8
0
  6
CONTINUOUS
 62
     7
 66
     1
 10
0
 20
0
  0
VERTEX
  8
0
  6
CONTINUOUS
 62
     7
 10
-204.50328
 20
-1738.915
 42
-0.10378694
  0
VERTEX
  8
0
  6
CONTINUOUS
 62
     7
 10
-201.24981
 20
-1736.3521
 42
-0.23752509
  0
VERTEX
  8
0
  6
CONTINUOUS
 62
     7
 10
-197.22059
 20
-1736.3518
 42
-0.10381044
  0
VERTEX
  8
0
  6
CONTINUOUS
 62
     7
 10
-193.9666
 20
-1738.915
 42
0
  0
SEQEND
  8
0
  0
POLYLINE
  8
0
  6
CONTINUOUS
 62
     7
 66
     1
 10
0
 20
0
  0
VERTEX
  8
0
  6
CONTINUOUS
 62
     7
 10
-204.50328
 20
-1754.6317
 42
0.10378014
  0
VERTEX
  8
0
  6
CONTINUOUS
 62
     7
 10
-201.24982
 20
-1757.1948
 42
0.23754285
  0
VERTEX
  8
0
  6
CONTINUOUS
 62
     7
 10
-197.22058
 20
-1757.195
 42
0.10380365
  0
VERTEX
  8
0
  6
CONTINUOUS
 62
     7
 10
-193.9666
 20
-1754.6317
 42
0
  0
SEQEND
  8
0
  0
POLYLINE
  8
0
  6
CONTINUOUS
 62
     7
 66
     1
 10
0
 20
0
  0
VERTEX
  8
0
  6
CONTINUOUS
 62
     7
 10
-204.50328
 20
-1738.915
 42
0.0376244
  0
VERTEX
  8
0
  6
CONTINUOUS
 62
     7
 10
-207.84019
 20
-1737.3107
 42
0.042510736
  0
VERTEX
  8
0
  6
CONTINUOUS
 62
     7
 10
-211.38789
 20
-1736.2564
 42
0.050410013
  0
VERTEX
  8
0
  6
CONTINUOUS
 62
     7
 10
-215.06664
 20
-1735.8734
 42
0
  0
SEQEND
  8
0
  0
POLYLINE
  8
0
  6
CONTINUOUS
 62
     7
 66
     1
 10
0
 20
0
  0
VERTEX
  8
0
  6
CONTINUOUS
 62
     7
 10
-204.50328
 20
-1754.6317
 42
-0.03762099
  0
VERTEX
  8
0
  6
CONTINUOUS
 62
     7
 10
-207.84019
 20
-1756.2361
 42
-0.042510473
  0
VERTEX
  8
0
  6
CONTINUOUS
 62
     7
 10
-211.38789
 20
-1757.2904
 42
-0.050413661
  0
VERTEX
  8
0
  6
CONTINUOUS
 62
     7
 10
-215.06664
 20
-1757.6735
 42
0
  0
SEQEND
  8
0
  0
POLYLINE
  8
0
  6
CONTINUOUS
 62
     7
 66
     1
 10
0
 20
0
  0
VERTEX
  8
0
  6
CONTINUOUS
 62
     7
 10
998.70428
 20
-9.432209
 42
0.018022507
  0
VERTEX
  8
0
  6
CONTINUOUS
 62
     7
 10
994.55582
 20
5.3040979
 42
0.03158199
  0
VERTEX
  8
0
  6
CONTINUOUS
 62
     7
 10
989.06333
 20
19.587579
 42
0.21554357
  0
VERTEX
  8
0
  6
CONTINUOUS
 62
     7
 10
979.28778
 20
30.567791
 42
0
  0
SEQEND
  8
0
  0
POLYLINE
  8
0
  6
CONTINUOUS
 62
     7
 66
     1
 10
0
 20
0
  0
VERTEX
  8
0
  6
CONTINUOUS
 62
     7
 10
583.28455
 20
-1741.4238
 42
0.10378745
  0
VERTEX
  8
0
  6
CONTINUOUS
 62
     7
 10
580.03105
 20
-1738.8609
 42
0.23752543
  0
VERTEX
  8
0
  6
CONTINUOUS
 62
     7
 10
576.00178
 20
-1738.8606
 42
0.10381006
  0
VERTEX
  8
0
  6
CONTINUOUS
 62
     7
 10
572.7478
 20
-1741.4238
 42
0
  0
SEQEND
  8
0
  0
POLYLINE
  8
0
  6
CONTINUOUS
 62
     7
 66
     1
 10
0
 20
0
  0
VERTEX
  8
0
  6
CONTINUOUS
 62
     7
 10
583.28455
 20
-1757.1405
 42
-0.10378745
  0
VERTEX
  8
0
  6
CONTINUOUS
 62
     7
 10
580.03105
 20
-1759.7035
 42
-0.23752543
  0
VERTEX
  8
0
  6
CONTINUOUS
 62
     7
 10
576.00178
 20
-1759.7037
 42
-0.10381006
  0
VERTEX
  8
0
  6
CONTINUOUS
 62
     7
 10
572.7478
 20
-1757.1405
 42
0
  0
SEQEND
  8
0
  0
POLYLINE
  8
0
  6
CONTINUOUS
 62
     7
 66
     1
 10
0
 20
0
  0
VERTEX
  8
0
  6
CONTINUOUS
 62
     7
 10
583.28455
 20
-1741.4238
 42
-0.0376244
  0
VERTEX
  8
0
  6
CONTINUOUS
 62
     7
 10
586.62145
 20
-1739.8195
 42
-0.042510736
  0
VERTEX
  8
0
  6
CONTINUOUS
 62
     7
 10
590.16915
 20
-1738.7652
 42
-0.050410013
  0
VERTEX
  8
0
  6
CONTINUOUS
 62
     7
 10
593.8479
 20
-1738.3822
 42
0
  0
SEQEND
  8
0
  0
POLYLINE
  8
0
  6
CONTINUOUS
 62
     7
 66
     1
 10
0
 20
0
  0
VERTEX
  8
0
  6
CONTINUOUS
 62
     7
 10
583.28455
 20
-1757.1405
 42
0.0376244
  0
VERTEX
  8
0
  6
CONTINUOUS
 62
     7
 10
586.62145
 20
-1758.7449
 42
0.042510736
  0
VERTEX
  8
0
  6
CONTINUOUS
 62
     7
 10
590.16915
 20
-1759.7991
 42
0.050410013
  0
VERTEX
  8
0
  6
CONTINUOUS
 62
     7
 10
593.8479
 20
-1760.1821
 42
0
  0
SEQEND
  8
0
  0
POLYLINE
  8
0
  6
CONTINUOUS
 62
     7
 66
     1
 10
0
 20
0
  0
VERTEX
  8
0
  6
CONTINUOUS
 62
     7
 10
1109.8713
 20
-9.432209
 42
-0.018022513
  0
VERTEX
  8
0
  6
CONTINUOUS
 62
     7
 10
1114.0198
 20
5.3040968
 42
-0.031581996
  0
VERTEX
  8
0
  6
CONTINUOUS
 62
     7
 10
1119.5123
 20
19.587577
 42
-0.21554357
  0
VERTEX
  8
0
  6
CONTINUOUS
 62
     7
 10
1129.2878
 20
30.567787
 42
0
  0
SEQEND
  8
0
  0
POLYLINE
  8
0
  6
CONTINUOUS
 62
     7
 66
     1
 10
0
 20
0
  0
VERTEX
  8
0
  6
CONTINUOUS
 62
     7
 10
1109.8713
 20
-9.432209
 42
0.018022507
  0
VERTEX
  8
0
  6
CONTINUOUS
 62
     7
 10
1114.0198
 20
-24.168516
 42
0.03158199
  0
VERTEX
  8
0
  6
CONTINUOUS
 62
     7
 10
1119.5123
 20
-38.451998
 42
0.21554357
  0
VERTEX
  8
0
  6
CONTINUOUS
 62
     7
 10
1129.2878
 20
-49.432209
 42
0
  0
SEQEND
  8
0
  0
POLYLINE
  8
0
  6
CONTINUOUS
 62
     7
 66
     1
 10
0
 20
0
  0
VERTEX
  8
0
  6
CONTINUOUS
 62
     7
 10
1148.7042
 20
-9.432209
 42
-0.018021891
  0
VERTEX
  8
0
  6
CONTINUOUS
 62
     7
 10
1144.5558
 20
-24.168506
 42
-0.031581806
  0
VERTEX
  8
0
  6
CONTINUOUS
 62
     7
 10
1139.0633
 20
-38.451988
 42
-0.21554436
  0
VERTEX
  8
0
  6
CONTINUOUS
 62
     7
 10
1129.2878
 20
-49.432209
 42
0
  0
SEQEND
  8
0
  0
POLYLINE
  8
0
  6
CONTINUOUS
 62
     7
 66
     1
 10
0
 20
0
  0
VERTEX
  8
0
  6
CONTINUOUS
 62
     7
 10
604.41125
 20
-1741.4238
 42
-0.10378644
  0
VERTEX
  8
0
  6
CONTINUOUS
 62
     7
 10
607.6647
 20
-1738.8608
 42
-0.23752474
  0
VERTEX
  8
0
  6
CONTINUOUS
 62
     7
 10
611.69388
 20
-1738.8606
 42
-0.10381082
  0
VERTEX
  8
0
  6
CONTINUOUS
 62
     7
 10
614.94788
 20
-1741.4238
 42
0
  0
SEQEND
  8
0
  0
POLYLINE
  8
0
  6
CONTINUOUS
 62
     7
 66
     1
 10
0
 20
0
  0
VERTEX
  8
0
  6
CONTINUOUS
 62
     7
 10
604.41125
 20
-1757.1405
 42
0.044120049
  0
VERTEX
  8
0
  6
CONTINUOUS
 62
     7
 10
605.90615
 20
-1758.5918
 42
0.062190312
  0
VERTEX
  8
0
  6
CONTINUOUS
 62
     7
 10
607.6658
 20
-1759.704
 42
0.1073054
  0
VERTEX
  8
0
  6
CONTINUOUS
 62
     7
 10
609.67957
 20
-1760.1821
 42
0
  0
SEQEND
  8
0
  0
POLYLINE
  8
0
  6
CONTINUOUS
 62
     7
 66
     1
 10
0
 20
0
  0
VERTEX
  8
0
  6
CONTINUOUS
 62
     7
 10
604.41125
 20
-1741.4238
 42
0.0376244
  0
VERTEX
  8
0
  6
CONTINUOUS
 62
     7
 10
601.07435
 20
-1739.8195
 42
0.042510736
  0
VERTEX
  8
0
  6
CONTINUOUS
 62
     7
 10
597.52665
 20
-1738.7652
 42
0.050410013
  0
VERTEX
  8
0
  6
CONTINUOUS
 62
     7
 10
593.8479
 20
-1738.3822
 42
0
  0
SEQEND
  8
0
  0
POLYLINE
  8
0
  6
CONTINUOUS
 62
     7
 66
     1
 10
0
 20
0
  0
VERTEX
  8
0
  6
CONTINUOUS
 62
     7
 10
604.41125
 20
-1757.1405
 42
-0.0376244
  0
VERTEX
  8
0
  6
CONTINUOUS
 62
     7
 10
601.07435
 20
-1758.7449
 42
-0.042510736
  0
VERTEX
  8
0
  6
CONTINUOUS
 62
     7
 10
597.52665
 20
-1759.7991
 42
-0.050410013
  0
VERTEX
  8
0
  6
CONTINUOUS
 62
     7
 10
593.8479
 20
-1760.1821
 42
0
  0
SEQEND
  8
0
  0
POLYLINE
  8
0
  6
CONTINUOUS
 62
     7
 66
     1
 10
0
 20
0
  0
VERTEX
  8
0
  6
CONTINUOUS
 62
     7
 10
1148.7042
 20
-9.432209
 42
0.018021897
  0
VERTEX
  8
0
  6
CONTINUOUS
 62
     7
 10
1144.5558
 20
5.3040868
 42
0.031581812
  0
VERTEX
  8
0
  6
CONTINUOUS
 62
     7
 10
1139.0633
 20
19.587568
 42
0.21554437
  0
VERTEX
  8
0
  6
CONTINUOUS
 62
     7
 10
1129.2878
 20
30.567787
 42
0
  0
SEQEND
  8
0
  0
POLYLINE
  8
0
  6
CONTINUOUS
 62
     7
 66
     1
 10
0
 20
0
  0
VERTEX
  8
0
  6
CONTINUOUS
 62
     7
 10
-322.66476
 20
8.0844536
 42
-0.1038309
  0
VERTEX
  8
0
  6
CONTINUOUS
 62
     7
 10
-324.28767
 20
6.8061725
 42
-0.2373871
  0
VERTEX
  8
0
  6
CONTINUOUS
 62
     7
 10
-326.29542
 20
6.806025
 42
-0.10386497
  0
VERTEX
  8
0
  6
CONTINUOUS
 62
     7
 10
-327.91861
 20
8.0844536
 42
0
  0
SEQEND
  8
0
  0
POLYLINE
  8
0
  6
CONTINUOUS
 62
     7
 66
     1
 10
0
 20
0
  0
VERTEX
  8
0
  6
CONTINUOUS
 62
     7
 10
-317.81863
 20
6.5677915
 42
-0.055158374
  0
VERTEX
  8
0
  6
CONTINUOUS
 62
     7
 10
-319.5185
 20
6.7623759
 42
-0.045255214
  0
VERTEX
  8
0
  6
CONTINUOUS
 62
     7
 10
-321.14698
 20
7.290938
 42
-0.039298056
  0
VERTEX
  8
0
  6
CONTINUOUS
 62
     7
 10
-322.66476
 20
8.0844536
 42
0
  0
SEQEND
  8
0
  0
POLYLINE
  8
0
  6
CONTINUOUS
 62
     7
 66
     1
 10
0
 20
0
  0
VERTEX
  8
0
  6
CONTINUOUS
 62
     7
 10
-317.81863
 20
6.5677915
 42
0.055158374
  0
VERTEX
  8
0
  6
CONTINUOUS
 62
     7
 10
-316.11877
 20
6.7623759
 42
0.045255214
  0
VERTEX
  8
0
  6
CONTINUOUS
 62
     7
 10
-314.49029
 20
7.290938
 42
0.039298056
  0
VERTEX
  8
0
  6
CONTINUOUS
 62
     7
 10
-312.9725
 20
8.0844536
 42
0
  0
SEQEND
  8
0
  0
POLYLINE
  8
0
  6
CONTINUOUS
 62
     7
 66
     1
 10
0
 20
0
  0
VERTEX
  8
0
  6
CONTINUOUS
 62
     7
 10
-312.9725
 20
8.0844536
 42
0.10383151
  0
VERTEX
  8
0
  6
CONTINUOUS
 62
     7
 10
-311.34959
 20
6.8061689
 42
0.23738489
  0
VERTEX
  8
0
  6
CONTINUOUS
 62
     7
 10
-309.34184
 20
6.8060235
 42
0.10386647
  0
VERTEX
  8
0
  6
CONTINUOUS
 62
     7
 10
-307.71863
 20
8.0844536
 42
0
  0
SEQEND
  8
0
  0
POLYLINE
  8
0
  6
CONTINUOUS
 62
     7
 66
     1
 10
0
 20
0
  0
VERTEX
  8
0
  6
CONTINUOUS
 62
     7
 10
-317.81863
 20
15.667797
 42
-0.055158405
  0
VERTEX
  8
0
  6
CONTINUOUS
 62
     7
 10
-316.11877
 20
15.473213
 42
-0.045255212
  0
VERTEX
  8
0
  6
CONTINUOUS
 62
     7
 10
-314.49029
 20
14.94465
 42
-0.039298027
  0
VERTEX
  8
0
  6
CONTINUOUS
 62
     7
 10
-312.9725
 20
14.151134
 42
0
  0
SEQEND
  8
0
  0
POLYLINE
  8
0
  6
CONTINUOUS
 62
     7
 66
     1
 10
0
 20
0
  0
VERTEX
  8
0
  6
CONTINUOUS
 62
     7
 10
-312.9725
 20
14.151134
 42
-0.10383146
  0
VERTEX
  8
0
  6
CONTINUOUS
 62
     7
 10
-311.34959
 20
15.429419
 42
-0.23738503
  0
VERTEX
  8
0
  6
CONTINUOUS
 62
     7
 10
-309.34184
 20
15.429565
 42
-0.10386641
  0
VERTEX
  8
0
  6
CONTINUOUS
 62
     7
 10
-307.71863
 20
14.151134
 42
0
  0
SEQEND
  8
0
  0
POLYLINE
  8
0
  6
CONTINUOUS
 62
     7
 66
     1
 10
0
 20
0
  0
VERTEX
  8
0
  6
CONTINUOUS
 62
     7
 10
-317.81863
 20
15.667797
 42
0.055158405
  0
VERTEX
  8
0
  6
CONTINUOUS
 62
     7
 10
-319.5185
 20
15.473213
 42
0.045255212
  0
VERTEX
  8
0
  6
CONTINUOUS
 62
     7
 10
-321.14698
 20
14.94465
 42
0.039298027
  0
VERTEX
  8
0
  6
CONTINUOUS
 62
     7
 10
-322.66476
 20
14.151134
 42
0
  0
SEQEND
  8
0
  0
POLYLINE
  8
0
  6
CONTINUOUS
 62
     7
 66
     1
 10
0
 20
0
  0
VERTEX
  8
0
  6
CONTINUOUS
 62
     7
 10
-322.66476
 20
14.151134
 42
0.10383084
  0
VERTEX
  8
0
  6
CONTINUOUS
 62
     7
 10
-324.28767
 20
15.429416
 42
0.23738724
  0
VERTEX
  8
0
  6
CONTINUOUS
 62
     7
 10
-326.29542
 20
15.429563
 42
0.10386492
  0
VERTEX
  8
0
  6
CONTINUOUS
 62
     7
 10
-327.91861
 20
14.151134
 42
0
  0
SEQEND
  8
0
  0
POLYLINE
  8
0
  6
CONTINUOUS
 62
     7
 66
     1
 10
0
 20
0
  0
VERTEX
  8
0
  6
CONTINUOUS
 62
     7
 10
-329.86758
 20
-1054.6011
 42
0.018831977
  0
VERTEX
  8
0
  6
CONTINUOUS
 62
     7
 10
-329.55243
 20
-1054.9385
 42
0.020111516
  0
VERTEX
  8
0
  6
CONTINUOUS
 62
     7
 10
-329.21215
 20
-1055.2504
 42
0.023109637
  0
VERTEX
  8
0
  6
CONTINUOUS
 62
     7
 10
-328.8463
 20
-1055.532
 42
0
  0
SEQEND
  8
0
  0
POLYLINE
  8
0
  6
CONTINUOUS
 62
     7
 66
     1
 10
0
 20
0
  0
VERTEX
  8
0
  6
CONTINUOUS
 62
     7
 10
-334.71371
 20
-1047.0177
 42
-0.05516239
  0
VERTEX
  8
0
  6
CONTINUOUS
 62
     7
 10
-333.01385
 20
-1047.2123
 42
-0.045254866
  0
VERTEX
  8
0
  6
CONTINUOUS
 62
     7
 10
-331.38537
 20
-1047.7409
 42
-0.039294358
  0
VERTEX
  8
0
  6
CONTINUOUS
 62
     7
 10
-329.86758
 20
-1048.5344
 42
0
  0
SEQEND
  8
0
  0
POLYLINE
  8
0
  6
CONTINUOUS
 62
     7
 66
     1
 10
0
 20
0
  0
VERTEX
  8
0
  6
CONTINUOUS
 62
     7
 10
-329.86758
 20
-1048.5344
 42
-0.10382404
  0
VERTEX
  8
0
  6
CONTINUOUS
 62
     7
 10
-328.24468
 20
-1047.2561
 42
-0.237405
  0
VERTEX
  8
0
  6
CONTINUOUS
 62
     7
 10
-326.23692
 20
-1047.256
 42
-0.10385812
  0
VERTEX
  8
0
  6
CONTINUOUS
 62
     7
 10
-324.61374
 20
-1048.5344
 42
0
  0
SEQEND
  8
0
  0
POLYLINE
  8
0
  6
CONTINUOUS
 62
     7
 66
     1
 10
0
 20
0
  0
VERTEX
  8
0
  6
CONTINUOUS
 62
     7
 10
-334.71371
 20
-1047.0177
 42
0.05516239
  0
VERTEX
  8
0
  6
CONTINUOUS
 62
     7
 10
-336.41358
 20
-1047.2123
 42
0.045254866
  0
VERTEX
  8
0
  6
CONTINUOUS
 62
     7
 10
-338.04206
 20
-1047.7409
 42
0.039294358
  0
VERTEX
  8
0
  6
CONTINUOUS
 62
     7
 10
-339.55984
 20
-1048.5344
 42
0
  0
SEQEND
  8
0
  0
POLYLINE
  8
0
  6
CONTINUOUS
 62
     7
 66
     1
 10
0
 20
0
  0
VERTEX
  8
0
  6
CONTINUOUS
 62
     7
 10
-339.55984
 20
-1048.5344
 42
0.10382527
  0
VERTEX
  8
0
  6
CONTINUOUS
 62
     7
 10
-341.18276
 20
-1047.2561
 42
0.23740059
  0
VERTEX
  8
0
  6
CONTINUOUS
 62
     7
 10
-343.19052
 20
-1047.2559
 42
0.10386111
  0
VERTEX
  8
0
  6
CONTINUOUS
 62
     7
 10
-344.81375
 20
-1048.5344
 42
0
  0
SEQEND
  8
0
  0
POLYLINE
  8
0
  6
CONTINUOUS
 62
     7
 66
     1
 10
0
 20
0
  0
VERTEX
  8
0
  6
CONTINUOUS
 62
     7
 10
-339.55984
 20
-1054.6011
 42
-0.10383888
  0
VERTEX
  8
0
  6
CONTINUOUS
 62
     7
 10
-341.18277
 20
-1055.8793
 42
-0.23736507
  0
VERTEX
  8
0
  6
CONTINUOUS
 62
     7
 10
-343.19051
 20
-1055.8795
 42
-0.1038747
  0
VERTEX
  8
0
  6
CONTINUOUS
 62
     7
 10
-344.81375
 20
-1054.6011
 42
0
  0
SEQEND
  8
0
  0
POLYLINE
  8
0
  6
CONTINUOUS
 62
     7
 66
     1
 10
0
 20
0
  0
VERTEX
  8
0
  6
CONTINUOUS
 62
     7
 10
-334.71371
 20
-1056.1177
 42
-0.05515442
  0
VERTEX
  8
0
  6
CONTINUOUS
 62
     7
 10
-336.41358
 20
-1055.9231
 42
-0.045255557
  0
VERTEX
  8
0
  6
CONTINUOUS
 62
     7
 10
-338.04206
 20
-1055.3946
 42
-0.039301697
  0
VERTEX
  8
0
  6
CONTINUOUS
 62
     7
 10
-339.55984
 20
-1054.6011
 42
0
  0
SEQEND
  8
0
  0
POLYLINE
  8
0
  6
CONTINUOUS
 62
     7
 66
     1
 10
0
 20
0
  0
VERTEX
  8
0
  6
CONTINUOUS
 62
     7
 10
-334.71371
 20
-1056.1177
 42
0.05515442
  0
VERTEX
  8
0
  6
CONTINUOUS
 62
     7
 10
-333.01385
 20
-1055.9231
 42
0.045255557
  0
VERTEX
  8
0
  6
CONTINUOUS
 62
     7
 10
-331.38537
 20
-1055.3946
 42
0.039301697
  0
VERTEX
  8
0
  6
CONTINUOUS
 62
     7
 10
-329.86758
 20
-1054.6011
 42
0
  0
SEQEND
  8
0
  0
POLYLINE
  8
0
  6
CONTINUOUS
 62
     7
 66
     1
 10
0
 20
0
  0
VERTEX
  8
0
  6
CONTINUOUS
 62
     7
 10
-223.11108
 20
6.5677915
 42
0.055159022
  0
VERTEX
  8
0
  6
CONTINUOUS
 62
     7
 10
-221.41123
 20
6.7623753
 42
0.045255929
  0
VERTEX
  8
0
  6
CONTINUOUS
 62
     7
 10
-219.78277
 20
7.2909395
 42
0.03929684
  0
VERTEX
  8
0
  6
CONTINUOUS
 62
     7
 10
-218.265
 20
8.0844536
 42
0
  0
SEQEND
  8
0
  0
POLYLINE
  8
0
  6
CONTINUOUS
 62
     7
 66
     1
 10
0
 20
0
  0
VERTEX
  8
0
  6
CONTINUOUS
 62
     7
 10
-227.95721
 20
8.0844536
 42
-0.10383151
  0
VERTEX
  8
0
  6
CONTINUOUS
 62
     7
 10
-229.58013
 20
6.8061689
 42
-0.23738489
  0
VERTEX
  8
0
  6
CONTINUOUS
 62
     7
 10
-231.58788
 20
6.8060235
 42
-0.10386647
  0
VERTEX
  8
0
  6
CONTINUOUS
 62
     7
 10
-233.21109
 20
8.0844536
 42
0
  0
SEQEND
  8
0
  0
POLYLINE
  8
0
  6
CONTINUOUS
 62
     7
 66
     1
 10
0
 20
0
  0
VERTEX
  8
0
  6
CONTINUOUS
 62
     7
 10
-223.11108
 20
15.667767
 42
0.055158405
  0
VERTEX
  8
0
  6
CONTINUOUS
 62
     7
 10
-224.81095
 20
15.473182
 42
0.045255212
  0
VERTEX
  8
0
  6
CONTINUOUS
 62
     7
 10
-226.43943
 20
14.94462
 42
0.039298027
  0
VERTEX
  8
0
  6
CONTINUOUS
 62
     7
 10
-227.95721
 20
14.151104
 42
0
  0
SEQEND
  8
0
  0
POLYLINE
  8
0
  6
CONTINUOUS
 62
     7
 66
     1
 10
0
 20
0
  0
VERTEX
  8
0
  6
CONTINUOUS
 62
     7
 10
-223.11108
 20
6.5677915
 42
-0.055158374
  0
VERTEX
  8
0
  6
CONTINUOUS
 62
     7
 10
-224.81095
 20
6.7623759
 42
-0.045255214
  0
VERTEX
  8
0
  6
CONTINUOUS
 62
     7
 10
-226.43943
 20
7.290938
 42
-0.039298056
  0
VERTEX
  8
0
  6
CONTINUOUS
 62
     7
 10
-227.95721
 20
8.0844536
 42
0
  0
SEQEND
  8
0
  0
POLYLINE
  8
0
  6
CONTINUOUS
 62
     7
 66
     1
 10
0
 20
0
  0
VERTEX
  8
0
  6
CONTINUOUS
 62
     7
 10
-227.95721
 20
14.151104
 42
0.10383146
  0
VERTEX
  8
0
  6
CONTINUOUS
 62
     7
 10
-229.58013
 20
15.429389
 42
0.23738503
  0
VERTEX
  8
0
  6
CONTINUOUS
 62
     7
 10
-231.58788
 20
15.429534
 42
0.10386641
  0
VERTEX
  8
0
  6
CONTINUOUS
 62
     7
 10
-233.21109
 20
14.151104
 42
0
  0
SEQEND
  8
0
  0
POLYLINE
  8
0
  6
CONTINUOUS
 62
     7
 66
     1
 10
0
 20
0
  0
VERTEX
  8
0
  6
CONTINUOUS
 62
     7
 10
-218.265
 20
14.151104
 42
-0.10383207
  0
VERTEX
  8
0
  6
CONTINUOUS
 62
     7
 10
-216.64208
 20
15.429393
 42
-0.23738283
  0
VERTEX
  8
0
  6
CONTINUOUS
 62
     7
 10
-214.63433
 20
15.429536
 42
-0.10386791
  0
VERTEX
  8
0
  6
CONTINUOUS
 62
     7
 10
-213.01109
 20
14.151104
 42
0
  0
SEQEND
  8
0
  0
POLYLINE
  8
0
  6
CONTINUOUS
 62
     7
 66
     1
 10
0
 20
0
  0
VERTEX
  8
0
  6
CONTINUOUS
 62
     7
 10
-218.265
 20
8.0844536
 42
0.10383213
  0
VERTEX
  8
0
  6
CONTINUOUS
 62
     7
 10
-216.64208
 20
6.8061653
 42
0.23738269
  0
VERTEX
  8
0
  6
CONTINUOUS
 62
     7
 10
-214.63433
 20
6.806022
 42
0.10386796
  0
VERTEX
  8
0
  6
CONTINUOUS
 62
     7
 10
-213.01109
 20
8.0844536
 42
0
  0
SEQEND
  8
0
  0
POLYLINE
  8
0
  6
CONTINUOUS
 62
     7
 66
     1
 10
0
 20
0
  0
VERTEX
  8
0
  6
CONTINUOUS
 62
     7
 10
-223.11108
 20
15.667767
 42
-0.055159053
  0
VERTEX
  8
0
  6
CONTINUOUS
 62
     7
 10
-221.41123
 20
15.473183
 42
-0.045255927
  0
VERTEX
  8
0
  6
CONTINUOUS
 62
     7
 10
-219.78277
 20
14.944618
 42
-0.039296812
  0
VERTEX
  8
0
  6
CONTINUOUS
 62
     7
 10
-218.265
 20
14.151104
 42
0
  0
SEQEND
  8
0
  0
POLYLINE
  8
0
  6
CONTINUOUS
 62
     7
 66
     1
 10
0
 20
0
  0
VERTEX
  8
0
  6
CONTINUOUS
 62
     7
 10
-182.66235
 20
-1053.609
 42
-0.055163254
  0
VERTEX
  8
0
  6
CONTINUOUS
 62
     7
 10
-184.3622
 20
-1053.4144
 42
-0.04525582
  0
VERTEX
  8
0
  6
CONTINUOUS
 62
     7
 10
-185.99066
 20
-1052.8858
 42
-0.039292737
  0
VERTEX
  8
0
  6
CONTINUOUS
 62
     7
 10
-187.50842
 20
-1052.0923
 42
0
  0
SEQEND
  8
0
  0
POLYLINE
  8
0
  6
CONTINUOUS
 62
     7
 66
     1
 10
0
 20
0
  0
VERTEX
  8
0
  6
CONTINUOUS
 62
     7
 10
-182.66235
 20
-1044.509
 42
0.055155285
  0
VERTEX
  8
0
  6
CONTINUOUS
 62
     7
 10
-184.3622
 20
-1044.7036
 42
0.045256511
  0
VERTEX
  8
0
  6
CONTINUOUS
 62
     7
 10
-185.99066
 20
-1045.2321
 42
0.039300076
  0
VERTEX
  8
0
  6
CONTINUOUS
 62
     7
 10
-187.50842
 20
-1046.0256
 42
0
  0
SEQEND
  8
0
  0
POLYLINE
  8
0
  6
CONTINUOUS
 62
     7
 66
     1
 10
0
 20
0
  0
VERTEX
  8
0
  6
CONTINUOUS
 62
     7
 10
-177.81622
 20
-1052.0923
 42
0.008452579
  0
VERTEX
  8
0
  6
CONTINUOUS
 62
     7
 10
-177.67734
 20
-1052.2473
 42
0.0085447573
  0
VERTEX
  8
0
  6
CONTINUOUS
 62
     7
 10
-177.53278
 20
-1052.398
 42
0.0087454627
  0
VERTEX
  8
0
  6
CONTINUOUS
 62
     7
 10
-177.38359
 20
-1052.5431
 42
0
  0
SEQEND
  8
0
  0
POLYLINE
  8
0
  6
CONTINUOUS
 62
     7
 66
     1
 10
0
 20
0
  0
VERTEX
  8
0
  6
CONTINUOUS
 62
     7
 10
-182.66235
 20
-1044.509
 42
-0.05515442
  0
VERTEX
  8
0
  6
CONTINUOUS
 62
     7
 10
-180.96249
 20
-1044.7036
 42
-0.045255557
  0
VERTEX
  8
0
  6
CONTINUOUS
 62
     7
 10
-179.33401
 20
-1045.2321
 42
-0.039301697
  0
VERTEX
  8
0
  6
CONTINUOUS
 62
     7
 10
-177.81622
 20
-1046.0256
 42
0
  0
SEQEND
  8
0
  0
POLYLINE
  8
0
  6
CONTINUOUS
 62
     7
 66
     1
 10
0
 20
0
  0
VERTEX
  8
0
  6
CONTINUOUS
 62
     7
 10
-182.66235
 20
-1053.609
 42
0.05516239
  0
VERTEX
  8
0
  6
CONTINUOUS
 62
     7
 10
-180.96248
 20
-1053.4144
 42
0.045254866
  0
VERTEX
  8
0
  6
CONTINUOUS
 62
     7
 10
-179.33401
 20
-1052.8858
 42
0.039294358
  0
VERTEX
  8
0
  6
CONTINUOUS
 62
     7
 10
-177.81622
 20
-1052.0923
 42
0
  0
SEQEND
  8
0
  0
POLYLINE
  8
0
  6
CONTINUOUS
 62
     7
 66
     1
 10
0
 20
0
  0
VERTEX
  8
0
  6
CONTINUOUS
 62
     7
 10
-177.81622
 20
-1046.0256
 42
-0.10383888
  0
VERTEX
  8
0
  6
CONTINUOUS
 62
     7
 10
-176.1933
 20
-1044.7474
 42
-0.23736507
  0
VERTEX
  8
0
  6
CONTINUOUS
 62
     7
 10
-174.18556
 20
-1044.7472
 42
-0.1038747
  0
VERTEX
  8
0
  6
CONTINUOUS
 62
     7
 10
-172.56232
 20
-1046.0256
 42
0
  0
SEQEND
  8
0
  0
POLYLINE
  8
0
  6
CONTINUOUS
 62
     7
 66
     1
 10
0
 20
0
  0
VERTEX
  8
0
  6
CONTINUOUS
 62
     7
 10
-187.50842
 20
-1046.0256
 42
0.10383888
  0
VERTEX
  8
0
  6
CONTINUOUS
 62
     7
 10
-189.13135
 20
-1044.7474
 42
0.23736507
  0
VERTEX
  8
0
  6
CONTINUOUS
 62
     7
 10
-191.13909
 20
-1044.7472
 42
0.1038747
  0
VERTEX
  8
0
  6
CONTINUOUS
 62
     7
 10
-192.76233
 20
-1046.0256
 42
0
  0
SEQEND
  8
0
  0
POLYLINE
  8
0
  6
CONTINUOUS
 62
     7
 66
     1
 10
0
 20
0
  0
VERTEX
  8
0
  6
CONTINUOUS
 62
     7
 10
-187.50842
 20
-1052.0923
 42
-0.10382527
  0
VERTEX
  8
0
  6
CONTINUOUS
 62
     7
 10
-189.13134
 20
-1053.3706
 42
-0.23740059
  0
VERTEX
  8
0
  6
CONTINUOUS
 62
     7
 10
-191.1391
 20
-1053.3708
 42
-0.10386111
  0
VERTEX
  8
0
  6
CONTINUOUS
 62
     7
 10
-192.76233
 20
-1052.0923
 42
0
  0
SEQEND
  8
0
  0
POLYLINE
  8
0
  6
CONTINUOUS
 62
     7
 66
     1
 10
0
 20
0
  0
VERTEX
  8
0
  6
CONTINUOUS
 62
     7
 10
-123.30022
 20
6.5677915
 42
0.055158374
  0
VERTEX
  8
0
  6
CONTINUOUS
 62
     7
 10
-121.60036
 20
6.7623759
 42
0.045255214
  0
VERTEX
  8
0
  6
CONTINUOUS
 62
     7
 10
-119.97188
 20
7.290938
 42
0.039298056
  0
VERTEX
  8
0
  6
CONTINUOUS
 62
     7
 10
-118.45409
 20
8.0844536
 42
0
  0
SEQEND
  8
0
  0
POLYLINE
  8
0
  6
CONTINUOUS
 62
     7
 66
     1
 10
0
 20
0
  0
VERTEX
  8
0
  6
CONTINUOUS
 62
     7
 10
-128.14633
 20
8.0844536
 42
-0.10383213
  0
VERTEX
  8
0
  6
CONTINUOUS
 62
     7
 10
-129.76925
 20
6.8061653
 42
-0.23738269
  0
VERTEX
  8
0
  6
CONTINUOUS
 62
     7
 10
-131.777
 20
6.806022
 42
-0.10386796
  0
VERTEX
  8
0
  6
CONTINUOUS
 62
     7
 10
-133.40024
 20
8.0844536
 42
0
  0
SEQEND
  8
0
  0
POLYLINE
  8
0
  6
CONTINUOUS
 62
     7
 66
     1
 10
0
 20
0
  0
VERTEX
  8
0
  6
CONTINUOUS
 62
     7
 10
-123.30022
 20
15.667767
 42
0.055158729
  0
VERTEX
  8
0
  6
CONTINUOUS
 62
     7
 10
-125.00008
 20
15.473182
 42
0.045255569
  0
VERTEX
  8
0
  6
CONTINUOUS
 62
     7
 10
-126.62855
 20
14.944619
 42
0.03929742
  0
VERTEX
  8
0
  6
CONTINUOUS
 62
     7
 10
-128.14633
 20
14.151104
 42
0
  0
SEQEND
  8
0
  0
POLYLINE
  8
0
  6
CONTINUOUS
 62
     7
 66
     1
 10
0
 20
0
  0
VERTEX
  8
0
  6
CONTINUOUS
 62
     7
 10
-123.30022
 20
6.5677915
 42
-0.055158698
  0
VERTEX
  8
0
  6
CONTINUOUS
 62
     7
 10
-125.00008
 20
6.7623756
 42
-0.045255572
  0
VERTEX
  8
0
  6
CONTINUOUS
 62
     7
 10
-126.62855
 20
7.2909387
 42
-0.039297448
  0
VERTEX
  8
0
  6
CONTINUOUS
 62
     7
 10
-128.14633
 20
8.0844536
 42
0
  0
SEQEND
  8
0
  0
POLYLINE
  8
0
  6
CONTINUOUS
 62
     7
 66
     1
 10
0
 20
0
  0
VERTEX
  8
0
  6
CONTINUOUS
 62
     7
 10
-128.14633
 20
14.151104
 42
0.10383207
  0
VERTEX
  8
0
  6
CONTINUOUS
 62
     7
 10
-129.76925
 20
15.429393
 42
0.23738283
  0
VERTEX
  8
0
  6
CONTINUOUS
 62
     7
 10
-131.777
 20
15.429536
 42
0.10386791
  0
VERTEX
  8
0
  6
CONTINUOUS
 62
     7
 10
-133.40024
 20
14.151104
 42
0
  0
SEQEND
  8
0
  0
POLYLINE
  8
0
  6
CONTINUOUS
 62
     7
 66
     1
 10
0
 20
0
  0
VERTEX
  8
0
  6
CONTINUOUS
 62
     7
 10
-118.45409
 20
14.151104
 42
-0.10383161
  0
VERTEX
  8
0
  6
CONTINUOUS
 62
     7
 10
-116.83118
 20
15.42939
 42
-0.23738448
  0
VERTEX
  8
0
  6
CONTINUOUS
 62
     7
 10
-114.82343
 20
15.429535
 42
-0.10386679
  0
VERTEX
  8
0
  6
CONTINUOUS
 62
     7
 10
-113.20021
 20
14.151104
 42
0
  0
SEQEND
  8
0
  0
POLYLINE
  8
0
  6
CONTINUOUS
 62
     7
 66
     1
 10
0
 20
0
  0
VERTEX
  8
0
  6
CONTINUOUS
 62
     7
 10
-118.45409
 20
8.0844536
 42
0.10383166
  0
VERTEX
  8
0
  6
CONTINUOUS
 62
     7
 10
-116.83118
 20
6.806168
 42
0.23738434
  0
VERTEX
  8
0
  6
CONTINUOUS
 62
     7
 10
-114.82343
 20
6.8060231
 42
0.10386684
  0
VERTEX
  8
0
  6
CONTINUOUS
 62
     7
 10
-113.20021
 20
8.0844536
 42
0
  0
SEQEND
  8
0
  0
POLYLINE
  8
0
  6
CONTINUOUS
 62
     7
 66
     1
 10
0
 20
0
  0
VERTEX
  8
0
  6
CONTINUOUS
 62
     7
 10
-123.30022
 20
15.667767
 42
-0.055158405
  0
VERTEX
  8
0
  6
CONTINUOUS
 62
     7
 10
-121.60036
 20
15.473182
 42
-0.045255212
  0
VERTEX
  8
0
  6
CONTINUOUS
 62
     7
 10
-119.97188
 20
14.94462
 42
-0.039298027
  0
VERTEX
  8
0
  6
CONTINUOUS
 62
     7
 10
-118.45409
 20
14.151104
 42
0
  0
SEQEND
  8
0
  0
POLYLINE
  8
0
  6
CONTINUOUS
 62
     7
 66
     1
 10
0
 20
0
  0
VERTEX
  8
0
  6
CONTINUOUS
 62
     7
 10
-22.593454
 20
-1051.1002
 42
-0.05516239
  0
VERTEX
  8
0
  6
CONTINUOUS
 62
     7
 10
-24.293323
 20
-1050.9056
 42
-0.045254866
  0
VERTEX
  8
0
  6
CONTINUOUS
 62
     7
 10
-25.921799
 20
-1050.377
 42
-0.039294358
  0
VERTEX
  8
0
  6
CONTINUOUS
 62
     7
 10
-27.439585
 20
-1049.5835
 42
0
  0
SEQEND
  8
0
  0
POLYLINE
  8
0
  6
CONTINUOUS
 62
     7
 66
     1
 10
0
 20
0
  0
VERTEX
  8
0
  6
CONTINUOUS
 62
     7
 10
-27.439585
 20
-1049.5835
 42
-0.10382531
  0
VERTEX
  8
0
  6
CONTINUOUS
 62
     7
 10
-29.062503
 20
-1050.8618
 42
-0.23740045
  0
VERTEX
  8
0
  6
CONTINUOUS
 62
     7
 10
-31.070259
 20
-1050.862
 42
-0.1038612
  0
VERTEX
  8
0
  6
CONTINUOUS
 62
     7
 10
-32.693493
 20
-1049.5835
 42
0
  0
SEQEND
  8
0
  0
POLYLINE
  8
0
  6
CONTINUOUS
 62
     7
 66
     1
 10
0
 20
0
  0
VERTEX
  8
0
  6
CONTINUOUS
 62
     7
 10
-22.593454
 20
-1042.0002
 42
-0.05515442
  0
VERTEX
  8
0
  6
CONTINUOUS
 62
     7
 10
-20.893593
 20
-1042.1948
 42
-0.045255557
  0
VERTEX
  8
0
  6
CONTINUOUS
 62
     7
 10
-19.265111
 20
-1042.7233
 42
-0.039301697
  0
VERTEX
  8
0
  6
CONTINUOUS
 62
     7
 10
-17.747324
 20
-1043.5168
 42
0
  0
SEQEND
  8
0
  0
POLYLINE
  8
0
  6
CONTINUOUS
 62
     7
 66
     1
 10
0
 20
0
  0
VERTEX
  8
0
  6
CONTINUOUS
 62
     7
 10
-17.747324
 20
-1043.5168
 42
-0.10383886
  0
VERTEX
  8
0
  6
CONTINUOUS
 62
     7
 10
-16.124397
 20
-1042.2386
 42
-0.23736506
  0
VERTEX
  8
0
  6
CONTINUOUS
 62
     7
 10
-14.11666
 20
-1042.2385
 42
-0.10387472
  0
VERTEX
  8
0
  6
CONTINUOUS
 62
     7
 10
-12.493419
 20
-1043.5168
 42
0
  0
SEQEND
  8
0
  0
POLYLINE
  8
0
  6
CONTINUOUS
 62
     7
 66
     1
 10
0
 20
0
  0
VERTEX
  8
0
  6
CONTINUOUS
 62
     7
 10
-27.439585
 20
-1043.5168
 42
0.10383892
  0
VERTEX
  8
0
  6
CONTINUOUS
 62
     7
 10
-29.062513
 20
-1042.2386
 42
0.23736493
  0
VERTEX
  8
0
  6
CONTINUOUS
 62
     7
 10
-31.07025
 20
-1042.2385
 42
0.1038748
  0
VERTEX
  8
0
  6
CONTINUOUS
 62
     7
 10
-32.693493
 20
-1043.5168
 42
0
  0
SEQEND
  8
0
  0
POLYLINE
  8
0
  6
CONTINUOUS
 62
     7
 66
     1
 10
0
 20
0
  0
VERTEX
  8
0
  6
CONTINUOUS
 62
     7
 10
-22.593454
 20
-1042.0002
 42
0.05515442
  0
VERTEX
  8
0
  6
CONTINUOUS
 62
     7
 10
-24.293316
 20
-1042.1948
 42
0.045255557
  0
VERTEX
  8
0
  6
CONTINUOUS
 62
     7
 10
-25.921797
 20
-1042.7233
 42
0.039301697
  0
VERTEX
  8
0
  6
CONTINUOUS
 62
     7
 10
-27.439585
 20
-1043.5168
 42
0
  0
SEQEND
  8
0
  0
POLYLINE
  8
0
  6
CONTINUOUS
 62
     7
 66
     1
 10
0
 20
0
  0
VERTEX
  8
0
  6
CONTINUOUS
 62
     7
 10
-26.769236
 20
14.151104
 42
-0.10383238
  0
VERTEX
  8
0
  6
CONTINUOUS
 62
     7
 10
-25.146309
 20
15.429394
 42
-0.23738173
  0
VERTEX
  8
0
  6
CONTINUOUS
 62
     7
 10
-23.138563
 20
15.429537
 42
-0.10386865
  0
VERTEX
  8
0
  6
CONTINUOUS
 62
     7
 10
-21.515314
 20
14.151104
 42
0
  0
SEQEND
  8
0
  0
POLYLINE
  8
0
  6
CONTINUOUS
 62
     7
 66
     1
 10
0
 20
0
  0
VERTEX
  8
0
  6
CONTINUOUS
 62
     7
 10
-36.461418
 20
8.0844536
 42
-0.10383213
  0
VERTEX
  8
0
  6
CONTINUOUS
 62
     7
 10
-38.084341
 20
6.8061653
 42
-0.23738269
  0
VERTEX
  8
0
  6
CONTINUOUS
 62
     7
 10
-40.092088
 20
6.806022
 42
-0.10386796
  0
VERTEX
  8
0
  6
CONTINUOUS
 62
     7
 10
-41.715324
 20
8.0844536
 42
0
  0
SEQEND
  8
0
  0
POLYLINE
  8
0
  6
CONTINUOUS
 62
     7
 66
     1
 10
0
 20
0
  0
VERTEX
  8
0
  6
CONTINUOUS
 62
     7
 10
-31.61532
 20
15.667767
 42
0.055158864
  0
VERTEX
  8
0
  6
CONTINUOUS
 62
     7
 10
-33.315175
 20
15.473182
 42
0.045255718
  0
VERTEX
  8
0
  6
CONTINUOUS
 62
     7
 10
-34.943643
 20
14.944619
 42
0.039297166
  0
VERTEX
  8
0
  6
CONTINUOUS
 62
     7
 10
-36.461418
 20
14.151104
 42
0
  0
SEQEND
  8
0
  0
POLYLINE
  8
0
  6
CONTINUOUS
 62
     7
 66
     1
 10
0
 20
0
  0
VERTEX
  8
0
  6
CONTINUOUS
 62
     7
 10
-31.61532
 20
6.5677915
 42
-0.055158833
  0
VERTEX
  8
0
  6
CONTINUOUS
 62
     7
 10
-33.315175
 20
6.7623755
 42
-0.045255721
  0
VERTEX
  8
0
  6
CONTINUOUS
 62
     7
 10
-34.943643
 20
7.290939
 42
-0.039297195
  0
VERTEX
  8
0
  6
CONTINUOUS
 62
     7
 10
-36.461418
 20
8.0844536
 42
0
  0
SEQEND
  8
0
  0
POLYLINE
  8
0
  6
CONTINUOUS
 62
     7
 66
     1
 10
0
 20
0
  0
VERTEX
  8
0
  6
CONTINUOUS
 62
     7
 10
-36.461418
 20
14.151104
 42
0.10383207
  0
VERTEX
  8
0
  6
CONTINUOUS
 62
     7
 10
-38.084341
 20
15.429393
 42
0.23738283
  0
VERTEX
  8
0
  6
CONTINUOUS
 62
     7
 10
-40.092088
 20
15.429536
 42
0.10386791
  0
VERTEX
  8
0
  6
CONTINUOUS
 62
     7
 10
-41.715324
 20
14.151104
 42
0
  0
SEQEND
  8
0
  0
POLYLINE
  8
0
  6
CONTINUOUS
 62
     7
 66
     1
 10
0
 20
0
  0
VERTEX
  8
0
  6
CONTINUOUS
 62
     7
 10
-26.769236
 20
8.0844536
 42
0.10383243
  0
VERTEX
  8
0
  6
CONTINUOUS
 62
     7
 10
-25.146309
 20
6.8061636
 42
0.23738159
  0
VERTEX
  8
0
  6
CONTINUOUS
 62
     7
 10
-23.138563
 20
6.8060213
 42
0.10386871
  0
VERTEX
  8
0
  6
CONTINUOUS
 62
     7
 10
-21.515314
 20
8.0844536
 42
0
  0
SEQEND
  8
0
  0
POLYLINE
  8
0
  6
CONTINUOUS
 62
     7
 66
     1
 10
0
 20
0
  0
VERTEX
  8
0
  6
CONTINUOUS
 62
     7
 10
-31.61532
 20
15.667767
 42
-0.055159053
  0
VERTEX
  8
0
  6
CONTINUOUS
 62
     7
 10
-29.915469
 20
15.473183
 42
-0.045255927
  0
VERTEX
  8
0
  6
CONTINUOUS
 62
     7
 10
-28.287007
 20
14.944618
 42
-0.039296812
  0
VERTEX
  8
0
  6
CONTINUOUS
 62
     7
 10
-26.769236
 20
14.151104
 42
0
  0
SEQEND
  8
0
  0
POLYLINE
  8
0
  6
CONTINUOUS
 62
     7
 66
     1
 10
0
 20
0
  0
VERTEX
  8
0
  6
CONTINUOUS
 62
     7
 10
-31.61532
 20
6.5677915
 42
0.055159022
  0
VERTEX
  8
0
  6
CONTINUOUS
 62
     7
 10
-29.91547
 20
6.7623753
 42
0.045255929
  0
VERTEX
  8
0
  6
CONTINUOUS
 62
     7
 10
-28.287007
 20
7.2909395
 42
0.03929684
  0
VERTEX
  8
0
  6
CONTINUOUS
 62
     7
 10
-26.769236
 20
8.0844536
 42
0
  0
SEQEND
  8
0
  0
POLYLINE
  8
0
  6
CONTINUOUS
 62
     7
 66
     1
 10
0
 20
0
  0
VERTEX
  8
0
  6
CONTINUOUS
 62
     7
 10
143.1819
 20
-1052.0923
 42
-0.10382527
  0
VERTEX
  8
0
  6
CONTINUOUS
 62
     7
 10
141.55898
 20
-1053.3706
 42
-0.23740059
  0
VERTEX
  8
0
  6
CONTINUOUS
 62
     7
 10
139.55123
 20
-1053.3708
 42
-0.10386111
  0
VERTEX
  8
0
  6
CONTINUOUS
 62
     7
 10
137.92799
 20
-1052.0923
 42
0
  0
SEQEND
  8
0
  0
POLYLINE
  8
0
  6
CONTINUOUS
 62
     7
 66
     1
 10
0
 20
0
  0
VERTEX
  8
0
  6
CONTINUOUS
 62
     7
 10
148.02797
 20
-1044.509
 42
-0.05515442
  0
VERTEX
  8
0
  6
CONTINUOUS
 62
     7
 10
149.72783
 20
-1044.7036
 42
-0.045255557
  0
VERTEX
  8
0
  6
CONTINUOUS
 62
     7
 10
151.35631
 20
-1045.2321
 42
-0.039301697
  0
VERTEX
  8
0
  6
CONTINUOUS
 62
     7
 10
152.8741
 20
-1046.0256
 42
0
  0
SEQEND
  8
0
  0
POLYLINE
  8
0
  6
CONTINUOUS
 62
     7
 66
     1
 10
0
 20
0
  0
VERTEX
  8
0
  6
CONTINUOUS
 62
     7
 10
152.8741
 20
-1046.0256
 42
-0.10383888
  0
VERTEX
  8
0
  6
CONTINUOUS
 62
     7
 10
154.49703
 20
-1044.7474
 42
-0.23736507
  0
VERTEX
  8
0
  6
CONTINUOUS
 62
     7
 10
156.50476
 20
-1044.7472
 42
-0.1038747
  0
VERTEX
  8
0
  6
CONTINUOUS
 62
     7
 10
158.12801
 20
-1046.0256
 42
0
  0
SEQEND
  8
0
  0
POLYLINE
  8
0
  6
CONTINUOUS
 62
     7
 66
     1
 10
0
 20
0
  0
VERTEX
  8
0
  6
CONTINUOUS
 62
     7
 10
148.02797
 20
-1044.509
 42
0.055155285
  0
VERTEX
  8
0
  6
CONTINUOUS
 62
     7
 10
146.32813
 20
-1044.7036
 42
0.045256511
  0
VERTEX
  8
0
  6
CONTINUOUS
 62
     7
 10
144.69967
 20
-1045.2321
 42
0.039300076
  0
VERTEX
  8
0
  6
CONTINUOUS
 62
     7
 10
143.1819
 20
-1046.0256
 42
0
  0
SEQEND
  8
0
  0
POLYLINE
  8
0
  6
CONTINUOUS
 62
     7
 66
     1
 10
0
 20
0
  0
VERTEX
  8
0
  6
CONTINUOUS
 62
     7
 10
143.1819
 20
-1046.0256
 42
0.10383888
  0
VERTEX
  8
0
  6
CONTINUOUS
 62
     7
 10
141.55897
 20
-1044.7474
 42
0.23736507
  0
VERTEX
  8
0
  6
CONTINUOUS
 62
     7
 10
139.55124
 20
-1044.7472
 42
0.1038747
  0
VERTEX
  8
0
  6
CONTINUOUS
 62
     7
 10
137.92799
 20
-1046.0256
 42
0
  0
SEQEND
  8
0
  0
POLYLINE
  8
0
  6
CONTINUOUS
 62
     7
 66
     1
 10
0
 20
0
  0
VERTEX
  8
0
  6
CONTINUOUS
 62
     7
 10
148.02797
 20
-1053.609
 42
-0.055163254
  0
VERTEX
  8
0
  6
CONTINUOUS
 62
     7
 10
146.32812
 20
-1053.4144
 42
-0.04525582
  0
VERTEX
  8
0
  6
CONTINUOUS
 62
     7
 10
144.69967
 20
-1052.8858
 42
-0.039292737
  0
VERTEX
  8
0
  6
CONTINUOUS
 62
     7
 10
143.1819
 20
-1052.0923
 42
0
  0
SEQEND
  8
0
  0
POLYLINE
  8
0
  6
CONTINUOUS
 62
     7
 66
     1
 10
0
 20
0
  0
VERTEX
  8
0
  6
CONTINUOUS
 62
     7
 10
78.471848
 20
22.017773
 42
0.10383093
  0
VERTEX
  8
0
  6
CONTINUOUS
 62
     7
 10
76.492246
 20
23.577015
 42
0.2373847
  0
VERTEX
  8
0
  6
CONTINUOUS
 62
     7
 10
74.043249
 20
23.577188
 42
0.10386749
  0
VERTEX
  8
0
  6
CONTINUOUS
 62
     7
 10
72.063248
 20
22.017773
 42
0
  0
SEQEND
  8
0
  0
POLYLINE
  8
0
  6
CONTINUOUS
 62
     7
 66
     1
 10
0
 20
0
  0
VERTEX
  8
0
  6
CONTINUOUS
 62
     7
 10
78.471848
 20
22.017773
 42
-0.037568432
  0
VERTEX
  8
0
  6
CONTINUOUS
 62
     7
 10
80.507122
 20
22.993809
 42
-0.042426292
  0
VERTEX
  8
0
  6
CONTINUOUS
 62
     7
 10
82.670423
 20
23.634934
 42
-0.050272693
  0
VERTEX
  8
0
  6
CONTINUOUS
 62
     7
 10
84.913254
 20
23.867779
 42
0
  0
SEQEND
  8
0
  0
POLYLINE
  8
0
  6
CONTINUOUS
 62
     7
 66
     1
 10
0
 20
0
  0
VERTEX
  8
0
  6
CONTINUOUS
 62
     7
 10
91.35466
 20
22.017773
 42
-0.10383084
  0
VERTEX
  8
0
  6
CONTINUOUS
 62
     7
 10
93.334267
 20
23.577008
 42
-0.23738679
  0
VERTEX
  8
0
  6
CONTINUOUS
 62
     7
 10
95.783287
 20
23.577185
 42
-0.10386595
  0
VERTEX
  8
0
  6
CONTINUOUS
 62
     7
 10
97.76326
 20
22.017773
 42
0
  0
SEQEND
  8
0
  0
POLYLINE
  8
0
  6
CONTINUOUS
 62
     7
 66
     1
 10
0
 20
0
  0
VERTEX
  8
0
  6
CONTINUOUS
 62
     7
 10
91.35466
 20
22.017773
 42
0.037568432
  0
VERTEX
  8
0
  6
CONTINUOUS
 62
     7
 10
89.319386
 20
22.993809
 42
0.042426292
  0
VERTEX
  8
0
  6
CONTINUOUS
 62
     7
 10
87.156084
 20
23.634934
 42
0.050272693
  0
VERTEX
  8
0
  6
CONTINUOUS
 62
     7
 10
84.913254
 20
23.867779
 42
0
  0
SEQEND
  8
0
  0
POLYLINE
  8
0
  6
CONTINUOUS
 62
     7
 66
     1
 10
0
 20
0
  0
VERTEX
  8
0
  6
CONTINUOUS
 62
     7
 10
91.35466
 20
13.417797
 42
-0.037568432
  0
VERTEX
  8
0
  6
CONTINUOUS
 62
     7
 10
89.319386
 20
12.441761
 42
-0.042426292
  0
VERTEX
  8
0
  6
CONTINUOUS
 62
     7
 10
87.156084
 20
11.800636
 42
-0.050272693
  0
VERTEX
  8
0
  6
CONTINUOUS
 62
     7
 10
84.913254
 20
11.567791
 42
0
  0
SEQEND
  8
0
  0
POLYLINE
  8
0
  6
CONTINUOUS
 62
     7
 66
     1
 10
0
 20
0
  0
VERTEX
  8
0
  6
CONTINUOUS
 62
     7
 10
91.35466
 20
13.417797
 42
0.10383084
  0
VERTEX
  8
0
  6
CONTINUOUS
 62
     7
 10
93.334267
 20
11.858562
 42
0.23738679
  0
VERTEX
  8
0
  6
CONTINUOUS
 62
     7
 10
95.783287
 20
11.858385
 42
0.10386595
  0
VERTEX
  8
0
  6
CONTINUOUS
 62
     7
 10
97.76326
 20
13.417797
 42
0
  0
SEQEND
  8
0
  0
POLYLINE
  8
0
  6
CONTINUOUS
 62
     7
 66
     1
 10
0
 20
0
  0
VERTEX
  8
0
  6
CONTINUOUS
 62
     7
 10
78.471848
 20
13.417797
 42
0.037568432
  0
VERTEX
  8
0
  6
CONTINUOUS
 62
     7
 10
80.507122
 20
12.441761
 42
0.042426292
  0
VERTEX
  8
0
  6
CONTINUOUS
 62
     7
 10
82.670423
 20
11.800636
 42
0.050272693
  0
VERTEX
  8
0
  6
CONTINUOUS
 62
     7
 10
84.913254
 20
11.567791
 42
0
  0
SEQEND
  8
0
  0
POLYLINE
  8
0
  6
CONTINUOUS
 62
     7
 66
     1
 10
0
 20
0
  0
VERTEX
  8
0
  6
CONTINUOUS
 62
     7
 10
78.471848
 20
13.417797
 42
-0.10383093
  0
VERTEX
  8
0
  6
CONTINUOUS
 62
     7
 10
76.492246
 20
11.858555
 42
-0.2373847
  0
VERTEX
  8
0
  6
CONTINUOUS
 62
     7
 10
74.043249
 20
11.858382
 42
-0.10386749
  0
VERTEX
  8
0
  6
CONTINUOUS
 62
     7
 10
72.063248
 20
13.417797
 42
0
  0
SEQEND
  8
0
  0
POLYLINE
  8
0
  6
CONTINUOUS
 62
     7
 66
     1
 10
0
 20
0
  0
VERTEX
  8
0
  6
CONTINUOUS
 62
     7
 10
-357.87891
 20
-1243.8767
 42
-0.037569831
  0
VERTEX
  8
0
  6
CONTINUOUS
 62
     7
 10
-355.84363
 20
-1242.9007
 42
-0.042426399
  0
VERTEX
  8
0
  6
CONTINUOUS
 62
     7
 10
-353.68033
 20
-1242.2596
 42
-0.050271197
  0
VERTEX
  8
0
  6
CONTINUOUS
 62
     7
 10
-351.4375
 20
-1242.0267
 42
0
  0
SEQEND
  8
0
  0
POLYLINE
  8
0
  6
CONTINUOUS
 62
     7
 66
     1
 10
0
 20
0
  0
VERTEX
  8
0
  6
CONTINUOUS
 62
     7
 10
-344.99609
 20
-1243.8767
 42
-0.10383321
  0
VERTEX
  8
0
  6
CONTINUOUS
 62
     7
 10
-343.0165
 20
-1242.3175
 42
-0.23737923
  0
VERTEX
  8
0
  6
CONTINUOUS
 62
     7
 10
-340.5675
 20
-1242.3173
 42
-0.10386905
  0
VERTEX
  8
0
  6
CONTINUOUS
 62
     7
 10
-338.58752
 20
-1243.8767
 42
0
  0
SEQEND
  8
0
  0
POLYLINE
  8
0
  6
CONTINUOUS
 62
     7
 66
     1
 10
0
 20
0
  0
VERTEX
  8
0
  6
CONTINUOUS
 62
     7
 10
-344.99609
 20
-1243.8767
 42
0.037569831
  0
VERTEX
  8
0
  6
CONTINUOUS
 62
     7
 10
-347.03137
 20
-1242.9007
 42
0.042426399
  0
VERTEX
  8
0
  6
CONTINUOUS
 62
     7
 10
-349.19467
 20
-1242.2596
 42
0.050271197
  0
VERTEX
  8
0
  6
CONTINUOUS
 62
     7
 10
-351.4375
 20
-1242.0267
 42
0
  0
SEQEND
  8
0
  0
POLYLINE
  8
0
  6
CONTINUOUS
 62
     7
 66
     1
 10
0
 20
0
  0
VERTEX
  8
0
  6
CONTINUOUS
 62
     7
 10
-357.87891
 20
-1252.4767
 42
0.037569831
  0
VERTEX
  8
0
  6
CONTINUOUS
 62
     7
 10
-355.84363
 20
-1253.4527
 42
0.042426399
  0
VERTEX
  8
0
  6
CONTINUOUS
 62
     7
 10
-353.68033
 20
-1254.0938
 42
0.050271197
  0
VERTEX
  8
0
  6
CONTINUOUS
 62
     7
 10
-351.4375
 20
-1254.3267
 42
0
  0
SEQEND
  8
0
  0
POLYLINE
  8
0
  6
CONTINUOUS
 62
     7
 66
     1
 10
0
 20
0
  0
VERTEX
  8
0
  6
CONTINUOUS
 62
     7
 10
-357.87891
 20
-1243.8767
 42
0.10383405
  0
VERTEX
  8
0
  6
CONTINUOUS
 62
     7
 10
-359.85853
 20
-1242.3175
 42
0.2373798
  0
VERTEX
  8
0
  6
CONTINUOUS
 62
     7
 10
-362.30757
 20
-1242.3173
 42
0.10386842
  0
VERTEX
  8
0
  6
CONTINUOUS
 62
     7
 10
-364.28754
 20
-1243.8767
 42
0
  0
SEQEND
  8
0
  0
POLYLINE
  8
0
  6
CONTINUOUS
 62
     7
 66
     1
 10
0
 20
0
  0
VERTEX
  8
0
  6
CONTINUOUS
 62
     7
 10
-357.87891
 20
-1252.4767
 42
-0.10383405
  0
VERTEX
  8
0
  6
CONTINUOUS
 62
     7
 10
-359.85853
 20
-1254.0359
 42
-0.2373798
  0
VERTEX
  8
0
  6
CONTINUOUS
 62
     7
 10
-362.30757
 20
-1254.0361
 42
-0.10386842
  0
VERTEX
  8
0
  6
CONTINUOUS
 62
     7
 10
-364.28754
 20
-1252.4767
 42
0
  0
SEQEND
  8
0
  0
POLYLINE
  8
0
  6
CONTINUOUS
 62
     7
 66
     1
 10
0
 20
0
  0
VERTEX
  8
0
  6
CONTINUOUS
 62
     7
 10
201.14963
 20
13.417797
 42
0.10383042
  0
VERTEX
  8
0
  6
CONTINUOUS
 62
     7
 10
203.12922
 20
11.858558
 42
0.23738651
  0
VERTEX
  8
0
  6
CONTINUOUS
 62
     7
 10
205.57822
 20
11.858383
 42
0.10386627
  0
VERTEX
  8
0
  6
CONTINUOUS
 62
     7
 10
207.5582
 20
13.417797
 42
0
  0
SEQEND
  8
0
  0
POLYLINE
  8
0
  6
CONTINUOUS
 62
     7
 66
     1
 10
0
 20
0
  0
VERTEX
  8
0
  6
CONTINUOUS
 62
     7
 10
201.14963
 20
13.417797
 42
-0.037568999
  0
VERTEX
  8
0
  6
CONTINUOUS
 62
     7
 10
199.11434
 20
12.44176
 42
-0.042425947
  0
VERTEX
  8
0
  6
CONTINUOUS
 62
     7
 10
196.95103
 20
11.800636
 42
-0.050272402
  0
VERTEX
  8
0
  6
CONTINUOUS
 62
     7
 10
194.70819
 20
11.567791
 42
0
  0
SEQEND
  8
0
  0
POLYLINE
  8
0
  6
CONTINUOUS
 62
     7
 66
     1
 10
0
 20
0
  0
VERTEX
  8
0
  6
CONTINUOUS
 62
     7
 10
188.26675
 20
22.017773
 42
0.10383042
  0
VERTEX
  8
0
  6
CONTINUOUS
 62
     7
 10
186.28716
 20
23.577012
 42
0.23738651
  0
VERTEX
  8
0
  6
CONTINUOUS
 62
     7
 10
183.83816
 20
23.577186
 42
0.10386627
  0
VERTEX
  8
0
  6
CONTINUOUS
 62
     7
 10
181.85818
 20
22.017773
 42
0
  0
SEQEND
  8
0
  0
POLYLINE
  8
0
  6
CONTINUOUS
 62
     7
 66
     1
 10
0
 20
0
  0
VERTEX
  8
0
  6
CONTINUOUS
 62
     7
 10
188.26675
 20
22.017773
 42
-0.037568999
  0
VERTEX
  8
0
  6
CONTINUOUS
 62
     7
 10
190.30204
 20
22.99381
 42
-0.042425947
  0
VERTEX
  8
0
  6
CONTINUOUS
 62
     7
 10
192.46535
 20
23.634934
 42
-0.050272402
  0
VERTEX
  8
0
  6
CONTINUOUS
 62
     7
 10
194.70819
 20
23.867779
 42
0
  0
SEQEND
  8
0
  0
POLYLINE
  8
0
  6
CONTINUOUS
 62
     7
 66
     1
 10
0
 20
0
  0
VERTEX
  8
0
  6
CONTINUOUS
 62
     7
 10
188.26675
 20
13.417797
 42
-0.10383042
  0
VERTEX
  8
0
  6
CONTINUOUS
 62
     7
 10
186.28716
 20
11.858558
 42
-0.23738651
  0
VERTEX
  8
0
  6
CONTINUOUS
 62
     7
 10
183.83816
 20
11.858383
 42
-0.10386627
  0
VERTEX
  8
0
  6
CONTINUOUS
 62
     7
 10
181.85818
 20
13.417797
 42
0
  0
SEQEND
  8
0
  0
POLYLINE
  8
0
  6
CONTINUOUS
 62
     7
 66
     1
 10
0
 20
0
  0
VERTEX
  8
0
  6
CONTINUOUS
 62
     7
 10
188.26675
 20
13.417797
 42
0.037568999
  0
VERTEX
  8
0
  6
CONTINUOUS
 62
     7
 10
190.30204
 20
12.44176
 42
0.042425947
  0
VERTEX
  8
0
  6
CONTINUOUS
 62
     7
 10
192.46535
 20
11.800636
 42
0.050272402
  0
VERTEX
  8
0
  6
CONTINUOUS
 62
     7
 10
194.70819
 20
11.567791
 42
0
  0
SEQEND
  8
0
  0
POLYLINE
  8
0
  6
CONTINUOUS
 62
     7
 66
     1
 10
0
 20
0
  0
VERTEX
  8
0
  6
CONTINUOUS
 62
     7
 10
201.14963
 20
22.017773
 42
-0.10383042
  0
VERTEX
  8
0
  6
CONTINUOUS
 62
     7
 10
203.12922
 20
23.577012
 42
-0.23738651
  0
VERTEX
  8
0
  6
CONTINUOUS
 62
     7
 10
205.57822
 20
23.577186
 42
-0.10386627
  0
VERTEX
  8
0
  6
CONTINUOUS
 62
     7
 10
207.5582
 20
22.017773
 42
0
  0
SEQEND
  8
0
  0
POLYLINE
  8
0
  6
CONTINUOUS
 62
     7
 66
     1
 10
0
 20
0
  0
VERTEX
  8
0
  6
CONTINUOUS
 62
     7
 10
201.14963
 20
22.017773
 42
0.037568999
  0
VERTEX
  8
0
  6
CONTINUOUS
 62
     7
 10
199.11434
 20
22.99381
 42
0.042425947
  0
VERTEX
  8
0
  6
CONTINUOUS
 62
     7
 10
196.95103
 20
23.634934
 42
0.050272402
  0
VERTEX
  8
0
  6
CONTINUOUS
 62
     7
 10
194.70819
 20
23.867779
 42
0
  0
SEQEND
  8
0
  0
POLYLINE
  8
0
  6
CONTINUOUS
 62
     7
 66
     1
 10
0
 20
0
  0
VERTEX
  8
0
  6
CONTINUOUS
 62
     7
 10
-150.12627
 20
-1247.4591
 42
0.037565369
  0
VERTEX
  8
0
  6
CONTINUOUS
 62
     7
 10
-148.09097
 20
-1248.4352
 42
0.042425281
  0
VERTEX
  8
0
  6
CONTINUOUS
 62
     7
 10
-145.92765
 20
-1249.0763
 42
0.050276599
  0
VERTEX
  8
0
  6
CONTINUOUS
 62
     7
 10
-143.6848
 20
-1249.3092
 42
0
  0
SEQEND
  8
0
  0
POLYLINE
  8
0
  6
CONTINUOUS
 62
     7
 66
     1
 10
0
 20
0
  0
VERTEX
  8
0
  6
CONTINUOUS
 62
     7
 10
-137.24339
 20
-1238.8591
 42
-0.10383321
  0
VERTEX
  8
0
  6
CONTINUOUS
 62
     7
 10
-135.2638
 20
-1237.2999
 42
-0.23737923
  0
VERTEX
  8
0
  6
CONTINUOUS
 62
     7
 10
-132.8148
 20
-1237.2997
 42
-0.10386905
  0
VERTEX
  8
0
  6
CONTINUOUS
 62
     7
 10
-130.83482
 20
-1238.8591
 42
0
  0
SEQEND
  8
0
  0
POLYLINE
  8
0
  6
CONTINUOUS
 62
     7
 66
     1
 10
0
 20
0
  0
VERTEX
  8
0
  6
CONTINUOUS
 62
     7
 10
-137.24339
 20
-1238.8591
 42
0.037569831
  0
VERTEX
  8
0
  6
CONTINUOUS
 62
     7
 10
-139.27867
 20
-1237.8831
 42
0.042426399
  0
VERTEX
  8
0
  6
CONTINUOUS
 62
     7
 10
-141.44197
 20
-1237.242
 42
0.050271197
  0
VERTEX
  8
0
  6
CONTINUOUS
 62
     7
 10
-143.6848
 20
-1237.0092
 42
0
  0
SEQEND
  8
0
  0
POLYLINE
  8
0
  6
CONTINUOUS
 62
     7
 66
     1
 10
0
 20
0
  0
VERTEX
  8
0
  6
CONTINUOUS
 62
     7
 10
-150.12627
 20
-1238.8591
 42
0.10383321
  0
VERTEX
  8
0
  6
CONTINUOUS
 62
     7
 10
-152.10586
 20
-1237.2999
 42
0.23737923
  0
VERTEX
  8
0
  6
CONTINUOUS
 62
     7
 10
-154.55486
 20
-1237.2997
 42
0.10386905
  0
VERTEX
  8
0
  6
CONTINUOUS
 62
     7
 10
-156.53484
 20
-1238.8591
 42
0
  0
SEQEND
  8
0
  0
POLYLINE
  8
0
  6
CONTINUOUS
 62
     7
 66
     1
 10
0
 20
0
  0
VERTEX
  8
0
  6
CONTINUOUS
 62
     7
 10
-150.12627
 20
-1238.8591
 42
-0.037570965
  0
VERTEX
  8
0
  6
CONTINUOUS
 62
     7
 10
-148.09097
 20
-1237.8831
 42
-0.04242571
  0
VERTEX
  8
0
  6
CONTINUOUS
 62
     7
 10
-145.92765
 20
-1237.242
 42
-0.050270615
  0
VERTEX
  8
0
  6
CONTINUOUS
 62
     7
 10
-143.6848
 20
-1237.0092
 42
0
  0
SEQEND
  8
0
  0
POLYLINE
  8
0
  6
CONTINUOUS
 62
     7
 66
     1
 10
0
 20
0
  0
VERTEX
  8
0
  6
CONTINUOUS
 62
     7
 10
-150.12627
 20
-1247.4591
 42
-0.10382206
  0
VERTEX
  8
0
  6
CONTINUOUS
 62
     7
 10
-152.10585
 20
-1249.0184
 42
-0.23740835
  0
VERTEX
  8
0
  6
CONTINUOUS
 62
     7
 10
-154.55487
 20
-1249.0186
 42
-0.10385791
  0
VERTEX
  8
0
  6
CONTINUOUS
 62
     7
 10
-156.53484
 20
-1247.4591
 42
0
  0
SEQEND
  8
0
  0
POLYLINE
  8
0
  6
CONTINUOUS
 62
     7
 66
     1
 10
0
 20
0
  0
VERTEX
  8
0
  6
CONTINUOUS
 62
     7
 10
301.14963
 20
26.517803
 42
-0.10383042
  0
VERTEX
  8
0
  6
CONTINUOUS
 62
     7
 10
303.12922
 20
28.077042
 42
-0.23738651
  0
VERTEX
  8
0
  6
CONTINUOUS
 62
     7
 10
305.57822
 20
28.077217
 42
-0.10386627
  0
VERTEX
  8
0
  6
CONTINUOUS
 62
     7
 10
307.5582
 20
26.517803
 42
0
  0
SEQEND
  8
0
  0
POLYLINE
  8
0
  6
CONTINUOUS
 62
     7
 66
     1
 10
0
 20
0
  0
VERTEX
  8
0
  6
CONTINUOUS
 62
     7
 10
301.14963
 20
17.917797
 42
0.10383042
  0
VERTEX
  8
0
  6
CONTINUOUS
 62
     7
 10
303.12922
 20
16.358558
 42
0.23738651
  0
VERTEX
  8
0
  6
CONTINUOUS
 62
     7
 10
305.57822
 20
16.358383
 42
0.10386627
  0
VERTEX
  8
0
  6
CONTINUOUS
 62
     7
 10
307.5582
 20
17.917797
 42
0
  0
SEQEND
  8
0
  0
POLYLINE
  8
0
  6
CONTINUOUS
 62
     7
 66
     1
 10
0
 20
0
  0
VERTEX
  8
0
  6
CONTINUOUS
 62
     7
 10
288.26675
 20
17.917797
 42
0.037568999
  0
VERTEX
  8
0
  6
CONTINUOUS
 62
     7
 10
290.30204
 20
16.94176
 42
0.042425947
  0
VERTEX
  8
0
  6
CONTINUOUS
 62
     7
 10
292.46535
 20
16.300636
 42
0.050272402
  0
VERTEX
  8
0
  6
CONTINUOUS
 62
     7
 10
294.70819
 20
16.067791
 42
0
  0
SEQEND
  8
0
  0
POLYLINE
  8
0
  6
CONTINUOUS
 62
     7
 66
     1
 10
0
 20
0
  0
VERTEX
  8
0
  6
CONTINUOUS
 62
     7
 10
288.26675
 20
17.917797
 42
-0.10383042
  0
VERTEX
  8
0
  6
CONTINUOUS
 62
     7
 10
286.28716
 20
16.358558
 42
-0.23738651
  0
VERTEX
  8
0
  6
CONTINUOUS
 62
     7
 10
283.83816
 20
16.358383
 42
-0.10386627
  0
VERTEX
  8
0
  6
CONTINUOUS
 62
     7
 10
281.85818
 20
17.917797
 42
0
  0
SEQEND
  8
0
  0
POLYLINE
  8
0
  6
CONTINUOUS
 62
     7
 66
     1
 10
0
 20
0
  0
VERTEX
  8
0
  6
CONTINUOUS
 62
     7
 10
288.26675
 20
26.517803
 42
0.10383042
  0
VERTEX
  8
0
  6
CONTINUOUS
 62
     7
 10
286.28716
 20
28.077042
 42
0.23738651
  0
VERTEX
  8
0
  6
CONTINUOUS
 62
     7
 10
283.83816
 20
28.077217
 42
0.10386627
  0
VERTEX
  8
0
  6
CONTINUOUS
 62
     7
 10
281.85818
 20
26.517803
 42
0
  0
SEQEND
  8
0
  0
POLYLINE
  8
0
  6
CONTINUOUS
 62
     7
 66
     1
 10
0
 20
0
  0
VERTEX
  8
0
  6
CONTINUOUS
 62
     7
 10
288.26675
 20
26.517803
 42
-0.037568999
  0
VERTEX
  8
0
  6
CONTINUOUS
 62
     7
 10
290.30204
 20
27.49384
 42
-0.042425947
  0
VERTEX
  8
0
  6
CONTINUOUS
 62
     7
 10
292.46535
 20
28.134964
 42
-0.050272402
  0
VERTEX
  8
0
  6
CONTINUOUS
 62
     7
 10
294.70819
 20
28.367809
 42
0
  0
SEQEND
  8
0
  0
POLYLINE
  8
0
  6
CONTINUOUS
 62
     7
 66
     1
 10
0
 20
0
  0
VERTEX
  8
0
  6
CONTINUOUS
 62
     7
 10
301.14963
 20
26.517803
 42
0.037568999
  0
VERTEX
  8
0
  6
CONTINUOUS
 62
     7
 10
299.11434
 20
27.49384
 42
0.042425947
  0
VERTEX
  8
0
  6
CONTINUOUS
 62
     7
 10
296.95103
 20
28.134964
 42
0.050272402
  0
VERTEX
  8
0
  6
CONTINUOUS
 62
     7
 10
294.70819
 20
28.367809
 42
0
  0
SEQEND
  8
0
  0
POLYLINE
  8
0
  6
CONTINUOUS
 62
     7
 66
     1
 10
0
 20
0
  0
VERTEX
  8
0
  6
CONTINUOUS
 62
     7
 10
301.14963
 20
17.917797
 42
-0.037568999
  0
VERTEX
  8
0
  6
CONTINUOUS
 62
     7
 10
299.11434
 20
16.94176
 42
-0.042425947
  0
VERTEX
  8
0
  6
CONTINUOUS
 62
     7
 10
296.95103
 20
16.300636
 42
-0.050272402
  0
VERTEX
  8
0
  6
CONTINUOUS
 62
     7
 10
294.70819
 20
16.067791
 42
0
  0
SEQEND
  8
0
  0
POLYLINE
  8
0
  6
CONTINUOUS
 62
     7
 66
     1
 10
0
 20
0
  0
VERTEX
  8
0
  6
CONTINUOUS
 62
     7
 10
81.498978
 20
-1231.8503
 42
0.10383321
  0
VERTEX
  8
0
  6
CONTINUOUS
 62
     7
 10
79.519382
 20
-1230.2911
 42
0.23737923
  0
VERTEX
  8
0
  6
CONTINUOUS
 62
     7
 10
77.070387
 20
-1230.2909
 42
0.10386905
  0
VERTEX
  8
0
  6
CONTINUOUS
 62
     7
 10
75.090408
 20
-1231.8503
 42
0
  0
SEQEND
  8
0
  0
POLYLINE
  8
0
  6
CONTINUOUS
 62
     7
 66
     1
 10
0
 20
0
  0
VERTEX
  8
0
  6
CONTINUOUS
 62
     7
 10
81.498978
 20
-1240.4504
 42
-0.10383321
  0
VERTEX
  8
0
  6
CONTINUOUS
 62
     7
 10
79.519382
 20
-1242.0097
 42
-0.23737923
  0
VERTEX
  8
0
  6
CONTINUOUS
 62
     7
 10
77.070387
 20
-1242.0098
 42
-0.10386905
  0
VERTEX
  8
0
  6
CONTINUOUS
 62
     7
 10
75.090408
 20
-1240.4504
 42
0
  0
SEQEND
  8
0
  0
POLYLINE
  8
0
  6
CONTINUOUS
 62
     7
 66
     1
 10
0
 20
0
  0
VERTEX
  8
0
  6
CONTINUOUS
 62
     7
 10
94.381851
 20
-1231.8503
 42
-0.10383321
  0
VERTEX
  8
0
  6
CONTINUOUS
 62
     7
 10
96.361447
 20
-1230.2911
 42
-0.23737923
  0
VERTEX
  8
0
  6
CONTINUOUS
 62
     7
 10
98.810442
 20
-1230.2909
 42
-0.10386905
  0
VERTEX
  8
0
  6
CONTINUOUS
 62
     7
 10
100.79042
 20
-1231.8503
 42
0
  0
SEQEND
  8
0
  0
POLYLINE
  8
0
  6
CONTINUOUS
 62
     7
 66
     1
 10
0
 20
0
  0
VERTEX
  8
0
  6
CONTINUOUS
 62
     7
 10
94.381851
 20
-1231.8503
 42
0.037569831
  0
VERTEX
  8
0
  6
CONTINUOUS
 62
     7
 10
92.346577
 20
-1230.8743
 42
0.042426399
  0
VERTEX
  8
0
  6
CONTINUOUS
 62
     7
 10
90.183275
 20
-1230.2332
 42
0.050271197
  0
VERTEX
  8
0
  6
CONTINUOUS
 62
     7
 10
87.940445
 20
-1230.0004
 42
0
  0
SEQEND
  8
0
  0
POLYLINE
  8
0
  6
CONTINUOUS
 62
     7
 66
     1
 10
0
 20
0
  0
VERTEX
  8
0
  6
CONTINUOUS
 62
     7
 10
81.498978
 20
-1231.8503
 42
-0.037570965
  0
VERTEX
  8
0
  6
CONTINUOUS
 62
     7
 10
83.534271
 20
-1230.8743
 42
-0.04242571
  0
VERTEX
  8
0
  6
CONTINUOUS
 62
     7
 10
85.697595
 20
-1230.2332
 42
-0.050270615
  0
VERTEX
  8
0
  6
CONTINUOUS
 62
     7
 10
87.940445
 20
-1230.0004
 42
0
  0
SEQEND
  8
0
  0
POLYLINE
  8
0
  6
CONTINUOUS
 62
     7
 66
     1
 10
0
 20
0
  0
VERTEX
  8
0
  6
CONTINUOUS
 62
     7
 10
81.498978
 20
-1240.4504
 42
0.037570965
  0
VERTEX
  8
0
  6
CONTINUOUS
 62
     7
 10
83.534271
 20
-1241.4265
 42
0.04242571
  0
VERTEX
  8
0
  6
CONTINUOUS
 62
     7
 10
85.697595
 20
-1242.0676
 42
0.050270615
  0
VERTEX
  8
0
  6
CONTINUOUS
 62
     7
 10
87.940445
 20
-1242.3004
 42
0
  0
SEQEND
  8
0
  0
POLYLINE
  8
0
  6
CONTINUOUS
 62
     7
 66
     1
 10
0
 20
0
  0
VERTEX
  8
0
  6
CONTINUOUS
 62
     7
 10
521.48199
 20
30.817791
 42
-0.037645749
  0
VERTEX
  8
0
  6
CONTINUOUS
 62
     7
 10
523.94757
 20
32.004491
 42
-0.042544968
  0
VERTEX
  8
0
  6
CONTINUOUS
 62
     7
 10
526.56916
 20
32.7844
 42
-0.050467933
  0
VERTEX
  8
0
  6
CONTINUOUS
 62
     7
 10
529.28778
 20
33.067791
 42
0
  0
SEQEND
  8
0
  0
POLYLINE
  8
0
  6
CONTINUOUS
 62
     7
 66
     1
 10
0
 20
0
  0
VERTEX
  8
0
  6
CONTINUOUS
 62
     7
 10
521.48199
 20
19.817791
 42
-0.10378388
  0
VERTEX
  8
0
  6
CONTINUOUS
 62
     7
 10
519.07535
 20
17.921864
 42
-0.23753115
  0
VERTEX
  8
0
  6
CONTINUOUS
 62
     7
 10
516.09486
 20
17.921677
 42
-0.10380826
  0
VERTEX
  8
0
  6
CONTINUOUS
 62
     7
 10
513.68781
 20
19.817791
 42
0
  0
SEQEND
  8
0
  0
POLYLINE
  8
0
  6
CONTINUOUS
 62
     7
 66
     1
 10
0
 20
0
  0
VERTEX
  8
0
  6
CONTINUOUS
 62
     7
 10
521.48199
 20
30.817791
 42
0.10378388
  0
VERTEX
  8
0
  6
CONTINUOUS
 62
     7
 10
519.07535
 20
32.713718
 42
0.23753115
  0
VERTEX
  8
0
  6
CONTINUOUS
 62
     7
 10
516.09486
 20
32.713905
 42
0.10380826
  0
VERTEX
  8
0
  6
CONTINUOUS
 62
     7
 10
513.68781
 20
30.817791
 42
0
  0
SEQEND
  8
0
  0
POLYLINE
  8
0
  6
CONTINUOUS
 62
     7
 66
     1
 10
0
 20
0
  0
VERTEX
  8
0
  6
CONTINUOUS
 62
     7
 10
521.48199
 20
19.817791
 42
0.037645749
  0
VERTEX
  8
0
  6
CONTINUOUS
 62
     7
 10
523.94757
 20
18.631091
 42
0.042544968
  0
VERTEX
  8
0
  6
CONTINUOUS
 62
     7
 10
526.56916
 20
17.851182
 42
0.050467933
  0
VERTEX
  8
0
  6
CONTINUOUS
 62
     7
 10
529.28778
 20
17.567791
 42
0
  0
SEQEND
  8
0
  0
POLYLINE
  8
0
  6
CONTINUOUS
 62
     7
 66
     1
 10
0
 20
0
  0
VERTEX
  8
0
  6
CONTINUOUS
 62
     7
 10
537.09357
 20
19.817791
 42
-0.037645749
  0
VERTEX
  8
0
  6
CONTINUOUS
 62
     7
 10
534.62799
 20
18.631091
 42
-0.042544968
  0
VERTEX
  8
0
  6
CONTINUOUS
 62
     7
 10
532.0064
 20
17.851182
 42
-0.050467933
  0
VERTEX
  8
0
  6
CONTINUOUS
 62
     7
 10
529.28778
 20
17.567791
 42
0
  0
SEQEND
  8
0
  0
POLYLINE
  8
0
  6
CONTINUOUS
 62
     7
 66
     1
 10
0
 20
0
  0
VERTEX
  8
0
  6
CONTINUOUS
 62
     7
 10
537.09357
 20
30.817791
 42
0.037645749
  0
VERTEX
  8
0
  6
CONTINUOUS
 62
     7
 10
534.62799
 20
32.004491
 42
0.042544968
  0
VERTEX
  8
0
  6
CONTINUOUS
 62
     7
 10
532.0064
 20
32.7844
 42
0.050467933
  0
VERTEX
  8
0
  6
CONTINUOUS
 62
     7
 10
529.28778
 20
33.067791
 42
0
  0
SEQEND
  8
0
  0
POLYLINE
  8
0
  6
CONTINUOUS
 62
     7
 66
     1
 10
0
 20
0
  0
VERTEX
  8
0
  6
CONTINUOUS
 62
     7
 10
537.09357
 20
19.817791
 42
0.1037847
  0
VERTEX
  8
0
  6
CONTINUOUS
 62
     7
 10
539.50023
 20
17.921857
 42
0.23752816
  0
VERTEX
  8
0
  6
CONTINUOUS
 62
     7
 10
542.48071
 20
17.921674
 42
0.10381029
  0
VERTEX
  8
0
  6
CONTINUOUS
 62
     7
 10
544.88782
 20
19.817791
 42
0
  0
SEQEND
  8
0
  0
POLYLINE
  8
0
  6
CONTINUOUS
 62
     7
 66
     1
 10
0
 20
0
  0
VERTEX
  8
0
  6
CONTINUOUS
 62
     7
 10
537.09357
 20
30.817791
 42
-0.1037847
  0
VERTEX
  8
0
  6
CONTINUOUS
 62
     7
 10
539.50023
 20
32.713725
 42
-0.23752816
  0
VERTEX
  8
0
  6
CONTINUOUS
 62
     7
 10
542.48071
 20
32.713908
 42
-0.10381029
  0
VERTEX
  8
0
  6
CONTINUOUS
 62
     7
 10
544.88782
 20
30.817791
 42
0
  0
SEQEND
  8
0
  0
POLYLINE
  8
0
  6
CONTINUOUS
 62
     7
 66
     1
 10
0
 20
0
  0
VERTEX
  8
0
  6
CONTINUOUS
 62
     7
 10
705.15759
 20
-1019.324
 42
-0.037645749
  0
VERTEX
  8
0
  6
CONTINUOUS
 62
     7
 10
707.62317
 20
-1018.1373
 42
-0.042544968
  0
VERTEX
  8
0
  6
CONTINUOUS
 62
     7
 10
710.24476
 20
-1017.3574
 42
-0.050467933
  0
VERTEX
  8
0
  6
CONTINUOUS
 62
     7
 10
712.96338
 20
-1017.074
 42
0
  0
SEQEND
  8
0
  0
POLYLINE
  8
0
  6
CONTINUOUS
 62
     7
 66
     1
 10
0
 20
0
  0
VERTEX
  8
0
  6
CONTINUOUS
 62
     7
 10
705.15759
 20
-1019.324
 42
0.10378388
  0
VERTEX
  8
0
  6
CONTINUOUS
 62
     7
 10
702.75095
 20
-1017.428
 42
0.23753115
  0
VERTEX
  8
0
  6
CONTINUOUS
 62
     7
 10
699.77046
 20
-1017.4279
 42
0.10380826
  0
VERTEX
  8
0
  6
CONTINUOUS
 62
     7
 10
697.3634
 20
-1019.324
 42
0
  0
SEQEND
  8
0
  0
POLYLINE
  8
0
  6
CONTINUOUS
 62
     7
 66
     1
 10
0
 20
0
  0
VERTEX
  8
0
  6
CONTINUOUS
 62
     7
 10
720.76917
 20
-1030.324
 42
-0.037645749
  0
VERTEX
  8
0
  6
CONTINUOUS
 62
     7
 10
718.30359
 20
-1031.5107
 42
-0.042544968
  0
VERTEX
  8
0
  6
CONTINUOUS
 62
     7
 10
715.682
 20
-1032.2906
 42
-0.050467933
  0
VERTEX
  8
0
  6
CONTINUOUS
 62
     7
 10
712.96338
 20
-1032.574
 42
0
  0
SEQEND
  8
0
  0
POLYLINE
  8
0
  6
CONTINUOUS
 62
     7
 66
     1
 10
0
 20
0
  0
VERTEX
  8
0
  6
CONTINUOUS
 62
     7
 10
720.76917
 20
-1019.324
 42
0.037645749
  0
VERTEX
  8
0
  6
CONTINUOUS
 62
     7
 10
718.30359
 20
-1018.1373
 42
0.042544968
  0
VERTEX
  8
0
  6
CONTINUOUS
 62
     7
 10
715.682
 20
-1017.3574
 42
0.050467933
  0
VERTEX
  8
0
  6
CONTINUOUS
 62
     7
 10
712.96338
 20
-1017.074
 42
0
  0
SEQEND
  8
0
  0
POLYLINE
  8
0
  6
CONTINUOUS
 62
     7
 66
     1
 10
0
 20
0
  0
VERTEX
  8
0
  6
CONTINUOUS
 62
     7
 10
720.76917
 20
-1030.324
 42
0.1037847
  0
VERTEX
  8
0
  6
CONTINUOUS
 62
     7
 10
723.17583
 20
-1032.2199
 42
0.23752816
  0
VERTEX
  8
0
  6
CONTINUOUS
 62
     7
 10
726.15631
 20
-1032.2201
 42
0.10381029
  0
VERTEX
  8
0
  6
CONTINUOUS
 62
     7
 10
728.56342
 20
-1030.324
 42
0
  0
SEQEND
  8
0
  0
POLYLINE
  8
0
  6
CONTINUOUS
 62
     7
 66
     1
 10
0
 20
0
  0
VERTEX
  8
0
  6
CONTINUOUS
 62
     7
 10
720.76917
 20
-1019.324
 42
-0.1037847
  0
VERTEX
  8
0
  6
CONTINUOUS
 62
     7
 10
723.17583
 20
-1017.428
 42
-0.23752816
  0
VERTEX
  8
0
  6
CONTINUOUS
 62
     7
 10
726.15631
 20
-1017.4279
 42
-0.10381029
  0
VERTEX
  8
0
  6
CONTINUOUS
 62
     7
 10
728.56342
 20
-1019.324
 42
0
  0
SEQEND
  8
0
  0
POLYLINE
  8
0
  6
CONTINUOUS
 62
     7
 66
     1
 10
0
 20
0
  0
VERTEX
  8
0
  6
CONTINUOUS
 62
     7
 10
687.09357
 20
19.817791
 42
0.10378456
  0
VERTEX
  8
0
  6
CONTINUOUS
 62
     7
 10
689.50024
 20
17.921872
 42
0.23753162
  0
VERTEX
  8
0
  6
CONTINUOUS
 62
     7
 10
692.48077
 20
17.92168
 42
0.10380775
  0
VERTEX
  8
0
  6
CONTINUOUS
 62
     7
 10
694.88782
 20
19.817791
 42
0
  0
SEQEND
  8
0
  0
POLYLINE
  8
0
  6
CONTINUOUS
 62
     7
 66
     1
 10
0
 20
0
  0
VERTEX
  8
0
  6
CONTINUOUS
 62
     7
 10
687.09357
 20
30.817791
 42
0.037645749
  0
VERTEX
  8
0
  6
CONTINUOUS
 62
     7
 10
684.62799
 20
32.004491
 42
0.042544968
  0
VERTEX
  8
0
  6
CONTINUOUS
 62
     7
 10
682.0064
 20
32.7844
 42
0.050467933
  0
VERTEX
  8
0
  6
CONTINUOUS
 62
     7
 10
679.28778
 20
33.067791
 42
0
  0
SEQEND
  8
0
  0
POLYLINE
  8
0
  6
CONTINUOUS
 62
     7
 66
     1
 10
0
 20
0
  0
VERTEX
  8
0
  6
CONTINUOUS
 62
     7
 10
671.48199
 20
30.817791
 42
0.10378388
  0
VERTEX
  8
0
  6
CONTINUOUS
 62
     7
 10
669.07535
 20
32.713718
 42
0.23753115
  0
VERTEX
  8
0
  6
CONTINUOUS
 62
     7
 10
666.09486
 20
32.713905
 42
0.10380826
  0
VERTEX
  8
0
  6
CONTINUOUS
 62
     7
 10
663.68781
 20
30.817791
 42
0
  0
SEQEND
  8
0
  0
POLYLINE
  8
0
  6
CONTINUOUS
 62
     7
 66
     1
 10
0
 20
0
  0
VERTEX
  8
0
  6
CONTINUOUS
 62
     7
 10
671.48199
 20
19.817791
 42
-0.10378388
  0
VERTEX
  8
0
  6
CONTINUOUS
 62
     7
 10
669.07535
 20
17.921864
 42
-0.23753115
  0
VERTEX
  8
0
  6
CONTINUOUS
 62
     7
 10
666.09486
 20
17.921677
 42
-0.10380826
  0
VERTEX
  8
0
  6
CONTINUOUS
 62
     7
 10
663.68781
 20
19.817791
 42
0
  0
SEQEND
  8
0
  0
POLYLINE
  8
0
  6
CONTINUOUS
 62
     7
 66
     1
 10
0
 20
0
  0
VERTEX
  8
0
  6
CONTINUOUS
 62
     7
 10
671.48199
 20
30.817791
 42
-0.037645749
  0
VERTEX
  8
0
  6
CONTINUOUS
 62
     7
 10
673.94757
 20
32.004491
 42
-0.042544968
  0
VERTEX
  8
0
  6
CONTINUOUS
 62
     7
 10
676.56916
 20
32.7844
 42
-0.050467933
  0
VERTEX
  8
0
  6
CONTINUOUS
 62
     7
 10
679.28778
 20
33.067791
 42
0
  0
SEQEND
  8
0
  0
POLYLINE
  8
0
  6
CONTINUOUS
 62
     7
 66
     1
 10
0
 20
0
  0
VERTEX
  8
0
  6
CONTINUOUS
 62
     7
 10
671.48199
 20
19.817791
 42
0.037645749
  0
VERTEX
  8
0
  6
CONTINUOUS
 62
     7
 10
673.94757
 20
18.631091
 42
0.042544968
  0
VERTEX
  8
0
  6
CONTINUOUS
 62
     7
 10
676.56916
 20
17.851182
 42
0.050467933
  0
VERTEX
  8
0
  6
CONTINUOUS
 62
     7
 10
679.28778
 20
17.567791
 42
0
  0
SEQEND
  8
0
  0
POLYLINE
  8
0
  6
CONTINUOUS
 62
     7
 66
     1
 10
0
 20
0
  0
VERTEX
  8
0
  6
CONTINUOUS
 62
     7
 10
687.09357
 20
19.817791
 42
-0.037645749
  0
VERTEX
  8
0
  6
CONTINUOUS
 62
     7
 10
684.62799
 20
18.631091
 42
-0.042544968
  0
VERTEX
  8
0
  6
CONTINUOUS
 62
     7
 10
682.0064
 20
17.851182
 42
-0.050467933
  0
VERTEX
  8
0
  6
CONTINUOUS
 62
     7
 10
679.28778
 20
17.567791
 42
0
  0
SEQEND
  8
0
  0
POLYLINE
  8
0
  6
CONTINUOUS
 62
     7
 66
     1
 10
0
 20
0
  0
VERTEX
  8
0
  6
CONTINUOUS
 62
     7
 10
687.09357
 20
30.817791
 42
-0.10378456
  0
VERTEX
  8
0
  6
CONTINUOUS
 62
     7
 10
689.50024
 20
32.71371
 42
-0.23753162
  0
VERTEX
  8
0
  6
CONTINUOUS
 62
     7
 10
692.48077
 20
32.713902
 42
-0.10380775
  0
VERTEX
  8
0
  6
CONTINUOUS
 62
     7
 10
694.88782
 20
30.817791
 42
0
  0
SEQEND
  8
0
  0
POLYLINE
  8
0
  6
CONTINUOUS
 62
     7
 66
     1
 10
0
 20
0
  0
VERTEX
  8
0
  6
CONTINUOUS
 62
     7
 10
1084.4857
 20
-1037.8502
 42
0.10378524
  0
VERTEX
  8
0
  6
CONTINUOUS
 62
     7
 10
1086.8924
 20
-1039.7461
 42
0.23753208
  0
VERTEX
  8
0
  6
CONTINUOUS
 62
     7
 10
1089.873
 20
-1039.7463
 42
0.10380723
  0
VERTEX
  8
0
  6
CONTINUOUS
 62
     7
 10
1092.28
 20
-1037.8502
 42
0
  0
SEQEND
  8
0
  0
POLYLINE
  8
0
  6
CONTINUOUS
 62
     7
 66
     1
 10
0
 20
0
  0
VERTEX
  8
0
  6
CONTINUOUS
 62
     7
 10
1084.4857
 20
-1026.8502
 42
0.037645749
  0
VERTEX
  8
0
  6
CONTINUOUS
 62
     7
 10
1082.0201
 20
-1025.6635
 42
0.042544968
  0
VERTEX
  8
0
  6
CONTINUOUS
 62
     7
 10
1079.3986
 20
-1024.8836
 42
0.050467933
  0
VERTEX
  8
0
  6
CONTINUOUS
 62
     7
 10
1076.6799
 20
-1024.6002
 42
0
  0
SEQEND
  8
0
  0
POLYLINE
  8
0
  6
CONTINUOUS
 62
     7
 66
     1
 10
0
 20
0
  0
VERTEX
  8
0
  6
CONTINUOUS
 62
     7
 10
1068.8741
 20
-1026.8502
 42
0.10378388
  0
VERTEX
  8
0
  6
CONTINUOUS
 62
     7
 10
1066.4675
 20
-1024.9543
 42
0.23753115
  0
VERTEX
  8
0
  6
CONTINUOUS
 62
     7
 10
1063.487
 20
-1024.9541
 42
0.10380826
  0
VERTEX
  8
0
  6
CONTINUOUS
 62
     7
 10
1061.08
 20
-1026.8502
 42
0
  0
SEQEND
  8
0
  0
POLYLINE
  8
0
  6
CONTINUOUS
 62
     7
 66
     1
 10
0
 20
0
  0
VERTEX
  8
0
  6
CONTINUOUS
 62
     7
 10
1068.8741
 20
-1026.8502
 42
-0.037645749
  0
VERTEX
  8
0
  6
CONTINUOUS
 62
     7
 10
1071.3397
 20
-1025.6635
 42
-0.042544968
  0
VERTEX
  8
0
  6
CONTINUOUS
 62
     7
 10
1073.9613
 20
-1024.8836
 42
-0.050467933
  0
VERTEX
  8
0
  6
CONTINUOUS
 62
     7
 10
1076.6799
 20
-1024.6002
 42
0
  0
SEQEND
  8
0
  0
POLYLINE
  8
0
  6
CONTINUOUS
 62
     7
 66
     1
 10
0
 20
0
  0
VERTEX
  8
0
  6
CONTINUOUS
 62
     7
 10
1084.4857
 20
-1037.8502
 42
-0.037645749
  0
VERTEX
  8
0
  6
CONTINUOUS
 62
     7
 10
1082.0201
 20
-1039.0369
 42
-0.042544968
  0
VERTEX
  8
0
  6
CONTINUOUS
 62
     7
 10
1079.3986
 20
-1039.8168
 42
-0.050467933
  0
VERTEX
  8
0
  6
CONTINUOUS
 62
     7
 10
1076.6799
 20
-1040.1002
 42
0
  0
SEQEND
  8
0
  0
POLYLINE
  8
0
  6
CONTINUOUS
 62
     7
 66
     1
 10
0
 20
0
  0
VERTEX
  8
0
  6
CONTINUOUS
 62
     7
 10
1084.4857
 20
-1026.8502
 42
-0.10378524
  0
VERTEX
  8
0
  6
CONTINUOUS
 62
     7
 10
1086.8924
 20
-1024.9543
 42
-0.23753208
  0
VERTEX
  8
0
  6
CONTINUOUS
 62
     7
 10
1089.873
 20
-1024.9541
 42
-0.10380723
  0
VERTEX
  8
0
  6
CONTINUOUS
 62
     7
 10
1092.28
 20
-1026.8502
 42
0
  0
SEQEND
  8
0
  0
POLYLINE
  8
0
  6
CONTINUOUS
 62
     7
 66
     1
 10
0
 20
0
  0
VERTEX
  8
0
  6
CONTINUOUS
 62
     7
 10
820.11768
 20
33.217793
 42
-0.10378372
  0
VERTEX
  8
0
  6
CONTINUOUS
 62
     7
 10
817.28316
 20
30.984814
 42
-0.23753331
  0
VERTEX
  8
0
  6
CONTINUOUS
 62
     7
 10
813.77277
 20
30.984588
 42
-0.10380709
  0
VERTEX
  8
0
  6
CONTINUOUS
 62
     7
 10
810.93781
 20
33.217793
 42
0
  0
SEQEND
  8
0
  0
POLYLINE
  8
0
  6
CONTINUOUS
 62
     7
 66
     1
 10
0
 20
0
  0
VERTEX
  8
0
  6
CONTINUOUS
 62
     7
 10
820.11768
 20
46.617786
 42
0.1037847
  0
VERTEX
  8
0
  6
CONTINUOUS
 62
     7
 10
817.28316
 20
48.850755
 42
0.23753076
  0
VERTEX
  8
0
  6
CONTINUOUS
 62
     7
 10
813.77277
 20
48.85098
 42
0.10380807
  0
VERTEX
  8
0
  6
CONTINUOUS
 62
     7
 10
810.93781
 20
46.617786
 42
0
  0
SEQEND
  8
0
  0
POLYLINE
  8
0
  6
CONTINUOUS
 62
     7
 66
     1
 10
0
 20
0
  0
VERTEX
  8
0
  6
CONTINUOUS
 62
     7
 10
820.11768
 20
46.617786
 42
-0.037698971
  0
VERTEX
  8
0
  6
CONTINUOUS
 62
     7
 10
823.01353
 20
48.015147
 42
-0.042628616
  0
VERTEX
  8
0
  6
CONTINUOUS
 62
     7
 10
826.09339
 20
48.933842
 42
-0.050605541
  0
VERTEX
  8
0
  6
CONTINUOUS
 62
     7
 10
829.28778
 20
49.26778
 42
0
  0
SEQEND
  8
0
  0
POLYLINE
  8
0
  6
CONTINUOUS
 62
     7
 66
     1
 10
0
 20
0
  0
VERTEX
  8
0
  6
CONTINUOUS
 62
     7
 10
820.11768
 20
33.217793
 42
0.03769848
  0
VERTEX
  8
0
  6
CONTINUOUS
 62
     7
 10
823.01353
 20
31.820428
 42
0.042628578
  0
VERTEX
  8
0
  6
CONTINUOUS
 62
     7
 10
826.09339
 20
30.901726
 42
0.050606067
  0
VERTEX
  8
0
  6
CONTINUOUS
 62
     7
 10
829.28778
 20
30.567783
 42
0
  0
SEQEND
  8
0
  0
POLYLINE
  8
0
  6
CONTINUOUS
 62
     7
 66
     1
 10
0
 20
0
  0
VERTEX
  8
0
  6
CONTINUOUS
 62
     7
 10
838.45795
 20
33.217793
 42
0.10378372
  0
VERTEX
  8
0
  6
CONTINUOUS
 62
     7
 10
841.29246
 20
30.984814
 42
0.23753331
  0
VERTEX
  8
0
  6
CONTINUOUS
 62
     7
 10
844.80285
 20
30.984588
 42
0.10380709
  0
VERTEX
  8
0
  6
CONTINUOUS
 62
     7
 10
847.63782
 20
33.217793
 42
0
  0
SEQEND
  8
0
  0
POLYLINE
  8
0
  6
CONTINUOUS
 62
     7
 66
     1
 10
0
 20
0
  0
VERTEX
  8
0
  6
CONTINUOUS
 62
     7
 10
838.45795
 20
46.617786
 42
-0.1037847
  0
VERTEX
  8
0
  6
CONTINUOUS
 62
     7
 10
841.29246
 20
48.850755
 42
-0.23753076
  0
VERTEX
  8
0
  6
CONTINUOUS
 62
     7
 10
844.80285
 20
48.85098
 42
-0.10380807
  0
VERTEX
  8
0
  6
CONTINUOUS
 62
     7
 10
847.63782
 20
46.617786
 42
0
  0
SEQEND
  8
0
  0
POLYLINE
  8
0
  6
CONTINUOUS
 62
     7
 66
     1
 10
0
 20
0
  0
VERTEX
  8
0
  6
CONTINUOUS
 62
     7
 10
838.45795
 20
46.617786
 42
0.037699771
  0
VERTEX
  8
0
  6
CONTINUOUS
 62
     7
 10
835.56207
 20
48.015149
 42
0.04262813
  0
VERTEX
  8
0
  6
CONTINUOUS
 62
     7
 10
832.48219
 20
48.933841
 42
0.05060513
  0
VERTEX
  8
0
  6
CONTINUOUS
 62
     7
 10
829.28778
 20
49.26778
 42
0
  0
SEQEND
  8
0
  0
POLYLINE
  8
0
  6
CONTINUOUS
 62
     7
 66
     1
 10
0
 20
0
  0
VERTEX
  8
0
  6
CONTINUOUS
 62
     7
 10
838.45795
 20
33.217793
 42
-0.03769928
  0
VERTEX
  8
0
  6
CONTINUOUS
 62
     7
 10
835.56207
 20
31.820426
 42
-0.042628092
  0
VERTEX
  8
0
  6
CONTINUOUS
 62
     7
 10
832.48219
 20
30.901726
 42
-0.050605655
  0
VERTEX
  8
0
  6
CONTINUOUS
 62
     7
 10
829.28778
 20
30.567783
 42
0
  0
SEQEND
  8
0
  0
POLYLINE
  8
0
  6
CONTINUOUS
 62
     7
 66
     1
 10
0
 20
0
  0
VERTEX
  8
0
  6
CONTINUOUS
 62
     7
 10
855.66962
 20
-1307.083
 42
0.10378275
  0
VERTEX
  8
0
  6
CONTINUOUS
 62
     7
 10
852.8351
 20
-1304.85
 42
0.23753586
  0
VERTEX
  8
0
  6
CONTINUOUS
 62
     7
 10
849.32471
 20
-1304.8498
 42
0.10380612
  0
VERTEX
  8
0
  6
CONTINUOUS
 62
     7
 10
846.48975
 20
-1307.083
 42
0
  0
SEQEND
  8
0
  0
POLYLINE
  8
0
  6
CONTINUOUS
 62
     7
 66
     1
 10
0
 20
0
  0
VERTEX
  8
0
  6
CONTINUOUS
 62
     7
 10
855.66962
 20
-1307.083
 42
-0.03769799
  0
VERTEX
  8
0
  6
CONTINUOUS
 62
     7
 10
858.56547
 20
-1305.6856
 42
-0.04262854
  0
VERTEX
  8
0
  6
CONTINUOUS
 62
     7
 10
861.64533
 20
-1304.7669
 42
-0.050606592
  0
VERTEX
  8
0
  6
CONTINUOUS
 62
     7
 10
864.83972
 20
-1304.433
 42
0
  0
SEQEND
  8
0
  0
POLYLINE
  8
0
  6
CONTINUOUS
 62
     7
 66
     1
 10
0
 20
0
  0
VERTEX
  8
0
  6
CONTINUOUS
 62
     7
 10
874.00989
 20
-1320.483
 42
0.10378275
  0
VERTEX
  8
0
  6
CONTINUOUS
 62
     7
 10
876.8444
 20
-1322.716
 42
0.23753586
  0
VERTEX
  8
0
  6
CONTINUOUS
 62
     7
 10
880.3548
 20
-1322.7162
 42
0.10380612
  0
VERTEX
  8
0
  6
CONTINUOUS
 62
     7
 10
883.18976
 20
-1320.483
 42
0
  0
SEQEND
  8
0
  0
POLYLINE
  8
0
  6
CONTINUOUS
 62
     7
 66
     1
 10
0
 20
0
  0
VERTEX
  8
0
  6
CONTINUOUS
 62
     7
 10
874.00989
 20
-1307.083
 42
-0.10378275
  0
VERTEX
  8
0
  6
CONTINUOUS
 62
     7
 10
876.8444
 20
-1304.85
 42
-0.23753586
  0
VERTEX
  8
0
  6
CONTINUOUS
 62
     7
 10
880.3548
 20
-1304.8498
 42
-0.10380612
  0
VERTEX
  8
0
  6
CONTINUOUS
 62
     7
 10
883.18976
 20
-1307.083
 42
0
  0
SEQEND
  8
0
  0
POLYLINE
  8
0
  6
CONTINUOUS
 62
     7
 66
     1
 10
0
 20
0
  0
VERTEX
  8
0
  6
CONTINUOUS
 62
     7
 10
874.00989
 20
-1307.083
 42
0.03769879
  0
VERTEX
  8
0
  6
CONTINUOUS
 62
     7
 10
871.11401
 20
-1305.6856
 42
0.042628054
  0
VERTEX
  8
0
  6
CONTINUOUS
 62
     7
 10
868.03413
 20
-1304.7669
 42
0.05060618
  0
VERTEX
  8
0
  6
CONTINUOUS
 62
     7
 10
864.83972
 20
-1304.433
 42
0
  0
SEQEND
  8
0
  0
POLYLINE
  8
0
  6
CONTINUOUS
 62
     7
 66
     1
 10
0
 20
0
  0
VERTEX
  8
0
  6
CONTINUOUS
 62
     7
 10
874.00989
 20
-1320.483
 42
-0.03769879
  0
VERTEX
  8
0
  6
CONTINUOUS
 62
     7
 10
871.11401
 20
-1321.8804
 42
-0.042628054
  0
VERTEX
  8
0
  6
CONTINUOUS
 62
     7
 10
868.03413
 20
-1322.7991
 42
-0.05060618
  0
VERTEX
  8
0
  6
CONTINUOUS
 62
     7
 10
864.83972
 20
-1323.1331
 42
0
  0
SEQEND
  8
0
  0
POLYLINE
  8
0
  6
CONTINUOUS
 62
     7
 66
     1
 10
0
 20
0
  0
VERTEX
  8
0
  6
CONTINUOUS
 62
     7
 10
989.85114
 20
40.609444
 42
-0.037623654
  0
VERTEX
  8
0
  6
CONTINUOUS
 62
     7
 10
986.51423
 20
39.00506
 42
-0.042510679
  0
VERTEX
  8
0
  6
CONTINUOUS
 62
     7
 10
982.96653
 20
37.95081
 42
-0.050410811
  0
VERTEX
  8
0
  6
CONTINUOUS
 62
     7
 10
979.28778
 20
37.567791
 42
0
  0
SEQEND
  8
0
  0
POLYLINE
  8
0
  6
CONTINUOUS
 62
     7
 66
     1
 10
0
 20
0
  0
VERTEX
  8
0
  6
CONTINUOUS
 62
     7
 10
989.85114
 20
40.609444
 42
0.10378546
  0
VERTEX
  8
0
  6
CONTINUOUS
 62
     7
 10
993.1046
 20
38.046449
 42
0.23752897
  0
VERTEX
  8
0
  6
CONTINUOUS
 62
     7
 10
997.13383
 20
38.046191
 42
0.10380896
  0
VERTEX
  8
0
  6
CONTINUOUS
 62
     7
 10
1000.3878
 20
40.609444
 42
0
  0
SEQEND
  8
0
  0
POLYLINE
  8
0
  6
CONTINUOUS
 62
     7
 66
     1
 10
0
 20
0
  0
VERTEX
  8
0
  6
CONTINUOUS
 62
     7
 10
989.85114
 20
56.326118
 42
0.037623548
  0
VERTEX
  8
0
  6
CONTINUOUS
 62
     7
 10
986.51423
 20
57.930503
 42
0.04251067
  0
VERTEX
  8
0
  6
CONTINUOUS
 62
     7
 10
982.96653
 20
58.984755
 42
0.050410925
  0
VERTEX
  8
0
  6
CONTINUOUS
 62
     7
 10
979.28778
 20
59.367775
 42
0
  0
SEQEND
  8
0
  0
POLYLINE
  8
0
  6
CONTINUOUS
 62
     7
 66
     1
 10
0
 20
0
  0
VERTEX
  8
0
  6
CONTINUOUS
 62
     7
 10
968.72443
 20
56.326118
 42
0.10378474
  0
VERTEX
  8
0
  6
CONTINUOUS
 62
     7
 10
965.47099
 20
58.889123
 42
0.23752918
  0
VERTEX
  8
0
  6
CONTINUOUS
 62
     7
 10
961.4418
 20
58.889377
 42
0.10380913
  0
VERTEX
  8
0
  6
CONTINUOUS
 62
     7
 10
958.18781
 20
56.326118
 42
0
  0
SEQEND
  8
0
  0
POLYLINE
  8
0
  6
CONTINUOUS
 62
     7
 66
     1
 10
0
 20
0
  0
VERTEX
  8
0
  6
CONTINUOUS
 62
     7
 10
968.72443
 20
40.609444
 42
-0.10378495
  0
VERTEX
  8
0
  6
CONTINUOUS
 62
     7
 10
965.47099
 20
38.046441
 42
-0.23752863
  0
VERTEX
  8
0
  6
CONTINUOUS
 62
     7
 10
961.4418
 20
38.046188
 42
-0.10380934
  0
VERTEX
  8
0
  6
CONTINUOUS
 62
     7
 10
958.18781
 20
40.609444
 42
0
  0
SEQEND
  8
0
  0
POLYLINE
  8
0
  6
CONTINUOUS
 62
     7
 66
     1
 10
0
 20
0
  0
VERTEX
  8
0
  6
CONTINUOUS
 62
     7
 10
968.72443
 20
56.326118
 42
-0.037623548
  0
VERTEX
  8
0
  6
CONTINUOUS
 62
     7
 10
972.06133
 20
57.930503
 42
-0.04251067
  0
VERTEX
  8
0
  6
CONTINUOUS
 62
     7
 10
975.60903
 20
58.984755
 42
-0.050410925
  0
VERTEX
  8
0
  6
CONTINUOUS
 62
     7
 10
979.28778
 20
59.367775
 42
0
  0
SEQEND
  8
0
  0
POLYLINE
  8
0
  6
CONTINUOUS
 62
     7
 66
     1
 10
0
 20
0
  0
VERTEX
  8
0
  6
CONTINUOUS
 62
     7
 10
968.72443
 20
40.609444
 42
0.037623654
  0
VERTEX
  8
0
  6
CONTINUOUS
 62
     7
 10
972.06133
 20
39.00506
 42
0.042510679
  0
VERTEX
  8
0
  6
CONTINUOUS
 62
     7
 10
975.60903
 20
37.95081
 42
0.050410811
  0
VERTEX
  8
0
  6
CONTINUOUS
 62
     7
 10
979.28778
 20
37.567791
 42
0
  0
SEQEND
  8
0
  0
POLYLINE
  8
0
  6
CONTINUOUS
 62
     7
 66
     1
 10
0
 20
0
  0
VERTEX
  8
0
  6
CONTINUOUS
 62
     7
 10
989.85114
 20
56.326118
 42
-0.10378524
  0
VERTEX
  8
0
  6
CONTINUOUS
 62
     7
 10
993.1046
 20
58.889116
 42
-0.23752953
  0
VERTEX
  8
0
  6
CONTINUOUS
 62
     7
 10
997.13383
 20
58.889373
 42
-0.10380874
  0
VERTEX
  8
0
  6
CONTINUOUS
 62
     7
 10
1000.3878
 20
56.326118
 42
0
  0
SEQEND
  8
0
  0
POLYLINE
  8
0
  6
CONTINUOUS
 62
     7
 66
     1
 10
0
 20
0
  0
VERTEX
  8
0
  6
CONTINUOUS
 62
     7
 10
142.49675
 20
-1754.6317
 42
-0.03762099
  0
VERTEX
  8
0
  6
CONTINUOUS
 62
     7
 10
139.15984
 20
-1756.2361
 42
-0.042510473
  0
VERTEX
  8
0
  6
CONTINUOUS
 62
     7
 10
135.61214
 20
-1757.2904
 42
-0.050413661
  0
VERTEX
  8
0
  6
CONTINUOUS
 62
     7
 10
131.9334
 20
-1757.6735
 42
0
  0
SEQEND
  8
0
  0
POLYLINE
  8
0
  6
CONTINUOUS
 62
     7
 66
     1
 10
0
 20
0
  0
VERTEX
  8
0
  6
CONTINUOUS
 62
     7
 10
142.49675
 20
-1754.6317
 42
0.10378014
  0
VERTEX
  8
0
  6
CONTINUOUS
 62
     7
 10
145.75021
 20
-1757.1948
 42
0.23754285
  0
VERTEX
  8
0
  6
CONTINUOUS
 62
     7
 10
149.77945
 20
-1757.195
 42
0.10380365
  0
VERTEX
  8
0
  6
CONTINUOUS
 62
     7
 10
153.03343
 20
-1754.6317
 42
0
  0
SEQEND
  8
0
  0
POLYLINE
  8
0
  6
CONTINUOUS
 62
     7
 66
     1
 10
0
 20
0
  0
VERTEX
  8
0
  6
CONTINUOUS
 62
     7
 10
142.49675
 20
-1738.915
 42
0.0376244
  0
VERTEX
  8
0
  6
CONTINUOUS
 62
     7
 10
139.15984
 20
-1737.3107
 42
0.042510736
  0
VERTEX
  8
0
  6
CONTINUOUS
 62
     7
 10
135.61214
 20
-1736.2564
 42
0.050410013
  0
VERTEX
  8
0
  6
CONTINUOUS
 62
     7
 10
131.9334
 20
-1735.8734
 42
0
  0
SEQEND
  8
0
  0
POLYLINE
  8
0
  6
CONTINUOUS
 62
     7
 66
     1
 10
0
 20
0
  0
VERTEX
  8
0
  6
CONTINUOUS
 62
     7
 10
121.37003
 20
-1738.915
 42
0.10378644
  0
VERTEX
  8
0
  6
CONTINUOUS
 62
     7
 10
118.11659
 20
-1736.3521
 42
0.23752474
  0
VERTEX
  8
0
  6
CONTINUOUS
 62
     7
 10
114.08741
 20
-1736.3518
 42
0.10381082
  0
VERTEX
  8
0
  6
CONTINUOUS
 62
     7
 10
110.83341
 20
-1738.915
 42
0
  0
SEQEND
  8
0
  0
POLYLINE
  8
0
  6
CONTINUOUS
 62
     7
 66
     1
 10
0
 20
0
  0
VERTEX
  8
0
  6
CONTINUOUS
 62
     7
 10
121.37003
 20
-1754.6317
 42
-0.10377964
  0
VERTEX
  8
0
  6
CONTINUOUS
 62
     7
 10
118.1166
 20
-1757.1948
 42
-0.2375425
  0
VERTEX
  8
0
  6
CONTINUOUS
 62
     7
 10
114.0874
 20
-1757.195
 42
-0.10380403
  0
VERTEX
  8
0
  6
CONTINUOUS
 62
     7
 10
110.83341
 20
-1754.6317
 42
0
  0
SEQEND
  8
0
  0
POLYLINE
  8
0
  6
CONTINUOUS
 62
     7
 66
     1
 10
0
 20
0
  0
VERTEX
  8
0
  6
CONTINUOUS
 62
     7
 10
121.37003
 20
-1738.915
 42
-0.037624487
  0
VERTEX
  8
0
  6
CONTINUOUS
 62
     7
 10
124.70694
 20
-1737.3107
 42
-0.042510683
  0
VERTEX
  8
0
  6
CONTINUOUS
 62
     7
 10
128.25465
 20
-1736.2564
 42
-0.050409969
  0
VERTEX
  8
0
  6
CONTINUOUS
 62
     7
 10
131.9334
 20
-1735.8734
 42
0
  0
SEQEND
  8
0
  0
POLYLINE
  8
0
  6
CONTINUOUS
 62
     7
 66
     1
 10
0
 20
0
  0
VERTEX
  8
0
  6
CONTINUOUS
 62
     7
 10
121.37003
 20
-1754.6317
 42
0.037621077
  0
VERTEX
  8
0
  6
CONTINUOUS
 62
     7
 10
124.70694
 20
-1756.2361
 42
0.042510421
  0
VERTEX
  8
0
  6
CONTINUOUS
 62
     7
 10
128.25464
 20
-1757.2904
 42
0.050413617
  0
VERTEX
  8
0
  6
CONTINUOUS
 62
     7
 10
131.9334
 20
-1757.6735
 42
0
  0
SEQEND
  8
0
  0
POLYLINE
  8
0
  6
CONTINUOUS
 62
     7
 66
     1
 10
0
 20
0
  0
VERTEX
  8
0
  6
CONTINUOUS
 62
     7
 10
142.49675
 20
-1738.915
 42
-0.10378694
  0
VERTEX
  8
0
  6
CONTINUOUS
 62
     7
 10
145.75022
 20
-1736.3521
 42
-0.23752509
  0
VERTEX
  8
0
  6
CONTINUOUS
 62
     7
 10
149.77944
 20
-1736.3518
 42
-0.10381044
  0
VERTEX
  8
0
  6
CONTINUOUS
 62
     7
 10
153.03343
 20
-1738.915
 42
0
  0
SEQEND
  8
0
  0
POLYLINE
  8
0
  6
CONTINUOUS
 62
     7
 66
     1
 10
0
 20
0
  0
VERTEX
  8
0
  6
CONTINUOUS
 62
     7
 10
1118.7245
 20
40.609444
 42
0.037623548
  0
VERTEX
  8
0
  6
CONTINUOUS
 62
     7
 10
1122.0614
 20
39.005059
 42
0.04251067
  0
VERTEX
  8
0
  6
CONTINUOUS
 62
     7
 10
1125.6091
 20
37.950807
 42
0.050410925
  0
VERTEX
  8
0
  6
CONTINUOUS
 62
     7
 10
1129.2878
 20
37.567787
 42
0
  0
SEQEND
  8
0
  0
POLYLINE
  8
0
  6
CONTINUOUS
 62
     7
 66
     1
 10
0
 20
0
  0
VERTEX
  8
0
  6
CONTINUOUS
 62
     7
 10
1118.7245
 20
40.609444
 42
-0.10378575
  0
VERTEX
  8
0
  6
CONTINUOUS
 62
     7
 10
1115.471
 20
38.046454
 42
-0.23752987
  0
VERTEX
  8
0
  6
CONTINUOUS
 62
     7
 10
1111.4417
 20
38.046192
 42
-0.10380836
  0
VERTEX
  8
0
  6
CONTINUOUS
 62
     7
 10
1108.1877
 20
40.609444
 42
0
  0
SEQEND
  8
0
  0
POLYLINE
  8
0
  6
CONTINUOUS
 62
     7
 66
     1
 10
0
 20
0
  0
VERTEX
  8
0
  6
CONTINUOUS
 62
     7
 10
1118.7245
 20
56.326122
 42
0.10378596
  0
VERTEX
  8
0
  6
CONTINUOUS
 62
     7
 10
1115.471
 20
58.889109
 42
0.23752932
  0
VERTEX
  8
0
  6
CONTINUOUS
 62
     7
 10
1111.4417
 20
58.889371
 42
0.10380858
  0
VERTEX
  8
0
  6
CONTINUOUS
 62
     7
 10
1108.1877
 20
56.326122
 42
0
  0
SEQEND
  8
0
  0
POLYLINE
  8
0
  6
CONTINUOUS
 62
     7
 66
     1
 10
0
 20
0
  0
VERTEX
  8
0
  6
CONTINUOUS
 62
     7
 10
1139.8512
 20
56.326122
 42
0.037623654
  0
VERTEX
  8
0
  6
CONTINUOUS
 62
     7
 10
1136.5143
 20
57.930506
 42
0.042510679
  0
VERTEX
  8
0
  6
CONTINUOUS
 62
     7
 10
1132.9666
 20
58.984756
 42
0.050410811
  0
VERTEX
  8
0
  6
CONTINUOUS
 62
     7
 10
1129.2878
 20
59.367775
 42
0
  0
SEQEND
  8
0
  0
POLYLINE
  8
0
  6
CONTINUOUS
 62
     7
 66
     1
 10
0
 20
0
  0
VERTEX
  8
0
  6
CONTINUOUS
 62
     7
 10
1139.8512
 20
40.609444
 42
-0.037623548
  0
VERTEX
  8
0
  6
CONTINUOUS
 62
     7
 10
1136.5143
 20
39.005059
 42
-0.04251067
  0
VERTEX
  8
0
  6
CONTINUOUS
 62
     7
 10
1132.9666
 20
37.950807
 42
-0.050410925
  0
VERTEX
  8
0
  6
CONTINUOUS
 62
     7
 10
1129.2878
 20
37.567787
 42
0
  0
SEQEND
  8
0
  0
POLYLINE
  8
0
  6
CONTINUOUS
 62
     7
 66
     1
 10
0
 20
0
  0
VERTEX
  8
0
  6
CONTINUOUS
 62
     7
 10
1139.8512
 20
40.609444
 42
0.10378474
  0
VERTEX
  8
0
  6
CONTINUOUS
 62
     7
 10
1143.1046
 20
38.046439
 42
0.23752918
  0
VERTEX
  8
0
  6
CONTINUOUS
 62
     7
 10
1147.1338
 20
38.046185
 42
0.10380913
  0
VERTEX
  8
0
  6
CONTINUOUS
 62
     7
 10
1150.3878
 20
40.609444
 42
0
  0
SEQEND
  8
0
  0
POLYLINE
  8
0
  6
CONTINUOUS
 62
     7
 66
     1
 10
0
 20
0
  0
VERTEX
  8
0
  6
CONTINUOUS
 62
     7
 10
1139.8512
 20
56.326122
 42
-0.10378495
  0
VERTEX
  8
0
  6
CONTINUOUS
 62
     7
 10
1143.1046
 20
58.889125
 42
-0.23752863
  0
VERTEX
  8
0
  6
CONTINUOUS
 62
     7
 10
1147.1338
 20
58.889378
 42
-0.10380934
  0
VERTEX
  8
0
  6
CONTINUOUS
 62
     7
 10
1150.3878
 20
56.326122
 42
0
  0
SEQEND
  8
0
  0
POLYLINE
  8
0
  6
CONTINUOUS
 62
     7
 66
     1
 10
0
 20
0
  0
VERTEX
  8
0
  6
CONTINUOUS
 62
     7
 10
1118.7245
 20
56.326122
 42
-0.037623654
  0
VERTEX
  8
0
  6
CONTINUOUS
 62
     7
 10
1122.0614
 20
57.930506
 42
-0.042510679
  0
VERTEX
  8
0
  6
CONTINUOUS
 62
     7
 10
1125.6091
 20
58.984756
 42
-0.050410811
  0
VERTEX
  8
0
  6
CONTINUOUS
 62
     7
 10
1129.2878
 20
59.367775
 42
0
  0
SEQEND
  8
0
  0
POLYLINE
  8
0
  6
CONTINUOUS
 62
     7
 66
     1
 10
0
 20
0
  0
VERTEX
  8
0
  6
CONTINUOUS
 62
     7
 10
983.28455
 20
-1757.1405
 42
0.0376244
  0
VERTEX
  8
0
  6
CONTINUOUS
 62
     7
 10
986.62145
 20
-1758.7449
 42
0.042510736
  0
VERTEX
  8
0
  6
CONTINUOUS
 62
     7
 10
990.16915
 20
-1759.7991
 42
0.050410013
  0
VERTEX
  8
0
  6
CONTINUOUS
 62
     7
 10
993.8479
 20
-1760.1821
 42
0
  0
SEQEND
  8
0
  0
POLYLINE
  8
0
  6
CONTINUOUS
 62
     7
 66
     1
 10
0
 20
0
  0
VERTEX
  8
0
  6
CONTINUOUS
 62
     7
 10
983.28455
 20
-1757.1405
 42
-0.044124133
  0
VERTEX
  8
0
  6
CONTINUOUS
 62
     7
 10
981.78961
 20
-1758.5918
 42
-0.062188733
  0
VERTEX
  8
0
  6
CONTINUOUS
 62
     7
 10
980.02991
 20
-1759.704
 42
-0.1073022
  0
VERTEX
  8
0
  6
CONTINUOUS
 62
     7
 10
978.01611
 20
-1760.1821
 42
0
  0
SEQEND
  8
0
  0
POLYLINE
  8
0
  6
CONTINUOUS
 62
     7
 66
     1
 10
0
 20
0
  0
VERTEX
  8
0
  6
CONTINUOUS
 62
     7
 10
983.28455
 20
-1741.4238
 42
0.10378745
  0
VERTEX
  8
0
  6
CONTINUOUS
 62
     7
 10
980.03105
 20
-1738.8609
 42
0.23752543
  0
VERTEX
  8
0
  6
CONTINUOUS
 62
     7
 10
976.00178
 20
-1738.8606
 42
0.10381006
  0
VERTEX
  8
0
  6
CONTINUOUS
 62
     7
 10
972.7478
 20
-1741.4238
 42
0
  0
SEQEND
  8
0
  0
POLYLINE
  8
0
  6
CONTINUOUS
 62
     7
 66
     1
 10
0
 20
0
  0
VERTEX
  8
0
  6
CONTINUOUS
 62
     7
 10
1004.4113
 20
-1741.4238
 42
0.0376244
  0
VERTEX
  8
0
  6
CONTINUOUS
 62
     7
 10
1001.0743
 20
-1739.8195
 42
0.042510736
  0
VERTEX
  8
0
  6
CONTINUOUS
 62
     7
 10
997.52665
 20
-1738.7652
 42
0.050410013
  0
VERTEX
  8
0
  6
CONTINUOUS
 62
     7
 10
993.8479
 20
-1738.3822
 42
0
  0
SEQEND
  8
0
  0
POLYLINE
  8
0
  6
CONTINUOUS
 62
     7
 66
     1
 10
0
 20
0
  0
VERTEX
  8
0
  6
CONTINUOUS
 62
     7
 10
1004.4113
 20
-1757.1405
 42
-0.0376244
  0
VERTEX
  8
0
  6
CONTINUOUS
 62
     7
 10
1001.0743
 20
-1758.7449
 42
-0.042510736
  0
VERTEX
  8
0
  6
CONTINUOUS
 62
     7
 10
997.52665
 20
-1759.7991
 42
-0.050410013
  0
VERTEX
  8
0
  6
CONTINUOUS
 62
     7
 10
993.8479
 20
-1760.1821
 42
0
  0
SEQEND
  8
0
  0
POLYLINE
  8
0
  6
CONTINUOUS
 62
     7
 66
     1
 10
0
 20
0
  0
VERTEX
  8
0
  6
CONTINUOUS
 62
     7
 10
1004.4113
 20
-1757.1405
 42
0.10378644
  0
VERTEX
  8
0
  6
CONTINUOUS
 62
     7
 10
1007.6647
 20
-1759.7035
 42
0.23752474
  0
VERTEX
  8
0
  6
CONTINUOUS
 62
     7
 10
1011.6939
 20
-1759.7037
 42
0.10381082
  0
VERTEX
  8
0
  6
CONTINUOUS
 62
     7
 10
1014.9479
 20
-1757.1405
 42
0
  0
SEQEND
  8
0
  0
POLYLINE
  8
0
  6
CONTINUOUS
 62
     7
 66
     1
 10
0
 20
0
  0
VERTEX
  8
0
  6
CONTINUOUS
 62
     7
 10
1004.4113
 20
-1741.4238
 42
-0.10378644
  0
VERTEX
  8
0
  6
CONTINUOUS
 62
     7
 10
1007.6647
 20
-1738.8608
 42
-0.23752474
  0
VERTEX
  8
0
  6
CONTINUOUS
 62
     7
 10
1011.6939
 20
-1738.8606
 42
-0.10381082
  0
VERTEX
  8
0
  6
CONTINUOUS
 62
     7
 10
1014.9479
 20
-1741.4238
 42
0
  0
SEQEND
  8
0
  0
POLYLINE
  8
0
  6
CONTINUOUS
 62
     7
 66
     1
 10
0
 20
0
  0
VERTEX
  8
0
  6
CONTINUOUS
 62
     7
 10
983.28455
 20
-1741.4238
 42
-0.0376244
  0
VERTEX
  8
0
  6
CONTINUOUS
 62
     7
 10
986.62145
 20
-1739.8195
 42
-0.042510736
  0
VERTEX
  8
0
  6
CONTINUOUS
 62
     7
 10
990.16915
 20
-1738.7652
 42
-0.050410013
  0
VERTEX
  8
0
  6
CONTINUOUS
 62
     7
 10
993.8479
 20
-1738.3822
 42
0
  0
SEQEND
  8
0
  0
TEXT
  8
0
  6
CONTINUOUS
 62
     7
 10
-323.62097
 20
57.47467
 40
14
 41
1.071429
  1
1
  0
TEXT
  8
0
  6
CONTINUOUS
 62
     7
 10
-246.67569
 20
63.549294
 40
14
 41
1.0129871
  1
11/4
  0
TEXT
  8
0
  6
CONTINUOUS
 62
     7
 10
-40.138407
 20
67.599045
 40
14
 41
1.0714291
  1
2
  0
TEXT
  8
0
  6
CONTINUOUS
 62
     7
 10
-145.43193
 20
65.574173
 40
14
 41
1.0129871
  1
11/2
  0
TEXT
  8
0
  6
CONTINUOUS
 62
     7
 10
59.080488
 20
71.648796
 40
14
 41
1.0129871
  1
21/2
  0
TEXT
  8
0
  6
CONTINUOUS
 62
     7
 10
188.67251
 20
81.77317
 40
14
 41
1.0714291
  1
3
  0
TEXT
  8
0
  6
CONTINUOUS
 62
     7
 10
289.91629
 20
104.04681
 40
14
 41
1.0714291
  1
4
  0
TEXT
  8
0
  6
CONTINUOUS
 62
     7
 10
520.75207
 20
112.1463
 40
14
 41
1.0714291
  1
5
  0
TEXT
  8
0
  6
CONTINUOUS
 62
     7
 10
670.59283
 20
120.2458
 40
14
 41
1.0714291
  1
6
  0
TEXT
  8
0
  6
CONTINUOUS
 62
     7
 10
820.43365
 20
154.66869
 40
14
 41
1.0714291
  1
8
  0
TEXT
  8
0
  6
CONTINUOUS
 62
     7
 10
968.24951
 20
180.99207
 40
14
 41
1.0285716
  1
10
  0
TEXT
  8
0
  6
CONTINUOUS
 62
     7
 10
1112.0157
 20
213.39008
 40
14
 41
1.0285716
  1
12
  0
TEXT
  8
0
  6
CONTINUOUS
 62
     7
 10
-367.93661
 20
238.06232
 40
15
 41
0.84289037
  1
ＴＯＰ－Ｊ　Ｒ－５　１２サイス゛
  0
TEXT
  8
0
  6
CONTINUOUS
 62
     7
 10
-317.98587
 20
-647.36798
 40
7
 41
1.0178573
  1
R-5
 50
90.000003
  0
TEXT
  8
0
  6
CONTINUOUS
 62
     7
 10
-331.41641
 20
-630.67035
 40
7
 41
1.0714291
  1
1
 50
90.000003
  0
TEXT
  8
0
  6
CONTINUOUS
 62
     7
 10
-121.99145
 20
-649.11145
 40
7
 41
1.0178573
  1
R-5
 50
90.000003
  0
TEXT
  8
0
  6
CONTINUOUS
 62
     7
 10
70.444412
 20
-637.25604
 40
7
 41
1.0178573
  1
2/E
 50
90.000003
  0
TEXT
  8
0
  6
CONTINUOUS
 62
     7
 10
70.879128
 20
-627.68016
 40
4
 41
1.071429
  1
2
 50
90.000003
  0
TEXT
  8
0
  6
CONTINUOUS
 62
     7
 10
66.334717
 20
-630.63933
 40
4
 41
1.071429
  1
1
 50
90.000003
  0
TEXT
  8
0
  6
CONTINUOUS
 62
     7
 10
-221.95073
 20
-649.11145
 40
7
 41
1.0178573
  1
R-5
 50
90.000003
  0
TEXT
  8
0
  6
CONTINUOUS
 62
     7
 10
-237.02411
 20
-634.37
 40
7
 41
1.0285716
  1
1/
 50
90.000003
  0
TEXT
  8
0
  6
CONTINUOUS
 62
     7
 10
-236.59131
 20
-624.16173
 40
4
 41
1.071429
  1
4
 50
90.000003
  0
TEXT
  8
0
  6
CONTINUOUS
 62
     7
 10
-241.15974
 20
-628.20299
 40
4
 41
1.071429
  1
1
 50
90.000003
  0
TEXT
  8
0
  6
CONTINUOUS
 62
     7
 10
-29.12154
 20
-648.70233
 40
7
 41
1.0178573
  1
R-5
 50
90.000003
  0
TEXT
  8
0
  6
CONTINUOUS
 62
     7
 10
-44.713638
 20
-631.72057
 40
11
 41
1.0714291
  1
2
 50
90.000003
  0
TEXT
  8
0
  6
CONTINUOUS
 62
     7
 10
85.770554
 20
-648.70233
 40
7
 41
1.0178573
  1
R-5
 50
90.000003
  0
TEXT
  8
0
  6
CONTINUOUS
 62
     7
 10
195.20482
 20
-649.60291
 40
7
 41
1.0178573
  1
R-5
 50
90.000003
  0
TEXT
  8
0
  6
CONTINUOUS
 62
     7
 10
181.02525
 20
-632.49235
 40
11
 41
1.071429
  1
3
 50
90.000003
  0
TEXT
  8
0
  6
CONTINUOUS
 62
     7
 10
296.08102
 20
-648.93909
 40
7
 41
1.0178573
  1
R-5
 50
90.000003
  0
TEXT
  8
0
  6
CONTINUOUS
 62
     7
 10
280.17636
 20
-631.32011
 40
11
 41
1.071429
  1
4
 50
90.000003
  0
TEXT
  8
0
  6
CONTINUOUS
 62
     7
 10
679.58813
 20
-649.5481
 40
7
 41
1.0178573
  1
R-5
 50
90.000003
  0
TEXT
  8
0
  6
CONTINUOUS
 62
     7
 10
664.49829
 20
-636.87755
 40
11
 41
1.0285716
  1
6J
 50
90.000003
  0
TEXT
  8
0
  6
CONTINUOUS
 62
     7
 10
514.49832
 20
-636.87755
 40
11
 41
1.0285716
  1
5E
 50
90.000003
  0
TEXT
  8
0
  6
CONTINUOUS
 62
     7
 10
529.58813
 20
-649.5481
 40
7
 41
1.0178573
  1
R-5
 50
90.000003
  0
TEXT
  8
0
  6
CONTINUOUS
 62
     7
 10
833.68268
 20
-653.15579
 40
8
 41
1.0178573
  1
R-5
 50
90.000003
  0
TEXT
  8
0
  6
CONTINUOUS
 62
     7
 10
815.58875
 20
-641.81735
 40
15
 41
1.0285716
  1
8E
 50
90.000003
  0
TEXT
  8
0
  6
CONTINUOUS
 62
     7
 10
1130.8215
 20
-649.33386
 40
7
 41
1.0178573
  1
R-5
 50
90.000003
  0
TEXT
  8
0
  6
CONTINUOUS
 62
     7
 10
1116.1641
 20
-643.12916
 40
12
 41
1.0178573
  1
12E
 50
90.000003
  0
TEXT
  8
0
  6
CONTINUOUS
 62
     7
 10
980.82153
 20
-649.33386
 40
7
 41
1.0178573
  1
R-5
 50
90.000003
  0
TEXT
  8
0
  6
CONTINUOUS
 62
     7
 10
966.02008
 20
-643.72499
 40
12
 41
1.0178573
  1
10E
 50
90.000003
  0
TEXT
  8
0
  6
CONTINUOUS
 62
     7
 10
-137.21326
 20
-634.37
 40
7
 41
1.0285716
  1
1/
 50
90.000003
  0
TEXT
  8
0
  6
CONTINUOUS
 62
     7
 10
-141.34888
 20
-628.20299
 40
4
 41
1.071429
  1
1
 50
90.000003
  0
TEXT
  8
0
  6
CONTINUOUS
 62
     7
 10
-136.78046
 20
-624.16173
 40
4
 41
1.071429
  1
2
 50
90.000003
  0
TEXT
  8
0
  6
CONTINUOUS
 62
     7
 10
-333.21866
 20
-542.24261
 40
14
 41
1.0714291
  1
1
  0
TEXT
  8
0
  6
CONTINUOUS
 62
     7
 10
-254.77519
 20
-539.86359
 40
14
 41
1.0129871
  1
11/4
  0
TEXT
  8
0
  6
CONTINUOUS
 62
     7
 10
-159.60605
 20
-541.88843
 40
14
 41
1.0129871
  1
11/2
  0
TEXT
  8
0
  6
CONTINUOUS
 62
     7
 10
-48.23791
 20
-527.71429
 40
14
 41
1.0714291
  1
2
  0
TEXT
  8
0
  6
CONTINUOUS
 62
     7
 10
53.005861
 20
-521.63971
 40
14
 41
1.0129871
  1
21/2
  0
TEXT
  8
0
  6
CONTINUOUS
 62
     7
 10
179.0748
 20
-511.86948
 40
14
 41
1.0714291
  1
3
  0
TEXT
  8
0
  6
CONTINUOUS
 62
     7
 10
280.31857
 20
-497.69534
 40
14
 41
1.0714291
  1
4
  0
TEXT
  8
0
  6
CONTINUOUS
 62
     7
 10
516.70233
 20
-468.99292
 40
14
 41
1.0714291
  1
5
  0
TEXT
  8
0
  6
CONTINUOUS
 62
     7
 10
664.51825
 20
-456.84369
 40
14
 41
1.0714291
  1
6
  0
TEXT
  8
0
  6
CONTINUOUS
 62
     7
 10
814.35901
 20
-416.34616
 40
14
 41
1.0714291
  1
8
  0
TEXT
  8
0
  6
CONTINUOUS
 62
     7
 10
958.12518
 20
-383.94818
 40
14
 41
1.0285716
  1
10
  0
TEXT
  8
0
  6
CONTINUOUS
 62
     7
 10
1105.941
 20
-347.5004
 40
14
 41
1.0285716
  1
12
  0
TEXT
  8
0
  6
CONTINUOUS
 62
     7
 10
-304.9112
 20
-1018.8103
 40
14
 41
1.0714291
  1
1
  0
TEXT
  8
0
  6
CONTINUOUS
 62
     7
 10
-167.74942
 20
-1011.114
 40
14
 41
1.0129871
  1
11/4
  0
TEXT
  8
0
  6
CONTINUOUS
 62
     7
 10
-3.5753038
 20
-1006.7383
 40
14
 41
1.0129871
  1
11/2
  0
TEXT
  8
0
  6
CONTINUOUS
 62
     7
 10
-315.15442
 20
-1201.6006
 40
14
 41
1.0129871
  1
21/2
  0
TEXT
  8
0
  6
CONTINUOUS
 62
     7
 10
195.10959
 20
-1001.3005
 40
14
 41
1.0714291
  1
2
  0
TEXT
  8
0
  6
CONTINUOUS
 62
     7
 10
-81.075343
 20
-1196.5135
 40
14
 41
1.0714291
  1
3
  0
TEXT
  8
0
  6
CONTINUOUS
 62
     7
 10
168.16639
 20
-1172.47
 40
14
 41
1.0714291
  1
4
  0
TEXT
  8
0
  6
CONTINUOUS
 62
     7
 10
606.96338
 20
-949.61304
 40
14
 41
1.0714291
  1
5
  0
TEXT
  8
0
  6
CONTINUOUS
 62
     7
 10
954.56738
 20
-948.37842
 40
14
 41
1.0714291
  1
6
  0
TEXT
  8
0
  6
CONTINUOUS
 62
     7
 10
709.8222
 20
-1214.5903
 40
14
 41
1.0285716
  1
8E
  0
TEXT
  8
0
  6
CONTINUOUS
 62
     7
 10
-70.72671
 20
-1623.1553
 40
14
 41
1.0178573
  1
10E
  0
TEXT
  8
0
  6
CONTINUOUS
 62
     7
 10
769.11133
 20
-1595.6027
 40
14
 41
1.0178573
  1
12E
  0
LINE
  8
0
  6
CONTINUOUS
 62
     7
 10
-338.89761
 20
-617.35487
 11
-337.66501
 21
-617.35487
  0
LINE
  8
0
  6
CONTINUOUS
 62
     7
 10
-338.89761
 20
-618.25487
 11
-337.66501
 21
-618.25487
  0
LINE
  8
0
  6
CONTINUOUS
 62
     7
 10
-331.13021
 20
-618.25487
 11
-329.89761
 21
-618.25487
  0
LINE
  8
0
  6
CONTINUOUS
 62
     7
 10
-331.13021
 20
-617.35487
 11
-329.89761
 21
-617.35487
  0
LINE
  8
0
  6
CONTINUOUS
 62
     7
 10
-336.76174
 20
-618.25487
 11
-334.39761
 21
-618.25487
  0
LINE
  8
0
  6
CONTINUOUS
 62
     7
 10
-336.76174
 20
-617.35487
 11
-334.39761
 21
-617.35487
  0
ARC
  8
0
  6
CONTINUOUS
 62
     7
 10
-334.39761
 20
-616.00487
 40
1.8
 50
36.008327
 51
143.99168
  0
ARC
  8
0
  6
CONTINUOUS
 62
     7
 10
-334.39761
 20
-616.00487
 40
2.7
 50
36.008327
 51
143.99168
  0
ARC
  8
0
  6
CONTINUOUS
 62
     7
 10
-334.39761
 20
-619.60487
 40
1.8
 50
216.00833
 51
323.99168
  0
ARC
  8
0
  6
CONTINUOUS
 62
     7
 10
-334.39761
 20
-619.60487
 40
2.7
 50
216.00833
 51
323.99168
  0
ARC
  8
0
  6
CONTINUOUS
 62
     7
 10
-331.92088
 20
-617.80487
 40
5.7617307
 50
143.99168
 51
175.52056
  0
ARC
  8
0
  6
CONTINUOUS
 62
     7
 10
-331.92088
 20
-617.80487
 40
4.8617306
 50
143.99168
 51
174.68912
  0
ARC
  8
0
  6
CONTINUOUS
 62
     7
 10
-336.87434
 20
-617.80487
 40
4.8617306
 50
323.99167
 51
36.008327
  0
ARC
  8
0
  6
CONTINUOUS
 62
     7
 10
-336.87434
 20
-617.80487
 40
5.7617307
 50
323.99167
 51
355.52055
  0
ARC
  8
0
  6
CONTINUOUS
 62
     7
 10
-338.56011
 20
-617.80487
 40
0.5625
 50
126.8699
 51
233.1301
  0
ARC
  8
0
  6
CONTINUOUS
 62
     7
 10
-334.73511
 20
-617.80487
 40
0.5625
 50
306.86991
 51
53.130105
  0
ARC
  8
0
  6
CONTINUOUS
 62
     7
 10
-330.23511
 20
-617.80487
 40
0.5625
 50
306.86991
 51
53.130105
  0
ARC
  8
0
  6
CONTINUOUS
 62
     7
 10
-331.92088
 20
-617.80487
 40
5.7617307
 50
184.47945
 51
216.00833
  0
ARC
  8
0
  6
CONTINUOUS
 62
     7
 10
-331.92088
 20
-617.80487
 40
4.8617306
 50
185.31088
 51
216.00833
  0
ARC
  8
0
  6
CONTINUOUS
 62
     7
 10
-336.87434
 20
-617.80487
 40
5.7617307
 50
4.4794498
 51
36.008327
  0
LINE
  8
0
  6
CONTINUOUS
 62
     7
 10
-244.97958
 20
-611.52238
 11
-243.33612
 21
-611.52238
  0
LINE
  8
0
  6
CONTINUOUS
 62
     7
 10
-244.97958
 20
-612.72238
 11
-243.33612
 21
-612.72238
  0
LINE
  8
0
  6
CONTINUOUS
 62
     7
 10
-234.62305
 20
-612.72238
 11
-232.97958
 21
-612.72238
  0
LINE
  8
0
  6
CONTINUOUS
 62
     7
 10
-234.62305
 20
-611.52238
 11
-232.97958
 21
-611.52238
  0
LINE
  8
0
  6
CONTINUOUS
 62
     7
 10
-242.13176
 20
-612.72238
 11
-238.97958
 21
-612.72238
  0
LINE
  8
0
  6
CONTINUOUS
 62
     7
 10
-242.13176
 20
-611.52238
 11
-238.97958
 21
-611.52238
  0
ARC
  8
0
  6
CONTINUOUS
 62
     7
 10
-238.97958
 20
-609.72238
 40
2.4000001
 50
36.008327
 51
143.99168
  0
ARC
  8
0
  6
CONTINUOUS
 62
     7
 10
-238.97958
 20
-609.72238
 40
3.5999999
 50
36.008327
 51
143.99168
  0
ARC
  8
0
  6
CONTINUOUS
 62
     7
 10
-238.97958
 20
-614.52238
 40
2.4000001
 50
216.00833
 51
323.99168
  0
ARC
  8
0
  6
CONTINUOUS
 62
     7
 10
-238.97958
 20
-614.52238
 40
3.5999999
 50
216.00833
 51
323.99168
  0
ARC
  8
0
  6
CONTINUOUS
 62
     7
 10
-235.67728
 20
-612.12238
 40
7.6823077
 50
143.99168
 51
175.52056
  0
ARC
  8
0
  6
CONTINUOUS
 62
     7
 10
-235.67728
 20
-612.12238
 40
6.4823079
 50
143.99168
 51
174.68912
  0
ARC
  8
0
  6
CONTINUOUS
 62
     7
 10
-242.28189
 20
-612.12238
 40
6.4823079
 50
323.99167
 51
36.008327
  0
ARC
  8
0
  6
CONTINUOUS
 62
     7
 10
-242.28189
 20
-612.12238
 40
7.6823077
 50
323.99167
 51
355.52055
  0
ARC
  8
0
  6
CONTINUOUS
 62
     7
 10
-244.52958
 20
-612.12238
 40
0.75
 50
126.8699
 51
233.1301
  0
ARC
  8
0
  6
CONTINUOUS
 62
     7
 10
-239.42958
 20
-612.12238
 40
0.75
 50
306.86991
 51
53.130105
  0
ARC
  8
0
  6
CONTINUOUS
 62
     7
 10
-233.42958
 20
-612.12238
 40
0.75
 50
306.86991
 51
53.130105
  0
ARC
  8
0
  6
CONTINUOUS
 62
     7
 10
-235.67728
 20
-612.12238
 40
6.4823079
 50
185.31088
 51
216.00833
  0
ARC
  8
0
  6
CONTINUOUS
 62
     7
 10
-235.67728
 20
-612.12238
 40
7.6823077
 50
184.47945
 51
216.00833
  0
ARC
  8
0
  6
CONTINUOUS
 62
     7
 10
-242.28189
 20
-612.12238
 40
7.6823077
 50
4.4794498
 51
36.008327
  0
LINE
  8
0
  6
CONTINUOUS
 62
     7
 10
802.41937
 20
-596.57697
 11
804.47371
 21
-596.57697
  0
LINE
  8
0
  6
CONTINUOUS
 62
     7
 10
802.41937
 20
-598.07697
 11
804.47371
 21
-598.07697
  0
LINE
  8
0
  6
CONTINUOUS
 62
     7
 10
815.36504
 20
-598.07697
 11
817.41937
 21
-598.07697
  0
LINE
  8
0
  6
CONTINUOUS
 62
     7
 10
815.36504
 20
-596.57697
 11
817.41937
 21
-596.57697
  0
LINE
  8
0
  6
CONTINUOUS
 62
     7
 10
805.97916
 20
-598.07697
 11
809.91937
 21
-598.07697
  0
LINE
  8
0
  6
CONTINUOUS
 62
     7
 10
805.97916
 20
-596.57697
 11
809.91937
 21
-596.57697
  0
ARC
  8
0
  6
CONTINUOUS
 62
     7
 10
809.91937
 20
-594.32697
 40
3
 50
36.008327
 51
143.99168
  0
ARC
  8
0
  6
CONTINUOUS
 62
     7
 10
809.91937
 20
-594.32697
 40
4.5
 50
36.008327
 51
143.99168
  0
ARC
  8
0
  6
CONTINUOUS
 62
     7
 10
809.91937
 20
-600.32697
 40
3
 50
216.00833
 51
323.99168
  0
ARC
  8
0
  6
CONTINUOUS
 62
     7
 10
809.91937
 20
-600.32697
 40
4.5
 50
216.00833
 51
323.99168
  0
ARC
  8
0
  6
CONTINUOUS
 62
     7
 10
814.04726
 20
-597.32697
 40
9.6028843
 50
143.99168
 51
175.52056
  0
ARC
  8
0
  6
CONTINUOUS
 62
     7
 10
814.04726
 20
-597.32697
 40
8.1028843
 50
143.99168
 51
174.68912
  0
ARC
  8
0
  6
CONTINUOUS
 62
     7
 10
805.79149
 20
-597.32697
 40
8.1028843
 50
323.99167
 51
36.008327
  0
ARC
  8
0
  6
CONTINUOUS
 62
     7
 10
805.79149
 20
-597.32697
 40
9.6028843
 50
323.99167
 51
355.52055
  0
ARC
  8
0
  6
CONTINUOUS
 62
     7
 10
802.98187
 20
-597.32697
 40
0.9375
 50
126.8699
 51
233.1301
  0
ARC
  8
0
  6
CONTINUOUS
 62
     7
 10
809.35687
 20
-597.32697
 40
0.9375
 50
306.86991
 51
53.130105
  0
ARC
  8
0
  6
CONTINUOUS
 62
     7
 10
816.85687
 20
-597.32697
 40
0.9375
 50
306.86991
 51
53.130105
  0
ARC
  8
0
  6
CONTINUOUS
 62
     7
 10
814.04726
 20
-597.32697
 40
9.6028843
 50
184.47945
 51
216.00833
  0
ARC
  8
0
  6
CONTINUOUS
 62
     7
 10
814.04726
 20
-597.32697
 40
8.1028843
 50
185.31088
 51
216.00833
  0
ARC
  8
0
  6
CONTINUOUS
 62
     7
 10
805.79149
 20
-597.32697
 40
9.6028843
 50
4.4794498
 51
36.008327
  0
LINE
  8
0
  6
CONTINUOUS
 62
     7
 10
1103.8267
 20
-596.10345
 11
1105.881
 21
-596.10345
  0
LINE
  8
0
  6
CONTINUOUS
 62
     7
 10
1103.8267
 20
-597.60345
 11
1105.881
 21
-597.60345
  0
LINE
  8
0
  6
CONTINUOUS
 62
     7
 10
1116.7723
 20
-597.60345
 11
1118.8267
 21
-597.60345
  0
LINE
  8
0
  6
CONTINUOUS
 62
     7
 10
1116.7723
 20
-596.10345
 11
1118.8267
 21
-596.10345
  0
LINE
  8
0
  6
CONTINUOUS
 62
     7
 10
1107.3864
 20
-597.60345
 11
1111.3267
 21
-597.60345
  0
LINE
  8
0
  6
CONTINUOUS
 62
     7
 10
1107.3864
 20
-596.10345
 11
1111.3267
 21
-596.10345
  0
ARC
  8
0
  6
CONTINUOUS
 62
     7
 10
1111.3267
 20
-593.85345
 40
3
 50
36.008327
 51
143.99168
  0
ARC
  8
0
  6
CONTINUOUS
 62
     7
 10
1111.3267
 20
-593.85345
 40
4.5
 50
36.008327
 51
143.99168
  0
ARC
  8
0
  6
CONTINUOUS
 62
     7
 10
1111.3267
 20
-599.85345
 40
3
 50
216.00833
 51
323.99168
  0
ARC
  8
0
  6
CONTINUOUS
 62
     7
 10
1111.3267
 20
-599.85345
 40
4.5
 50
216.00833
 51
323.99168
  0
ARC
  8
0
  6
CONTINUOUS
 62
     7
 10
1115.4545
 20
-596.85345
 40
9.6028843
 50
143.99168
 51
175.52056
  0
ARC
  8
0
  6
CONTINUOUS
 62
     7
 10
1115.4545
 20
-596.85345
 40
8.1028843
 50
143.99168
 51
174.68912
  0
ARC
  8
0
  6
CONTINUOUS
 62
     7
 10
1107.1988
 20
-596.85345
 40
8.1028843
 50
323.99167
 51
36.008327
  0
ARC
  8
0
  6
CONTINUOUS
 62
     7
 10
1107.1988
 20
-596.85345
 40
9.6028843
 50
323.99167
 51
355.52055
  0
ARC
  8
0
  6
CONTINUOUS
 62
     7
 10
1104.3892
 20
-596.85345
 40
0.9375
 50
126.8699
 51
233.1301
  0
ARC
  8
0
  6
CONTINUOUS
 62
     7
 10
1110.7642
 20
-596.85345
 40
0.9375
 50
306.86991
 51
53.130105
  0
ARC
  8
0
  6
CONTINUOUS
 62
     7
 10
1118.2642
 20
-596.85345
 40
0.9375
 50
306.86991
 51
53.130105
  0
ARC
  8
0
  6
CONTINUOUS
 62
     7
 10
1115.4545
 20
-596.85345
 40
9.6028843
 50
184.47945
 51
216.00833
  0
ARC
  8
0
  6
CONTINUOUS
 62
     7
 10
1115.4545
 20
-596.85345
 40
8.1028843
 50
185.31088
 51
216.00833
  0
ARC
  8
0
  6
CONTINUOUS
 62
     7
 10
1107.1988
 20
-596.85345
 40
9.6028843
 50
4.4794498
 51
36.008327
  0
LINE
  8
0
  6
CONTINUOUS
 62
     7
 10
953.71497
 20
-596.10345
 11
955.7693
 21
-596.10345
  0
LINE
  8
0
  6
CONTINUOUS
 62
     7
 10
953.71497
 20
-597.60345
 11
955.7693
 21
-597.60345
  0
LINE
  8
0
  6
CONTINUOUS
 62
     7
 10
966.66063
 20
-597.60345
 11
968.71497
 21
-597.60345
  0
LINE
  8
0
  6
CONTINUOUS
 62
     7
 10
966.66063
 20
-596.10345
 11
968.71497
 21
-596.10345
  0
LINE
  8
0
  6
CONTINUOUS
 62
     7
 10
957.27475
 20
-597.60345
 11
961.21497
 21
-597.60345
  0
LINE
  8
0
  6
CONTINUOUS
 62
     7
 10
957.27475
 20
-596.10345
 11
961.21497
 21
-596.10345
  0
ARC
  8
0
  6
CONTINUOUS
 62
     7
 10
961.21497
 20
-593.85345
 40
3
 50
36.008327
 51
143.99168
  0
ARC
  8
0
  6
CONTINUOUS
 62
     7
 10
961.21497
 20
-593.85345
 40
4.5
 50
36.008327
 51
143.99168
  0
ARC
  8
0
  6
CONTINUOUS
 62
     7
 10
961.21497
 20
-599.85345
 40
3
 50
216.00833
 51
323.99168
  0
ARC
  8
0
  6
CONTINUOUS
 62
     7
 10
961.21497
 20
-599.85345
 40
4.5
 50
216.00833
 51
323.99168
  0
ARC
  8
0
  6
CONTINUOUS
 62
     7
 10
965.34285
 20
-596.85345
 40
9.6028843
 50
143.99168
 51
175.52056
  0
ARC
  8
0
  6
CONTINUOUS
 62
     7
 10
965.34285
 20
-596.85345
 40
8.1028843
 50
143.99168
 51
174.68912
  0
ARC
  8
0
  6
CONTINUOUS
 62
     7
 10
957.08708
 20
-596.85345
 40
8.1028843
 50
323.99167
 51
36.008327
  0
ARC
  8
0
  6
CONTINUOUS
 62
     7
 10
957.08708
 20
-596.85345
 40
9.6028843
 50
323.99167
 51
355.52055
  0
ARC
  8
0
  6
CONTINUOUS
 62
     7
 10
954.27747
 20
-596.85345
 40
0.9375
 50
126.8699
 51
233.1301
  0
ARC
  8
0
  6
CONTINUOUS
 62
     7
 10
960.65247
 20
-596.85345
 40
0.9375
 50
306.86991
 51
53.130105
  0
ARC
  8
0
  6
CONTINUOUS
 62
     7
 10
968.15247
 20
-596.85345
 40
0.9375
 50
306.86991
 51
53.130105
  0
ARC
  8
0
  6
CONTINUOUS
 62
     7
 10
965.34285
 20
-596.85345
 40
9.6028843
 50
184.47945
 51
216.00833
  0
ARC
  8
0
  6
CONTINUOUS
 62
     7
 10
965.34285
 20
-596.85345
 40
8.1028843
 50
185.31088
 51
216.00833
  0
ARC
  8
0
  6
CONTINUOUS
 62
     7
 10
957.08708
 20
-596.85345
 40
9.6028843
 50
4.4794498
 51
36.008327
  0
LINE
  8
0
  6
CONTINUOUS
 62
     7
 10
652.86047
 20
-602.40946
 11
654.50394
 21
-602.40946
  0
LINE
  8
0
  6
CONTINUOUS
 62
     7
 10
652.86047
 20
-603.60946
 11
654.50394
 21
-603.60946
  0
LINE
  8
0
  6
CONTINUOUS
 62
     7
 10
663.21701
 20
-603.60946
 11
664.86047
 21
-603.60946
  0
LINE
  8
0
  6
CONTINUOUS
 62
     7
 10
663.21701
 20
-602.40946
 11
664.86047
 21
-602.40946
  0
LINE
  8
0
  6
CONTINUOUS
 62
     7
 10
655.7083
 20
-603.60946
 11
658.86047
 21
-603.60946
  0
LINE
  8
0
  6
CONTINUOUS
 62
     7
 10
655.7083
 20
-602.40946
 11
658.86047
 21
-602.40946
  0
ARC
  8
0
  6
CONTINUOUS
 62
     7
 10
658.86047
 20
-600.60946
 40
2.4000001
 50
36.008327
 51
143.99168
  0
ARC
  8
0
  6
CONTINUOUS
 62
     7
 10
658.86047
 20
-600.60946
 40
3.5999999
 50
36.008327
 51
143.99168
  0
ARC
  8
0
  6
CONTINUOUS
 62
     7
 10
658.86047
 20
-605.40946
 40
2.4000001
 50
216.00833
 51
323.99168
  0
ARC
  8
0
  6
CONTINUOUS
 62
     7
 10
658.86047
 20
-605.40946
 40
3.5999999
 50
216.00833
 51
323.99168
  0
ARC
  8
0
  6
CONTINUOUS
 62
     7
 10
662.16278
 20
-603.00946
 40
7.6823077
 50
143.99168
 51
175.52056
  0
ARC
  8
0
  6
CONTINUOUS
 62
     7
 10
662.16278
 20
-603.00946
 40
6.4823079
 50
143.99168
 51
174.68912
  0
ARC
  8
0
  6
CONTINUOUS
 62
     7
 10
655.55817
 20
-603.00946
 40
6.4823079
 50
323.99167
 51
36.008327
  0
ARC
  8
0
  6
CONTINUOUS
 62
     7
 10
655.55817
 20
-603.00946
 40
7.6823077
 50
323.99167
 51
355.52055
  0
ARC
  8
0
  6
CONTINUOUS
 62
     7
 10
653.31047
 20
-603.00946
 40
0.75
 50
126.8699
 51
233.1301
  0
ARC
  8
0
  6
CONTINUOUS
 62
     7
 10
658.41047
 20
-603.00946
 40
0.75
 50
306.86991
 51
53.130105
  0
ARC
  8
0
  6
CONTINUOUS
 62
     7
 10
664.41047
 20
-603.00946
 40
0.75
 50
306.86991
 51
53.130105
  0
ARC
  8
0
  6
CONTINUOUS
 62
     7
 10
662.16278
 20
-603.00946
 40
6.4823079
 50
185.31088
 51
216.00833
  0
ARC
  8
0
  6
CONTINUOUS
 62
     7
 10
662.16278
 20
-603.00946
 40
7.6823077
 50
184.47945
 51
216.00833
  0
ARC
  8
0
  6
CONTINUOUS
 62
     7
 10
655.55817
 20
-603.00946
 40
7.6823077
 50
4.4794498
 51
36.008327
  0
LINE
  8
0
  6
CONTINUOUS
 62
     7
 10
504.1694
 20
-605.25065
 11
505.81287
 21
-605.25065
  0
LINE
  8
0
  6
CONTINUOUS
 62
     7
 10
504.1694
 20
-606.45065
 11
505.81287
 21
-606.45065
  0
LINE
  8
0
  6
CONTINUOUS
 62
     7
 10
514.52594
 20
-606.45065
 11
516.1694
 21
-606.45065
  0
LINE
  8
0
  6
CONTINUOUS
 62
     7
 10
514.52594
 20
-605.25065
 11
516.1694
 21
-605.25065
  0
LINE
  8
0
  6
CONTINUOUS
 62
     7
 10
507.01723
 20
-606.45065
 11
510.1694
 21
-606.45065
  0
LINE
  8
0
  6
CONTINUOUS
 62
     7
 10
507.01723
 20
-605.25065
 11
510.1694
 21
-605.25065
  0
ARC
  8
0
  6
CONTINUOUS
 62
     7
 10
510.1694
 20
-603.45065
 40
2.4000001
 50
36.008327
 51
143.99168
  0
ARC
  8
0
  6
CONTINUOUS
 62
     7
 10
510.1694
 20
-603.45065
 40
3.5999999
 50
36.008327
 51
143.99168
  0
ARC
  8
0
  6
CONTINUOUS
 62
     7
 10
510.1694
 20
-608.25065
 40
2.4000001
 50
216.00833
 51
323.99168
  0
ARC
  8
0
  6
CONTINUOUS
 62
     7
 10
510.1694
 20
-608.25065
 40
3.5999999
 50
216.00833
 51
323.99168
  0
ARC
  8
0
  6
CONTINUOUS
 62
     7
 10
513.47171
 20
-605.85065
 40
7.6823077
 50
143.99168
 51
175.52056
  0
ARC
  8
0
  6
CONTINUOUS
 62
     7
 10
513.47171
 20
-605.85065
 40
6.4823079
 50
143.99168
 51
174.68912
  0
ARC
  8
0
  6
CONTINUOUS
 62
     7
 10
506.8671
 20
-605.85065
 40
6.4823079
 50
323.99167
 51
36.008327
  0
ARC
  8
0
  6
CONTINUOUS
 62
     7
 10
506.8671
 20
-605.85065
 40
7.6823077
 50
323.99167
 51
355.52055
  0
ARC
  8
0
  6
CONTINUOUS
 62
     7
 10
504.6194
 20
-605.85065
 40
0.75
 50
126.8699
 51
233.1301
  0
ARC
  8
0
  6
CONTINUOUS
 62
     7
 10
509.7194
 20
-605.85065
 40
0.75
 50
306.86991
 51
53.130105
  0
ARC
  8
0
  6
CONTINUOUS
 62
     7
 10
515.7194
 20
-605.85065
 40
0.75
 50
306.86991
 51
53.130105
  0
ARC
  8
0
  6
CONTINUOUS
 62
     7
 10
513.47171
 20
-605.85065
 40
6.4823079
 50
185.31088
 51
216.00833
  0
ARC
  8
0
  6
CONTINUOUS
 62
     7
 10
513.47171
 20
-605.85065
 40
7.6823077
 50
184.47945
 51
216.00833
  0
ARC
  8
0
  6
CONTINUOUS
 62
     7
 10
506.8671
 20
-605.85065
 40
7.6823077
 50
4.4794498
 51
36.008327
  0
LINE
  8
0
  6
CONTINUOUS
 62
     7
 10
268.57312
 20
-610.10178
 11
270.21659
 21
-610.10178
  0
LINE
  8
0
  6
CONTINUOUS
 62
     7
 10
268.57312
 20
-611.30178
 11
270.21659
 21
-611.30178
  0
LINE
  8
0
  6
CONTINUOUS
 62
     7
 10
278.92965
 20
-611.30178
 11
280.57312
 21
-611.30178
  0
LINE
  8
0
  6
CONTINUOUS
 62
     7
 10
278.92965
 20
-610.10178
 11
280.57312
 21
-610.10178
  0
LINE
  8
0
  6
CONTINUOUS
 62
     7
 10
271.42095
 20
-611.30178
 11
274.57312
 21
-611.30178
  0
LINE
  8
0
  6
CONTINUOUS
 62
     7
 10
271.42095
 20
-610.10178
 11
274.57312
 21
-610.10178
  0
ARC
  8
0
  6
CONTINUOUS
 62
     7
 10
274.57312
 20
-608.30178
 40
2.4000001
 50
36.008327
 51
143.99168
  0
ARC
  8
0
  6
CONTINUOUS
 62
     7
 10
274.57312
 20
-608.30178
 40
3.5999999
 50
36.008327
 51
143.99168
  0
ARC
  8
0
  6
CONTINUOUS
 62
     7
 10
274.57312
 20
-613.10178
 40
2.4000001
 50
216.00833
 51
323.99168
  0
ARC
  8
0
  6
CONTINUOUS
 62
     7
 10
274.57312
 20
-613.10178
 40
3.5999999
 50
216.00833
 51
323.99168
  0
ARC
  8
0
  6
CONTINUOUS
 62
     7
 10
277.87543
 20
-610.70178
 40
7.6823077
 50
143.99168
 51
175.52056
  0
ARC
  8
0
  6
CONTINUOUS
 62
     7
 10
277.87543
 20
-610.70178
 40
6.4823079
 50
143.99168
 51
174.68912
  0
ARC
  8
0
  6
CONTINUOUS
 62
     7
 10
271.27081
 20
-610.70178
 40
6.4823079
 50
323.99167
 51
36.008327
  0
ARC
  8
0
  6
CONTINUOUS
 62
     7
 10
271.27081
 20
-610.70178
 40
7.6823077
 50
323.99167
 51
355.52055
  0
ARC
  8
0
  6
CONTINUOUS
 62
     7
 10
269.02312
 20
-610.70178
 40
0.75
 50
126.8699
 51
233.1301
  0
ARC
  8
0
  6
CONTINUOUS
 62
     7
 10
274.12312
 20
-610.70178
 40
0.75
 50
306.86991
 51
53.130105
  0
ARC
  8
0
  6
CONTINUOUS
 62
     7
 10
280.12312
 20
-610.70178
 40
0.75
 50
306.86991
 51
53.130105
  0
ARC
  8
0
  6
CONTINUOUS
 62
     7
 10
277.87543
 20
-610.70178
 40
6.4823079
 50
185.31088
 51
216.00833
  0
ARC
  8
0
  6
CONTINUOUS
 62
     7
 10
277.87543
 20
-610.70178
 40
7.6823077
 50
184.47945
 51
216.00833
  0
ARC
  8
0
  6
CONTINUOUS
 62
     7
 10
271.27081
 20
-610.70178
 40
7.6823077
 50
4.4794498
 51
36.008327
  0
LINE
  8
0
  6
CONTINUOUS
 62
     7
 10
170.07707
 20
-610.10178
 11
171.72054
 21
-610.10178
  0
LINE
  8
0
  6
CONTINUOUS
 62
     7
 10
170.07707
 20
-611.30178
 11
171.72054
 21
-611.30178
  0
LINE
  8
0
  6
CONTINUOUS
 62
     7
 10
180.43361
 20
-611.30178
 11
182.07707
 21
-611.30178
  0
LINE
  8
0
  6
CONTINUOUS
 62
     7
 10
180.43361
 20
-610.10178
 11
182.07707
 21
-610.10178
  0
LINE
  8
0
  6
CONTINUOUS
 62
     7
 10
172.9249
 20
-611.30178
 11
176.07707
 21
-611.30178
  0
LINE
  8
0
  6
CONTINUOUS
 62
     7
 10
172.9249
 20
-610.10178
 11
176.07707
 21
-610.10178
  0
ARC
  8
0
  6
CONTINUOUS
 62
     7
 10
176.07707
 20
-608.30178
 40
2.4000001
 50
36.008327
 51
143.99168
  0
ARC
  8
0
  6
CONTINUOUS
 62
     7
 10
176.07707
 20
-608.30178
 40
3.5999999
 50
36.008327
 51
143.99168
  0
ARC
  8
0
  6
CONTINUOUS
 62
     7
 10
176.07707
 20
-613.10178
 40
2.4000001
 50
216.00833
 51
323.99168
  0
ARC
  8
0
  6
CONTINUOUS
 62
     7
 10
176.07707
 20
-613.10178
 40
3.5999999
 50
216.00833
 51
323.99168
  0
ARC
  8
0
  6
CONTINUOUS
 62
     7
 10
179.37938
 20
-610.70178
 40
7.6823077
 50
143.99168
 51
175.52056
  0
ARC
  8
0
  6
CONTINUOUS
 62
     7
 10
179.37938
 20
-610.70178
 40
6.4823079
 50
143.99168
 51
174.68912
  0
ARC
  8
0
  6
CONTINUOUS
 62
     7
 10
172.77476
 20
-610.70178
 40
6.4823079
 50
323.99167
 51
36.008327
  0
ARC
  8
0
  6
CONTINUOUS
 62
     7
 10
172.77476
 20
-610.70178
 40
7.6823077
 50
323.99167
 51
355.52055
  0
ARC
  8
0
  6
CONTINUOUS
 62
     7
 10
170.52707
 20
-610.70178
 40
0.75
 50
126.8699
 51
233.1301
  0
ARC
  8
0
  6
CONTINUOUS
 62
     7
 10
175.62707
 20
-610.70178
 40
0.75
 50
306.86991
 51
53.130105
  0
ARC
  8
0
  6
CONTINUOUS
 62
     7
 10
181.62707
 20
-610.70178
 40
0.75
 50
306.86991
 51
53.130105
  0
ARC
  8
0
  6
CONTINUOUS
 62
     7
 10
179.37938
 20
-610.70178
 40
6.4823079
 50
185.31088
 51
216.00833
  0
ARC
  8
0
  6
CONTINUOUS
 62
     7
 10
179.37938
 20
-610.70178
 40
7.6823077
 50
184.47945
 51
216.00833
  0
ARC
  8
0
  6
CONTINUOUS
 62
     7
 10
172.77476
 20
-610.70178
 40
7.6823077
 50
4.4794498
 51
36.008327
  0
LINE
  8
0
  6
CONTINUOUS
 62
     7
 10
61.163185
 20
-607.26053
 11
62.806652
 21
-607.26053
  0
LINE
  8
0
  6
CONTINUOUS
 62
     7
 10
61.163185
 20
-608.46053
 11
62.806652
 21
-608.46053
  0
LINE
  8
0
  6
CONTINUOUS
 62
     7
 10
71.519719
 20
-608.46053
 11
73.163185
 21
-608.46053
  0
LINE
  8
0
  6
CONTINUOUS
 62
     7
 10
71.519719
 20
-607.26053
 11
73.163185
 21
-607.26053
  0
LINE
  8
0
  6
CONTINUOUS
 62
     7
 10
64.011013
 20
-608.46053
 11
67.163185
 21
-608.46053
  0
LINE
  8
0
  6
CONTINUOUS
 62
     7
 10
64.011013
 20
-607.26053
 11
67.163185
 21
-607.26053
  0
ARC
  8
0
  6
CONTINUOUS
 62
     7
 10
67.163185
 20
-605.46053
 40
2.4000001
 50
36.008327
 51
143.99168
  0
ARC
  8
0
  6
CONTINUOUS
 62
     7
 10
67.163185
 20
-605.46053
 40
3.5999999
 50
36.008327
 51
143.99168
  0
ARC
  8
0
  6
CONTINUOUS
 62
     7
 10
67.163185
 20
-610.26053
 40
2.4000001
 50
216.00833
 51
323.99168
  0
ARC
  8
0
  6
CONTINUOUS
 62
     7
 10
67.163185
 20
-610.26053
 40
3.5999999
 50
216.00833
 51
323.99168
  0
ARC
  8
0
  6
CONTINUOUS
 62
     7
 10
70.465493
 20
-607.86053
 40
7.6823077
 50
143.99168
 51
175.52056
  0
ARC
  8
0
  6
CONTINUOUS
 62
     7
 10
70.465493
 20
-607.86053
 40
6.4823079
 50
143.99168
 51
174.68912
  0
ARC
  8
0
  6
CONTINUOUS
 62
     7
 10
63.860878
 20
-607.86053
 40
6.4823079
 50
323.99167
 51
36.008327
  0
ARC
  8
0
  6
CONTINUOUS
 62
     7
 10
63.860878
 20
-607.86053
 40
7.6823077
 50
323.99167
 51
355.52055
  0
ARC
  8
0
  6
CONTINUOUS
 62
     7
 10
61.613185
 20
-607.86053
 40
0.75
 50
126.8699
 51
233.1301
  0
ARC
  8
0
  6
CONTINUOUS
 62
     7
 10
66.713185
 20
-607.86053
 40
0.75
 50
306.86991
 51
53.130105
  0
ARC
  8
0
  6
CONTINUOUS
 62
     7
 10
72.713185
 20
-607.86053
 40
0.75
 50
306.86991
 51
53.130105
  0
ARC
  8
0
  6
CONTINUOUS
 62
     7
 10
70.465493
 20
-607.86053
 40
6.4823079
 50
185.31088
 51
216.00833
  0
ARC
  8
0
  6
CONTINUOUS
 62
     7
 10
70.465493
 20
-607.86053
 40
7.6823077
 50
184.47945
 51
216.00833
  0
ARC
  8
0
  6
CONTINUOUS
 62
     7
 10
63.860878
 20
-607.86053
 40
7.6823077
 50
4.4794498
 51
36.008327
  0
LINE
  8
0
  6
CONTINUOUS
 62
     7
 10
-56.27441
 20
-611.52238
 11
-54.630944
 21
-611.52238
  0
LINE
  8
0
  6
CONTINUOUS
 62
     7
 10
-56.27441
 20
-612.72238
 11
-54.630944
 21
-612.72238
  0
LINE
  8
0
  6
CONTINUOUS
 62
     7
 10
-45.917877
 20
-612.72238
 11
-44.27441
 21
-612.72238
  0
LINE
  8
0
  6
CONTINUOUS
 62
     7
 10
-45.917877
 20
-611.52238
 11
-44.27441
 21
-611.52238
  0
LINE
  8
0
  6
CONTINUOUS
 62
     7
 10
-53.426583
 20
-612.72238
 11
-50.27441
 21
-612.72238
  0
LINE
  8
0
  6
CONTINUOUS
 62
     7
 10
-53.426583
 20
-611.52238
 11
-50.27441
 21
-611.52238
  0
ARC
  8
0
  6
CONTINUOUS
 62
     7
 10
-50.27441
 20
-609.72238
 40
2.4000001
 50
36.008327
 51
143.99168
  0
ARC
  8
0
  6
CONTINUOUS
 62
     7
 10
-50.27441
 20
-609.72238
 40
3.5999999
 50
36.008327
 51
143.99168
  0
ARC
  8
0
  6
CONTINUOUS
 62
     7
 10
-50.27441
 20
-614.52238
 40
2.4000001
 50
216.00833
 51
323.99168
  0
ARC
  8
0
  6
CONTINUOUS
 62
     7
 10
-50.27441
 20
-614.52238
 40
3.5999999
 50
216.00833
 51
323.99168
  0
ARC
  8
0
  6
CONTINUOUS
 62
     7
 10
-46.972103
 20
-612.12238
 40
7.6823077
 50
143.99168
 51
175.52056
  0
ARC
  8
0
  6
CONTINUOUS
 62
     7
 10
-46.972103
 20
-612.12238
 40
6.4823079
 50
143.99168
 51
174.68912
  0
ARC
  8
0
  6
CONTINUOUS
 62
     7
 10
-53.576718
 20
-612.12238
 40
6.4823079
 50
323.99167
 51
36.008327
  0
ARC
  8
0
  6
CONTINUOUS
 62
     7
 10
-53.576718
 20
-612.12238
 40
7.6823077
 50
323.99167
 51
355.52055
  0
ARC
  8
0
  6
CONTINUOUS
 62
     7
 10
-55.82441
 20
-612.12238
 40
0.75
 50
126.8699
 51
233.1301
  0
ARC
  8
0
  6
CONTINUOUS
 62
     7
 10
-50.72441
 20
-612.12238
 40
0.75
 50
306.86991
 51
53.130105
  0
ARC
  8
0
  6
CONTINUOUS
 62
     7
 10
-44.72441
 20
-612.12238
 40
0.75
 50
306.86991
 51
53.130105
  0
ARC
  8
0
  6
CONTINUOUS
 62
     7
 10
-46.972103
 20
-612.12238
 40
6.4823079
 50
185.31088
 51
216.00833
  0
ARC
  8
0
  6
CONTINUOUS
 62
     7
 10
-46.972103
 20
-612.12238
 40
7.6823077
 50
184.47945
 51
216.00833
  0
ARC
  8
0
  6
CONTINUOUS
 62
     7
 10
-53.576718
 20
-612.12238
 40
7.6823077
 50
4.4794498
 51
36.008327
  0
LINE
  8
0
  6
CONTINUOUS
 62
     7
 10
-146.95708
 20
-610.57529
 11
-145.31361
 21
-610.57529
  0
LINE
  8
0
  6
CONTINUOUS
 62
     7
 10
-146.95708
 20
-611.77529
 11
-145.31361
 21
-611.77529
  0
LINE
  8
0
  6
CONTINUOUS
 62
     7
 10
-136.60054
 20
-611.77529
 11
-134.95708
 21
-611.77529
  0
LINE
  8
0
  6
CONTINUOUS
 62
     7
 10
-136.60054
 20
-610.57529
 11
-134.95708
 21
-610.57529
  0
LINE
  8
0
  6
CONTINUOUS
 62
     7
 10
-144.10925
 20
-611.77529
 11
-140.95708
 21
-611.77529
  0
LINE
  8
0
  6
CONTINUOUS
 62
     7
 10
-144.10925
 20
-610.57529
 11
-140.95708
 21
-610.57529
  0
ARC
  8
0
  6
CONTINUOUS
 62
     7
 10
-140.95708
 20
-608.77529
 40
2.4000001
 50
36.008327
 51
143.99168
  0
ARC
  8
0
  6
CONTINUOUS
 62
     7
 10
-140.95708
 20
-608.77529
 40
3.5999999
 50
36.008327
 51
143.99168
  0
ARC
  8
0
  6
CONTINUOUS
 62
     7
 10
-140.95708
 20
-613.57529
 40
2.4000001
 50
216.00833
 51
323.99168
  0
ARC
  8
0
  6
CONTINUOUS
 62
     7
 10
-140.95708
 20
-613.57529
 40
3.5999999
 50
216.00833
 51
323.99168
  0
ARC
  8
0
  6
CONTINUOUS
 62
     7
 10
-137.65477
 20
-611.17529
 40
7.6823077
 50
143.99168
 51
175.52056
  0
ARC
  8
0
  6
CONTINUOUS
 62
     7
 10
-137.65477
 20
-611.17529
 40
6.4823079
 50
143.99168
 51
174.68912
  0
ARC
  8
0
  6
CONTINUOUS
 62
     7
 10
-144.25938
 20
-611.17529
 40
6.4823079
 50
323.99167
 51
36.008327
  0
ARC
  8
0
  6
CONTINUOUS
 62
     7
 10
-144.25938
 20
-611.17529
 40
7.6823077
 50
323.99167
 51
355.52055
  0
ARC
  8
0
  6
CONTINUOUS
 62
     7
 10
-146.50708
 20
-611.17529
 40
0.75
 50
126.8699
 51
233.1301
  0
ARC
  8
0
  6
CONTINUOUS
 62
     7
 10
-141.40708
 20
-611.17529
 40
0.75
 50
306.86991
 51
53.130105
  0
ARC
  8
0
  6
CONTINUOUS
 62
     7
 10
-135.40708
 20
-611.17529
 40
0.75
 50
306.86991
 51
53.130105
  0
ARC
  8
0
  6
CONTINUOUS
 62
     7
 10
-137.65477
 20
-611.17529
 40
6.4823079
 50
185.31088
 51
216.00833
  0
ARC
  8
0
  6
CONTINUOUS
 62
     7
 10
-137.65477
 20
-611.17529
 40
7.6823077
 50
184.47945
 51
216.00833
  0
ARC
  8
0
  6
CONTINUOUS
 62
     7
 10
-144.25938
 20
-611.17529
 40
7.6823077
 50
4.4794498
 51
36.008327
  0
LINE
  8
1
  6
CONTINUOUS
 62
     7
 10
-429
 20
-2112.5
 11
410
 21
-2112.5
  0
LINE
  8
1
  6
CONTINUOUS
 62
     7
 10
-429
 20
-1517.5
 11
-429
 21
-2112.5
  0
LINE
  8
1
  6
CONTINUOUS
 62
     7
 10
-429
 20
-1517.5
 11
410
 21
-1517.5
  0
LINE
  8
1
  6
CONTINUOUS
 62
     7
 10
420
 20
-1517.5
 11
420
 21
-2112.5
  0
LINE
  8
1
  6
CONTINUOUS
 62
     7
 10
420
 20
-1517.5
 11
1259
 21
-1517.5
  0
LINE
  8
1
  6
CONTINUOUS
 62
     7
 10
420
 20
-2112.5
 11
1259
 21
-2112.5
  0
LINE
  8
1
  6
CONTINUOUS
 62
     7
 10
1259
 20
-1517.5
 11
1259
 21
-2112.5
  0
LINE
  8
1
  6
CONTINUOUS
 62
     7
 10
410
 20
-1517.5
 11
410
 21
-2112.5
  0
LINE
  8
1
  6
CONTINUOUS
 62
     7
 10
-429
 20
297.5
 11
-429
 21
-297.5
  0
LINE
  8
1
  6
CONTINUOUS
 62
     7
 10
-429
 20
297.5
 11
410
 21
297.5
  0
LINE
  8
1
  6
CONTINUOUS
 62
     7
 10
-429
 20
-297.5
 11
410
 21
-297.5
  0
LINE
  8
1
  6
CONTINUOUS
 62
     7
 10
410
 20
297.5
 11
410
 21
-297.5
  0
LINE
  8
1
  6
CONTINUOUS
 62
     7
 10
420
 20
297.5
 11
420
 21
-297.5
  0
LINE
  8
1
  6
CONTINUOUS
 62
     7
 10
420
 20
-297.5
 11
1259
 21
-297.5
  0
LINE
  8
1
  6
CONTINUOUS
 62
     7
 10
420
 20
297.5
 11
1259
 21
297.5
  0
LINE
  8
1
  6
CONTINUOUS
 62
     7
 10
1259
 20
297.5
 11
1259
 21
-297.5
  0
LINE
  8
1
  6
CONTINUOUS
 62
     7
 10
-429
 20
-307.5
 11
-429
 21
-902.5
  0
LINE
  8
1
  6
CONTINUOUS
 62
     7
 10
-429
 20
-902.5
 11
410
 21
-902.5
  0
LINE
  8
1
  6
CONTINUOUS
 62
     7
 10
410
 20
-307.5
 11
410
 21
-902.5
  0
LINE
  8
1
  6
CONTINUOUS
 62
     7
 10
420
 20
-307.5
 11
420
 21
-902.5
  0
LINE
  8
1
  6
CONTINUOUS
 62
     7
 10
420
 20
-902.5
 11
1259
 21
-902.5
  0
LINE
  8
1
  6
CONTINUOUS
 62
     7
 10
420
 20
-307.5
 11
1259
 21
-307.5
  0
LINE
  8
1
  6
CONTINUOUS
 62
     7
 10
1259
 20
-307.5
 11
1259
 21
-902.5
  0
LINE
  8
1
  6
CONTINUOUS
 62
     7
 10
-429
 20
-307.5
 11
410
 21
-307.5
  0
LINE
  8
1
  6
CONTINUOUS
 62
     7
 10
-429
 20
-1507.5
 11
410
 21
-1507.5
  0
LINE
  8
1
  6
CONTINUOUS
 62
     7
 10
410
 20
-912.5
 11
410
 21
-1507.5
  0
LINE
  8
1
  6
CONTINUOUS
 62
     7
 10
420
 20
-912.5
 11
420
 21
-1507.5
  0
LINE
  8
1
  6
CONTINUOUS
 62
     7
 10
420
 20
-1507.5
 11
1259
 21
-1507.5
  0
LINE
  8
1
  6
CONTINUOUS
 62
     7
 10
1259
 20
-912.5
 11
1259
 21
-1507.5
  0
LINE
  8
1
  6
CONTINUOUS
 62
     7
 10
420
 20
-912.5
 11
1259
 21
-912.5
  0
LINE
  8
1
  6
CONTINUOUS
 62
     7
 10
-429
 20
-912.5
 11
410
 21
-912.5
  0
LINE
  8
1
  6
CONTINUOUS
 62
     7
 10
-429
 20
-912.5
 11
-429
 21
-1507.5
  0
ENDSEC
  0
EOF
