  0
SECTION
  2
HEADER
  9
$EXTMAX
 10
1264
 20
302.5
  9
$EXTMIN
 10
-434
 20
-907.5
  0
ENDSEC
  0
SECTION
  2
TABLES
  0
TABLE
  2
LTYPE
 70
    22
  0
LTYPE
  2
CONTINUOUS
 70
    64
  3
Solid line
 72
    65
 73
     0
 40
0.000000
  0
LTYPE
  2
DASHED
 70
    64
  3
__ __ __ __ __ __ __ __ __ __ __ __ __ __ __
 72
    65
 73
     2
 40
3.500000
 49
2.000000
 49
-1.500000
  0
LTYPE
  2
CENTER
 70
    64
  3
____ _ ____ _ ____ _ ____ _ ____ _ ____ _ ____
 72
    65
 73
     4
 40
17.500000
 49
13.000000
 49
-1.500000
 49
1.500000
 49
-1.500000
  0
LTYPE
  2
PHANTOM
 70
    64
  3
_____ _ _ _____ _ _ _____ _ _ _____ _ _ ____  
 72
    65
 73
     6
 40
15.500000
 49
8.000000
 49
-1.500000
 49
1.500000
 49
-1.500000
 49
1.500000
 49
-1.500000
  0
LTYPE
  2
DOT
 70
    64
  3
. . . . . . . . . . . . . . . . . . . . . . . .
 72
    65
 73
     2
 40
0.25
 49
0.0
 49
-0.25
  0
ENDTAB
  0
TABLE
  2
LAYER
 70
     2
  0
LAYER
  2
0
 70
     0
 62
     7
  6
CONTINUOUS
  0
LAYER
  2
1
 70
     0
 62
     7
  6
CONTINUOUS
  0
ENDTAB
  0
TABLE
  2
STYLE
 70
     1
  0
STYLE
  2
STANDARD
 70
     0
 40
0.000000
 41
1.000000
 50
0.000000
 71
     0
 42
0.200000
  3
txt
  4
BIGFONT
  0
ENDTAB
  0
TABLE
  2
VIEW
 70
     0
  0
ENDTAB
  0
ENDSEC
  0
SECTION
  2
BLOCKS
  0
ENDSEC
  0
SECTION
  2
ENTITIES
  0
POINT
  8
0
  6
CONTINUOUS
 62
     7
 10
-293.46481
 20
-588.62231
  0
POINT
  8
0
  6
CONTINUOUS
 62
     7
 10
-148.07378
 20
-588.62231
  0
POINT
  8
0
  6
CONTINUOUS
 62
     7
 10
-25.158401
 20
-588.62231
  0
POINT
  8
0
  6
CONTINUOUS
 62
     7
 10
108.37446
 20
-588.62231
  0
POINT
  8
0
  6
CONTINUOUS
 62
     7
 10
241.26819
 20
-588.62231
  0
POINT
  8
0
  6
CONTINUOUS
 62
     7
 10
754.922
 20
-588.62231
  0
POINT
  8
0
  6
CONTINUOUS
 62
     7
 10
624.46869
 20
-588.62231
  0
POINT
  8
0
  6
CONTINUOUS
 62
     7
 10
899.99689
 20
-588.62231
  0
POINT
  8
0
  6
CONTINUOUS
 62
     7
 10
1033.7935
 20
-588.62231
  0
POINT
  8
0
  6
CONTINUOUS
 62
     7
 10
624.46869
 20
10.33951
  0
POINT
  8
0
  6
CONTINUOUS
 62
     7
 10
754.922
 20
10.33951
  0
POINT
  8
0
  6
CONTINUOUS
 62
     7
 10
899.99689
 20
10.33951
  0
POINT
  8
0
  6
CONTINUOUS
 62
     7
 10
1033.7935
 20
10.33951
  0
POINT
  8
0
  6
CONTINUOUS
 62
     7
 10
-293.46481
 20
20.256485
  0
POINT
  8
0
  6
CONTINUOUS
 62
     7
 10
-148.07378
 20
20.256485
  0
POINT
  8
0
  6
CONTINUOUS
 62
     7
 10
-25.158401
 20
20.256485
  0
POINT
  8
0
  6
CONTINUOUS
 62
     7
 10
108.37446
 20
20.256485
  0
POINT
  8
0
  6
CONTINUOUS
 62
     7
 10
241.26819
 20
20.256485
  0
LINE
  8
0
  6
CONTINUOUS
 62
     7
 10
-318.46481
 20
63.406479
 11
-318.46481
 21
20.256485
  0
LINE
  8
0
  6
CENTER
 62
     7
 10
-327.3031
 20
20.256485
 11
-258.49789
 21
20.256485
  0
LINE
  8
0
  6
CONTINUOUS
 62
     7
 10
-268.46481
 20
53.756485
 11
-268.46481
 21
20.256485
  0
LINE
  8
0
  6
CENTER
 62
     7
 10
-293.46481
 20
83.423035
 11
-293.46481
 21
-40.742676
  0
LINE
  8
0
  6
CONTINUOUS
 62
     7
 10
-274.46481
 20
64.42012
 11
-274.46481
 21
41.256485
  0
LINE
  8
0
  6
CONTINUOUS
 62
     7
 10
-312.46481
 20
65.899673
 11
-312.46481
 21
41.256485
  0
LINE
  8
0
  6
CONTINUOUS
 62
     7
 10
-311.50357
 20
70.906479
 11
-275.88397
 21
70.906479
  0
LINE
  8
0
  6
CONTINUOUS
 62
     7
 10
-318.46484
 20
63.406502
 11
-313.06534
 21
70.155891
  0
LINE
  8
0
  6
CONTINUOUS
 62
     7
 10
-273.99622
 20
69.566933
 11
-268.46484
 21
53.75647
  0
LINE
  8
0
  6
CONTINUOUS
 62
     7
 10
-318.46481
 20
41.256485
 11
-268.46481
 21
41.256485
  0
LINE
  8
0
  6
CONTINUOUS
 62
     7
 10
-312.46481
 20
33.756485
 11
-274.46481
 21
33.756485
  0
LINE
  8
0
  6
CONTINUOUS
 62
     7
 10
-312.46487
 20
33.756477
 11
-313.96487
 21
20.256485
  0
LINE
  8
0
  6
CONTINUOUS
 62
     7
 10
-274.46487
 20
33.756477
 11
-272.96484
 21
20.256472
  0
LINE
  8
0
  6
CONTINUOUS
 62
     7
 10
-318.46481
 20
20.256485
 11
-268.46481
 21
20.256485
  0
LINE
  8
0
  6
CONTINUOUS
 62
     7
 10
-318.46481
 20
-22.893524
 11
-318.46481
 21
20.256485
  0
LINE
  8
0
  6
CONTINUOUS
 62
     7
 10
-268.46481
 20
-13.243523
 11
-268.46481
 21
20.256485
  0
LINE
  8
0
  6
CONTINUOUS
 62
     7
 10
-274.46481
 20
-23.907158
 11
-274.46481
 21
-0.74352258
  0
LINE
  8
0
  6
CONTINUOUS
 62
     7
 10
-312.46481
 20
-25.386703
 11
-312.46481
 21
-0.74352258
  0
LINE
  8
0
  6
CONTINUOUS
 62
     7
 10
-311.50357
 20
-30.393524
 11
-275.88397
 21
-30.393524
  0
LINE
  8
0
  6
CONTINUOUS
 62
     7
 10
-318.46481
 20
-22.893532
 11
-313.06531
 21
-29.64292
  0
LINE
  8
0
  6
CONTINUOUS
 62
     7
 10
-273.99619
 20
-29.053982
 11
-268.46481
 21
-13.24352
  0
LINE
  8
0
  6
CONTINUOUS
 62
     7
 10
-318.46481
 20
-0.74352258
 11
-268.46481
 21
-0.74352258
  0
LINE
  8
0
  6
CONTINUOUS
 62
     7
 10
-312.46481
 20
6.7564774
 11
-274.46481
 21
6.7564774
  0
LINE
  8
0
  6
CONTINUOUS
 62
     7
 10
-312.46487
 20
6.7564816
 11
-313.96487
 21
20.256474
  0
LINE
  8
0
  6
CONTINUOUS
 62
     7
 10
-274.46487
 20
6.7564793
 11
-272.96484
 21
20.256487
  0
LINE
  8
0
  6
CONTINUOUS
 62
     7
 10
-173.07378
 20
68.256485
 11
-173.07378
 21
20.256485
  0
LINE
  8
0
  6
CENTER
 62
     7
 10
-197.42455
 20
20.256485
 11
-110.86095
 21
20.256485
  0
LINE
  8
0
  6
CONTINUOUS
 62
     7
 10
-123.07377
 20
53.756485
 11
-123.07377
 21
20.256485
  0
LINE
  8
0
  6
CONTINUOUS
 62
     7
 10
-165.91313
 20
78.756485
 11
-137.28802
 21
78.756485
  0
LINE
  8
0
  6
CENTER
 62
     7
 10
-148.07378
 20
92.263
 11
-148.07378
 21
-55.435001
  0
LINE
  8
0
  6
CONTINUOUS
 62
     7
 10
-167.07378
 20
71.634171
 11
-167.07378
 21
47.256485
  0
LINE
  8
0
  6
CONTINUOUS
 62
     7
 10
-136.07378
 20
72.005768
 11
-136.07378
 21
58.54071
  0
LINE
  8
0
  6
CONTINUOUS
 62
     7
 10
-167.64961
 20
77.748749
 11
-173.07378
 21
68.256477
  0
LINE
  8
0
  6
CONTINUOUS
 62
     7
 10
-135.51358
 20
77.679184
 11
-123.07377
 21
53.756481
  0
LINE
  8
0
  6
CONTINUOUS
 62
     7
 10
-173.07378
 20
47.256485
 11
-123.07377
 21
47.256485
  0
LINE
  8
0
  6
CONTINUOUS
 62
     7
 10
-167.07379
 20
39.756485
 11
-129.07379
 21
39.756485
  0
LINE
  8
0
  6
CONTINUOUS
 62
     7
 10
-169.07379
 20
20.256479
 11
-167.07379
 21
39.756477
  0
LINE
  8
0
  6
CONTINUOUS
 62
     7
 10
-127.07378
 20
20.256481
 11
-129.07378
 21
39.756481
  0
LINE
  8
0
  6
CONTINUOUS
 62
     7
 10
-173.07378
 20
20.256485
 11
-123.07377
 21
20.256485
  0
LINE
  8
0
  6
CONTINUOUS
 62
     7
 10
-173.07378
 20
-27.743523
 11
-173.07378
 21
20.256485
  0
LINE
  8
0
  6
CONTINUOUS
 62
     7
 10
-123.07377
 20
-13.243523
 11
-123.07377
 21
20.256485
  0
LINE
  8
0
  6
CONTINUOUS
 62
     7
 10
-165.91313
 20
-38.243523
 11
-137.28802
 21
-38.243523
  0
LINE
  8
0
  6
CONTINUOUS
 62
     7
 10
-167.07378
 20
-31.121208
 11
-167.07378
 21
-6.7435226
  0
LINE
  8
0
  6
CONTINUOUS
 62
     7
 10
-136.07378
 20
-31.492805
 11
-136.07378
 21
-6.7435226
  0
LINE
  8
0
  6
CONTINUOUS
 62
     7
 10
-167.64963
 20
-37.23579
 11
-173.07378
 21
-27.743515
  0
LINE
  8
0
  6
CONTINUOUS
 62
     7
 10
-135.5136
 20
-37.166222
 11
-123.07378
 21
-13.243515
  0
LINE
  8
0
  6
CONTINUOUS
 62
     7
 10
-173.07378
 20
-6.7435226
 11
-123.07377
 21
-6.7435226
  0
LINE
  8
0
  6
CONTINUOUS
 62
     7
 10
-167.07379
 20
0.75647742
 11
-129.07379
 21
0.75647742
  0
LINE
  8
0
  6
CONTINUOUS
 62
     7
 10
-169.07378
 20
20.256487
 11
-167.07378
 21
0.7564882
  0
LINE
  8
0
  6
CONTINUOUS
 62
     7
 10
-127.07378
 20
20.256483
 11
-129.07378
 21
0.75648522
  0
LINE
  8
0
  6
CONTINUOUS
 62
     7
 10
-50.158401
 20
68.256485
 11
-50.158401
 21
20.256485
  0
LINE
  8
0
  6
CONTINUOUS
 62
     7
 10
-0.15840226
 20
61.756485
 11
-0.15840226
 21
20.256485
  0
LINE
  8
0
  6
CENTER
 62
     7
 10
-25.158401
 20
91.287788
 11
-25.158401
 21
-49.473083
  0
LINE
  8
0
  6
CONTINUOUS
 62
     7
 10
-50.158401
 20
20.256485
 11
-0.15840226
 21
20.256485
  0
LINE
  8
0
  6
CONTINUOUS
 62
     7
 10
-44.158401
 20
73.243103
 11
-44.158401
 21
41.256485
  0
LINE
  8
0
  6
CONTINUOUS
 62
     7
 10
-13.158402
 20
72.938599
 11
-13.158402
 21
52.54071
  0
LINE
  8
0
  6
CONTINUOUS
 62
     7
 10
-43.056061
 20
77.756485
 11
-14.110341
 21
77.756485
  0
LINE
  8
0
  6
CONTINUOUS
 62
     7
 10
-44.747028
 20
76.824463
 11
-50.158394
 21
68.25647
  0
LINE
  8
0
  6
CONTINUOUS
 62
     7
 10
-12.558116
 20
77.017662
 11
-0.15840325
 21
61.756481
  0
LINE
  8
0
  6
CONTINUOUS
 62
     7
 10
-50.158401
 20
41.256485
 11
-0.15840226
 21
41.256485
  0
LINE
  8
0
  6
CONTINUOUS
 62
     7
 10
-44.158401
 20
33.756485
 11
-6.1584024
 21
33.756485
  0
LINE
  8
0
  6
CONTINUOUS
 62
     7
 10
-44.158401
 20
33.756477
 11
-45.158401
 21
20.256491
  0
LINE
  8
0
  6
CONTINUOUS
 62
     7
 10
-6.1583982
 20
33.75647
 11
-5.1583982
 21
20.25647
  0
LINE
  8
0
  6
CONTINUOUS
 62
     7
 10
-50.158401
 20
-27.743523
 11
-50.158401
 21
20.256485
  0
LINE
  8
0
  6
CONTINUOUS
 62
     7
 10
-0.15840226
 20
-21.243523
 11
-0.15840226
 21
20.256485
  0
LINE
  8
0
  6
CONTINUOUS
 62
     7
 10
-44.158401
 20
-32.730141
 11
-44.158401
 21
-0.74352258
  0
LINE
  8
0
  6
CONTINUOUS
 62
     7
 10
-13.158402
 20
-32.425629
 11
-13.158402
 21
-0.74352258
  0
LINE
  8
0
  6
CONTINUOUS
 62
     7
 10
-43.056061
 20
-37.243523
 11
-14.110341
 21
-37.243523
  0
LINE
  8
0
  6
CONTINUOUS
 62
     7
 10
-44.74704
 20
-36.311508
 11
-50.158398
 21
-27.743528
  0
LINE
  8
0
  6
CONTINUOUS
 62
     7
 10
-12.558105
 20
-36.504707
 11
-0.15838945
 21
-21.243519
  0
LINE
  8
0
  6
CONTINUOUS
 62
     7
 10
-50.158401
 20
-0.74352258
 11
-0.15840226
 21
-0.74352258
  0
LINE
  8
0
  6
CONTINUOUS
 62
     7
 10
-44.158401
 20
6.7564774
 11
-6.1584024
 21
6.7564774
  0
LINE
  8
0
  6
CONTINUOUS
 62
     7
 10
-44.158401
 20
6.7564898
 11
-45.158398
 21
20.256468
  0
LINE
  8
0
  6
CONTINUOUS
 62
     7
 10
-6.1584001
 20
6.7564869
 11
-5.1584001
 21
20.256487
  0
LINE
  8
0
  6
CENTER
 62
     7
 10
108.37446
 20
112.94331
 11
108.37446
 21
-72.402458
  0
LINE
  8
0
  6
CONTINUOUS
 62
     7
 10
81.874458
 20
80.756485
 11
81.874458
 21
20.256485
  0
LINE
  8
0
  6
CONTINUOUS
 62
     7
 10
133.37445
 20
53.756485
 11
133.37445
 21
20.256485
  0
LINE
  8
0
  6
CONTINUOUS
 62
     7
 10
88.374458
 20
86.942429
 11
88.374458
 21
49.256485
  0
LINE
  8
0
  6
CONTINUOUS
 62
     7
 10
122.37446
 20
84.634155
 11
122.37446
 21
63.945831
  0
LINE
  8
0
  6
CONTINUOUS
 62
     7
 10
89.6875
 20
95.756485
 11
120.83081
 21
95.756485
  0
LINE
  8
0
  6
CONTINUOUS
 62
     7
 10
81.874458
 20
80.756485
 11
87.852386
 21
94.551697
  0
LINE
  8
0
  6
CONTINUOUS
 62
     7
 10
122.76556
 20
94.263199
 11
133.37447
 21
53.756481
  0
LINE
  8
0
  6
CONTINUOUS
 62
     7
 10
81.874458
 20
49.256485
 11
133.37445
 21
49.256485
  0
LINE
  8
0
  6
CONTINUOUS
 62
     7
 10
88.374458
 20
39.256485
 11
128.37447
 21
39.256485
  0
LINE
  8
0
  6
CONTINUOUS
 62
     7
 10
88.374458
 20
39.256481
 11
87.874458
 21
20.256483
  0
LINE
  8
0
  6
CONTINUOUS
 62
     7
 10
128.37447
 20
39.256493
 11
128.87447
 21
20.256487
  0
LINE
  8
0
  6
CONTINUOUS
 62
     7
 10
81.874458
 20
20.256485
 11
133.37445
 21
20.256485
  0
LINE
  8
0
  6
CONTINUOUS
 62
     7
 10
81.874458
 20
-40.243523
 11
81.874458
 21
20.256485
  0
LINE
  8
0
  6
CONTINUOUS
 62
     7
 10
133.37445
 20
-13.243523
 11
133.37445
 21
20.256485
  0
LINE
  8
0
  6
CONTINUOUS
 62
     7
 10
88.374458
 20
-46.42947
 11
88.374458
 21
-8.7435226
  0
LINE
  8
0
  6
CONTINUOUS
 62
     7
 10
122.37446
 20
-44.121185
 11
122.37446
 21
-8.7435226
  0
LINE
  8
0
  6
CONTINUOUS
 62
     7
 10
89.6875
 20
-55.243519
 11
120.83081
 21
-55.243519
  0
LINE
  8
0
  6
CONTINUOUS
 62
     7
 10
81.874458
 20
-40.243519
 11
87.852386
 21
-54.038731
  0
LINE
  8
0
  6
CONTINUOUS
 62
     7
 10
122.76556
 20
-53.750237
 11
133.37445
 21
-13.243516
  0
LINE
  8
0
  6
CONTINUOUS
 62
     7
 10
81.874458
 20
-8.7435226
 11
133.37445
 21
-8.7435226
  0
LINE
  8
0
  6
CONTINUOUS
 62
     7
 10
88.374458
 20
1.2564774
 11
128.37445
 21
1.2564774
  0
LINE
  8
0
  6
CONTINUOUS
 62
     7
 10
88.374458
 20
1.2564807
 11
87.874458
 21
20.256487
  0
LINE
  8
0
  6
CONTINUOUS
 62
     7
 10
128.37447
 20
1.256477
 11
128.87447
 21
20.256475
  0
LINE
  8
0
  6
CENTER
 62
     7
 10
241.26819
 20
109.12175
 11
241.26819
 21
-69.854752
  0
LINE
  8
0
  6
CONTINUOUS
 62
     7
 10
214.76819
 20
80.756485
 11
214.76819
 21
20.256485
  0
LINE
  8
0
  6
CONTINUOUS
 62
     7
 10
266.26819
 20
63.256485
 11
266.26819
 21
20.256485
  0
LINE
  8
0
  6
CONTINUOUS
 62
     7
 10
221.26819
 20
86.935303
 11
221.26819
 21
47.256485
  0
LINE
  8
0
  6
CONTINUOUS
 62
     7
 10
255.26819
 20
88.629654
 11
255.26819
 21
61.945831
  0
LINE
  8
0
  6
CONTINUOUS
 62
     7
 10
222.52498
 20
94.256485
 11
253.85568
 21
94.256485
  0
LINE
  8
0
  6
CONTINUOUS
 62
     7
 10
214.7682
 20
80.756477
 11
220.72298
 21
93.124107
  0
LINE
  8
0
  6
CONTINUOUS
 62
     7
 10
255.74052
 20
92.925293
 11
266.26819
 21
63.256462
  0
LINE
  8
0
  6
CONTINUOUS
 62
     7
 10
214.76819
 20
47.256485
 11
266.26819
 21
47.256485
  0
LINE
  8
0
  6
CONTINUOUS
 62
     7
 10
221.26819
 20
37.256485
 11
261.26819
 21
37.256485
  0
LINE
  8
0
  6
CONTINUOUS
 62
     7
 10
597.96869
 20
10.33951
 11
649.46869
 21
10.33951
  0
LINE
  8
0
  6
CONTINUOUS
 62
     7
 10
219.76817
 20
20.256475
 11
221.26817
 21
37.256481
  0
LINE
  8
0
  6
CONTINUOUS
 62
     7
 10
261.26822
 20
37.256474
 11
262.76822
 21
20.256489
  0
LINE
  8
0
  6
CONTINUOUS
 62
     7
 10
214.76819
 20
-40.243523
 11
214.76819
 21
20.256485
  0
LINE
  8
0
  6
CONTINUOUS
 62
     7
 10
266.26819
 20
-22.743523
 11
266.26819
 21
20.256485
  0
LINE
  8
0
  6
CONTINUOUS
 62
     7
 10
221.26819
 20
-46.422337
 11
221.26819
 21
-6.7435226
  0
LINE
  8
0
  6
CONTINUOUS
 62
     7
 10
255.26819
 20
-48.116688
 11
255.26819
 21
-6.7435226
  0
LINE
  8
0
  6
CONTINUOUS
 62
     7
 10
222.52498
 20
-53.743519
 11
253.85568
 21
-53.743519
  0
LINE
  8
0
  6
CONTINUOUS
 62
     7
 10
214.7682
 20
-40.243515
 11
220.72299
 21
-52.611141
  0
LINE
  8
0
  6
CONTINUOUS
 62
     7
 10
255.74055
 20
-52.412334
 11
266.26819
 21
-22.743515
  0
LINE
  8
0
  6
CONTINUOUS
 62
     7
 10
214.76819
 20
-6.7435226
 11
266.26819
 21
-6.7435226
  0
LINE
  8
0
  6
CONTINUOUS
 62
     7
 10
221.26819
 20
3.2564774
 11
261.26819
 21
3.2564774
  0
LINE
  8
0
  6
CONTINUOUS
 62
     7
 10
219.76819
 20
20.256487
 11
221.26819
 21
3.2564805
  0
LINE
  8
0
  6
CONTINUOUS
 62
     7
 10
261.26819
 20
3.256484
 11
262.76819
 21
20.256474
  0
LINE
  8
0
  6
CENTER
 62
     7
 10
624.46869
 20
98.930916
 11
624.46869
 21
-78.771729
  0
LINE
  8
0
  6
CONTINUOUS
 62
     7
 10
597.96869
 20
70.839508
 11
597.96869
 21
10.33951
  0
LINE
  8
0
  6
CONTINUOUS
 62
     7
 10
649.46869
 20
57.839508
 11
649.46869
 21
10.33951
  0
LINE
  8
0
  6
CONTINUOUS
 62
     7
 10
605.72546
 20
84.339508
 11
634.26331
 21
84.339508
  0
LINE
  8
0
  6
CONTINUOUS
 62
     7
 10
604.46869
 20
78.419571
 11
604.46869
 21
37.339508
  0
LINE
  8
0
  6
CONTINUOUS
 62
     7
 10
635.46869
 20
79.305603
 11
635.46869
 21
52.757111
  0
LINE
  8
0
  6
CONTINUOUS
 62
     7
 10
603.9234
 20
83.207138
 11
597.96863
 21
70.839508
  0
LINE
  8
0
  6
CONTINUOUS
 62
     7
 10
636.03168
 20
83.273743
 11
649.46863
 21
57.839504
  0
LINE
  8
0
  6
CONTINUOUS
 62
     7
 10
597.96869
 20
37.339508
 11
649.46869
 21
37.339508
  0
LINE
  8
0
  6
CONTINUOUS
 62
     7
 10
604.46869
 20
27.33951
 11
644.46869
 21
27.33951
  0
LINE
  8
0
  6
CONTINUOUS
 62
     7
 10
597.96869
 20
10.33951
 11
649.46869
 21
10.33951
  0
LINE
  8
0
  6
CONTINUOUS
 62
     7
 10
604.46863
 20
27.339508
 11
603.46863
 21
10.339507
  0
LINE
  8
0
  6
CONTINUOUS
 62
     7
 10
644.46863
 20
27.3395
 11
645.46863
 21
10.339515
  0
LINE
  8
0
  6
CONTINUOUS
 62
     7
 10
597.96869
 20
-50.1605
 11
597.96869
 21
10.33951
  0
LINE
  8
0
  6
CONTINUOUS
 62
     7
 10
649.46869
 20
-37.1605
 11
649.46869
 21
10.33951
  0
LINE
  8
0
  6
CONTINUOUS
 62
     7
 10
605.72546
 20
-63.660496
 11
634.26331
 21
-63.660496
  0
LINE
  8
0
  6
CONTINUOUS
 62
     7
 10
604.46869
 20
-57.740551
 11
604.46869
 21
-16.660498
  0
LINE
  8
0
  6
CONTINUOUS
 62
     7
 10
635.46869
 20
-58.626598
 11
635.46869
 21
-23.468634
  0
LINE
  8
0
  6
CONTINUOUS
 62
     7
 10
603.92346
 20
-62.528126
 11
597.96869
 21
-50.160496
  0
LINE
  8
0
  6
CONTINUOUS
 62
     7
 10
636.03174
 20
-62.594761
 11
649.46869
 21
-37.160522
  0
LINE
  8
0
  6
CONTINUOUS
 62
     7
 10
597.96869
 20
-16.660498
 11
649.46869
 21
-16.660498
  0
LINE
  8
0
  6
CONTINUOUS
 62
     7
 10
604.46869
 20
-6.6604977
 11
644.46869
 21
-6.6604977
  0
LINE
  8
0
  6
CONTINUOUS
 62
     7
 10
604.46869
 20
-6.6604848
 11
603.46869
 21
10.339516
  0
LINE
  8
0
  6
CONTINUOUS
 62
     7
 10
644.46869
 20
-6.6604962
 11
645.46869
 21
10.339504
  0
LINE
  8
0
  6
CENTER
 62
     7
 10
711.68091
 20
10.33951
 11
795.11835
 21
10.33951
  0
LINE
  8
0
  6
CENTER
 62
     7
 10
754.922
 20
118.03873
 11
754.922
 21
-94.057976
  0
LINE
  8
0
  6
CONTINUOUS
 62
     7
 10
781.422
 20
70.8395
 11
781.422
 21
10.33951
  0
LINE
  8
0
  6
CONTINUOUS
 62
     7
 10
728.422
 20
86.8395
 11
728.422
 21
10.33951
  0
LINE
  8
0
  6
CONTINUOUS
 62
     7
 10
736.14728
 20
99.5895
 11
773.32367
 21
99.5895
  0
LINE
  8
0
  6
CONTINUOUS
 62
     7
 10
734.922
 20
93.689934
 11
734.922
 21
50.3395
  0
LINE
  8
0
  6
CONTINUOUS
 62
     7
 10
774.922
 20
91.416328
 11
774.922
 21
50.3395
  0
LINE
  8
0
  6
CONTINUOUS
 62
     7
 10
728.422
 20
86.839493
 11
734.36548
 21
98.497864
  0
LINE
  8
0
  6
CONTINUOUS
 62
     7
 10
775.27441
 20
98.03054
 11
781.42194
 21
70.8395
  0
LINE
  8
0
  6
CONTINUOUS
 62
     7
 10
728.422
 20
50.3395
 11
781.422
 21
50.3395
  0
LINE
  8
0
  6
CONTINUOUS
 62
     7
 10
732.422
 20
38.3395
 11
777.422
 21
38.3395
  0
LINE
  8
0
  6
CONTINUOUS
 62
     7
 10
728.422
 20
10.33951
 11
781.422
 21
10.33951
  0
LINE
  8
0
  6
CONTINUOUS
 62
     7
 10
731.422
 20
10.339495
 11
732.422
 21
38.339497
  0
LINE
  8
0
  6
CONTINUOUS
 62
     7
 10
778.422
 20
10.33951
 11
777.422
 21
38.339504
  0
LINE
  8
0
  6
CONTINUOUS
 62
     7
 10
781.422
 20
-50.160492
 11
781.422
 21
10.33951
  0
LINE
  8
0
  6
CONTINUOUS
 62
     7
 10
728.422
 20
-66.160492
 11
728.422
 21
10.33951
  0
LINE
  8
0
  6
CONTINUOUS
 62
     7
 10
736.14728
 20
-78.910492
 11
773.32367
 21
-78.910492
  0
LINE
  8
0
  6
CONTINUOUS
 62
     7
 10
734.922
 20
-69.246826
 11
734.922
 21
-29.66049
  0
LINE
  8
0
  6
CONTINUOUS
 62
     7
 10
774.922
 20
-70.73732
 11
774.922
 21
-29.66049
  0
LINE
  8
0
  6
CONTINUOUS
 62
     7
 10
728.42194
 20
-66.1605
 11
734.36542
 21
-77.818871
  0
LINE
  8
0
  6
CONTINUOUS
 62
     7
 10
775.27441
 20
-77.35154
 11
781.422
 21
-50.1605
  0
LINE
  8
0
  6
CONTINUOUS
 62
     7
 10
728.422
 20
-29.66049
 11
781.422
 21
-29.66049
  0
LINE
  8
0
  6
CONTINUOUS
 62
     7
 10
732.422
 20
-17.66049
 11
777.42194
 21
-17.66049
  0
LINE
  8
0
  6
CONTINUOUS
 62
     7
 10
731.422
 20
10.339499
 11
732.422
 21
-17.660501
  0
LINE
  8
0
  6
CONTINUOUS
 62
     7
 10
778.42194
 20
10.339499
 11
777.42194
 21
-17.660501
  0
LINE
  8
0
  6
CENTER
 62
     7
 10
899.99689
 20
128.86649
 11
899.99689
 21
-101.00853
  0
LINE
  8
0
  6
CONTINUOUS
 62
     7
 10
873.49689
 20
100.3395
 11
873.49689
 21
10.33951
  0
LINE
  8
0
  6
CONTINUOUS
 62
     7
 10
926.49689
 20
70.8395
 11
926.49689
 21
10.33951
  0
LINE
  8
0
  6
CONTINUOUS
 62
     7
 10
881.27338
 20
114.3395
 11
915.38654
 21
114.3395
  0
LINE
  8
0
  6
CONTINUOUS
 62
     7
 10
879.99689
 20
108.29028
 11
879.99689
 21
50.3395
  0
LINE
  8
0
  6
CONTINUOUS
 62
     7
 10
916.99689
 20
107.25585
 11
916.99689
 21
67.692039
  0
LINE
  8
0
  6
CONTINUOUS
 62
     7
 10
879.45935
 20
113.18175
 11
873.49689
 21
100.33952
  0
LINE
  8
0
  6
CONTINUOUS
 62
     7
 10
917.34045
 20
112.76623
 11
926.49689
 21
70.839493
  0
LINE
  8
0
  6
CONTINUOUS
 62
     7
 10
873.49689
 20
50.3395
 11
926.49689
 21
50.3395
  0
LINE
  8
0
  6
CONTINUOUS
 62
     7
 10
877.49689
 20
38.3395
 11
922.49689
 21
38.3395
  0
LINE
  8
0
  6
CONTINUOUS
 62
     7
 10
877.49689
 20
38.339504
 11
875.99689
 21
10.339508
  0
LINE
  8
0
  6
CONTINUOUS
 62
     7
 10
922.49689
 20
38.339508
 11
923.99689
 21
10.339505
  0
LINE
  8
0
  6
CONTINUOUS
 62
     7
 10
873.49689
 20
-79.660492
 11
873.49689
 21
10.33951
  0
LINE
  8
0
  6
CONTINUOUS
 62
     7
 10
926.49689
 20
-50.160492
 11
926.49689
 21
10.33951
  0
LINE
  8
0
  6
CONTINUOUS
 62
     7
 10
881.27338
 20
-93.660492
 11
915.38654
 21
-93.660492
  0
LINE
  8
0
  6
CONTINUOUS
 62
     7
 10
879.99689
 20
-87.611267
 11
879.99689
 21
-29.66049
  0
LINE
  8
0
  6
CONTINUOUS
 62
     7
 10
916.99689
 20
-86.576843
 11
916.99689
 21
-29.66049
  0
LINE
  8
0
  6
CONTINUOUS
 62
     7
 10
879.45935
 20
-92.502731
 11
873.49689
 21
-79.660507
  0
LINE
  8
0
  6
CONTINUOUS
 62
     7
 10
917.34045
 20
-92.087204
 11
926.49689
 21
-50.160492
  0
LINE
  8
0
  6
CONTINUOUS
 62
     7
 10
873.49689
 20
-29.66049
 11
926.49689
 21
-29.66049
  0
LINE
  8
0
  6
CONTINUOUS
 62
     7
 10
877.49689
 20
-17.66049
 11
922.49689
 21
-17.66049
  0
LINE
  8
0
  6
CONTINUOUS
 62
     7
 10
877.49689
 20
-17.660505
 11
875.99689
 21
10.339507
  0
LINE
  8
0
  6
CONTINUOUS
 62
     7
 10
922.49689
 20
-17.660503
 11
923.99689
 21
10.339495
  0
LINE
  8
0
  6
CONTINUOUS
 62
     7
 10
873.49689
 20
10.33951
 11
926.49689
 21
10.33951
  0
LINE
  8
0
  6
CENTER
 62
     7
 10
1033.7935
 20
127.24712
 11
1033.7935
 21
-107.43345
  0
LINE
  8
0
  6
CONTINUOUS
 62
     7
 10
1007.2934
 20
100.3395
 11
1007.2934
 21
10.33951
  0
LINE
  8
0
  6
CONTINUOUS
 62
     7
 10
1060.2935
 20
86.8395
 11
1060.2935
 21
10.33951
  0
LINE
  8
0
  6
CONTINUOUS
 62
     7
 10
1015.0699
 20
114.3395
 11
1052.2111
 21
114.3395
  0
LINE
  8
0
  6
CONTINUOUS
 62
     7
 10
1013.7934
 20
108.18739
 11
1013.7934
 21
50.3395
  0
LINE
  8
0
  6
CONTINUOUS
 62
     7
 10
1053.7935
 20
107.22791
 11
1053.7935
 21
50.3395
  0
LINE
  8
0
  6
CONTINUOUS
 62
     7
 10
1013.2559
 20
113.18171
 11
1007.2934
 21
100.33948
  0
LINE
  8
0
  6
CONTINUOUS
 62
     7
 10
1054.1575
 20
112.79956
 11
1060.2935
 21
86.839516
  0
LINE
  8
0
  6
CONTINUOUS
 62
     7
 10
1007.2934
 20
50.3395
 11
1060.2935
 21
50.3395
  0
LINE
  8
0
  6
CONTINUOUS
 62
     7
 10
1011.2934
 20
38.3395
 11
1056.2935
 21
38.3395
  0
LINE
  8
0
  6
CONTINUOUS
 62
     7
 10
1011.2934
 20
38.339508
 11
1009.7934
 21
10.339497
  0
LINE
  8
0
  6
CONTINUOUS
 62
     7
 10
1056.2935
 20
38.339508
 11
1057.7935
 21
10.339505
  0
LINE
  8
0
  6
CONTINUOUS
 62
     7
 10
1007.2934
 20
10.33951
 11
1060.2935
 21
10.33951
  0
LINE
  8
0
  6
CONTINUOUS
 62
     7
 10
1007.2934
 20
-79.660492
 11
1007.2934
 21
10.33951
  0
LINE
  8
0
  6
CONTINUOUS
 62
     7
 10
1060.2935
 20
-66.160492
 11
1060.2935
 21
10.33951
  0
LINE
  8
0
  6
CONTINUOUS
 62
     7
 10
1015.0699
 20
-93.660492
 11
1052.2111
 21
-93.660492
  0
LINE
  8
0
  6
CONTINUOUS
 62
     7
 10
1013.7934
 20
-87.508392
 11
1013.7934
 21
-29.66049
  0
LINE
  8
0
  6
CONTINUOUS
 62
     7
 10
1053.7935
 20
-86.548904
 11
1053.7935
 21
-29.66049
  0
LINE
  8
0
  6
CONTINUOUS
 62
     7
 10
1013.2559
 20
-92.502747
 11
1007.2934
 21
-79.660515
  0
LINE
  8
0
  6
CONTINUOUS
 62
     7
 10
1054.1573
 20
-92.120544
 11
1060.2935
 21
-66.1605
  0
LINE
  8
0
  6
CONTINUOUS
 62
     7
 10
1007.2934
 20
-29.66049
 11
1060.2935
 21
-29.66049
  0
LINE
  8
0
  6
CONTINUOUS
 62
     7
 10
1011.2934
 20
-17.66049
 11
1056.2935
 21
-17.66049
  0
LINE
  8
0
  6
CONTINUOUS
 62
     7
 10
1011.2934
 20
-17.660503
 11
1009.7934
 21
10.339507
  0
LINE
  8
0
  6
CONTINUOUS
 62
     7
 10
1056.2935
 20
-17.660501
 11
1057.7935
 21
10.339495
  0
LINE
  8
0
  6
CENTER
 62
     7
 10
855.94489
 20
10.33951
 11
942.78485
 21
10.33951
  0
LINE
  8
0
  6
CENTER
 62
     7
 10
990.33649
 20
10.33951
 11
1073.137
 21
10.33951
  0
LINE
  8
0
  6
CENTER
 62
     7
 10
-67.34639
 20
20.256485
 11
14.245768
 21
20.256485
  0
LINE
  8
0
  6
CENTER
 62
     7
 10
65.199928
 20
20.256485
 11
146.8717
 21
20.256485
  0
LINE
  8
0
  6
CENTER
 62
     7
 10
197.04382
 20
20.256485
 11
282.39206
 21
20.256485
  0
LINE
  8
0
  6
CENTER
 62
     7
 10
577.92621
 20
10.33951
 11
667.09601
 21
10.33951
  0
LINE
  8
0
  6
CONTINUOUS
 62
     7
 10
-287.02341
 20
51.706467
 11
-287.02341
 21
43.106491
  0
LINE
  8
0
  6
CONTINUOUS
 62
     7
 10
-280.61481
 20
51.706467
 11
-280.61481
 21
43.106491
  0
LINE
  8
0
  6
CONTINUOUS
 62
     7
 10
-293.46481
 20
53.556473
 11
-283.81912
 21
53.556473
  0
LINE
  8
0
  6
CONTINUOUS
 62
     7
 10
-293.46481
 20
53.556473
 11
-303.1105
 21
53.556473
  0
LINE
  8
0
  6
CONTINUOUS
 62
     7
 10
-306.31482
 20
51.706467
 11
-306.31482
 21
43.106491
  0
LINE
  8
0
  6
CONTINUOUS
 62
     7
 10
-299.90622
 20
51.706467
 11
-299.90622
 21
43.106491
  0
LINE
  8
0
  6
CONTINUOUS
 62
     7
 10
-299.81482
 20
33.756485
 11
-299.81482
 21
6.7564774
  0
LINE
  8
0
  6
CONTINUOUS
 62
     7
 10
-287.11481
 20
33.756485
 11
-287.11481
 21
6.7564774
  0
LINE
  8
0
  6
CONTINUOUS
 62
     7
 10
-299.81482
 20
60.256485
 11
-299.81482
 21
53.556473
  0
LINE
  8
0
  6
CONTINUOUS
 62
     7
 10
-293.46481
 20
60.256485
 11
-299.81482
 21
60.256485
  0
LINE
  8
0
  6
CONTINUOUS
 62
     7
 10
-297.81482
 20
62.256485
 11
-297.81482
 21
53.556473
  0
LINE
  8
0
  6
CONTINUOUS
 62
     7
 10
-299.81485
 20
60.256481
 11
-297.81485
 21
62.256481
  0
LINE
  8
0
  6
CONTINUOUS
 62
     7
 10
-293.46481
 20
62.256485
 11
-297.81482
 21
62.256485
  0
LINE
  8
0
  6
CONTINUOUS
 62
     7
 10
-289.11481
 20
62.256485
 11
-289.11481
 21
53.556473
  0
LINE
  8
0
  6
CONTINUOUS
 62
     7
 10
-287.11484
 20
60.256489
 11
-289.11484
 21
62.256493
  0
LINE
  8
0
  6
CONTINUOUS
 62
     7
 10
-293.46481
 20
62.256485
 11
-289.11481
 21
62.256485
  0
LINE
  8
0
  6
CONTINUOUS
 62
     7
 10
-293.46481
 20
60.256485
 11
-287.11481
 21
60.256485
  0
LINE
  8
0
  6
CONTINUOUS
 62
     7
 10
-287.11481
 20
60.256485
 11
-287.11481
 21
53.556473
  0
LINE
  8
0
  6
CONTINUOUS
 62
     7
 10
-141.63237
 20
57.706467
 11
-141.63237
 21
49.106491
  0
LINE
  8
0
  6
CONTINUOUS
 62
     7
 10
-135.22377
 20
57.706467
 11
-135.22377
 21
49.106491
  0
LINE
  8
0
  6
CONTINUOUS
 62
     7
 10
-148.07378
 20
59.556473
 11
-138.42807
 21
59.556473
  0
LINE
  8
0
  6
CONTINUOUS
 62
     7
 10
-148.07378
 20
59.556473
 11
-157.71948
 21
59.556473
  0
LINE
  8
0
  6
CONTINUOUS
 62
     7
 10
-160.92378
 20
57.706467
 11
-160.92378
 21
49.106491
  0
LINE
  8
0
  6
CONTINUOUS
 62
     7
 10
-154.51518
 20
57.706467
 11
-154.51518
 21
49.106491
  0
LINE
  8
0
  6
CONTINUOUS
 62
     7
 10
-154.42378
 20
39.756485
 11
-154.42378
 21
0.75647742
  0
LINE
  8
0
  6
CONTINUOUS
 62
     7
 10
-141.72377
 20
39.756485
 11
-141.72377
 21
0.75647742
  0
LINE
  8
0
  6
CONTINUOUS
 62
     7
 10
-154.42378
 20
61.256485
 11
-154.42378
 21
59.556473
  0
LINE
  8
0
  6
CONTINUOUS
 62
     7
 10
-148.07378
 20
61.256485
 11
-154.42378
 21
61.256485
  0
LINE
  8
0
  6
CONTINUOUS
 62
     7
 10
-152.42378
 20
63.256485
 11
-152.42378
 21
59.556473
  0
LINE
  8
0
  6
CONTINUOUS
 62
     7
 10
-154.42378
 20
61.256481
 11
-152.42377
 21
63.256481
  0
LINE
  8
0
  6
CONTINUOUS
 62
     7
 10
-148.07378
 20
63.256485
 11
-152.42378
 21
63.256485
  0
LINE
  8
0
  6
CONTINUOUS
 62
     7
 10
-143.72377
 20
63.256485
 11
-143.72377
 21
59.556473
  0
LINE
  8
0
  6
CONTINUOUS
 62
     7
 10
-141.72377
 20
61.256493
 11
-143.72377
 21
63.256493
  0
LINE
  8
0
  6
CONTINUOUS
 62
     7
 10
-148.07378
 20
63.256485
 11
-143.72377
 21
63.256485
  0
LINE
  8
0
  6
CONTINUOUS
 62
     7
 10
-148.07378
 20
61.256485
 11
-141.72377
 21
61.256485
  0
LINE
  8
0
  6
CONTINUOUS
 62
     7
 10
-141.72377
 20
61.256485
 11
-141.72377
 21
59.556473
  0
LINE
  8
0
  6
CONTINUOUS
 62
     7
 10
-18.716995
 20
51.706467
 11
-18.716995
 21
43.106491
  0
LINE
  8
0
  6
CONTINUOUS
 62
     7
 10
-12.308396
 20
51.706467
 11
-12.308396
 21
43.106491
  0
LINE
  8
0
  6
CONTINUOUS
 62
     7
 10
-25.158401
 20
53.556473
 11
-15.512696
 21
53.556473
  0
LINE
  8
0
  6
CONTINUOUS
 62
     7
 10
-25.158401
 20
53.556473
 11
-34.8041
 21
53.556473
  0
LINE
  8
0
  6
CONTINUOUS
 62
     7
 10
-38.0084
 20
51.706467
 11
-38.0084
 21
43.106491
  0
LINE
  8
0
  6
CONTINUOUS
 62
     7
 10
-31.5998
 20
51.706467
 11
-31.5998
 21
43.106491
  0
LINE
  8
0
  6
CONTINUOUS
 62
     7
 10
-31.5084
 20
33.756485
 11
-31.5084
 21
6.7564774
  0
LINE
  8
0
  6
CONTINUOUS
 62
     7
 10
-18.808395
 20
33.756485
 11
-18.808395
 21
6.7564774
  0
LINE
  8
0
  6
CONTINUOUS
 62
     7
 10
-31.5084
 20
60.256485
 11
-31.5084
 21
53.556473
  0
LINE
  8
0
  6
CONTINUOUS
 62
     7
 10
-25.158401
 20
60.256485
 11
-31.5084
 21
60.256485
  0
LINE
  8
0
  6
CONTINUOUS
 62
     7
 10
-29.5084
 20
62.256485
 11
-29.5084
 21
53.556473
  0
LINE
  8
0
  6
CONTINUOUS
 62
     7
 10
-31.508413
 20
60.256485
 11
-29.508411
 21
62.256485
  0
LINE
  8
0
  6
CONTINUOUS
 62
     7
 10
-25.158401
 20
62.256485
 11
-29.5084
 21
62.256485
  0
LINE
  8
0
  6
CONTINUOUS
 62
     7
 10
-20.808395
 20
62.256485
 11
-20.808395
 21
53.556473
  0
LINE
  8
0
  6
CONTINUOUS
 62
     7
 10
-18.808405
 20
60.256493
 11
-20.808407
 21
62.256496
  0
LINE
  8
0
  6
CONTINUOUS
 62
     7
 10
-25.158401
 20
62.256485
 11
-20.808395
 21
62.256485
  0
LINE
  8
0
  6
CONTINUOUS
 62
     7
 10
-25.158401
 20
60.256485
 11
-18.808395
 21
60.256485
  0
LINE
  8
0
  6
CONTINUOUS
 62
     7
 10
-18.808395
 20
60.256485
 11
-18.808395
 21
53.556473
  0
LINE
  8
0
  6
CONTINUOUS
 62
     7
 10
-154.42378
 20
38.256485
 11
-141.72377
 21
38.256485
  0
LINE
  8
0
  6
CONTINUOUS
 62
     7
 10
-152.42378
 20
39.756485
 11
-152.42378
 21
38.256485
  0
LINE
  8
0
  6
CONTINUOUS
 62
     7
 10
-143.72377
 20
39.756485
 11
-143.72377
 21
38.256485
  0
LINE
  8
0
  6
CONTINUOUS
 62
     7
 10
-154.42378
 20
34.792381
 11
-152.42377
 21
38.256489
  0
LINE
  8
0
  6
CONTINUOUS
 62
     7
 10
-143.72377
 20
38.256477
 11
-141.72377
 21
34.792374
  0
LINE
  8
0
  6
CONTINUOUS
 62
     7
 10
116.27445
 20
39.256485
 11
116.27445
 21
1.2564774
  0
LINE
  8
0
  6
CONTINUOUS
 62
     7
 10
100.47446
 20
39.256485
 11
100.47446
 21
1.2564774
  0
LINE
  8
0
  6
CONTINUOUS
 62
     7
 10
100.56866
 20
62.506485
 11
100.56866
 21
51.506485
  0
LINE
  8
0
  6
CONTINUOUS
 62
     7
 10
92.774445
 20
62.506485
 11
92.774445
 21
51.506485
  0
LINE
  8
0
  6
CONTINUOUS
 62
     7
 10
108.37446
 20
64.756485
 11
96.67157
 21
64.756485
  0
LINE
  8
0
  6
CONTINUOUS
 62
     7
 10
116.18021
 20
62.506485
 11
116.18021
 21
51.506485
  0
LINE
  8
0
  6
CONTINUOUS
 62
     7
 10
123.97446
 20
62.506485
 11
123.97446
 21
51.506485
  0
LINE
  8
0
  6
CONTINUOUS
 62
     7
 10
108.37446
 20
64.756485
 11
120.07734
 21
64.756485
  0
LINE
  8
0
  6
CONTINUOUS
 62
     7
 10
114.27445
 20
71.256485
 11
114.27445
 21
64.756485
  0
LINE
  8
0
  6
CONTINUOUS
 62
     7
 10
108.37446
 20
69.256485
 11
116.27445
 21
69.256485
  0
LINE
  8
0
  6
CONTINUOUS
 62
     7
 10
108.37446
 20
71.256485
 11
114.27445
 21
71.256485
  0
LINE
  8
0
  6
CONTINUOUS
 62
     7
 10
116.27441
 20
69.256485
 11
114.27441
 21
71.256485
  0
LINE
  8
0
  6
CONTINUOUS
 62
     7
 10
116.27445
 20
69.256485
 11
116.27445
 21
64.756485
  0
LINE
  8
0
  6
CONTINUOUS
 62
     7
 10
108.37446
 20
69.256485
 11
100.47446
 21
69.256485
  0
LINE
  8
0
  6
CONTINUOUS
 62
     7
 10
108.37446
 20
71.256485
 11
102.47446
 21
71.256485
  0
LINE
  8
0
  6
CONTINUOUS
 62
     7
 10
100.4744
 20
69.256493
 11
102.4744
 21
71.256493
  0
LINE
  8
0
  6
CONTINUOUS
 62
     7
 10
102.47446
 20
71.256485
 11
102.47446
 21
64.756485
  0
LINE
  8
0
  6
CONTINUOUS
 62
     7
 10
100.47446
 20
69.256485
 11
100.47446
 21
64.756485
  0
LINE
  8
0
  6
CONTINUOUS
 62
     7
 10
632.36865
 20
27.33951
 11
632.36865
 21
-6.6604977
  0
LINE
  8
0
  6
CONTINUOUS
 62
     7
 10
616.56866
 20
27.33951
 11
616.56866
 21
-6.6604977
  0
LINE
  8
0
  6
CONTINUOUS
 62
     7
 10
616.6629
 20
50.589508
 11
616.6629
 21
39.589508
  0
LINE
  8
0
  6
CONTINUOUS
 62
     7
 10
608.86865
 20
50.589508
 11
608.86865
 21
39.589508
  0
LINE
  8
0
  6
CONTINUOUS
 62
     7
 10
624.46869
 20
52.839508
 11
612.76581
 21
52.839508
  0
LINE
  8
0
  6
CONTINUOUS
 62
     7
 10
632.27441
 20
50.589508
 11
632.27441
 21
39.589508
  0
LINE
  8
0
  6
CONTINUOUS
 62
     7
 10
640.06866
 20
50.589508
 11
640.06866
 21
39.589508
  0
LINE
  8
0
  6
CONTINUOUS
 62
     7
 10
624.46869
 20
52.839508
 11
636.17157
 21
52.839508
  0
LINE
  8
0
  6
CONTINUOUS
 62
     7
 10
630.36865
 20
63.339508
 11
630.36865
 21
52.839508
  0
LINE
  8
0
  6
CONTINUOUS
 62
     7
 10
624.46869
 20
61.339508
 11
632.36865
 21
61.339508
  0
LINE
  8
0
  6
CONTINUOUS
 62
     7
 10
624.46869
 20
63.339508
 11
630.36865
 21
63.339508
  0
LINE
  8
0
  6
CONTINUOUS
 62
     7
 10
632.36865
 20
61.339508
 11
630.36865
 21
63.339508
  0
LINE
  8
0
  6
CONTINUOUS
 62
     7
 10
632.36865
 20
61.339508
 11
632.36865
 21
52.839508
  0
LINE
  8
0
  6
CONTINUOUS
 62
     7
 10
624.46869
 20
61.339508
 11
616.56866
 21
61.339508
  0
LINE
  8
0
  6
CONTINUOUS
 62
     7
 10
624.46869
 20
63.339508
 11
618.56866
 21
63.339508
  0
LINE
  8
0
  6
CONTINUOUS
 62
     7
 10
616.5686
 20
61.339508
 11
618.5686
 21
63.339508
  0
LINE
  8
0
  6
CONTINUOUS
 62
     7
 10
618.56866
 20
63.339508
 11
618.56866
 21
52.839508
  0
LINE
  8
0
  6
CONTINUOUS
 62
     7
 10
616.56866
 20
61.339508
 11
616.56866
 21
52.839508
  0
LINE
  8
0
  6
CONTINUOUS
 62
     7
 10
249.16818
 20
37.256485
 11
249.16818
 21
3.2564774
  0
LINE
  8
0
  6
CONTINUOUS
 62
     7
 10
214.76819
 20
20.256485
 11
266.26819
 21
20.256485
  0
LINE
  8
0
  6
CONTINUOUS
 62
     7
 10
233.36819
 20
37.256485
 11
233.36819
 21
3.2564774
  0
LINE
  8
0
  6
CONTINUOUS
 62
     7
 10
233.4624
 20
60.506485
 11
233.4624
 21
49.506485
  0
LINE
  8
0
  6
CONTINUOUS
 62
     7
 10
241.26819
 20
62.756485
 11
229.56531
 21
62.756485
  0
LINE
  8
0
  6
CONTINUOUS
 62
     7
 10
249.07394
 20
60.506485
 11
249.07394
 21
49.506485
  0
LINE
  8
0
  6
CONTINUOUS
 62
     7
 10
241.26819
 20
62.756485
 11
252.97107
 21
62.756485
  0
LINE
  8
0
  6
CONTINUOUS
 62
     7
 10
247.16818
 20
73.256485
 11
247.16818
 21
62.756485
  0
LINE
  8
0
  6
CONTINUOUS
 62
     7
 10
241.26819
 20
71.256485
 11
249.16818
 21
71.256485
  0
LINE
  8
0
  6
CONTINUOUS
 62
     7
 10
241.26819
 20
73.256485
 11
247.16818
 21
73.256485
  0
LINE
  8
0
  6
CONTINUOUS
 62
     7
 10
249.16817
 20
71.2565
 11
247.16815
 21
73.2565
  0
LINE
  8
0
  6
CONTINUOUS
 62
     7
 10
249.16818
 20
71.256485
 11
249.16818
 21
62.756485
  0
LINE
  8
0
  6
CONTINUOUS
 62
     7
 10
241.26819
 20
71.256485
 11
233.36819
 21
71.256485
  0
LINE
  8
0
  6
CONTINUOUS
 62
     7
 10
241.26819
 20
73.256485
 11
235.36819
 21
73.256485
  0
LINE
  8
0
  6
CONTINUOUS
 62
     7
 10
233.36813
 20
71.2565
 11
235.36813
 21
73.2565
  0
LINE
  8
0
  6
CONTINUOUS
 62
     7
 10
235.36819
 20
73.256485
 11
235.36819
 21
62.756485
  0
LINE
  8
0
  6
CONTINUOUS
 62
     7
 10
233.36819
 20
71.256485
 11
233.36819
 21
62.756485
  0
LINE
  8
0
  6
CONTINUOUS
 62
     7
 10
225.66818
 20
60.506485
 11
225.66818
 21
49.506485
  0
LINE
  8
0
  6
CONTINUOUS
 62
     7
 10
256.86819
 20
60.506485
 11
256.86819
 21
49.506485
  0
LINE
  8
0
  6
CONTINUOUS
 62
     7
 10
738.422
 20
-29.66049
 11
738.422
 21
-30.178999
  0
LINE
  8
0
  6
CONTINUOUS
 62
     7
 10
771.422
 20
-29.66049
 11
771.422
 21
-30.178999
  0
LINE
  8
0
  6
CONTINUOUS
 62
     7
 10
764.422
 20
38.3395
 11
764.422
 21
-17.66049
  0
LINE
  8
0
  6
CONTINUOUS
 62
     7
 10
745.422
 20
38.3395
 11
745.422
 21
-17.66049
  0
LINE
  8
0
  6
CONTINUOUS
 62
     7
 10
745.75189
 20
66.389496
 11
745.75189
 21
52.989502
  0
LINE
  8
0
  6
CONTINUOUS
 62
     7
 10
764.09216
 20
66.389496
 11
764.09216
 21
52.989502
  0
LINE
  8
0
  6
CONTINUOUS
 62
     7
 10
773.27203
 20
66.389496
 11
773.27203
 21
52.989502
  0
LINE
  8
0
  6
CONTINUOUS
 62
     7
 10
754.922
 20
69.03949
 11
768.68207
 21
69.03949
  0
LINE
  8
0
  6
CONTINUOUS
 62
     7
 10
736.57202
 20
66.389496
 11
736.57202
 21
52.989502
  0
LINE
  8
0
  6
CONTINUOUS
 62
     7
 10
745.422
 20
75.839493
 11
745.422
 21
69.03949
  0
LINE
  8
0
  6
CONTINUOUS
 62
     7
 10
754.922
 20
75.839493
 11
745.422
 21
75.839493
  0
LINE
  8
0
  6
CONTINUOUS
 62
     7
 10
754.922
 20
78.339493
 11
747.922
 21
78.339493
  0
LINE
  8
0
  6
CONTINUOUS
 62
     7
 10
747.922
 20
78.339493
 11
747.922
 21
69.03949
  0
LINE
  8
0
  6
CONTINUOUS
 62
     7
 10
745.422
 20
75.839531
 11
747.922
 21
78.339523
  0
LINE
  8
0
  6
CONTINUOUS
 62
     7
 10
754.922
 20
78.339493
 11
761.922
 21
78.339493
  0
LINE
  8
0
  6
CONTINUOUS
 62
     7
 10
764.422
 20
75.839493
 11
761.922
 21
78.339523
  0
LINE
  8
0
  6
CONTINUOUS
 62
     7
 10
754.922
 20
75.839493
 11
764.422
 21
75.839493
  0
LINE
  8
0
  6
CONTINUOUS
 62
     7
 10
764.422
 20
75.839493
 11
764.422
 21
69.03949
  0
LINE
  8
0
  6
CONTINUOUS
 62
     7
 10
761.922
 20
78.339493
 11
761.922
 21
69.03949
  0
LINE
  8
0
  6
CONTINUOUS
 62
     7
 10
754.922
 20
69.03949
 11
741.16193
 21
69.03949
  0
LINE
  8
0
  6
CONTINUOUS
 62
     7
 10
883.49689
 20
-29.66049
 11
883.49689
 21
-30.178999
  0
LINE
  8
0
  6
CONTINUOUS
 62
     7
 10
916.49689
 20
-29.66049
 11
916.49689
 21
-30.178999
  0
LINE
  8
0
  6
CONTINUOUS
 62
     7
 10
909.49689
 20
38.3395
 11
909.49689
 21
-17.66049
  0
LINE
  8
0
  6
CONTINUOUS
 62
     7
 10
890.49689
 20
38.3395
 11
890.49689
 21
-17.66049
  0
LINE
  8
0
  6
CONTINUOUS
 62
     7
 10
890.82678
 20
66.389496
 11
890.82678
 21
52.989502
  0
LINE
  8
0
  6
CONTINUOUS
 62
     7
 10
909.16705
 20
66.389496
 11
909.16705
 21
52.989502
  0
LINE
  8
0
  6
CONTINUOUS
 62
     7
 10
918.34692
 20
66.389496
 11
918.34692
 21
52.989502
  0
LINE
  8
0
  6
CONTINUOUS
 62
     7
 10
899.99689
 20
69.03949
 11
913.75696
 21
69.03949
  0
LINE
  8
0
  6
CONTINUOUS
 62
     7
 10
881.64691
 20
66.389496
 11
881.64691
 21
52.989502
  0
LINE
  8
0
  6
CONTINUOUS
 62
     7
 10
890.49689
 20
75.839493
 11
890.49689
 21
69.03949
  0
LINE
  8
0
  6
CONTINUOUS
 62
     7
 10
899.99689
 20
75.839493
 11
890.49689
 21
75.839493
  0
LINE
  8
0
  6
CONTINUOUS
 62
     7
 10
899.99689
 20
78.339493
 11
892.99689
 21
78.339493
  0
LINE
  8
0
  6
CONTINUOUS
 62
     7
 10
892.99689
 20
78.339493
 11
892.99689
 21
69.03949
  0
LINE
  8
0
  6
CONTINUOUS
 62
     7
 10
890.49689
 20
75.839531
 11
892.99689
 21
78.339523
  0
LINE
  8
0
  6
CONTINUOUS
 62
     7
 10
899.99689
 20
78.339493
 11
906.99689
 21
78.339493
  0
LINE
  8
0
  6
CONTINUOUS
 62
     7
 10
909.49689
 20
75.839493
 11
906.99689
 21
78.339523
  0
LINE
  8
0
  6
CONTINUOUS
 62
     7
 10
899.99689
 20
75.839493
 11
909.49689
 21
75.839493
  0
LINE
  8
0
  6
CONTINUOUS
 62
     7
 10
909.49689
 20
75.839493
 11
909.49689
 21
69.03949
  0
LINE
  8
0
  6
CONTINUOUS
 62
     7
 10
906.99689
 20
78.339493
 11
906.99689
 21
69.03949
  0
LINE
  8
0
  6
CONTINUOUS
 62
     7
 10
899.99689
 20
69.03949
 11
886.23682
 21
69.03949
  0
LINE
  8
0
  6
CONTINUOUS
 62
     7
 10
1017.2934
 20
-29.66049
 11
1017.2934
 21
-30.178999
  0
LINE
  8
0
  6
CONTINUOUS
 62
     7
 10
1050.2935
 20
-29.66049
 11
1050.2935
 21
-30.178999
  0
LINE
  8
0
  6
CONTINUOUS
 62
     7
 10
1043.2935
 20
38.3395
 11
1043.2935
 21
-17.66049
  0
LINE
  8
0
  6
CONTINUOUS
 62
     7
 10
1024.2935
 20
38.3395
 11
1024.2935
 21
-17.66049
  0
LINE
  8
0
  6
CONTINUOUS
 62
     7
 10
1024.6233
 20
66.389496
 11
1024.6233
 21
52.989502
  0
LINE
  8
0
  6
CONTINUOUS
 62
     7
 10
1042.9636
 20
66.389496
 11
1042.9636
 21
52.989502
  0
LINE
  8
0
  6
CONTINUOUS
 62
     7
 10
1052.1434
 20
66.389496
 11
1052.1434
 21
52.989502
  0
LINE
  8
0
  6
CONTINUOUS
 62
     7
 10
1033.7935
 20
69.03949
 11
1047.5535
 21
69.03949
  0
LINE
  8
0
  6
CONTINUOUS
 62
     7
 10
1015.4434
 20
66.389496
 11
1015.4434
 21
52.989502
  0
LINE
  8
0
  6
CONTINUOUS
 62
     7
 10
1024.2935
 20
75.839493
 11
1024.2935
 21
69.03949
  0
LINE
  8
0
  6
CONTINUOUS
 62
     7
 10
1033.7935
 20
75.839493
 11
1024.2935
 21
75.839493
  0
LINE
  8
0
  6
CONTINUOUS
 62
     7
 10
1033.7935
 20
78.339493
 11
1026.7935
 21
78.339493
  0
LINE
  8
0
  6
CONTINUOUS
 62
     7
 10
1026.7935
 20
78.339493
 11
1026.7935
 21
69.03949
  0
LINE
  8
0
  6
CONTINUOUS
 62
     7
 10
1024.2935
 20
75.839493
 11
1026.7935
 21
78.339485
  0
LINE
  8
0
  6
CONTINUOUS
 62
     7
 10
1033.7935
 20
78.339493
 11
1040.7935
 21
78.339493
  0
LINE
  8
0
  6
CONTINUOUS
 62
     7
 10
1043.2935
 20
75.839493
 11
1040.7935
 21
78.339523
  0
LINE
  8
0
  6
CONTINUOUS
 62
     7
 10
1033.7935
 20
75.839493
 11
1043.2935
 21
75.839493
  0
LINE
  8
0
  6
CONTINUOUS
 62
     7
 10
1043.2935
 20
75.839493
 11
1043.2935
 21
69.03949
  0
LINE
  8
0
  6
CONTINUOUS
 62
     7
 10
1040.7935
 20
78.339493
 11
1040.7935
 21
69.03949
  0
LINE
  8
0
  6
CONTINUOUS
 62
     7
 10
1033.7935
 20
69.03949
 11
1020.0333
 21
69.03949
  0
LINE
  8
0
  6
CENTER
 62
     7
 10
-293.46481
 20
-676.81525
 11
-293.46481
 21
-500.30933
  0
LINE
  8
0
  6
CENTER
 62
     7
 10
-339.36533
 20
-588.62231
 11
-251.48473
 21
-588.62231
  0
LINE
  8
0
  6
CONTINUOUS
 62
     7
 10
-268.46481
 20
-626.62231
 11
-268.46481
 21
-550.62231
  0
LINE
  8
0
  6
CONTINUOUS
 62
     7
 10
-318.46481
 20
-639.62231
 11
-318.46481
 21
-537.62231
  0
LINE
  8
0
  6
CONTINUOUS
 62
     7
 10
-304.65704
 20
-663.62231
 11
-282.97382
 21
-663.62231
  0
LINE
  8
0
  6
CONTINUOUS
 62
     7
 10
-304.65704
 20
-513.62231
 11
-282.97382
 21
-513.62231
  0
LINE
  8
0
  6
CONTINUOUS
 62
     7
 10
-318.46481
 20
-639.62231
 11
-314.35846
 21
-656.04767
  0
LINE
  8
0
  6
CONTINUOUS
 62
     7
 10
-318.46481
 20
-537.62231
 11
-314.35846
 21
-521.1969
  0
LINE
  8
0
  6
CONTINUOUS
 62
     7
 10
-273.10278
 20
-522.02161
 11
-268.46481
 21
-550.62231
  0
LINE
  8
0
  6
CONTINUOUS
 62
     7
 10
-268.46484
 20
-626.62231
 11
-273.10278
 21
-655.22302
  0
LINE
  8
0
  6
CONTINUOUS
 62
     7
 10
-268.46481
 20
-620.62231
 11
-273.06232
 21
-654.94977
  0
LINE
  8
0
  6
CONTINUOUS
 62
     7
 10
-318.46478
 20
-631.62231
 11
-314.52075
 21
-655.26758
  0
LINE
  8
0
  6
CONTINUOUS
 62
     7
 10
-318.46481
 20
-545.62231
 11
-314.52078
 21
-521.97699
  0
LINE
  8
0
  6
CONTINUOUS
 62
     7
 10
-268.46481
 20
-556.62231
 11
-273.06235
 21
-522.29486
  0
LINE
  8
0
  6
CONTINUOUS
 62
     7
 10
-312.46481
 20
-623.42755
 11
-312.46481
 21
-554.44263
  0
LINE
  8
0
  6
CONTINUOUS
 62
     7
 10
-274.46481
 20
-623.42755
 11
-274.46481
 21
-554.44263
  0
LINE
  8
0
  6
CONTINUOUS
 62
     7
 10
-309.98898
 20
-629.62231
 11
-276.68729
 21
-629.62231
  0
LINE
  8
0
  6
CONTINUOUS
 62
     7
 10
-310.50934
 20
-547.62231
 11
-276.94745
 21
-547.62231
  0
LINE
  8
0
  6
CONTINUOUS
 62
     7
 10
-273.23441
 20
-626.10175
 11
-274.97824
 21
-639.12231
  0
LINE
  8
0
  6
CONTINUOUS
 62
     7
 10
-273.17941
 20
-551.55347
 11
-274.97827
 21
-538.12231
  0
LINE
  8
0
  6
CONTINUOUS
 62
     7
 10
-315.57822
 20
-552.62866
 11
-313.15857
 21
-538.12231
  0
LINE
  8
0
  6
CONTINUOUS
 62
     7
 10
-315.25653
 20
-626.54443
 11
-313.15854
 21
-639.12231
  0
LINE
  8
0
  6
CENTER
 62
     7
 10
-148.07378
 20
-686.49701
 11
-148.07378
 21
-487.64856
  0
LINE
  8
0
  6
CONTINUOUS
 62
     7
 10
-123.07377
 20
-621.62231
 11
-123.07377
 21
-588.62231
  0
LINE
  8
0
  6
CONTINUOUS
 62
     7
 10
-173.07378
 20
-636.62231
 11
-173.07378
 21
-588.62231
  0
LINE
  8
0
  6
CONTINUOUS
 62
     7
 10
-158.58342
 20
-673.12231
 11
-137.97636
 21
-673.12231
  0
LINE
  8
0
  6
CONTINUOUS
 62
     7
 10
-173.07379
 20
-636.62231
 11
-168.45097
 21
-664.74438
  0
LINE
  8
0
  6
CONTINUOUS
 62
     7
 10
-171.26553
 20
-647.62231
 11
-173.07375
 21
-611.62231
  0
LINE
  8
0
  6
CONTINUOUS
 62
     7
 10
-167.2856
 20
-647.12231
 11
-167.84496
 21
-635.98621
  0
LINE
  8
0
  6
CONTINUOUS
 62
     7
 10
-167.07378
 20
-632.34131
 11
-167.07378
 21
-588.62231
  0
LINE
  8
0
  6
CONTINUOUS
 62
     7
 10
-136.07378
 20
-632.72888
 11
-136.07378
 21
-588.62231
  0
LINE
  8
0
  6
CONTINUOUS
 62
     7
 10
-163.96355
 20
-640.62231
 11
-139.16002
 21
-640.62231
  0
LINE
  8
0
  6
CENTER
 62
     7
 10
-25.158401
 20
-691.71027
 11
-25.158401
 21
-484.66956
  0
LINE
  8
0
  6
CONTINUOUS
 62
     7
 10
-35.687149
 20
-674.62231
 11
-14.859941
 21
-674.62231
  0
LINE
  8
0
  6
CONTINUOUS
 62
     7
 10
-44.158401
 20
-635.44177
 11
-44.158401
 21
-588.62231
  0
LINE
  8
0
  6
CONTINUOUS
 62
     7
 10
-13.158402
 20
-635.44177
 11
-13.158402
 21
-588.62231
  0
LINE
  8
0
  6
CONTINUOUS
 62
     7
 10
-50.158401
 20
-638.62231
 11
-50.158401
 21
-588.62231
  0
LINE
  8
0
  6
CONTINUOUS
 62
     7
 10
-0.15840226
 20
-631.62231
 11
-0.15840226
 21
-588.62231
  0
LINE
  8
0
  6
CONTINUOUS
 62
     7
 10
-50.158382
 20
-638.62231
 11
-45.551056
 21
-666.2663
  0
LINE
  8
0
  6
CONTINUOUS
 62
     7
 10
-48.49173
 20
-648.62225
 11
-50.158394
 21
-616.62231
  0
LINE
  8
0
  6
CONTINUOUS
 62
     7
 10
-44.497143
 20
-648.41418
 11
-45.063286
 21
-637.54425
  0
LINE
  8
0
  6
CONTINUOUS
 62
     7
 10
-41.435745
 20
-642.62231
 11
-16.244644
 21
-642.62231
  0
LINE
  8
0
  6
CENTER
 62
     7
 10
108.37446
 20
-707.35004
 11
108.37446
 21
-466.05078
  0
LINE
  8
0
  6
CONTINUOUS
 62
     7
 10
81.874458
 20
-648.62231
 11
81.874458
 21
-588.62231
  0
LINE
  8
0
  6
CONTINUOUS
 62
     7
 10
133.37445
 20
-621.62231
 11
133.37445
 21
-588.62231
  0
LINE
  8
0
  6
CONTINUOUS
 62
     7
 10
88.374458
 20
-650.36481
 11
88.374458
 21
-588.62231
  0
LINE
  8
0
  6
CONTINUOUS
 62
     7
 10
122.37446
 20
-648.91174
 11
122.37446
 21
-588.62231
  0
LINE
  8
0
  6
CONTINUOUS
 62
     7
 10
97.033821
 20
-693.62231
 11
119.04487
 21
-693.62231
  0
LINE
  8
0
  6
CONTINUOUS
 62
     7
 10
-4.9559097
 20
-666.00427
 11
-0.15843083
 21
-631.62231
  0
LINE
  8
0
  6
CONTINUOUS
 62
     7
 10
-0.15842193
 20
-605.62231
 11
-2.5305178
 21
-648.62231
  0
LINE
  8
0
  6
CONTINUOUS
 62
     7
 10
-5.8614807
 20
-636.38416
 11
-6.5244455
 21
-648.40204
  0
LINE
  8
0
  6
CONTINUOUS
 62
     7
 10
-123.07377
 20
-621.62231
 11
-128.04355
 21
-664.27948
  0
LINE
  8
0
  6
CONTINUOUS
 62
     7
 10
-126.04464
 20
-647.12231
 11
-123.07376
 21
-595.62231
  0
LINE
  8
0
  6
CONTINUOUS
 62
     7
 10
-130.03799
 20
-646.89197
 11
-129.28296
 21
-633.80341
  0
LINE
  8
0
  6
CONTINUOUS
 62
     7
 10
-4.9558492
 20
-511.24033
 11
-0.15836568
 21
-545.62231
  0
LINE
  8
0
  6
CONTINUOUS
 62
     7
 10
-0.15839612
 20
-571.62231
 11
-2.5304887
 21
-528.62231
  0
LINE
  8
0
  6
CONTINUOUS
 62
     7
 10
-0.15840226
 20
-545.62231
 11
-0.15840226
 21
-588.62231
  0
LINE
  8
0
  6
CONTINUOUS
 62
     7
 10
-5.861455
 20
-540.86041
 11
-6.524416
 21
-528.84265
  0
LINE
  8
0
  6
CONTINUOUS
 62
     7
 10
-13.158402
 20
-541.80286
 11
-13.158402
 21
-588.62231
  0
LINE
  8
0
  6
CONTINUOUS
 62
     7
 10
-41.435745
 20
-534.62231
 11
-16.244644
 21
-534.62231
  0
LINE
  8
0
  6
CONTINUOUS
 62
     7
 10
-35.687149
 20
-502.62228
 11
-14.859941
 21
-502.62228
  0
LINE
  8
0
  6
CONTINUOUS
 62
     7
 10
-50.158382
 20
-538.62225
 11
-45.551056
 21
-510.97833
  0
LINE
  8
0
  6
CONTINUOUS
 62
     7
 10
-48.49173
 20
-528.62231
 11
-50.158398
 21
-560.62231
  0
LINE
  8
0
  6
CONTINUOUS
 62
     7
 10
-50.158401
 20
-538.62231
 11
-50.158401
 21
-588.62231
  0
LINE
  8
0
  6
CONTINUOUS
 62
     7
 10
-44.497143
 20
-528.83032
 11
-45.06329
 21
-539.70038
  0
LINE
  8
0
  6
CONTINUOUS
 62
     7
 10
-44.158401
 20
-541.80286
 11
-44.158401
 21
-588.62231
  0
LINE
  8
0
  6
CONTINUOUS
 62
     7
 10
-123.07377
 20
-555.62231
 11
-123.07377
 21
-588.62231
  0
LINE
  8
0
  6
CONTINUOUS
 62
     7
 10
-123.07373
 20
-555.62231
 11
-128.0435
 21
-512.96503
  0
LINE
  8
0
  6
CONTINUOUS
 62
     7
 10
-126.04463
 20
-530.12231
 11
-123.07375
 21
-581.62231
  0
LINE
  8
0
  6
CONTINUOUS
 62
     7
 10
-130.03799
 20
-530.35266
 11
-129.28296
 21
-543.44116
  0
LINE
  8
0
  6
CONTINUOUS
 62
     7
 10
-136.07378
 20
-544.51575
 11
-136.07378
 21
-588.62231
  0
LINE
  8
0
  6
CONTINUOUS
 62
     7
 10
-163.96355
 20
-536.62231
 11
-139.16002
 21
-536.62231
  0
LINE
  8
0
  6
CONTINUOUS
 62
     7
 10
-158.58342
 20
-504.12228
 11
-137.97636
 21
-504.12228
  0
LINE
  8
0
  6
CONTINUOUS
 62
     7
 10
-173.07379
 20
-540.62231
 11
-168.45099
 21
-512.50024
  0
LINE
  8
0
  6
CONTINUOUS
 62
     7
 10
-171.2655
 20
-529.62225
 11
-173.07373
 21
-565.62231
  0
LINE
  8
0
  6
CONTINUOUS
 62
     7
 10
-167.28558
 20
-530.12231
 11
-167.84492
 21
-541.25842
  0
LINE
  8
0
  6
CONTINUOUS
 62
     7
 10
-167.07378
 20
-544.90332
 11
-167.07378
 21
-588.62231
  0
LINE
  8
0
  6
CONTINUOUS
 62
     7
 10
-173.07378
 20
-540.62231
 11
-173.07378
 21
-588.62231
  0
LINE
  8
0
  6
CONTINUOUS
 62
     7
 10
81.874481
 20
-648.62231
 11
87.136536
 21
-685.05194
  0
LINE
  8
0
  6
CONTINUOUS
 62
     7
 10
133.37447
 20
-621.62231
 11
129.0208
 21
-684.31512
  0
LINE
  8
0
  6
CONTINUOUS
 62
     7
 10
81.874481
 20
-615.62231
 11
83.824478
 21
-662.12225
  0
LINE
  8
0
  6
CONTINUOUS
 62
     7
 10
133.3745
 20
-593.62231
 11
130.562
 21
-662.12231
  0
LINE
  8
0
  6
CONTINUOUS
 62
     7
 10
125.98199
 20
-651.79065
 11
125.55779
 21
-662.12231
  0
LINE
  8
0
  6
CONTINUOUS
 62
     7
 10
88.431244
 20
-652.64032
 11
88.82888
 21
-662.12231
  0
LINE
  8
0
  6
CONTINUOUS
 62
     7
 10
122.37446
 20
-528.33289
 11
122.37446
 21
-588.62231
  0
LINE
  8
0
  6
CONTINUOUS
 62
     7
 10
125.98199
 20
-525.45404
 11
125.55779
 21
-515.12231
  0
LINE
  8
0
  6
CONTINUOUS
 62
     7
 10
133.37448
 20
-555.62225
 11
129.02083
 21
-492.92953
  0
LINE
  8
0
  6
CONTINUOUS
 62
     7
 10
133.3745
 20
-583.62231
 11
130.562
 21
-515.12231
  0
LINE
  8
0
  6
CONTINUOUS
 62
     7
 10
133.37445
 20
-555.62231
 11
133.37445
 21
-588.62231
  0
LINE
  8
0
  6
CONTINUOUS
 62
     7
 10
81.874458
 20
-528.62231
 11
81.874458
 21
-588.62231
  0
LINE
  8
0
  6
CONTINUOUS
 62
     7
 10
88.374458
 20
-526.87982
 11
88.374458
 21
-588.62231
  0
LINE
  8
0
  6
CONTINUOUS
 62
     7
 10
81.874504
 20
-561.62231
 11
83.824509
 21
-515.12231
  0
LINE
  8
0
  6
CONTINUOUS
 62
     7
 10
88.431267
 20
-524.60431
 11
88.828903
 21
-515.12231
  0
LINE
  8
0
  6
CONTINUOUS
 62
     7
 10
81.874466
 20
-528.62231
 11
87.13652
 21
-492.19269
  0
LINE
  8
0
  6
CONTINUOUS
 62
     7
 10
97.033821
 20
-483.62228
 11
119.04487
 21
-483.62228
  0
LINE
  8
0
  6
CENTER
 62
     7
 10
241.26819
 20
-709.58429
 11
241.26819
 21
-467.54028
  0
LINE
  8
0
  6
CONTINUOUS
 62
     7
 10
221.26819
 20
-651.54761
 11
221.26819
 21
-588.62231
  0
LINE
  8
0
  6
CONTINUOUS
 62
     7
 10
255.26819
 20
-651.54761
 11
255.26819
 21
-588.62231
  0
LINE
  8
0
  6
CONTINUOUS
 62
     7
 10
229.87018
 20
-694.62231
 11
252.0304
 21
-694.62231
  0
LINE
  8
0
  6
CONTINUOUS
 62
     7
 10
214.76819
 20
-651.62231
 11
214.76819
 21
-588.62231
  0
LINE
  8
0
  6
CONTINUOUS
 62
     7
 10
266.26819
 20
-631.62231
 11
266.26819
 21
-588.62231
  0
LINE
  8
0
  6
CONTINUOUS
 62
     7
 10
214.76819
 20
-651.62231
 11
219.9825
 21
-686.11694
  0
LINE
  8
0
  6
CONTINUOUS
 62
     7
 10
266.26822
 20
-631.62231
 11
261.99908
 21
-685.41345
  0
LINE
  8
0
  6
CONTINUOUS
 62
     7
 10
227.02496
 20
-658.62231
 11
252.35406
 21
-658.62231
  0
LINE
  8
0
  6
CONTINUOUS
 62
     7
 10
217.03561
 20
-666.62231
 11
214.76816
 21
-648.62231
  0
LINE
  8
0
  6
CONTINUOUS
 62
     7
 10
263.49039
 20
-666.62231
 11
266.26819
 21
-628.62231
  0
LINE
  8
0
  6
CONTINUOUS
 62
     7
 10
221.9964
 20
-665.99744
 11
220.48868
 21
-654.02838
  0
LINE
  8
0
  6
CONTINUOUS
 62
     7
 10
258.50369
 20
-666.25775
 11
259.47488
 21
-652.97198
  0
LINE
  8
0
  6
CONTINUOUS
 62
     7
 10
221.26819
 20
-525.69702
 11
221.26819
 21
-588.62231
  0
LINE
  8
0
  6
CONTINUOUS
 62
     7
 10
255.26819
 20
-525.69702
 11
255.26819
 21
-588.62231
  0
LINE
  8
0
  6
CONTINUOUS
 62
     7
 10
229.87018
 20
-482.62228
 11
252.0304
 21
-482.62228
  0
LINE
  8
0
  6
CONTINUOUS
 62
     7
 10
214.76819
 20
-525.62231
 11
214.76819
 21
-588.62231
  0
LINE
  8
0
  6
CONTINUOUS
 62
     7
 10
266.26819
 20
-545.62231
 11
266.26819
 21
-588.62231
  0
LINE
  8
0
  6
CONTINUOUS
 62
     7
 10
214.76817
 20
-525.62231
 11
219.98248
 21
-491.12766
  0
LINE
  8
0
  6
CONTINUOUS
 62
     7
 10
266.26822
 20
-545.62231
 11
261.99908
 21
-491.83115
  0
LINE
  8
0
  6
CONTINUOUS
 62
     7
 10
227.02496
 20
-518.62231
 11
252.35406
 21
-518.62231
  0
LINE
  8
0
  6
CONTINUOUS
 62
     7
 10
217.03563
 20
-510.62228
 11
214.76819
 21
-528.62231
  0
LINE
  8
0
  6
CONTINUOUS
 62
     7
 10
263.49042
 20
-510.62228
 11
266.26819
 21
-548.62225
  0
LINE
  8
0
  6
CONTINUOUS
 62
     7
 10
221.99641
 20
-511.24719
 11
220.48869
 21
-523.21625
  0
LINE
  8
0
  6
CONTINUOUS
 62
     7
 10
258.50372
 20
-510.98682
 11
259.47491
 21
-524.27258
  0
LINE
  8
0
  6
CENTER
 62
     7
 10
624.46869
 20
-711.07379
 11
624.46869
 21
-463.81653
  0
LINE
  8
0
  6
CONTINUOUS
 62
     7
 10
604.46869
 20
-651.11694
 11
604.46869
 21
-588.62231
  0
LINE
  8
0
  6
CONTINUOUS
 62
     7
 10
635.46869
 20
-651.11694
 11
635.46869
 21
-588.62231
  0
LINE
  8
0
  6
CONTINUOUS
 62
     7
 10
597.96869
 20
-651.62231
 11
597.96869
 21
-588.62231
  0
LINE
  8
0
  6
CONTINUOUS
 62
     7
 10
649.46869
 20
-638.62231
 11
649.46869
 21
-588.62231
  0
LINE
  8
0
  6
CONTINUOUS
 62
     7
 10
613.07068
 20
-694.62231
 11
635.32178
 21
-694.62231
  0
LINE
  8
0
  6
CONTINUOUS
 62
     7
 10
649.46869
 20
-638.62231
 11
645.2821
 21
-685.51166
  0
LINE
  8
0
  6
CONTINUOUS
 62
     7
 10
597.96869
 20
-651.62231
 11
603.18298
 21
-686.11694
  0
LINE
  8
0
  6
CONTINUOUS
 62
     7
 10
608.25372
 20
-656.62231
 11
632.15271
 21
-656.62231
  0
LINE
  8
0
  6
CONTINUOUS
 62
     7
 10
597.96863
 20
-618.62231
 11
600.23608
 21
-666.62231
  0
LINE
  8
0
  6
CONTINUOUS
 62
     7
 10
649.46863
 20
-602.62225
 11
646.96863
 21
-666.62231
  0
LINE
  8
0
  6
CONTINUOUS
 62
     7
 10
642.51514
 20
-652.53296
 11
641.97241
 21
-666.42712
  0
LINE
  8
0
  6
CONTINUOUS
 62
     7
 10
604.61224
 20
-653.29773
 11
605.23053
 21
-666.38641
  0
LINE
  8
0
  6
CONTINUOUS
 62
     7
 10
604.46869
 20
-526.12769
 11
604.46869
 21
-588.62231
  0
LINE
  8
0
  6
CONTINUOUS
 62
     7
 10
635.46869
 20
-526.12769
 11
635.46869
 21
-588.62231
  0
LINE
  8
0
  6
CONTINUOUS
 62
     7
 10
597.96869
 20
-525.62231
 11
597.96869
 21
-588.62231
  0
LINE
  8
0
  6
CONTINUOUS
 62
     7
 10
649.46869
 20
-538.62231
 11
649.46869
 21
-588.62231
  0
LINE
  8
0
  6
CONTINUOUS
 62
     7
 10
613.07068
 20
-482.62228
 11
635.32178
 21
-482.62228
  0
LINE
  8
0
  6
CONTINUOUS
 62
     7
 10
649.46869
 20
-538.62231
 11
645.2821
 21
-491.73297
  0
LINE
  8
0
  6
CONTINUOUS
 62
     7
 10
597.96863
 20
-525.62231
 11
603.18292
 21
-491.12766
  0
LINE
  8
0
  6
CONTINUOUS
 62
     7
 10
608.25372
 20
-520.62231
 11
632.15271
 21
-520.62231
  0
LINE
  8
0
  6
CONTINUOUS
 62
     7
 10
597.96869
 20
-558.62231
 11
600.23608
 21
-510.62231
  0
LINE
  8
0
  6
CONTINUOUS
 62
     7
 10
649.46869
 20
-574.62231
 11
646.96869
 21
-510.62231
  0
LINE
  8
0
  6
CONTINUOUS
 62
     7
 10
642.51526
 20
-524.71167
 11
641.97253
 21
-510.81747
  0
LINE
  8
0
  6
CONTINUOUS
 62
     7
 10
604.61224
 20
-523.9469
 11
605.23053
 21
-510.85825
  0
LINE
  8
0
  6
CENTER
 62
     7
 10
754.922
 20
-733.41632
 11
754.922
 21
-446.68726
  0
LINE
  8
0
  6
CONTINUOUS
 62
     7
 10
741.57251
 20
-713.62231
 11
768.05627
 21
-713.62231
  0
LINE
  8
0
  6
CONTINUOUS
 62
     7
 10
728.422
 20
-668.62231
 11
728.422
 21
-588.62231
  0
LINE
  8
0
  6
CONTINUOUS
 62
     7
 10
734.922
 20
-656.44836
 11
734.922
 21
-588.62231
  0
LINE
  8
0
  6
CONTINUOUS
 62
     7
 10
774.922
 20
-656.26947
 11
774.922
 21
-588.62231
  0
LINE
  8
0
  6
CONTINUOUS
 62
     7
 10
781.422
 20
-652.62231
 11
781.422
 21
-588.62231
  0
LINE
  8
0
  6
CONTINUOUS
 62
     7
 10
745.1629
 20
-667.62231
 11
769.56067
 21
-667.62231
  0
LINE
  8
0
  6
CONTINUOUS
 62
     7
 10
781.422
 20
-652.62231
 11
778.03485
 21
-704.27667
  0
LINE
  8
0
  6
CONTINUOUS
 62
     7
 10
728.422
 20
-668.62231
 11
731.61182
 21
-704.50769
  0
LINE
  8
0
  6
CONTINUOUS
 62
     7
 10
728.91089
 20
-674.12231
 11
728.422
 21
-626.62231
  0
LINE
  8
0
  6
CONTINUOUS
 62
     7
 10
780.01208
 20
-674.12225
 11
781.42194
 21
-607.62225
  0
LINE
  8
0
  6
CONTINUOUS
 62
     7
 10
775.01324
 20
-674.0163
 11
775.30609
 21
-660.20172
  0
LINE
  8
0
  6
CONTINUOUS
 62
     7
 10
733.91064
 20
-674.07086
 11
733.75897
 21
-659.33423
  0
LINE
  8
0
  6
CONTINUOUS
 62
     7
 10
741.57251
 20
-463.62228
 11
768.05627
 21
-463.62228
  0
LINE
  8
0
  6
CONTINUOUS
 62
     7
 10
728.422
 20
-508.62228
 11
728.422
 21
-588.62231
  0
LINE
  8
0
  6
CONTINUOUS
 62
     7
 10
734.922
 20
-520.79626
 11
734.922
 21
-588.62231
  0
LINE
  8
0
  6
CONTINUOUS
 62
     7
 10
774.922
 20
-520.9751
 11
774.922
 21
-588.62231
  0
LINE
  8
0
  6
CONTINUOUS
 62
     7
 10
781.422
 20
-524.62231
 11
781.422
 21
-588.62231
  0
LINE
  8
0
  6
CONTINUOUS
 62
     7
 10
745.1629
 20
-509.62228
 11
769.56067
 21
-509.62228
  0
LINE
  8
0
  6
CONTINUOUS
 62
     7
 10
781.42194
 20
-524.62238
 11
778.03473
 21
-472.96796
  0
LINE
  8
0
  6
CONTINUOUS
 62
     7
 10
728.422
 20
-508.62231
 11
731.61182
 21
-472.73691
  0
LINE
  8
0
  6
CONTINUOUS
 62
     7
 10
728.91089
 20
-503.12231
 11
728.422
 21
-550.62231
  0
LINE
  8
0
  6
CONTINUOUS
 62
     7
 10
780.01215
 20
-503.12231
 11
781.422
 21
-569.62231
  0
LINE
  8
0
  6
CONTINUOUS
 62
     7
 10
775.01331
 20
-503.22827
 11
775.30615
 21
-517.04285
  0
LINE
  8
0
  6
CONTINUOUS
 62
     7
 10
733.91064
 20
-503.17377
 11
733.75897
 21
-517.91034
  0
LINE
  8
0
  6
CENTER
 62
     7
 10
899.99689
 20
-746.82184
 11
899.99689
 21
-431.79224
  0
LINE
  8
0
  6
CONTINUOUS
 62
     7
 10
879.99689
 20
-676.95331
 11
879.99689
 21
-588.62231
  0
LINE
  8
0
  6
CONTINUOUS
 62
     7
 10
916.99689
 20
-676.95331
 11
916.99689
 21
-588.62231
  0
LINE
  8
0
  6
CONTINUOUS
 62
     7
 10
886.6474
 20
-728.62231
 11
913.05206
 21
-728.62231
  0
LINE
  8
0
  6
CONTINUOUS
 62
     7
 10
926.49689
 20
-658.62231
 11
926.49689
 21
-588.62231
  0
LINE
  8
0
  6
CONTINUOUS
 62
     7
 10
873.49689
 20
-683.62231
 11
873.49689
 21
-588.62231
  0
LINE
  8
0
  6
CONTINUOUS
 62
     7
 10
873.49689
 20
-683.62231
 11
876.68671
 21
-719.50769
  0
LINE
  8
0
  6
CONTINUOUS
 62
     7
 10
923.03577
 20
-719.19281
 11
926.49695
 21
-658.62231
  0
LINE
  8
0
  6
CONTINUOUS
 62
     7
 10
924.7254
 20
-689.62231
 11
926.49683
 21
-648.62225
  0
LINE
  8
0
  6
CONTINUOUS
 62
     7
 10
874.03027
 20
-689.62231
 11
873.49689
 21
-678.62231
  0
LINE
  8
0
  6
CONTINUOUS
 62
     7
 10
879.02435
 20
-689.38019
 11
878.52594
 21
-679.09949
  0
LINE
  8
0
  6
CONTINUOUS
 62
     7
 10
919.7301
 20
-689.40649
 11
920.22455
 21
-677.96265
  0
LINE
  8
0
  6
CONTINUOUS
 62
     7
 10
879.99689
 20
-500.29129
 11
879.99689
 21
-588.62231
  0
LINE
  8
0
  6
CONTINUOUS
 62
     7
 10
916.99689
 20
-500.29129
 11
916.99689
 21
-588.62231
  0
LINE
  8
0
  6
CONTINUOUS
 62
     7
 10
886.6474
 20
-448.62228
 11
913.05206
 21
-448.62228
  0
LINE
  8
0
  6
CONTINUOUS
 62
     7
 10
926.49689
 20
-518.62231
 11
926.49689
 21
-588.62231
  0
LINE
  8
0
  6
CONTINUOUS
 62
     7
 10
873.49689
 20
-493.62228
 11
873.49689
 21
-588.62231
  0
LINE
  8
0
  6
CONTINUOUS
 62
     7
 10
873.49689
 20
-493.62231
 11
876.68671
 21
-457.73688
  0
LINE
  8
0
  6
CONTINUOUS
 62
     7
 10
923.03571
 20
-458.05179
 11
926.49689
 21
-518.62231
  0
LINE
  8
0
  6
CONTINUOUS
 62
     7
 10
924.72552
 20
-487.62228
 11
926.49695
 21
-528.62231
  0
LINE
  8
0
  6
CONTINUOUS
 62
     7
 10
874.03021
 20
-487.62228
 11
873.49689
 21
-498.62231
  0
LINE
  8
0
  6
CONTINUOUS
 62
     7
 10
879.02435
 20
-487.86444
 11
878.52588
 21
-498.14514
  0
LINE
  8
0
  6
CONTINUOUS
 62
     7
 10
919.73016
 20
-487.83813
 11
920.22461
 21
-499.28198
  0
LINE
  8
0
  6
CENTER
 62
     7
 10
1033.7935
 20
-745.81738
 11
1033.7935
 21
-434.81189
  0
LINE
  8
0
  6
CONTINUOUS
 62
     7
 10
1020.4256
 20
-728.62231
 11
1046.9823
 21
-728.62231
  0
LINE
  8
0
  6
CONTINUOUS
 62
     7
 10
1007.2934
 20
-684.62231
 11
1007.2934
 21
-588.62231
  0
LINE
  8
0
  6
CONTINUOUS
 62
     7
 10
1060.2935
 20
-672.62231
 11
1060.2935
 21
-588.62231
  0
LINE
  8
0
  6
CONTINUOUS
 62
     7
 10
1013.7934
 20
-674.7771
 11
1013.7934
 21
-588.62231
  0
LINE
  8
0
  6
CONTINUOUS
 62
     7
 10
1053.7935
 20
-673.88306
 11
1053.7935
 21
-588.62231
  0
LINE
  8
0
  6
CONTINUOUS
 62
     7
 10
1007.2935
 20
-684.62231
 11
1010.4666
 21
-719.52765
  0
LINE
  8
0
  6
CONTINUOUS
 62
     7
 10
1056.9569
 20
-719.33478
 11
1060.2936
 21
-672.62231
  0
LINE
  8
0
  6
CONTINUOUS
 62
     7
 10
1060.2935
 20
-663.62231
 11
1059.0792
 21
-689.62225
  0
LINE
  8
0
  6
CONTINUOUS
 62
     7
 10
1007.2935
 20
-674.62231
 11
1007.748
 21
-689.62231
  0
LINE
  8
0
  6
CONTINUOUS
 62
     7
 10
1054.7334
 20
-675.49817
 11
1054.0847
 21
-689.38904
  0
LINE
  8
0
  6
CONTINUOUS
 62
     7
 10
1012.3273
 20
-675.66284
 11
1012.7457
 21
-689.47089
  0
LINE
  8
0
  6
CONTINUOUS
 62
     7
 10
1020.4256
 20
-448.62228
 11
1046.9823
 21
-448.62228
  0
LINE
  8
0
  6
CONTINUOUS
 62
     7
 10
1007.2934
 20
-492.62228
 11
1007.2934
 21
-588.62231
  0
LINE
  8
0
  6
CONTINUOUS
 62
     7
 10
1060.2935
 20
-504.62228
 11
1060.2935
 21
-588.62231
  0
LINE
  8
0
  6
CONTINUOUS
 62
     7
 10
1013.7934
 20
-502.4675
 11
1013.7934
 21
-588.62231
  0
LINE
  8
0
  6
CONTINUOUS
 62
     7
 10
1053.7935
 20
-503.36154
 11
1053.7935
 21
-588.62231
  0
LINE
  8
0
  6
CONTINUOUS
 62
     7
 10
1007.2934
 20
-492.62228
 11
1010.4666
 21
-457.71695
  0
LINE
  8
0
  6
CONTINUOUS
 62
     7
 10
1056.9569
 20
-457.90982
 11
1060.2935
 21
-504.62231
  0
LINE
  8
0
  6
CONTINUOUS
 62
     7
 10
1060.2935
 20
-513.62231
 11
1059.0791
 21
-487.62231
  0
LINE
  8
0
  6
CONTINUOUS
 62
     7
 10
1007.2934
 20
-502.62231
 11
1007.748
 21
-487.62231
  0
LINE
  8
0
  6
CONTINUOUS
 62
     7
 10
1054.7334
 20
-501.74643
 11
1054.0846
 21
-487.85556
  0
LINE
  8
0
  6
CONTINUOUS
 62
     7
 10
1012.3272
 20
-501.58176
 11
1012.7456
 21
-487.77377
  0
LINE
  8
0
  6
CENTER
 62
     7
 10
-192.64941
 20
-588.62231
 11
-104.02407
 21
-588.62231
  0
LINE
  8
0
  6
CENTER
 62
     7
 10
-68.276031
 20
-588.62231
 11
18.859812
 21
-588.62231
  0
LINE
  8
0
  6
CENTER
 62
     7
 10
65.779114
 20
-588.62231
 11
150.30833
 21
-588.62231
  0
LINE
  8
0
  6
CENTER
 62
     7
 10
581.89142
 20
-588.62231
 11
668.28253
 21
-588.62231
  0
LINE
  8
0
  6
CENTER
 62
     7
 10
196.48288
 20
-588.62231
 11
281.75684
 21
-588.62231
  0
LINE
  8
0
  6
CENTER
 62
     7
 10
709.24377
 20
-588.62231
 11
797.86914
 21
-588.62231
  0
LINE
  8
0
  6
CENTER
 62
     7
 10
854.84259
 20
-588.62231
 11
947.19171
 21
-588.62231
  0
LINE
  8
0
  6
CENTER
 62
     7
 10
986.66345
 20
-588.62231
 11
1079.7573
 21
-588.62231
  0
LINE
  8
0
  6
CONTINUOUS
 62
     7
 10
-293.46481
 20
-515.30511
 11
-304.56482
 21
-521.71368
  0
LINE
  8
0
  6
CONTINUOUS
 62
     7
 10
-304.56482
 20
-534.53088
 11
-304.56482
 21
-521.71368
  0
LINE
  8
0
  6
CONTINUOUS
 62
     7
 10
-282.36484
 20
-521.71375
 11
-293.46484
 21
-515.30511
  0
LINE
  8
0
  6
CONTINUOUS
 62
     7
 10
-282.36481
 20
-521.71368
 11
-282.36481
 21
-534.53088
  0
LINE
  8
0
  6
CONTINUOUS
 62
     7
 10
-282.36481
 20
-534.53088
 11
-293.46481
 21
-540.93951
  0
LINE
  8
0
  6
CONTINUOUS
 62
     7
 10
-293.46481
 20
-540.93945
 11
-304.56482
 21
-534.53088
  0
LINE
  8
0
  6
CONTINUOUS
 62
     7
 10
-148.07376
 20
-507.30515
 11
-159.17377
 21
-513.71375
  0
LINE
  8
0
  6
CONTINUOUS
 62
     7
 10
-159.17377
 20
-526.53088
 11
-159.17377
 21
-513.71368
  0
LINE
  8
0
  6
CONTINUOUS
 62
     7
 10
-136.97377
 20
-513.71368
 11
-148.07376
 21
-507.30508
  0
LINE
  8
0
  6
CONTINUOUS
 62
     7
 10
-136.97377
 20
-513.71368
 11
-136.97377
 21
-526.53088
  0
LINE
  8
0
  6
CONTINUOUS
 62
     7
 10
-136.97377
 20
-526.53088
 11
-148.07378
 21
-532.93945
  0
LINE
  8
0
  6
CONTINUOUS
 62
     7
 10
-148.07378
 20
-532.93945
 11
-159.17377
 21
-526.53088
  0
LINE
  8
0
  6
CONTINUOUS
 62
     7
 10
-25.158396
 20
-505.80511
 11
-36.258389
 21
-512.21368
  0
LINE
  8
0
  6
CONTINUOUS
 62
     7
 10
-36.258404
 20
-525.03088
 11
-36.258404
 21
-512.21368
  0
LINE
  8
0
  6
CONTINUOUS
 62
     7
 10
-14.058415
 20
-512.21368
 11
-25.158409
 21
-505.80511
  0
LINE
  8
0
  6
CONTINUOUS
 62
     7
 10
-14.058402
 20
-512.21368
 11
-14.058402
 21
-525.03088
  0
LINE
  8
0
  6
CONTINUOUS
 62
     7
 10
-14.058389
 20
-525.03088
 11
-25.158382
 21
-531.43945
  0
LINE
  8
0
  6
CONTINUOUS
 62
     7
 10
-25.158405
 20
-531.43945
 11
-36.2584
 21
-525.03088
  0
LINE
  8
0
  6
CONTINUOUS
 62
     7
 10
-293.46481
 20
-636.30511
 11
-304.56482
 21
-642.71368
  0
LINE
  8
0
  6
CONTINUOUS
 62
     7
 10
-304.56482
 20
-655.53088
 11
-304.56482
 21
-642.71368
  0
LINE
  8
0
  6
CONTINUOUS
 62
     7
 10
-282.36484
 20
-642.71368
 11
-293.46484
 21
-636.30511
  0
LINE
  8
0
  6
CONTINUOUS
 62
     7
 10
-282.36481
 20
-642.71368
 11
-282.36481
 21
-655.53088
  0
LINE
  8
0
  6
CONTINUOUS
 62
     7
 10
-282.36481
 20
-655.53088
 11
-293.46481
 21
-661.93945
  0
LINE
  8
0
  6
CONTINUOUS
 62
     7
 10
-293.46484
 20
-661.93951
 11
-304.56485
 21
-655.53088
  0
LINE
  8
0
  6
CONTINUOUS
 62
     7
 10
-148.07376
 20
-644.30511
 11
-159.17377
 21
-650.71375
  0
LINE
  8
0
  6
CONTINUOUS
 62
     7
 10
-159.17377
 20
-663.53088
 11
-159.17377
 21
-650.71368
  0
LINE
  8
0
  6
CONTINUOUS
 62
     7
 10
-136.97377
 20
-650.71368
 11
-148.07378
 21
-644.30511
  0
LINE
  8
0
  6
CONTINUOUS
 62
     7
 10
-136.97377
 20
-650.71368
 11
-136.97377
 21
-663.53088
  0
LINE
  8
0
  6
CONTINUOUS
 62
     7
 10
-136.97377
 20
-663.53088
 11
-148.07378
 21
-669.93945
  0
LINE
  8
0
  6
CONTINUOUS
 62
     7
 10
-148.07379
 20
-669.93945
 11
-159.17378
 21
-663.53088
  0
LINE
  8
0
  6
CONTINUOUS
 62
     7
 10
-25.158377
 20
-645.80511
 11
-36.258369
 21
-652.21375
  0
LINE
  8
0
  6
CONTINUOUS
 62
     7
 10
-36.258404
 20
-665.03088
 11
-36.258404
 21
-652.21368
  0
LINE
  8
0
  6
CONTINUOUS
 62
     7
 10
-14.058418
 20
-652.21375
 11
-25.158413
 21
-645.80511
  0
LINE
  8
0
  6
CONTINUOUS
 62
     7
 10
-14.058402
 20
-652.21368
 11
-14.058402
 21
-665.03088
  0
LINE
  8
0
  6
CONTINUOUS
 62
     7
 10
-14.058401
 20
-665.03088
 11
-25.158396
 21
-671.43945
  0
LINE
  8
0
  6
CONTINUOUS
 62
     7
 10
-25.158424
 20
-671.43951
 11
-36.258419
 21
-665.03088
  0
LINE
  8
0
  6
CONTINUOUS
 62
     7
 10
637.96869
 20
-668.82806
 11
624.46863
 21
-661.03381
  0
LINE
  8
0
  6
CONTINUOUS
 62
     7
 10
624.46869
 20
-661.03381
 11
610.96869
 21
-668.82806
  0
LINE
  8
0
  6
CONTINUOUS
 62
     7
 10
610.96869
 20
-684.4165
 11
610.96869
 21
-668.82806
  0
LINE
  8
0
  6
CONTINUOUS
 62
     7
 10
624.46869
 20
-692.21075
 11
610.96863
 21
-684.4165
  0
LINE
  8
0
  6
CONTINUOUS
 62
     7
 10
637.96869
 20
-684.4165
 11
624.46869
 21
-692.21075
  0
LINE
  8
0
  6
CONTINUOUS
 62
     7
 10
637.96869
 20
-668.82806
 11
637.96869
 21
-684.4165
  0
LINE
  8
0
  6
CONTINUOUS
 62
     7
 10
121.87447
 20
-494.32806
 11
108.37446
 21
-486.53381
  0
LINE
  8
0
  6
CONTINUOUS
 62
     7
 10
108.37447
 20
-486.53384
 11
94.874474
 21
-494.32806
  0
LINE
  8
0
  6
CONTINUOUS
 62
     7
 10
94.874458
 20
-509.91653
 11
94.874458
 21
-494.32806
  0
LINE
  8
0
  6
CONTINUOUS
 62
     7
 10
121.87446
 20
-494.32806
 11
121.87446
 21
-509.91653
  0
LINE
  8
0
  6
CONTINUOUS
 62
     7
 10
121.87447
 20
-509.91653
 11
108.37447
 21
-517.71075
  0
LINE
  8
0
  6
CONTINUOUS
 62
     7
 10
108.37447
 20
-517.71075
 11
94.874458
 21
-509.9165
  0
LINE
  8
0
  6
CONTINUOUS
 62
     7
 10
121.87446
 20
-667.32806
 11
108.37444
 21
-659.53387
  0
LINE
  8
0
  6
CONTINUOUS
 62
     7
 10
108.37447
 20
-659.53381
 11
94.874474
 21
-667.32806
  0
LINE
  8
0
  6
CONTINUOUS
 62
     7
 10
94.874458
 20
-682.9165
 11
94.874458
 21
-667.32806
  0
LINE
  8
0
  6
CONTINUOUS
 62
     7
 10
121.87446
 20
-667.32806
 11
121.87446
 21
-682.9165
  0
LINE
  8
0
  6
CONTINUOUS
 62
     7
 10
121.87447
 20
-682.9165
 11
108.37447
 21
-690.71075
  0
LINE
  8
0
  6
CONTINUOUS
 62
     7
 10
108.37446
 20
-690.71075
 11
94.874443
 21
-682.9165
  0
LINE
  8
0
  6
CONTINUOUS
 62
     7
 10
254.76817
 20
-668.82806
 11
241.26819
 21
-661.03387
  0
LINE
  8
0
  6
CONTINUOUS
 62
     7
 10
241.2682
 20
-661.03381
 11
227.7682
 21
-668.82806
  0
LINE
  8
0
  6
CONTINUOUS
 62
     7
 10
227.76819
 20
-684.4165
 11
227.76819
 21
-668.82806
  0
LINE
  8
0
  6
CONTINUOUS
 62
     7
 10
254.76819
 20
-668.82806
 11
254.76819
 21
-684.4165
  0
LINE
  8
0
  6
CONTINUOUS
 62
     7
 10
254.7682
 20
-684.4165
 11
241.2682
 21
-692.21075
  0
LINE
  8
0
  6
CONTINUOUS
 62
     7
 10
241.26817
 20
-692.21075
 11
227.76819
 21
-684.41656
  0
LINE
  8
0
  6
CONTINUOUS
 62
     7
 10
254.76819
 20
-492.82809
 11
241.26819
 21
-485.03384
  0
LINE
  8
0
  6
CONTINUOUS
 62
     7
 10
241.2682
 20
-485.03384
 11
227.7682
 21
-492.82806
  0
LINE
  8
0
  6
CONTINUOUS
 62
     7
 10
227.76819
 20
-508.41653
 11
227.76819
 21
-492.82806
  0
LINE
  8
0
  6
CONTINUOUS
 62
     7
 10
254.76819
 20
-492.82806
 11
254.76819
 21
-508.41653
  0
LINE
  8
0
  6
CONTINUOUS
 62
     7
 10
254.7682
 20
-508.41653
 11
241.2682
 21
-516.21075
  0
LINE
  8
0
  6
CONTINUOUS
 62
     7
 10
241.26819
 20
-516.21075
 11
227.76819
 21
-508.41653
  0
LINE
  8
0
  6
CONTINUOUS
 62
     7
 10
637.96869
 20
-492.82806
 11
624.46863
 21
-485.03381
  0
LINE
  8
0
  6
CONTINUOUS
 62
     7
 10
624.46869
 20
-485.03381
 11
610.96869
 21
-492.82806
  0
LINE
  8
0
  6
CONTINUOUS
 62
     7
 10
610.96869
 20
-508.41653
 11
610.96869
 21
-492.82806
  0
LINE
  8
0
  6
CONTINUOUS
 62
     7
 10
624.46869
 20
-516.21075
 11
610.96863
 21
-508.41653
  0
LINE
  8
0
  6
CONTINUOUS
 62
     7
 10
637.96869
 20
-508.4165
 11
624.46869
 21
-516.21075
  0
LINE
  8
0
  6
CONTINUOUS
 62
     7
 10
637.96869
 20
-492.82806
 11
637.96869
 21
-508.41653
  0
LINE
  8
0
  6
CONTINUOUS
 62
     7
 10
915.89691
 20
-461.44244
 11
899.99689
 21
-452.26257
  0
LINE
  8
0
  6
CONTINUOUS
 62
     7
 10
899.99689
 20
-452.26257
 11
884.09686
 21
-461.44244
  0
LINE
  8
0
  6
CONTINUOUS
 62
     7
 10
884.09686
 20
-479.80215
 11
884.09686
 21
-461.44241
  0
LINE
  8
0
  6
CONTINUOUS
 62
     7
 10
899.99689
 20
-488.98206
 11
884.09686
 21
-479.80219
  0
LINE
  8
0
  6
CONTINUOUS
 62
     7
 10
915.89685
 20
-479.80215
 11
899.99689
 21
-488.98203
  0
LINE
  8
0
  6
CONTINUOUS
 62
     7
 10
915.89685
 20
-461.44241
 11
915.89685
 21
-479.80215
  0
LINE
  8
0
  6
CONTINUOUS
 62
     7
 10
770.82196
 20
-476.94244
 11
754.922
 21
-467.76257
  0
LINE
  8
0
  6
CONTINUOUS
 62
     7
 10
754.922
 20
-467.76254
 11
739.02197
 21
-476.94241
  0
LINE
  8
0
  6
CONTINUOUS
 62
     7
 10
739.02197
 20
-495.30215
 11
739.02197
 21
-476.94241
  0
LINE
  8
0
  6
CONTINUOUS
 62
     7
 10
754.922
 20
-504.48206
 11
739.02197
 21
-495.30219
  0
LINE
  8
0
  6
CONTINUOUS
 62
     7
 10
770.82196
 20
-495.30215
 11
754.92194
 21
-504.48203
  0
LINE
  8
0
  6
CONTINUOUS
 62
     7
 10
770.82196
 20
-476.94241
 11
770.82196
 21
-495.30215
  0
LINE
  8
0
  6
CONTINUOUS
 62
     7
 10
770.82196
 20
-681.94244
 11
754.922
 21
-672.76257
  0
LINE
  8
0
  6
CONTINUOUS
 62
     7
 10
754.922
 20
-672.76257
 11
739.02197
 21
-681.94244
  0
LINE
  8
0
  6
CONTINUOUS
 62
     7
 10
739.02197
 20
-700.30219
 11
739.02197
 21
-681.94244
  0
LINE
  8
0
  6
CONTINUOUS
 62
     7
 10
754.922
 20
-709.48206
 11
739.02197
 21
-700.30219
  0
LINE
  8
0
  6
CONTINUOUS
 62
     7
 10
770.82196
 20
-700.30212
 11
754.922
 21
-709.48199
  0
LINE
  8
0
  6
CONTINUOUS
 62
     7
 10
770.82196
 20
-681.94244
 11
770.82196
 21
-700.30219
  0
LINE
  8
0
  6
CONTINUOUS
 62
     7
 10
915.89685
 20
-697.44238
 11
899.99683
 21
-688.26251
  0
LINE
  8
0
  6
CONTINUOUS
 62
     7
 10
899.99689
 20
-688.26251
 11
884.09686
 21
-697.44238
  0
LINE
  8
0
  6
CONTINUOUS
 62
     7
 10
884.09686
 20
-715.80219
 11
884.09686
 21
-697.44244
  0
LINE
  8
0
  6
CONTINUOUS
 62
     7
 10
899.99683
 20
-724.98199
 11
884.09686
 21
-715.80212
  0
LINE
  8
0
  6
CONTINUOUS
 62
     7
 10
915.89691
 20
-715.80219
 11
899.99689
 21
-724.98206
  0
LINE
  8
0
  6
CONTINUOUS
 62
     7
 10
915.89685
 20
-697.44244
 11
915.89685
 21
-715.80219
  0
LINE
  8
0
  6
CONTINUOUS
 62
     7
 10
1049.6934
 20
-697.44244
 11
1033.7933
 21
-688.26257
  0
LINE
  8
0
  6
CONTINUOUS
 62
     7
 10
1033.7935
 20
-688.26257
 11
1017.8934
 21
-697.44244
  0
LINE
  8
0
  6
CONTINUOUS
 62
     7
 10
1017.8934
 20
-715.80219
 11
1017.8934
 21
-697.44244
  0
LINE
  8
0
  6
CONTINUOUS
 62
     7
 10
1033.7933
 20
-724.98206
 11
1017.8934
 21
-715.80219
  0
LINE
  8
0
  6
CONTINUOUS
 62
     7
 10
1049.6934
 20
-715.80212
 11
1033.7935
 21
-724.98199
  0
LINE
  8
0
  6
CONTINUOUS
 62
     7
 10
1049.6934
 20
-697.44244
 11
1049.6934
 21
-715.80219
  0
LINE
  8
0
  6
CONTINUOUS
 62
     7
 10
1049.6934
 20
-461.44241
 11
1033.7933
 21
-452.26254
  0
LINE
  8
0
  6
CONTINUOUS
 62
     7
 10
1033.7935
 20
-452.26254
 11
1017.8934
 21
-461.44241
  0
LINE
  8
0
  6
CONTINUOUS
 62
     7
 10
1017.8934
 20
-479.80215
 11
1017.8934
 21
-461.44241
  0
LINE
  8
0
  6
CONTINUOUS
 62
     7
 10
1033.7933
 20
-488.98203
 11
1017.8934
 21
-479.80215
  0
LINE
  8
0
  6
CONTINUOUS
 62
     7
 10
1049.6935
 20
-479.80212
 11
1033.7935
 21
-488.98199
  0
LINE
  8
0
  6
CONTINUOUS
 62
     7
 10
1049.6934
 20
-461.44241
 11
1049.6934
 21
-479.80215
  0
ARC
  8
0
  6
CONTINUOUS
 62
     7
 10
-311.50357
 20
68.906479
 40
2
 50
90.000003
 51
141.34019
  0
ARC
  8
0
  6
CONTINUOUS
 62
     7
 10
-275.88397
 20
68.906479
 40
2
 50
19.282606
 51
90.000003
  0
ARC
  8
0
  6
CONTINUOUS
 62
     7
 10
-275.88397
 20
-28.393524
 40
2
 50
270
 51
340.71739
  0
ARC
  8
0
  6
CONTINUOUS
 62
     7
 10
-311.50357
 20
-28.393524
 40
2
 50
218.65981
 51
270
  0
ARC
  8
0
  6
CONTINUOUS
 62
     7
 10
-165.91313
 20
76.756485
 40
2
 50
90.000003
 51
150.25512
  0
ARC
  8
0
  6
CONTINUOUS
 62
     7
 10
-137.28802
 20
76.756485
 40
2
 50
27.474431
 51
90.000003
  0
ARC
  8
0
  6
CONTINUOUS
 62
     7
 10
-137.28802
 20
-36.243523
 40
2
 50
270
 51
332.52557
  0
ARC
  8
0
  6
CONTINUOUS
 62
     7
 10
-165.91313
 20
-36.243523
 40
2
 50
209.74488
 51
270
  0
ARC
  8
0
  6
CONTINUOUS
 62
     7
 10
-43.056061
 20
75.756485
 40
2
 50
90.000003
 51
147.72436
  0
ARC
  8
0
  6
CONTINUOUS
 62
     7
 10
-14.110341
 20
75.756485
 40
2
 50
39.093858
 51
90.000003
  0
ARC
  8
0
  6
CONTINUOUS
 62
     7
 10
-14.110341
 20
-35.243523
 40
2
 50
270
 51
320.90614
  0
ARC
  8
0
  6
CONTINUOUS
 62
     7
 10
-43.056061
 20
-35.243523
 40
2
 50
212.27564
 51
270
  0
ARC
  8
0
  6
CONTINUOUS
 62
     7
 10
89.6875
 20
93.756485
 40
2
 50
90.000003
 51
156.57131
  0
ARC
  8
0
  6
CONTINUOUS
 62
     7
 10
120.83081
 20
93.756485
 40
2
 50
14.676393
 51
90.000003
  0
ARC
  8
0
  6
CONTINUOUS
 62
     7
 10
120.83081
 20
-53.243519
 40
2
 50
270
 51
345.32361
  0
ARC
  8
0
  6
CONTINUOUS
 62
     7
 10
89.6875
 20
-53.243519
 40
2
 50
203.42869
 51
270
  0
ARC
  8
0
  6
CONTINUOUS
 62
     7
 10
222.52498
 20
92.256485
 40
2
 50
90.000003
 51
154.29005
  0
ARC
  8
0
  6
CONTINUOUS
 62
     7
 10
253.85568
 20
92.256485
 40
2
 50
19.536655
 51
90.000003
  0
ARC
  8
0
  6
CONTINUOUS
 62
     7
 10
253.85568
 20
-51.743519
 40
2
 50
270
 51
340.46335
  0
ARC
  8
0
  6
CONTINUOUS
 62
     7
 10
222.52498
 20
-51.743519
 40
2
 50
205.70995
 51
270
  0
ARC
  8
0
  6
CONTINUOUS
 62
     7
 10
605.72546
 20
82.339508
 40
2
 50
90.000003
 51
154.29005
  0
ARC
  8
0
  6
CONTINUOUS
 62
     7
 10
634.26331
 20
82.339508
 40
2
 50
27.847578
 51
90.000003
  0
ARC
  8
0
  6
CONTINUOUS
 62
     7
 10
634.26331
 20
-61.660496
 40
2
 50
270
 51
332.15242
  0
ARC
  8
0
  6
CONTINUOUS
 62
     7
 10
605.72546
 20
-61.660496
 40
2
 50
205.70995
 51
270
  0
ARC
  8
0
  6
CONTINUOUS
 62
     7
 10
736.14728
 20
97.5895
 40
2
 50
90.000003
 51
152.98733
  0
ARC
  8
0
  6
CONTINUOUS
 62
     7
 10
773.32367
 20
97.5895
 40
2
 50
12.739647
 51
90.000003
  0
ARC
  8
0
  6
CONTINUOUS
 62
     7
 10
773.32367
 20
-76.910492
 40
2
 50
270
 51
347.26035
  0
ARC
  8
0
  6
CONTINUOUS
 62
     7
 10
736.14728
 20
-76.910492
 40
2
 50
207.01267
 51
270
  0
ARC
  8
0
  6
CONTINUOUS
 62
     7
 10
881.27338
 20
112.3395
 40
2
 50
90.000003
 51
155.09524
  0
ARC
  8
0
  6
CONTINUOUS
 62
     7
 10
915.38654
 20
112.3395
 40
2
 50
12.319445
 51
90.000003
  0
ARC
  8
0
  6
CONTINUOUS
 62
     7
 10
881.27338
 20
-91.660492
 40
2
 50
204.90476
 51
270
  0
ARC
  8
0
  6
CONTINUOUS
 62
     7
 10
915.38654
 20
-91.660492
 40
2
 50
270
 51
347.68056
  0
ARC
  8
0
  6
CONTINUOUS
 62
     7
 10
1015.0699
 20
112.3395
 40
2
 50
90.000003
 51
155.09524
  0
ARC
  8
0
  6
CONTINUOUS
 62
     7
 10
1052.2111
 20
112.3395
 40
2
 50
13.29857
 51
90.000003
  0
ARC
  8
0
  6
CONTINUOUS
 62
     7
 10
1052.2111
 20
-91.660492
 40
2
 50
270
 51
346.70143
  0
ARC
  8
0
  6
CONTINUOUS
 62
     7
 10
1015.0699
 20
-91.660492
 40
2
 50
204.90476
 51
270
  0
ARC
  8
0
  6
CONTINUOUS
 62
     7
 10
-151.32378
 20
-6.9433212
 40
8
 50
179.99999
 51
242.33599
  0
ARC
  8
0
  6
CONTINUOUS
 62
     7
 10
-148.07378
 20
-0.74352258
 40
15
 50
270
 51
297.66401
  0
ARC
  8
0
  6
CONTINUOUS
 62
     7
 10
-148.07378
 20
-0.74352258
 40
15
 50
242.33599
 51
270
  0
ARC
  8
0
  6
CONTINUOUS
 62
     7
 10
-144.82378
 20
-6.9433212
 40
8
 50
297.66401
 51
5.0089561E-006
  0
ARC
  8
0
  6
CONTINUOUS
 62
     7
 10
-28.408401
 20
-0.94332117
 40
8
 50
179.99999
 51
242.33599
  0
ARC
  8
0
  6
CONTINUOUS
 62
     7
 10
-25.158401
 20
5.2564774
 40
15
 50
270
 51
297.66401
  0
ARC
  8
0
  6
CONTINUOUS
 62
     7
 10
-25.158401
 20
5.2564774
 40
15
 50
242.33599
 51
270
  0
ARC
  8
0
  6
CONTINUOUS
 62
     7
 10
-21.908401
 20
-0.94332117
 40
8
 50
297.66401
 51
5.0089561E-006
  0
ARC
  8
0
  6
CONTINUOUS
 62
     7
 10
-293.46481
 20
5.2564774
 40
15
 50
270
 51
297.66401
  0
ARC
  8
0
  6
CONTINUOUS
 62
     7
 10
-290.21481
 20
-0.94332117
 40
8
 50
297.66401
 51
5.0089561E-006
  0
ARC
  8
0
  6
CONTINUOUS
 62
     7
 10
-293.46481
 20
5.2564774
 40
15
 50
242.33599
 51
270
  0
ARC
  8
0
  6
CONTINUOUS
 62
     7
 10
-296.71481
 20
-0.94332117
 40
8
 50
179.99999
 51
242.33599
  0
ARC
  8
0
  6
CONTINUOUS
 62
     7
 10
108.37446
 20
-1.7435226
 40
18
 50
244.05552
 51
270
  0
ARC
  8
0
  6
CONTINUOUS
 62
     7
 10
104.87446
 20
-8.9372787
 40
10
 50
179.99999
 51
244.05553
  0
ARC
  8
0
  6
CONTINUOUS
 62
     7
 10
108.37446
 20
-1.7435226
 40
18
 50
270
 51
295.94448
  0
ARC
  8
0
  6
CONTINUOUS
 62
     7
 10
111.87446
 20
-8.9372787
 40
10
 50
295.94448
 51
5.0089561E-006
  0
ARC
  8
0
  6
CONTINUOUS
 62
     7
 10
624.46869
 20
-9.6604977
 40
18
 50
244.05552
 51
270
  0
ARC
  8
0
  6
CONTINUOUS
 62
     7
 10
620.96869
 20
-16.854254
 40
10
 50
179.99999
 51
244.05553
  0
ARC
  8
0
  6
CONTINUOUS
 62
     7
 10
624.46869
 20
-9.6604977
 40
18
 50
270
 51
295.94448
  0
ARC
  8
0
  6
CONTINUOUS
 62
     7
 10
627.96869
 20
-16.854254
 40
10
 50
295.94448
 51
5.0089561E-006
  0
ARC
  8
0
  6
CONTINUOUS
 62
     7
 10
241.26819
 20
0.25647742
 40
18
 50
244.05552
 51
270
  0
ARC
  8
0
  6
CONTINUOUS
 62
     7
 10
237.76819
 20
-6.9372787
 40
10
 50
179.99999
 51
244.05553
  0
ARC
  8
0
  6
CONTINUOUS
 62
     7
 10
241.26819
 20
0.25647742
 40
18
 50
270
 51
295.94448
  0
ARC
  8
0
  6
CONTINUOUS
 62
     7
 10
244.76819
 20
-6.9372787
 40
10
 50
295.94448
 51
5.0089561E-006
  0
ARC
  8
0
  6
CONTINUOUS
 62
     7
 10
754.922
 20
-16.660475
 40
25
 50
270
 51
295.6793
  0
ARC
  8
0
  6
CONTINUOUS
 62
     7
 10
754.922
 20
-16.660475
 40
25
 50
244.32071
 51
270
  0
ARC
  8
0
  6
CONTINUOUS
 62
     7
 10
748.422
 20
-30.178999
 40
10
 50
179.99999
 51
244.3207
  0
ARC
  8
0
  6
CONTINUOUS
 62
     7
 10
761.422
 20
-30.178999
 40
10
 50
295.6793
 51
5.0089561E-006
  0
ARC
  8
0
  6
CONTINUOUS
 62
     7
 10
899.99689
 20
-16.660475
 40
25
 50
270
 51
295.6793
  0
ARC
  8
0
  6
CONTINUOUS
 62
     7
 10
899.99689
 20
-16.660475
 40
25
 50
244.32071
 51
270
  0
ARC
  8
0
  6
CONTINUOUS
 62
     7
 10
893.49689
 20
-30.178999
 40
10
 50
179.99999
 51
244.3207
  0
ARC
  8
0
  6
CONTINUOUS
 62
     7
 10
906.49689
 20
-30.178999
 40
10
 50
295.6793
 51
5.0089561E-006
  0
ARC
  8
0
  6
CONTINUOUS
 62
     7
 10
1033.7935
 20
-16.660475
 40
25
 50
270
 51
295.6793
  0
ARC
  8
0
  6
CONTINUOUS
 62
     7
 10
1033.7935
 20
-16.660475
 40
25
 50
244.32071
 51
270
  0
ARC
  8
0
  6
CONTINUOUS
 62
     7
 10
1027.2935
 20
-30.178999
 40
10
 50
179.99999
 51
244.3207
  0
ARC
  8
0
  6
CONTINUOUS
 62
     7
 10
1040.2935
 20
-30.178999
 40
10
 50
295.6793
 51
5.0089561E-006
  0
ARC
  8
0
  6
CONTINUOUS
 62
     7
 10
-282.97382
 20
-653.62231
 40
10
 50
270
 51
350.78898
  0
ARC
  8
0
  6
CONTINUOUS
 62
     7
 10
-304.65704
 20
-653.62231
 40
10
 50
194.03625
 51
270
  0
ARC
  8
0
  6
CONTINUOUS
 62
     7
 10
-304.65704
 20
-523.62231
 40
10
 50
90.000003
 51
165.96376
  0
ARC
  8
0
  6
CONTINUOUS
 62
     7
 10
-282.97382
 20
-523.62231
 40
10
 50
9.2110266
 51
90.000003
  0
ARC
  8
0
  6
CONTINUOUS
 62
     7
 10
-158.58342
 20
-663.12231
 40
10
 50
189.33501
 51
270
  0
ARC
  8
0
  6
CONTINUOUS
 62
     7
 10
-35.687149
 20
-664.62231
 40
10
 50
189.46232
 51
270
  0
ARC
  8
0
  6
CONTINUOUS
 62
     7
 10
-14.859941
 20
-664.62231
 40
10
 50
270
 51
352.05653
  0
ARC
  8
0
  6
CONTINUOUS
 62
     7
 10
-137.97636
 20
-663.12231
 40
10
 50
270
 51
353.35472
  0
ARC
  8
0
  6
CONTINUOUS
 62
     7
 10
-14.859941
 20
-512.62231
 40
10
 50
7.9434733
 51
90.000003
  0
ARC
  8
0
  6
CONTINUOUS
 62
     7
 10
-35.687149
 20
-512.62231
 40
10
 50
90.000003
 51
170.53768
  0
ARC
  8
0
  6
CONTINUOUS
 62
     7
 10
-137.97636
 20
-514.12231
 40
10
 50
6.6452797
 51
90.000003
  0
ARC
  8
0
  6
CONTINUOUS
 62
     7
 10
-158.58342
 20
-514.12231
 40
10
 50
90.000003
 51
170.66499
  0
ARC
  8
0
  6
CONTINUOUS
 62
     7
 10
119.04487
 20
-683.62231
 40
10
 50
270
 51
356.0275
  0
ARC
  8
0
  6
CONTINUOUS
 62
     7
 10
97.033821
 20
-683.62231
 40
10
 50
188.21921
 51
270
  0
ARC
  8
0
  6
CONTINUOUS
 62
     7
 10
108.37446
 20
-674.62231
 40
21
 50
36.529607
 51
143.47039
  0
ARC
  8
0
  6
CONTINUOUS
 62
     7
 10
108.37446
 20
-502.62228
 40
21
 50
216.52961
 51
323.4704
  0
ARC
  8
0
  6
CONTINUOUS
 62
     7
 10
97.033821
 20
-493.62228
 40
10
 50
90.000003
 51
171.78079
  0
ARC
  8
0
  6
CONTINUOUS
 62
     7
 10
119.04487
 20
-493.62228
 40
10
 50
3.9724969
 51
90.000003
  0
ARC
  8
0
  6
CONTINUOUS
 62
     7
 10
252.0304
 20
-684.62231
 40
10
 50
270
 51
355.46222
  0
ARC
  8
0
  6
CONTINUOUS
 62
     7
 10
229.87018
 20
-684.62231
 40
10
 50
188.59591
 51
270
  0
ARC
  8
0
  6
CONTINUOUS
 62
     7
 10
229.87018
 20
-492.62228
 40
10
 50
90.000003
 51
171.40409
  0
ARC
  8
0
  6
CONTINUOUS
 62
     7
 10
252.0304
 20
-492.62228
 40
10
 50
4.5377702
 51
90.000003
  0
ARC
  8
0
  6
CONTINUOUS
 62
     7
 10
613.07068
 20
-684.62231
 40
10
 50
188.59591
 51
270
  0
ARC
  8
0
  6
CONTINUOUS
 62
     7
 10
635.32178
 20
-684.62231
 40
10
 50
270
 51
354.89783
  0
ARC
  8
0
  6
CONTINUOUS
 62
     7
 10
635.32178
 20
-492.62228
 40
10
 50
5.1021624
 51
90.000003
  0
ARC
  8
0
  6
CONTINUOUS
 62
     7
 10
613.07068
 20
-492.62228
 40
10
 50
90.000003
 51
171.40409
  0
ARC
  8
0
  6
CONTINUOUS
 62
     7
 10
741.57251
 20
-703.62231
 40
10
 50
185.07961
 51
270
  0
ARC
  8
0
  6
CONTINUOUS
 62
     7
 10
768.05627
 20
-703.62231
 40
10
 50
270
 51
356.24827
  0
ARC
  8
0
  6
CONTINUOUS
 62
     7
 10
768.05627
 20
-473.62228
 40
10
 50
3.7517316
 51
90.000003
  0
ARC
  8
0
  6
CONTINUOUS
 62
     7
 10
741.57251
 20
-473.62228
 40
10
 50
90.000003
 51
174.92039
  0
ARC
  8
0
  6
CONTINUOUS
 62
     7
 10
913.05206
 20
-718.62231
 40
10
 50
270
 51
356.72951
  0
ARC
  8
0
  6
CONTINUOUS
 62
     7
 10
886.6474
 20
-718.62231
 40
10
 50
185.07961
 51
270
  0
ARC
  8
0
  6
CONTINUOUS
 62
     7
 10
899.99689
 20
-706.62231
 40
25
 50
42.843642
 51
137.15636
  0
ARC
  8
0
  6
CONTINUOUS
 62
     7
 10
899.99689
 20
-470.62228
 40
25
 50
222.84364
 51
317.15635
  0
ARC
  8
0
  6
CONTINUOUS
 62
     7
 10
913.05206
 20
-458.62228
 40
10
 50
3.2704901
 51
90.000003
  0
ARC
  8
0
  6
CONTINUOUS
 62
     7
 10
886.6474
 20
-458.62228
 40
10
 50
90.000003
 51
174.92039
  0
ARC
  8
0
  6
CONTINUOUS
 62
     7
 10
1020.4256
 20
-718.62231
 40
10
 50
185.19444
 51
270
  0
ARC
  8
0
  6
CONTINUOUS
 62
     7
 10
1046.9823
 20
-718.62231
 40
10
 50
270
 51
355.91438
  0
ARC
  8
0
  6
CONTINUOUS
 62
     7
 10
1033.7935
 20
-706.62231
 40
25
 50
42.843642
 51
137.15636
  0
ARC
  8
0
  6
CONTINUOUS
 62
     7
 10
1033.7935
 20
-470.62228
 40
25
 50
222.84364
 51
317.15635
  0
ARC
  8
0
  6
CONTINUOUS
 62
     7
 10
1020.4256
 20
-458.62228
 40
10
 50
90.000003
 51
174.80556
  0
ARC
  8
0
  6
CONTINUOUS
 62
     7
 10
1046.9823
 20
-458.62228
 40
10
 50
4.0856185
 51
90.000003
  0
CIRCLE
  8
0
  6
CONTINUOUS
 62
     7
 10
-293.46481
 20
-528.12231
 40
6.3499999
  0
CIRCLE
  8
0
  6
CONTINUOUS
 62
     7
 10
-293.46481
 20
-528.12231
 40
5.2919998
  0
CIRCLE
  8
0
  6
CONTINUOUS
 62
     7
 10
-148.07378
 20
-520.12231
 40
6.3499999
  0
CIRCLE
  8
0
  6
CONTINUOUS
 62
     7
 10
-148.07378
 20
-520.12231
 40
5.2919998
  0
CIRCLE
  8
0
  6
CONTINUOUS
 62
     7
 10
-25.158401
 20
-518.62231
 40
6.3499999
  0
CIRCLE
  8
0
  6
CONTINUOUS
 62
     7
 10
-25.158401
 20
-518.62231
 40
5.2919998
  0
CIRCLE
  8
0
  6
CONTINUOUS
 62
     7
 10
-293.46481
 20
-649.12231
 40
6.3499999
  0
CIRCLE
  8
0
  6
CONTINUOUS
 62
     7
 10
-293.46481
 20
-649.12231
 40
5.2919998
  0
CIRCLE
  8
0
  6
CONTINUOUS
 62
     7
 10
-148.07378
 20
-657.12231
 40
6.3499999
  0
CIRCLE
  8
0
  6
CONTINUOUS
 62
     7
 10
-148.07378
 20
-657.12231
 40
5.2919998
  0
CIRCLE
  8
0
  6
CONTINUOUS
 62
     7
 10
-25.158401
 20
-658.62231
 40
6.3499999
  0
CIRCLE
  8
0
  6
CONTINUOUS
 62
     7
 10
-25.158401
 20
-658.62231
 40
5.2919998
  0
CIRCLE
  8
0
  6
CONTINUOUS
 62
     7
 10
624.46869
 20
-676.62231
 40
7.9375
  0
CIRCLE
  8
0
  6
CONTINUOUS
 62
     7
 10
624.46869
 20
-676.62231
 40
6.6880002
  0
CIRCLE
  8
0
  6
CONTINUOUS
 62
     7
 10
108.37446
 20
-502.12228
 40
6.6880002
  0
CIRCLE
  8
0
  6
CONTINUOUS
 62
     7
 10
108.37446
 20
-502.12228
 40
7.9375
  0
CIRCLE
  8
0
  6
CONTINUOUS
 62
     7
 10
108.37446
 20
-675.12231
 40
6.6880002
  0
CIRCLE
  8
0
  6
CONTINUOUS
 62
     7
 10
108.37446
 20
-675.12231
 40
7.9375
  0
CIRCLE
  8
0
  6
CONTINUOUS
 62
     7
 10
241.26819
 20
-676.62231
 40
6.6880002
  0
CIRCLE
  8
0
  6
CONTINUOUS
 62
     7
 10
241.26819
 20
-676.62231
 40
7.9375
  0
CIRCLE
  8
0
  6
CONTINUOUS
 62
     7
 10
241.26819
 20
-500.62228
 40
6.6880002
  0
CIRCLE
  8
0
  6
CONTINUOUS
 62
     7
 10
241.26819
 20
-500.62228
 40
7.9375
  0
CIRCLE
  8
0
  6
CONTINUOUS
 62
     7
 10
624.46869
 20
-500.62228
 40
7.9375
  0
CIRCLE
  8
0
  6
CONTINUOUS
 62
     7
 10
624.46869
 20
-500.62228
 40
6.6880002
  0
CIRCLE
  8
0
  6
CONTINUOUS
 62
     7
 10
899.99689
 20
-470.62228
 40
9.5249996
  0
CIRCLE
  8
0
  6
CONTINUOUS
 62
     7
 10
899.99689
 20
-470.62228
 40
8.1494999
  0
CIRCLE
  8
0
  6
CONTINUOUS
 62
     7
 10
754.922
 20
-486.12228
 40
8.1494999
  0
CIRCLE
  8
0
  6
CONTINUOUS
 62
     7
 10
754.922
 20
-486.12228
 40
9.5249996
  0
CIRCLE
  8
0
  6
CONTINUOUS
 62
     7
 10
754.922
 20
-691.12231
 40
8.1494999
  0
CIRCLE
  8
0
  6
CONTINUOUS
 62
     7
 10
754.922
 20
-691.12231
 40
9.5249996
  0
CIRCLE
  8
0
  6
CONTINUOUS
 62
     7
 10
899.99689
 20
-706.62231
 40
8.1494999
  0
CIRCLE
  8
0
  6
CONTINUOUS
 62
     7
 10
899.99689
 20
-706.62231
 40
9.5249996
  0
CIRCLE
  8
0
  6
CONTINUOUS
 62
     7
 10
1033.7935
 20
-706.62231
 40
8.1494999
  0
CIRCLE
  8
0
  6
CONTINUOUS
 62
     7
 10
1033.7935
 20
-706.62231
 40
9.5249996
  0
CIRCLE
  8
0
  6
CONTINUOUS
 62
     7
 10
1033.7935
 20
-470.62228
 40
8.1494999
  0
CIRCLE
  8
0
  6
CONTINUOUS
 62
     7
 10
1033.7935
 20
-470.62228
 40
9.5249996
  0
POLYLINE
  8
0
  6
CONTINUOUS
 62
     7
 66
     1
 10
0
 20
0
  0
VERTEX
  8
0
  6
CONTINUOUS
 62
     7
 10
-287.02341
 20
51.706467
 42
-0.10383093
  0
VERTEX
  8
0
  6
CONTINUOUS
 62
     7
 10
-285.04381
 20
53.265709
 42
-0.2373847
  0
VERTEX
  8
0
  6
CONTINUOUS
 62
     7
 10
-282.59481
 20
53.265882
 42
-0.10386749
  0
VERTEX
  8
0
  6
CONTINUOUS
 62
     7
 10
-280.61481
 20
51.706467
 42
0
  0
SEQEND
  8
0
  0
POLYLINE
  8
0
  6
CONTINUOUS
 62
     7
 66
     1
 10
0
 20
0
  0
VERTEX
  8
0
  6
CONTINUOUS
 62
     7
 10
-287.02341
 20
51.706467
 42
0.037568432
  0
VERTEX
  8
0
  6
CONTINUOUS
 62
     7
 10
-289.05868
 20
52.682503
 42
0.042426292
  0
VERTEX
  8
0
  6
CONTINUOUS
 62
     7
 10
-291.22198
 20
53.323628
 42
0.050272693
  0
VERTEX
  8
0
  6
CONTINUOUS
 62
     7
 10
-293.46481
 20
53.556473
 42
0
  0
SEQEND
  8
0
  0
POLYLINE
  8
0
  6
CONTINUOUS
 62
     7
 66
     1
 10
0
 20
0
  0
VERTEX
  8
0
  6
CONTINUOUS
 62
     7
 10
-299.90622
 20
51.706467
 42
-0.037568432
  0
VERTEX
  8
0
  6
CONTINUOUS
 62
     7
 10
-297.87095
 20
52.682503
 42
-0.042426292
  0
VERTEX
  8
0
  6
CONTINUOUS
 62
     7
 10
-295.70764
 20
53.323628
 42
-0.050272693
  0
VERTEX
  8
0
  6
CONTINUOUS
 62
     7
 10
-293.46481
 20
53.556473
 42
0
  0
SEQEND
  8
0
  0
POLYLINE
  8
0
  6
CONTINUOUS
 62
     7
 66
     1
 10
0
 20
0
  0
VERTEX
  8
0
  6
CONTINUOUS
 62
     7
 10
-299.90622
 20
51.706467
 42
0.10383093
  0
VERTEX
  8
0
  6
CONTINUOUS
 62
     7
 10
-301.88582
 20
53.265709
 42
0.2373847
  0
VERTEX
  8
0
  6
CONTINUOUS
 62
     7
 10
-304.33482
 20
53.265882
 42
0.10386749
  0
VERTEX
  8
0
  6
CONTINUOUS
 62
     7
 10
-306.31482
 20
51.706467
 42
0
  0
SEQEND
  8
0
  0
POLYLINE
  8
0
  6
CONTINUOUS
 62
     7
 66
     1
 10
0
 20
0
  0
VERTEX
  8
0
  6
CONTINUOUS
 62
     7
 10
-299.90622
 20
43.106491
 42
-0.10383093
  0
VERTEX
  8
0
  6
CONTINUOUS
 62
     7
 10
-301.88582
 20
41.547249
 42
-0.2373847
  0
VERTEX
  8
0
  6
CONTINUOUS
 62
     7
 10
-304.33482
 20
41.547076
 42
-0.10386749
  0
VERTEX
  8
0
  6
CONTINUOUS
 62
     7
 10
-306.31482
 20
43.106491
 42
0
  0
SEQEND
  8
0
  0
POLYLINE
  8
0
  6
CONTINUOUS
 62
     7
 66
     1
 10
0
 20
0
  0
VERTEX
  8
0
  6
CONTINUOUS
 62
     7
 10
-299.90622
 20
43.106491
 42
0.037568432
  0
VERTEX
  8
0
  6
CONTINUOUS
 62
     7
 10
-297.87095
 20
42.130455
 42
0.042426292
  0
VERTEX
  8
0
  6
CONTINUOUS
 62
     7
 10
-295.70764
 20
41.48933
 42
0.050272693
  0
VERTEX
  8
0
  6
CONTINUOUS
 62
     7
 10
-293.46481
 20
41.256485
 42
0
  0
SEQEND
  8
0
  0
POLYLINE
  8
0
  6
CONTINUOUS
 62
     7
 66
     1
 10
0
 20
0
  0
VERTEX
  8
0
  6
CONTINUOUS
 62
     7
 10
-287.02341
 20
43.106491
 42
-0.037568432
  0
VERTEX
  8
0
  6
CONTINUOUS
 62
     7
 10
-289.05868
 20
42.130455
 42
-0.042426292
  0
VERTEX
  8
0
  6
CONTINUOUS
 62
     7
 10
-291.22198
 20
41.48933
 42
-0.050272693
  0
VERTEX
  8
0
  6
CONTINUOUS
 62
     7
 10
-293.46481
 20
41.256485
 42
0
  0
SEQEND
  8
0
  0
POLYLINE
  8
0
  6
CONTINUOUS
 62
     7
 66
     1
 10
0
 20
0
  0
VERTEX
  8
0
  6
CONTINUOUS
 62
     7
 10
-287.02341
 20
43.106491
 42
0.10383093
  0
VERTEX
  8
0
  6
CONTINUOUS
 62
     7
 10
-285.04381
 20
41.547249
 42
0.2373847
  0
VERTEX
  8
0
  6
CONTINUOUS
 62
     7
 10
-282.59481
 20
41.547076
 42
0.10386749
  0
VERTEX
  8
0
  6
CONTINUOUS
 62
     7
 10
-280.61481
 20
43.106491
 42
0
  0
SEQEND
  8
0
  0
POLYLINE
  8
0
  6
CONTINUOUS
 62
     7
 66
     1
 10
0
 20
0
  0
VERTEX
  8
0
  6
CONTINUOUS
 62
     7
 10
-141.63237
 20
57.706467
 42
-0.10383088
  0
VERTEX
  8
0
  6
CONTINUOUS
 62
     7
 10
-139.65277
 20
59.265705
 42
-0.23738575
  0
VERTEX
  8
0
  6
CONTINUOUS
 62
     7
 10
-137.20376
 20
59.26588
 42
-0.10386672
  0
VERTEX
  8
0
  6
CONTINUOUS
 62
     7
 10
-135.22377
 20
57.706467
 42
0
  0
SEQEND
  8
0
  0
POLYLINE
  8
0
  6
CONTINUOUS
 62
     7
 66
     1
 10
0
 20
0
  0
VERTEX
  8
0
  6
CONTINUOUS
 62
     7
 10
-141.63237
 20
57.706467
 42
0.037568432
  0
VERTEX
  8
0
  6
CONTINUOUS
 62
     7
 10
-143.66764
 20
58.682503
 42
0.042426292
  0
VERTEX
  8
0
  6
CONTINUOUS
 62
     7
 10
-145.83095
 20
59.323628
 42
0.050272693
  0
VERTEX
  8
0
  6
CONTINUOUS
 62
     7
 10
-148.07378
 20
59.556473
 42
0
  0
SEQEND
  8
0
  0
POLYLINE
  8
0
  6
CONTINUOUS
 62
     7
 66
     1
 10
0
 20
0
  0
VERTEX
  8
0
  6
CONTINUOUS
 62
     7
 10
-154.51518
 20
57.706467
 42
-0.037568432
  0
VERTEX
  8
0
  6
CONTINUOUS
 62
     7
 10
-152.47991
 20
58.682503
 42
-0.042426292
  0
VERTEX
  8
0
  6
CONTINUOUS
 62
     7
 10
-150.31661
 20
59.323628
 42
-0.050272693
  0
VERTEX
  8
0
  6
CONTINUOUS
 62
     7
 10
-148.07378
 20
59.556473
 42
0
  0
SEQEND
  8
0
  0
POLYLINE
  8
0
  6
CONTINUOUS
 62
     7
 66
     1
 10
0
 20
0
  0
VERTEX
  8
0
  6
CONTINUOUS
 62
     7
 10
-154.51518
 20
57.706467
 42
0.10383088
  0
VERTEX
  8
0
  6
CONTINUOUS
 62
     7
 10
-156.49479
 20
59.265705
 42
0.23738575
  0
VERTEX
  8
0
  6
CONTINUOUS
 62
     7
 10
-158.9438
 20
59.26588
 42
0.10386672
  0
VERTEX
  8
0
  6
CONTINUOUS
 62
     7
 10
-160.92378
 20
57.706467
 42
0
  0
SEQEND
  8
0
  0
POLYLINE
  8
0
  6
CONTINUOUS
 62
     7
 66
     1
 10
0
 20
0
  0
VERTEX
  8
0
  6
CONTINUOUS
 62
     7
 10
-154.51518
 20
49.106491
 42
-0.10383088
  0
VERTEX
  8
0
  6
CONTINUOUS
 62
     7
 10
-156.49479
 20
47.547252
 42
-0.23738575
  0
VERTEX
  8
0
  6
CONTINUOUS
 62
     7
 10
-158.9438
 20
47.547077
 42
-0.10386672
  0
VERTEX
  8
0
  6
CONTINUOUS
 62
     7
 10
-160.92378
 20
49.106491
 42
0
  0
SEQEND
  8
0
  0
POLYLINE
  8
0
  6
CONTINUOUS
 62
     7
 66
     1
 10
0
 20
0
  0
VERTEX
  8
0
  6
CONTINUOUS
 62
     7
 10
-154.51518
 20
49.106491
 42
0.037568432
  0
VERTEX
  8
0
  6
CONTINUOUS
 62
     7
 10
-152.47991
 20
48.130455
 42
0.042426292
  0
VERTEX
  8
0
  6
CONTINUOUS
 62
     7
 10
-150.31661
 20
47.48933
 42
0.050272693
  0
VERTEX
  8
0
  6
CONTINUOUS
 62
     7
 10
-148.07378
 20
47.256485
 42
0
  0
SEQEND
  8
0
  0
POLYLINE
  8
0
  6
CONTINUOUS
 62
     7
 66
     1
 10
0
 20
0
  0
VERTEX
  8
0
  6
CONTINUOUS
 62
     7
 10
-141.63237
 20
49.106491
 42
-0.037568432
  0
VERTEX
  8
0
  6
CONTINUOUS
 62
     7
 10
-143.66764
 20
48.130455
 42
-0.042426292
  0
VERTEX
  8
0
  6
CONTINUOUS
 62
     7
 10
-145.83095
 20
47.48933
 42
-0.050272693
  0
VERTEX
  8
0
  6
CONTINUOUS
 62
     7
 10
-148.07378
 20
47.256485
 42
0
  0
SEQEND
  8
0
  0
POLYLINE
  8
0
  6
CONTINUOUS
 62
     7
 66
     1
 10
0
 20
0
  0
VERTEX
  8
0
  6
CONTINUOUS
 62
     7
 10
-141.63237
 20
49.106491
 42
0.10383088
  0
VERTEX
  8
0
  6
CONTINUOUS
 62
     7
 10
-139.65277
 20
47.547252
 42
0.23738575
  0
VERTEX
  8
0
  6
CONTINUOUS
 62
     7
 10
-137.20376
 20
47.547077
 42
0.10386672
  0
VERTEX
  8
0
  6
CONTINUOUS
 62
     7
 10
-135.22377
 20
49.106491
 42
0
  0
SEQEND
  8
0
  0
POLYLINE
  8
0
  6
CONTINUOUS
 62
     7
 66
     1
 10
0
 20
0
  0
VERTEX
  8
0
  6
CONTINUOUS
 62
     7
 10
-18.716995
 20
51.706467
 42
-0.10383087
  0
VERTEX
  8
0
  6
CONTINUOUS
 62
     7
 10
-16.737392
 20
53.265706
 42
-0.23738574
  0
VERTEX
  8
0
  6
CONTINUOUS
 62
     7
 10
-14.288384
 20
53.26588
 42
-0.10386673
  0
VERTEX
  8
0
  6
CONTINUOUS
 62
     7
 10
-12.308396
 20
51.706467
 42
0
  0
SEQEND
  8
0
  0
POLYLINE
  8
0
  6
CONTINUOUS
 62
     7
 66
     1
 10
0
 20
0
  0
VERTEX
  8
0
  6
CONTINUOUS
 62
     7
 10
-18.716995
 20
51.706467
 42
0.037568432
  0
VERTEX
  8
0
  6
CONTINUOUS
 62
     7
 10
-20.752269
 20
52.682503
 42
0.042426292
  0
VERTEX
  8
0
  6
CONTINUOUS
 62
     7
 10
-22.915571
 20
53.323628
 42
0.050272693
  0
VERTEX
  8
0
  6
CONTINUOUS
 62
     7
 10
-25.158401
 20
53.556473
 42
0
  0
SEQEND
  8
0
  0
POLYLINE
  8
0
  6
CONTINUOUS
 62
     7
 66
     1
 10
0
 20
0
  0
VERTEX
  8
0
  6
CONTINUOUS
 62
     7
 10
-31.5998
 20
51.706467
 42
-0.037568291
  0
VERTEX
  8
0
  6
CONTINUOUS
 62
     7
 10
-29.564529
 20
52.682503
 42
-0.042426378
  0
VERTEX
  8
0
  6
CONTINUOUS
 62
     7
 10
-27.40123
 20
53.323628
 42
-0.050272766
  0
VERTEX
  8
0
  6
CONTINUOUS
 62
     7
 10
-25.158401
 20
53.556473
 42
0
  0
SEQEND
  8
0
  0
POLYLINE
  8
0
  6
CONTINUOUS
 62
     7
 66
     1
 10
0
 20
0
  0
VERTEX
  8
0
  6
CONTINUOUS
 62
     7
 10
-31.5998
 20
51.706467
 42
0.10383088
  0
VERTEX
  8
0
  6
CONTINUOUS
 62
     7
 10
-33.579404
 20
53.265705
 42
0.23738575
  0
VERTEX
  8
0
  6
CONTINUOUS
 62
     7
 10
-36.028413
 20
53.26588
 42
0.10386672
  0
VERTEX
  8
0
  6
CONTINUOUS
 62
     7
 10
-38.0084
 20
51.706467
 42
0
  0
SEQEND
  8
0
  0
POLYLINE
  8
0
  6
CONTINUOUS
 62
     7
 66
     1
 10
0
 20
0
  0
VERTEX
  8
0
  6
CONTINUOUS
 62
     7
 10
-31.5998
 20
43.106491
 42
-0.10383088
  0
VERTEX
  8
0
  6
CONTINUOUS
 62
     7
 10
-33.579404
 20
41.547252
 42
-0.23738575
  0
VERTEX
  8
0
  6
CONTINUOUS
 62
     7
 10
-36.028413
 20
41.547077
 42
-0.10386672
  0
VERTEX
  8
0
  6
CONTINUOUS
 62
     7
 10
-38.0084
 20
43.106491
 42
0
  0
SEQEND
  8
0
  0
POLYLINE
  8
0
  6
CONTINUOUS
 62
     7
 66
     1
 10
0
 20
0
  0
VERTEX
  8
0
  6
CONTINUOUS
 62
     7
 10
-31.5998
 20
43.106491
 42
0.037568291
  0
VERTEX
  8
0
  6
CONTINUOUS
 62
     7
 10
-29.564529
 20
42.130455
 42
0.042426378
  0
VERTEX
  8
0
  6
CONTINUOUS
 62
     7
 10
-27.40123
 20
41.48933
 42
0.050272766
  0
VERTEX
  8
0
  6
CONTINUOUS
 62
     7
 10
-25.158401
 20
41.256485
 42
0
  0
SEQEND
  8
0
  0
POLYLINE
  8
0
  6
CONTINUOUS
 62
     7
 66
     1
 10
0
 20
0
  0
VERTEX
  8
0
  6
CONTINUOUS
 62
     7
 10
-18.716995
 20
43.106491
 42
-0.037568432
  0
VERTEX
  8
0
  6
CONTINUOUS
 62
     7
 10
-20.752269
 20
42.130455
 42
-0.042426292
  0
VERTEX
  8
0
  6
CONTINUOUS
 62
     7
 10
-22.915571
 20
41.48933
 42
-0.050272693
  0
VERTEX
  8
0
  6
CONTINUOUS
 62
     7
 10
-25.158401
 20
41.256485
 42
0
  0
SEQEND
  8
0
  0
POLYLINE
  8
0
  6
CONTINUOUS
 62
     7
 66
     1
 10
0
 20
0
  0
VERTEX
  8
0
  6
CONTINUOUS
 62
     7
 10
-18.716995
 20
43.106491
 42
0.10383087
  0
VERTEX
  8
0
  6
CONTINUOUS
 62
     7
 10
-16.737392
 20
41.547252
 42
0.23738574
  0
VERTEX
  8
0
  6
CONTINUOUS
 62
     7
 10
-14.288384
 20
41.547077
 42
0.10386673
  0
VERTEX
  8
0
  6
CONTINUOUS
 62
     7
 10
-12.308396
 20
43.106491
 42
0
  0
SEQEND
  8
0
  0
POLYLINE
  8
0
  6
CONTINUOUS
 62
     7
 66
     1
 10
0
 20
0
  0
VERTEX
  8
0
  6
CONTINUOUS
 62
     7
 10
100.56866
 20
51.506485
 42
0.037645866
  0
VERTEX
  8
0
  6
CONTINUOUS
 62
     7
 10
103.03424
 20
50.319784
 42
0.042544897
  0
VERTEX
  8
0
  6
CONTINUOUS
 62
     7
 10
105.65584
 20
49.539876
 42
0.050467872
  0
VERTEX
  8
0
  6
CONTINUOUS
 62
     7
 10
108.37446
 20
49.256485
 42
0
  0
SEQEND
  8
0
  0
POLYLINE
  8
0
  6
CONTINUOUS
 62
     7
 66
     1
 10
0
 20
0
  0
VERTEX
  8
0
  6
CONTINUOUS
 62
     7
 10
100.56866
 20
51.506485
 42
-0.10378429
  0
VERTEX
  8
0
  6
CONTINUOUS
 62
     7
 10
98.162012
 20
49.610555
 42
-0.23752966
  0
VERTEX
  8
0
  6
CONTINUOUS
 62
     7
 10
95.181526
 20
49.610369
 42
-0.10380928
  0
VERTEX
  8
0
  6
CONTINUOUS
 62
     7
 10
92.774445
 20
51.506485
 42
0
  0
SEQEND
  8
0
  0
POLYLINE
  8
0
  6
CONTINUOUS
 62
     7
 66
     1
 10
0
 20
0
  0
VERTEX
  8
0
  6
CONTINUOUS
 62
     7
 10
100.56866
 20
62.506485
 42
0.10378429
  0
VERTEX
  8
0
  6
CONTINUOUS
 62
     7
 10
98.162012
 20
64.402415
 42
0.23752966
  0
VERTEX
  8
0
  6
CONTINUOUS
 62
     7
 10
95.181526
 20
64.402601
 42
0.10380928
  0
VERTEX
  8
0
  6
CONTINUOUS
 62
     7
 10
92.774445
 20
62.506485
 42
0
  0
SEQEND
  8
0
  0
POLYLINE
  8
0
  6
CONTINUOUS
 62
     7
 66
     1
 10
0
 20
0
  0
VERTEX
  8
0
  6
CONTINUOUS
 62
     7
 10
100.56866
 20
62.506485
 42
-0.037645866
  0
VERTEX
  8
0
  6
CONTINUOUS
 62
     7
 10
103.03424
 20
63.693186
 42
-0.042544897
  0
VERTEX
  8
0
  6
CONTINUOUS
 62
     7
 10
105.65584
 20
64.473094
 42
-0.050467872
  0
VERTEX
  8
0
  6
CONTINUOUS
 62
     7
 10
108.37446
 20
64.756485
 42
0
  0
SEQEND
  8
0
  0
POLYLINE
  8
0
  6
CONTINUOUS
 62
     7
 66
     1
 10
0
 20
0
  0
VERTEX
  8
0
  6
CONTINUOUS
 62
     7
 10
116.18021
 20
62.506485
 42
0.03764528
  0
VERTEX
  8
0
  6
CONTINUOUS
 62
     7
 10
113.71465
 20
63.693185
 42
0.042545253
  0
VERTEX
  8
0
  6
CONTINUOUS
 62
     7
 10
111.09307
 20
64.473094
 42
0.050468174
  0
VERTEX
  8
0
  6
CONTINUOUS
 62
     7
 10
108.37446
 20
64.756485
 42
0
  0
SEQEND
  8
0
  0
POLYLINE
  8
0
  6
CONTINUOUS
 62
     7
 66
     1
 10
0
 20
0
  0
VERTEX
  8
0
  6
CONTINUOUS
 62
     7
 10
116.18021
 20
51.506485
 42
-0.03764528
  0
VERTEX
  8
0
  6
CONTINUOUS
 62
     7
 10
113.71465
 20
50.319785
 42
-0.042545253
  0
VERTEX
  8
0
  6
CONTINUOUS
 62
     7
 10
111.09307
 20
49.539876
 42
-0.050468174
  0
VERTEX
  8
0
  6
CONTINUOUS
 62
     7
 10
108.37446
 20
49.256485
 42
0
  0
SEQEND
  8
0
  0
POLYLINE
  8
0
  6
CONTINUOUS
 62
     7
 66
     1
 10
0
 20
0
  0
VERTEX
  8
0
  6
CONTINUOUS
 62
     7
 10
116.18021
 20
51.506485
 42
0.10378463
  0
VERTEX
  8
0
  6
CONTINUOUS
 62
     7
 10
118.58688
 20
49.610559
 42
0.23752989
  0
VERTEX
  8
0
  6
CONTINUOUS
 62
     7
 10
121.56739
 20
49.610371
 42
0.10380902
  0
VERTEX
  8
0
  6
CONTINUOUS
 62
     7
 10
123.97446
 20
51.506485
 42
0
  0
SEQEND
  8
0
  0
POLYLINE
  8
0
  6
CONTINUOUS
 62
     7
 66
     1
 10
0
 20
0
  0
VERTEX
  8
0
  6
CONTINUOUS
 62
     7
 10
116.18021
 20
62.506485
 42
-0.10378463
  0
VERTEX
  8
0
  6
CONTINUOUS
 62
     7
 10
118.58688
 20
64.402411
 42
-0.23752989
  0
VERTEX
  8
0
  6
CONTINUOUS
 62
     7
 10
121.56739
 20
64.402599
 42
-0.10380902
  0
VERTEX
  8
0
  6
CONTINUOUS
 62
     7
 10
123.97446
 20
62.506485
 42
0
  0
SEQEND
  8
0
  0
POLYLINE
  8
0
  6
CONTINUOUS
 62
     7
 66
     1
 10
0
 20
0
  0
VERTEX
  8
0
  6
CONTINUOUS
 62
     7
 10
632.27441
 20
39.589508
 42
-0.037644811
  0
VERTEX
  8
0
  6
CONTINUOUS
 62
     7
 10
629.80886
 20
38.402809
 42
-0.042545538
  0
VERTEX
  8
0
  6
CONTINUOUS
 62
     7
 10
627.18729
 20
37.622899
 42
-0.050468415
  0
VERTEX
  8
0
  6
CONTINUOUS
 62
     7
 10
624.46869
 20
37.339508
 42
0
  0
SEQEND
  8
0
  0
POLYLINE
  8
0
  6
CONTINUOUS
 62
     7
 66
     1
 10
0
 20
0
  0
VERTEX
  8
0
  6
CONTINUOUS
 62
     7
 10
632.27441
 20
50.589508
 42
0.037644811
  0
VERTEX
  8
0
  6
CONTINUOUS
 62
     7
 10
629.80886
 20
51.776207
 42
0.042545538
  0
VERTEX
  8
0
  6
CONTINUOUS
 62
     7
 10
627.18729
 20
52.556118
 42
0.050468415
  0
VERTEX
  8
0
  6
CONTINUOUS
 62
     7
 10
624.46869
 20
52.839508
 42
0
  0
SEQEND
  8
0
  0
POLYLINE
  8
0
  6
CONTINUOUS
 62
     7
 66
     1
 10
0
 20
0
  0
VERTEX
  8
0
  6
CONTINUOUS
 62
     7
 10
632.27441
 20
39.589508
 42
0.10378456
  0
VERTEX
  8
0
  6
CONTINUOUS
 62
     7
 10
634.68109
 20
37.693589
 42
0.23753162
  0
VERTEX
  8
0
  6
CONTINUOUS
 62
     7
 10
637.66162
 20
37.693397
 42
0.10380775
  0
VERTEX
  8
0
  6
CONTINUOUS
 62
     7
 10
640.06866
 20
39.589508
 42
0
  0
SEQEND
  8
0
  0
POLYLINE
  8
0
  6
CONTINUOUS
 62
     7
 66
     1
 10
0
 20
0
  0
VERTEX
  8
0
  6
CONTINUOUS
 62
     7
 10
632.27441
 20
50.589508
 42
-0.10378456
  0
VERTEX
  8
0
  6
CONTINUOUS
 62
     7
 10
634.68109
 20
52.485427
 42
-0.23753162
  0
VERTEX
  8
0
  6
CONTINUOUS
 62
     7
 10
637.66162
 20
52.485619
 42
-0.10380775
  0
VERTEX
  8
0
  6
CONTINUOUS
 62
     7
 10
640.06866
 20
50.589508
 42
0
  0
SEQEND
  8
0
  0
POLYLINE
  8
0
  6
CONTINUOUS
 62
     7
 66
     1
 10
0
 20
0
  0
VERTEX
  8
0
  6
CONTINUOUS
 62
     7
 10
616.6629
 20
39.589508
 42
0.037645749
  0
VERTEX
  8
0
  6
CONTINUOUS
 62
     7
 10
619.12848
 20
38.402808
 42
0.042544968
  0
VERTEX
  8
0
  6
CONTINUOUS
 62
     7
 10
621.75007
 20
37.622899
 42
0.050467933
  0
VERTEX
  8
0
  6
CONTINUOUS
 62
     7
 10
624.46869
 20
37.339508
 42
0
  0
SEQEND
  8
0
  0
POLYLINE
  8
0
  6
CONTINUOUS
 62
     7
 66
     1
 10
0
 20
0
  0
VERTEX
  8
0
  6
CONTINUOUS
 62
     7
 10
616.6629
 20
39.589508
 42
-0.1037847
  0
VERTEX
  8
0
  6
CONTINUOUS
 62
     7
 10
614.25624
 20
37.693574
 42
-0.23752816
  0
VERTEX
  8
0
  6
CONTINUOUS
 62
     7
 10
611.27576
 20
37.693391
 42
-0.10381029
  0
VERTEX
  8
0
  6
CONTINUOUS
 62
     7
 10
608.86865
 20
39.589508
 42
0
  0
SEQEND
  8
0
  0
POLYLINE
  8
0
  6
CONTINUOUS
 62
     7
 66
     1
 10
0
 20
0
  0
VERTEX
  8
0
  6
CONTINUOUS
 62
     7
 10
616.6629
 20
50.589508
 42
0.1037847
  0
VERTEX
  8
0
  6
CONTINUOUS
 62
     7
 10
614.25624
 20
52.485442
 42
0.23752816
  0
VERTEX
  8
0
  6
CONTINUOUS
 62
     7
 10
611.27576
 20
52.485625
 42
0.10381029
  0
VERTEX
  8
0
  6
CONTINUOUS
 62
     7
 10
608.86865
 20
50.589508
 42
0
  0
SEQEND
  8
0
  0
POLYLINE
  8
0
  6
CONTINUOUS
 62
     7
 66
     1
 10
0
 20
0
  0
VERTEX
  8
0
  6
CONTINUOUS
 62
     7
 10
616.6629
 20
50.589508
 42
-0.037645749
  0
VERTEX
  8
0
  6
CONTINUOUS
 62
     7
 10
619.12848
 20
51.776208
 42
-0.042544968
  0
VERTEX
  8
0
  6
CONTINUOUS
 62
     7
 10
621.75007
 20
52.556117
 42
-0.050467933
  0
VERTEX
  8
0
  6
CONTINUOUS
 62
     7
 10
624.46869
 20
52.839508
 42
0
  0
SEQEND
  8
0
  0
POLYLINE
  8
0
  6
CONTINUOUS
 62
     7
 66
     1
 10
0
 20
0
  0
VERTEX
  8
0
  6
CONTINUOUS
 62
     7
 10
233.4624
 20
49.506485
 42
0.037645749
  0
VERTEX
  8
0
  6
CONTINUOUS
 62
     7
 10
235.92798
 20
48.319785
 42
0.042544968
  0
VERTEX
  8
0
  6
CONTINUOUS
 62
     7
 10
238.54957
 20
47.539876
 42
0.050467933
  0
VERTEX
  8
0
  6
CONTINUOUS
 62
     7
 10
241.26819
 20
47.256485
 42
0
  0
SEQEND
  8
0
  0
POLYLINE
  8
0
  6
CONTINUOUS
 62
     7
 66
     1
 10
0
 20
0
  0
VERTEX
  8
0
  6
CONTINUOUS
 62
     7
 10
249.07394
 20
60.506485
 42
0.03764528
  0
VERTEX
  8
0
  6
CONTINUOUS
 62
     7
 10
246.60838
 20
61.693185
 42
0.042545253
  0
VERTEX
  8
0
  6
CONTINUOUS
 62
     7
 10
243.9868
 20
62.473094
 42
0.050468174
  0
VERTEX
  8
0
  6
CONTINUOUS
 62
     7
 10
241.26819
 20
62.756485
 42
0
  0
SEQEND
  8
0
  0
POLYLINE
  8
0
  6
CONTINUOUS
 62
     7
 66
     1
 10
0
 20
0
  0
VERTEX
  8
0
  6
CONTINUOUS
 62
     7
 10
249.07394
 20
49.506485
 42
0.10378463
  0
VERTEX
  8
0
  6
CONTINUOUS
 62
     7
 10
251.48061
 20
47.610559
 42
0.23752989
  0
VERTEX
  8
0
  6
CONTINUOUS
 62
     7
 10
254.46112
 20
47.610371
 42
0.10380902
  0
VERTEX
  8
0
  6
CONTINUOUS
 62
     7
 10
256.86819
 20
49.506485
 42
0
  0
SEQEND
  8
0
  0
POLYLINE
  8
0
  6
CONTINUOUS
 62
     7
 66
     1
 10
0
 20
0
  0
VERTEX
  8
0
  6
CONTINUOUS
 62
     7
 10
233.4624
 20
60.506485
 42
-0.037645749
  0
VERTEX
  8
0
  6
CONTINUOUS
 62
     7
 10
235.92798
 20
61.693185
 42
-0.042544968
  0
VERTEX
  8
0
  6
CONTINUOUS
 62
     7
 10
238.54957
 20
62.473094
 42
-0.050467933
  0
VERTEX
  8
0
  6
CONTINUOUS
 62
     7
 10
241.26819
 20
62.756485
 42
0
  0
SEQEND
  8
0
  0
POLYLINE
  8
0
  6
CONTINUOUS
 62
     7
 66
     1
 10
0
 20
0
  0
VERTEX
  8
0
  6
CONTINUOUS
 62
     7
 10
233.4624
 20
60.506485
 42
0.10378429
  0
VERTEX
  8
0
  6
CONTINUOUS
 62
     7
 10
231.05575
 20
62.402415
 42
0.23752966
  0
VERTEX
  8
0
  6
CONTINUOUS
 62
     7
 10
228.07526
 20
62.402601
 42
0.10380928
  0
VERTEX
  8
0
  6
CONTINUOUS
 62
     7
 10
225.66818
 20
60.506485
 42
0
  0
SEQEND
  8
0
  0
POLYLINE
  8
0
  6
CONTINUOUS
 62
     7
 66
     1
 10
0
 20
0
  0
VERTEX
  8
0
  6
CONTINUOUS
 62
     7
 10
233.4624
 20
49.506485
 42
-0.10378429
  0
VERTEX
  8
0
  6
CONTINUOUS
 62
     7
 10
231.05575
 20
47.610555
 42
-0.23752966
  0
VERTEX
  8
0
  6
CONTINUOUS
 62
     7
 10
228.07526
 20
47.610369
 42
-0.10380928
  0
VERTEX
  8
0
  6
CONTINUOUS
 62
     7
 10
225.66818
 20
49.506485
 42
0
  0
SEQEND
  8
0
  0
POLYLINE
  8
0
  6
CONTINUOUS
 62
     7
 66
     1
 10
0
 20
0
  0
VERTEX
  8
0
  6
CONTINUOUS
 62
     7
 10
249.07394
 20
60.506485
 42
-0.10378463
  0
VERTEX
  8
0
  6
CONTINUOUS
 62
     7
 10
251.48061
 20
62.402411
 42
-0.23752989
  0
VERTEX
  8
0
  6
CONTINUOUS
 62
     7
 10
254.46112
 20
62.402599
 42
-0.10380902
  0
VERTEX
  8
0
  6
CONTINUOUS
 62
     7
 10
256.86819
 20
60.506485
 42
0
  0
SEQEND
  8
0
  0
POLYLINE
  8
0
  6
CONTINUOUS
 62
     7
 66
     1
 10
0
 20
0
  0
VERTEX
  8
0
  6
CONTINUOUS
 62
     7
 10
249.07394
 20
49.506485
 42
-0.03764528
  0
VERTEX
  8
0
  6
CONTINUOUS
 62
     7
 10
246.60838
 20
48.319785
 42
-0.042545253
  0
VERTEX
  8
0
  6
CONTINUOUS
 62
     7
 10
243.9868
 20
47.539876
 42
-0.050468174
  0
VERTEX
  8
0
  6
CONTINUOUS
 62
     7
 10
241.26819
 20
47.256485
 42
0
  0
SEQEND
  8
0
  0
POLYLINE
  8
0
  6
CONTINUOUS
 62
     7
 66
     1
 10
0
 20
0
  0
VERTEX
  8
0
  6
CONTINUOUS
 62
     7
 10
745.75189
 20
52.989502
 42
0.03769848
  0
VERTEX
  8
0
  6
CONTINUOUS
 62
     7
 10
748.64775
 20
51.592137
 42
0.042628578
  0
VERTEX
  8
0
  6
CONTINUOUS
 62
     7
 10
751.72761
 20
50.673435
 42
0.050606067
  0
VERTEX
  8
0
  6
CONTINUOUS
 62
     7
 10
754.922
 20
50.339493
 42
0
  0
SEQEND
  8
0
  0
POLYLINE
  8
0
  6
CONTINUOUS
 62
     7
 66
     1
 10
0
 20
0
  0
VERTEX
  8
0
  6
CONTINUOUS
 62
     7
 10
764.09216
 20
52.989502
 42
-0.03769928
  0
VERTEX
  8
0
  6
CONTINUOUS
 62
     7
 10
761.19629
 20
51.592136
 42
-0.042628092
  0
VERTEX
  8
0
  6
CONTINUOUS
 62
     7
 10
758.11641
 20
50.673436
 42
-0.050605655
  0
VERTEX
  8
0
  6
CONTINUOUS
 62
     7
 10
754.922
 20
50.339493
 42
0
  0
SEQEND
  8
0
  0
POLYLINE
  8
0
  6
CONTINUOUS
 62
     7
 66
     1
 10
0
 20
0
  0
VERTEX
  8
0
  6
CONTINUOUS
 62
     7
 10
764.09216
 20
52.989502
 42
0.10378385
  0
VERTEX
  8
0
  6
CONTINUOUS
 62
     7
 10
766.92667
 20
50.756508
 42
0.23753038
  0
VERTEX
  8
0
  6
CONTINUOUS
 62
     7
 10
770.43701
 20
50.756291
 42
0.10380925
  0
VERTEX
  8
0
  6
CONTINUOUS
 62
     7
 10
773.27203
 20
52.989502
 42
0
  0
SEQEND
  8
0
  0
POLYLINE
  8
0
  6
CONTINUOUS
 62
     7
 66
     1
 10
0
 20
0
  0
VERTEX
  8
0
  6
CONTINUOUS
 62
     7
 10
764.09216
 20
66.389496
 42
-0.10378482
  0
VERTEX
  8
0
  6
CONTINUOUS
 62
     7
 10
766.92667
 20
68.622479
 42
-0.23752783
  0
VERTEX
  8
0
  6
CONTINUOUS
 62
     7
 10
770.43701
 20
68.622696
 42
-0.10381023
  0
VERTEX
  8
0
  6
CONTINUOUS
 62
     7
 10
773.27203
 20
66.389496
 42
0
  0
SEQEND
  8
0
  0
POLYLINE
  8
0
  6
CONTINUOUS
 62
     7
 66
     1
 10
0
 20
0
  0
VERTEX
  8
0
  6
CONTINUOUS
 62
     7
 10
764.09216
 20
66.389496
 42
0.037699771
  0
VERTEX
  8
0
  6
CONTINUOUS
 62
     7
 10
761.19629
 20
67.786858
 42
0.04262813
  0
VERTEX
  8
0
  6
CONTINUOUS
 62
     7
 10
758.11641
 20
68.705551
 42
0.05060513
  0
VERTEX
  8
0
  6
CONTINUOUS
 62
     7
 10
754.922
 20
69.03949
 42
0
  0
SEQEND
  8
0
  0
POLYLINE
  8
0
  6
CONTINUOUS
 62
     7
 66
     1
 10
0
 20
0
  0
VERTEX
  8
0
  6
CONTINUOUS
 62
     7
 10
745.75189
 20
66.389496
 42
0.1037847
  0
VERTEX
  8
0
  6
CONTINUOUS
 62
     7
 10
742.91738
 20
68.622464
 42
0.23753076
  0
VERTEX
  8
0
  6
CONTINUOUS
 62
     7
 10
739.40699
 20
68.622689
 42
0.10380807
  0
VERTEX
  8
0
  6
CONTINUOUS
 62
     7
 10
736.57202
 20
66.389496
 42
0
  0
SEQEND
  8
0
  0
POLYLINE
  8
0
  6
CONTINUOUS
 62
     7
 66
     1
 10
0
 20
0
  0
VERTEX
  8
0
  6
CONTINUOUS
 62
     7
 10
745.75189
 20
52.989502
 42
-0.10378372
  0
VERTEX
  8
0
  6
CONTINUOUS
 62
     7
 10
742.91738
 20
50.756523
 42
-0.23753331
  0
VERTEX
  8
0
  6
CONTINUOUS
 62
     7
 10
739.40698
 20
50.756298
 42
-0.10380709
  0
VERTEX
  8
0
  6
CONTINUOUS
 62
     7
 10
736.57202
 20
52.989502
 42
0
  0
SEQEND
  8
0
  0
POLYLINE
  8
0
  6
CONTINUOUS
 62
     7
 66
     1
 10
0
 20
0
  0
VERTEX
  8
0
  6
CONTINUOUS
 62
     7
 10
745.75189
 20
66.389496
 42
-0.037698971
  0
VERTEX
  8
0
  6
CONTINUOUS
 62
     7
 10
748.64775
 20
67.786857
 42
-0.042628616
  0
VERTEX
  8
0
  6
CONTINUOUS
 62
     7
 10
751.72761
 20
68.705552
 42
-0.050605541
  0
VERTEX
  8
0
  6
CONTINUOUS
 62
     7
 10
754.922
 20
69.03949
 42
0
  0
SEQEND
  8
0
  0
POLYLINE
  8
0
  6
CONTINUOUS
 62
     7
 66
     1
 10
0
 20
0
  0
VERTEX
  8
0
  6
CONTINUOUS
 62
     7
 10
890.82678
 20
52.989502
 42
0.03769848
  0
VERTEX
  8
0
  6
CONTINUOUS
 62
     7
 10
893.72264
 20
51.592137
 42
0.042628578
  0
VERTEX
  8
0
  6
CONTINUOUS
 62
     7
 10
896.8025
 20
50.673435
 42
0.050606067
  0
VERTEX
  8
0
  6
CONTINUOUS
 62
     7
 10
899.99689
 20
50.339493
 42
0
  0
SEQEND
  8
0
  0
POLYLINE
  8
0
  6
CONTINUOUS
 62
     7
 66
     1
 10
0
 20
0
  0
VERTEX
  8
0
  6
CONTINUOUS
 62
     7
 10
909.16705
 20
52.989502
 42
-0.03769928
  0
VERTEX
  8
0
  6
CONTINUOUS
 62
     7
 10
906.27118
 20
51.592136
 42
-0.042628092
  0
VERTEX
  8
0
  6
CONTINUOUS
 62
     7
 10
903.1913
 20
50.673436
 42
-0.050605655
  0
VERTEX
  8
0
  6
CONTINUOUS
 62
     7
 10
899.99689
 20
50.339493
 42
0
  0
SEQEND
  8
0
  0
POLYLINE
  8
0
  6
CONTINUOUS
 62
     7
 66
     1
 10
0
 20
0
  0
VERTEX
  8
0
  6
CONTINUOUS
 62
     7
 10
909.16705
 20
52.989502
 42
0.10378385
  0
VERTEX
  8
0
  6
CONTINUOUS
 62
     7
 10
912.00156
 20
50.756508
 42
0.23753038
  0
VERTEX
  8
0
  6
CONTINUOUS
 62
     7
 10
915.5119
 20
50.756291
 42
0.10380925
  0
VERTEX
  8
0
  6
CONTINUOUS
 62
     7
 10
918.34692
 20
52.989502
 42
0
  0
SEQEND
  8
0
  0
POLYLINE
  8
0
  6
CONTINUOUS
 62
     7
 66
     1
 10
0
 20
0
  0
VERTEX
  8
0
  6
CONTINUOUS
 62
     7
 10
909.16705
 20
66.389496
 42
-0.10378482
  0
VERTEX
  8
0
  6
CONTINUOUS
 62
     7
 10
912.00156
 20
68.622479
 42
-0.23752783
  0
VERTEX
  8
0
  6
CONTINUOUS
 62
     7
 10
915.5119
 20
68.622696
 42
-0.10381023
  0
VERTEX
  8
0
  6
CONTINUOUS
 62
     7
 10
918.34692
 20
66.389496
 42
0
  0
SEQEND
  8
0
  0
POLYLINE
  8
0
  6
CONTINUOUS
 62
     7
 66
     1
 10
0
 20
0
  0
VERTEX
  8
0
  6
CONTINUOUS
 62
     7
 10
909.16705
 20
66.389496
 42
0.037699771
  0
VERTEX
  8
0
  6
CONTINUOUS
 62
     7
 10
906.27118
 20
67.786858
 42
0.04262813
  0
VERTEX
  8
0
  6
CONTINUOUS
 62
     7
 10
903.1913
 20
68.705551
 42
0.05060513
  0
VERTEX
  8
0
  6
CONTINUOUS
 62
     7
 10
899.99689
 20
69.03949
 42
0
  0
SEQEND
  8
0
  0
POLYLINE
  8
0
  6
CONTINUOUS
 62
     7
 66
     1
 10
0
 20
0
  0
VERTEX
  8
0
  6
CONTINUOUS
 62
     7
 10
890.82678
 20
66.389496
 42
0.1037847
  0
VERTEX
  8
0
  6
CONTINUOUS
 62
     7
 10
887.99227
 20
68.622464
 42
0.23753076
  0
VERTEX
  8
0
  6
CONTINUOUS
 62
     7
 10
884.48188
 20
68.622689
 42
0.10380807
  0
VERTEX
  8
0
  6
CONTINUOUS
 62
     7
 10
881.64691
 20
66.389496
 42
0
  0
SEQEND
  8
0
  0
POLYLINE
  8
0
  6
CONTINUOUS
 62
     7
 66
     1
 10
0
 20
0
  0
VERTEX
  8
0
  6
CONTINUOUS
 62
     7
 10
890.82678
 20
52.989502
 42
-0.10378372
  0
VERTEX
  8
0
  6
CONTINUOUS
 62
     7
 10
887.99227
 20
50.756523
 42
-0.23753331
  0
VERTEX
  8
0
  6
CONTINUOUS
 62
     7
 10
884.48187
 20
50.756298
 42
-0.10380709
  0
VERTEX
  8
0
  6
CONTINUOUS
 62
     7
 10
881.64691
 20
52.989502
 42
0
  0
SEQEND
  8
0
  0
POLYLINE
  8
0
  6
CONTINUOUS
 62
     7
 66
     1
 10
0
 20
0
  0
VERTEX
  8
0
  6
CONTINUOUS
 62
     7
 10
890.82678
 20
66.389496
 42
-0.037698971
  0
VERTEX
  8
0
  6
CONTINUOUS
 62
     7
 10
893.72264
 20
67.786857
 42
-0.042628616
  0
VERTEX
  8
0
  6
CONTINUOUS
 62
     7
 10
896.8025
 20
68.705552
 42
-0.050605541
  0
VERTEX
  8
0
  6
CONTINUOUS
 62
     7
 10
899.99689
 20
69.03949
 42
0
  0
SEQEND
  8
0
  0
POLYLINE
  8
0
  6
CONTINUOUS
 62
     7
 66
     1
 10
0
 20
0
  0
VERTEX
  8
0
  6
CONTINUOUS
 62
     7
 10
1024.6233
 20
52.989502
 42
0.03769928
  0
VERTEX
  8
0
  6
CONTINUOUS
 62
     7
 10
1027.5192
 20
51.592136
 42
0.042628092
  0
VERTEX
  8
0
  6
CONTINUOUS
 62
     7
 10
1030.599
 20
50.673436
 42
0.050605655
  0
VERTEX
  8
0
  6
CONTINUOUS
 62
     7
 10
1033.7935
 20
50.339493
 42
0
  0
SEQEND
  8
0
  0
POLYLINE
  8
0
  6
CONTINUOUS
 62
     7
 66
     1
 10
0
 20
0
  0
VERTEX
  8
0
  6
CONTINUOUS
 62
     7
 10
1042.9636
 20
52.989502
 42
-0.03769928
  0
VERTEX
  8
0
  6
CONTINUOUS
 62
     7
 10
1040.0677
 20
51.592136
 42
-0.042628092
  0
VERTEX
  8
0
  6
CONTINUOUS
 62
     7
 10
1036.9879
 20
50.673436
 42
-0.050605655
  0
VERTEX
  8
0
  6
CONTINUOUS
 62
     7
 10
1033.7935
 20
50.339493
 42
0
  0
SEQEND
  8
0
  0
POLYLINE
  8
0
  6
CONTINUOUS
 62
     7
 66
     1
 10
0
 20
0
  0
VERTEX
  8
0
  6
CONTINUOUS
 62
     7
 10
1042.9636
 20
52.989502
 42
0.10378327
  0
VERTEX
  8
0
  6
CONTINUOUS
 62
     7
 10
1045.7981
 20
50.756501
 42
0.23752998
  0
VERTEX
  8
0
  6
CONTINUOUS
 62
     7
 10
1049.3084
 20
50.756288
 42
0.10380969
  0
VERTEX
  8
0
  6
CONTINUOUS
 62
     7
 10
1052.1434
 20
52.989502
 42
0
  0
SEQEND
  8
0
  0
POLYLINE
  8
0
  6
CONTINUOUS
 62
     7
 66
     1
 10
0
 20
0
  0
VERTEX
  8
0
  6
CONTINUOUS
 62
     7
 10
1042.9636
 20
66.389496
 42
-0.10378424
  0
VERTEX
  8
0
  6
CONTINUOUS
 62
     7
 10
1045.7981
 20
68.622487
 42
-0.23752744
  0
VERTEX
  8
0
  6
CONTINUOUS
 62
     7
 10
1049.3084
 20
68.6227
 42
-0.10381067
  0
VERTEX
  8
0
  6
CONTINUOUS
 62
     7
 10
1052.1434
 20
66.389496
 42
0
  0
SEQEND
  8
0
  0
POLYLINE
  8
0
  6
CONTINUOUS
 62
     7
 66
     1
 10
0
 20
0
  0
VERTEX
  8
0
  6
CONTINUOUS
 62
     7
 10
1042.9636
 20
66.389496
 42
0.037699771
  0
VERTEX
  8
0
  6
CONTINUOUS
 62
     7
 10
1040.0677
 20
67.786858
 42
0.04262813
  0
VERTEX
  8
0
  6
CONTINUOUS
 62
     7
 10
1036.9879
 20
68.705551
 42
0.05060513
  0
VERTEX
  8
0
  6
CONTINUOUS
 62
     7
 10
1033.7935
 20
69.03949
 42
0
  0
SEQEND
  8
0
  0
POLYLINE
  8
0
  6
CONTINUOUS
 62
     7
 66
     1
 10
0
 20
0
  0
VERTEX
  8
0
  6
CONTINUOUS
 62
     7
 10
1024.6233
 20
66.389496
 42
0.1037847
  0
VERTEX
  8
0
  6
CONTINUOUS
 62
     7
 10
1021.7888
 20
68.622464
 42
0.23753076
  0
VERTEX
  8
0
  6
CONTINUOUS
 62
     7
 10
1018.2784
 20
68.622689
 42
0.10380807
  0
VERTEX
  8
0
  6
CONTINUOUS
 62
     7
 10
1015.4434
 20
66.389496
 42
0
  0
SEQEND
  8
0
  0
POLYLINE
  8
0
  6
CONTINUOUS
 62
     7
 66
     1
 10
0
 20
0
  0
VERTEX
  8
0
  6
CONTINUOUS
 62
     7
 10
1024.6233
 20
52.989502
 42
-0.10378372
  0
VERTEX
  8
0
  6
CONTINUOUS
 62
     7
 10
1021.7888
 20
50.756523
 42
-0.23753331
  0
VERTEX
  8
0
  6
CONTINUOUS
 62
     7
 10
1018.2784
 20
50.756298
 42
-0.10380709
  0
VERTEX
  8
0
  6
CONTINUOUS
 62
     7
 10
1015.4434
 20
52.989502
 42
0
  0
SEQEND
  8
0
  0
POLYLINE
  8
0
  6
CONTINUOUS
 62
     7
 66
     1
 10
0
 20
0
  0
VERTEX
  8
0
  6
CONTINUOUS
 62
     7
 10
1024.6233
 20
66.389496
 42
-0.037699771
  0
VERTEX
  8
0
  6
CONTINUOUS
 62
     7
 10
1027.5192
 20
67.786858
 42
-0.04262813
  0
VERTEX
  8
0
  6
CONTINUOUS
 62
     7
 10
1030.599
 20
68.705551
 42
-0.05060513
  0
VERTEX
  8
0
  6
CONTINUOUS
 62
     7
 10
1033.7935
 20
69.03949
 42
0
  0
SEQEND
  8
0
  0
TEXT
  8
0
  6
CONTINUOUS
 62
     7
 10
-325.21451
 20
114.72926
 40
14
 41
1.0084034
  1
21/2X2
  0
TEXT
  8
0
  6
CONTINUOUS
 62
     7
 10
-162.85807
 20
119.8029
 40
14
 41
1.0178573
  1
3X2
  0
TEXT
  8
0
  6
CONTINUOUS
 62
     7
 10
-61.385294
 20
116.42048
 40
14
 41
1.0084034
  1
3X21/2
  0
TEXT
  8
0
  6
CONTINUOUS
 62
     7
 10
85.750234
 20
124.87654
 40
14
 41
1.0178573
  1
4X2
  0
TEXT
  8
0
  6
CONTINUOUS
 62
     7
 10
200.75271
 20
133.33261
 40
14
 41
1.0084034
  1
4X21/2
  0
TEXT
  8
0
  6
CONTINUOUS
 62
     7
 10
598.1878
 20
111.34684
 40
14
 41
1.0178573
  1
4X3
  0
TEXT
  8
0
  6
CONTINUOUS
 62
     7
 10
730.10241
 20
133.33261
 40
14
 41
1.0178573
  1
5X4
  0
TEXT
  8
0
  6
CONTINUOUS
 62
     7
 10
872.1643
 20
148.55353
 40
14
 41
1.0178573
  1
6X4
  0
TEXT
  8
0
  6
CONTINUOUS
 62
     7
 10
1010.8437
 20
151.93594
 40
14
 41
1.0178573
  1
6X5
  0
TEXT
  8
0
  6
CONTINUOUS
 62
     7
 10
-350.86035
 20
228.15126
 40
15
 41
0.84289037
  1
ＴＯＰ－Ｊ　Ｒ－１１　９サイス゛
  0
TEXT
  8
0
  6
CONTINUOUS
 62
     7
 10
-167.05956
 20
-473.49469
 40
14
 41
1.0178573
  1
3X2
  0
TEXT
  8
0
  6
CONTINUOUS
 62
     7
 10
-328.02576
 20
-479.45639
 40
14
 41
1.0084034
  1
21/2X2
  0
TEXT
  8
0
  6
CONTINUOUS
 62
     7
 10
-57.761518
 20
-469.5202
 40
14
 41
1.0084034
  1
3X21/2
  0
TEXT
  8
0
  6
CONTINUOUS
 62
     7
 10
87.306784
 20
-453.62231
 40
14
 41
1.0178572
  1
4X2
  0
TEXT
  8
0
  6
CONTINUOUS
 62
     7
 10
210.51549
 20
-443.68613
 40
14
 41
1.0084034
  1
4X21/2
  0
TEXT
  8
0
  6
CONTINUOUS
 62
     7
 10
603.9884
 20
-439.71167
 40
14
 41
1.0178572
  1
4X3
  0
TEXT
  8
0
  6
CONTINUOUS
 62
     7
 10
733.15881
 20
-433.74994
 40
14
 41
1.0178572
  1
5X4
  0
TEXT
  8
0
  6
CONTINUOUS
 62
     7
 10
880.21435
 20
-421.82654
 40
14
 41
1.0178572
  1
6X4
  0
TEXT
  8
0
  6
CONTINUOUS
 62
     7
 10
1013.3593
 20
-421.82654
 40
14
 41
1.0178572
  1
6X5
  0
TEXT
  8
0
  6
CONTINUOUS
 62
     7
 10
-282.04892
 20
-619.81687
 40
6
 41
1.0049261
  1
2/EX2 R-11
 50
90.000003
  0
TEXT
  8
0
  6
CONTINUOUS
 62
     7
 10
-285.58033
 20
-614.62894
 40
3.2
 41
1.0714291
  1
1
 50
90.000003
  0
TEXT
  8
0
  6
CONTINUOUS
 62
     7
 10
-282.14988
 20
-611.02262
 40
3.2
 41
1.0714291
  1
2
 50
90.000003
  0
TEXT
  8
0
  6
CONTINUOUS
 62
     7
 10
-140.10619
 20
-609.49491
 40
6
 41
1.0062112
  1
3X2 R-11
 50
90.000003
  0
TEXT
  8
0
  6
CONTINUOUS
 62
     7
 10
-17.478226
 20
-619.0745
 40
6
 41
1.0049261
  1
3X2/E R-11
 50
90.000003
  0
TEXT
  8
0
  6
CONTINUOUS
 62
     7
 10
-21.165884
 20
-602.06083
 40
3.2
 41
1.0714291
  1
1
 50
90.000003
  0
TEXT
  8
0
  6
CONTINUOUS
 62
     7
 10
-17.734366
 20
-598.62931
 40
3.2
 41
1.0714291
  1
2
 50
90.000003
  0
TEXT
  8
0
  6
CONTINUOUS
 62
     7
 10
116.14338
 20
-608.0651
 40
6
 41
1.0062112
  1
4X2 R-11
 50
90.000003
  0
TEXT
  8
0
  6
CONTINUOUS
 62
     7
 10
249.93726
 20
-620.21836
 40
6
 41
1.0049261
  1
4X2/E R-11
 50
90.000003
  0
TEXT
  8
0
  6
CONTINUOUS
 62
     7
 10
246.53555
 20
-602.91874
 40
3.2
 41
1.0714291
  1
1
 50
90.000003
  0
TEXT
  8
0
  6
CONTINUOUS
 62
     7
 10
250.25302
 20
-599.20127
 40
3.2
 41
1.0714291
  1
2
 50
90.000003
  0
TEXT
  8
0
  6
CONTINUOUS
 62
     7
 10
632.21936
 20
-608.2081
 40
6
 41
1.0062112
  1
4X3 R-11
 50
90.000003
  0
TEXT
  8
0
  6
CONTINUOUS
 62
     7
 10
763.88477
 20
-614.64219
 40
6
 41
1.0054945
  1
5EX4 R-11
 50
90.000003
  0
TEXT
  8
0
  6
CONTINUOUS
 62
     7
 10
911.59521
 20
-617.89765
 40
7
 41
1.0054945
  1
6JX4 R-11
 50
90.000003
  0
TEXT
  8
0
  6
CONTINUOUS
 62
     7
 10
1043.8174
 20
-624.56781
 40
7
 41
1.0049261
  1
6JX5E R-11
 50
90.000003
  0
TEXT
  8
0
  6
CONTINUOUS
 62
     7
 10
15.035044
 20
230.60109
 40
15
 41
0.84202696
  1
各図の左側は大口径，右側は小口径となっています。
  0
LINE
  8
0
  6
CONTINUOUS
 62
     7
 10
-308.79553
 20
-588.08085
 11
-307.15207
 21
-588.08085
  0
LINE
  8
0
  6
CONTINUOUS
 62
     7
 10
-308.79553
 20
-589.28085
 11
-307.15207
 21
-589.28085
  0
LINE
  8
0
  6
CONTINUOUS
 62
     7
 10
-298.439
 20
-589.28085
 11
-296.79553
 21
-589.28085
  0
LINE
  8
0
  6
CONTINUOUS
 62
     7
 10
-298.439
 20
-588.08085
 11
-296.79553
 21
-588.08085
  0
LINE
  8
0
  6
CONTINUOUS
 62
     7
 10
-305.9477
 20
-589.28085
 11
-302.79553
 21
-589.28085
  0
LINE
  8
0
  6
CONTINUOUS
 62
     7
 10
-305.9477
 20
-588.08085
 11
-302.79553
 21
-588.08085
  0
ARC
  8
0
  6
CONTINUOUS
 62
     7
 10
-302.79553
 20
-586.28085
 40
2.4000001
 50
36.008327
 51
143.99168
  0
ARC
  8
0
  6
CONTINUOUS
 62
     7
 10
-302.79553
 20
-586.28085
 40
3.5999999
 50
36.008327
 51
143.99168
  0
ARC
  8
0
  6
CONTINUOUS
 62
     7
 10
-302.79553
 20
-591.08085
 40
2.4000001
 50
216.00833
 51
323.99168
  0
ARC
  8
0
  6
CONTINUOUS
 62
     7
 10
-302.79553
 20
-591.08085
 40
3.5999999
 50
216.00833
 51
323.99168
  0
ARC
  8
0
  6
CONTINUOUS
 62
     7
 10
-299.49322
 20
-588.68085
 40
7.6823077
 50
143.99168
 51
175.52056
  0
ARC
  8
0
  6
CONTINUOUS
 62
     7
 10
-299.49322
 20
-588.68085
 40
6.4823079
 50
143.99168
 51
174.68912
  0
ARC
  8
0
  6
CONTINUOUS
 62
     7
 10
-306.09784
 20
-588.68085
 40
6.4823079
 50
323.99167
 51
36.008327
  0
ARC
  8
0
  6
CONTINUOUS
 62
     7
 10
-306.09784
 20
-588.68085
 40
7.6823077
 50
323.99167
 51
355.52055
  0
ARC
  8
0
  6
CONTINUOUS
 62
     7
 10
-308.34553
 20
-588.68085
 40
0.75
 50
126.8699
 51
233.1301
  0
ARC
  8
0
  6
CONTINUOUS
 62
     7
 10
-303.24553
 20
-588.68085
 40
0.75
 50
306.86991
 51
53.130105
  0
ARC
  8
0
  6
CONTINUOUS
 62
     7
 10
-297.24553
 20
-588.68085
 40
0.75
 50
306.86991
 51
53.130105
  0
ARC
  8
0
  6
CONTINUOUS
 62
     7
 10
-299.49322
 20
-588.68085
 40
6.4823079
 50
185.31088
 51
216.00833
  0
ARC
  8
0
  6
CONTINUOUS
 62
     7
 10
-299.49322
 20
-588.68085
 40
7.6823077
 50
184.47945
 51
216.00833
  0
ARC
  8
0
  6
CONTINUOUS
 62
     7
 10
-306.09784
 20
-588.68085
 40
7.6823077
 50
4.4794498
 51
36.008327
  0
LINE
  8
0
  6
CONTINUOUS
 62
     7
 10
-163.35985
 20
-587.98136
 11
-161.71638
 21
-587.98136
  0
LINE
  8
0
  6
CONTINUOUS
 62
     7
 10
-163.35985
 20
-589.18136
 11
-161.71638
 21
-589.18136
  0
LINE
  8
0
  6
CONTINUOUS
 62
     7
 10
-153.00331
 20
-589.18136
 11
-151.35985
 21
-589.18136
  0
LINE
  8
0
  6
CONTINUOUS
 62
     7
 10
-153.00331
 20
-587.98136
 11
-151.35985
 21
-587.98136
  0
LINE
  8
0
  6
CONTINUOUS
 62
     7
 10
-160.51202
 20
-589.18136
 11
-157.35985
 21
-589.18136
  0
LINE
  8
0
  6
CONTINUOUS
 62
     7
 10
-160.51202
 20
-587.98136
 11
-157.35985
 21
-587.98136
  0
ARC
  8
0
  6
CONTINUOUS
 62
     7
 10
-157.35985
 20
-586.18136
 40
2.4000001
 50
36.008327
 51
143.99168
  0
ARC
  8
0
  6
CONTINUOUS
 62
     7
 10
-157.35985
 20
-586.18136
 40
3.5999999
 50
36.008327
 51
143.99168
  0
ARC
  8
0
  6
CONTINUOUS
 62
     7
 10
-157.35985
 20
-590.98136
 40
2.4000001
 50
216.00833
 51
323.99168
  0
ARC
  8
0
  6
CONTINUOUS
 62
     7
 10
-157.35985
 20
-590.98136
 40
3.5999999
 50
216.00833
 51
323.99168
  0
ARC
  8
0
  6
CONTINUOUS
 62
     7
 10
-154.05754
 20
-588.58136
 40
7.6823077
 50
143.99168
 51
175.52056
  0
ARC
  8
0
  6
CONTINUOUS
 62
     7
 10
-154.05754
 20
-588.58136
 40
6.4823079
 50
143.99168
 51
174.68912
  0
ARC
  8
0
  6
CONTINUOUS
 62
     7
 10
-160.66216
 20
-588.58136
 40
6.4823079
 50
323.99167
 51
36.008327
  0
ARC
  8
0
  6
CONTINUOUS
 62
     7
 10
-160.66216
 20
-588.58136
 40
7.6823077
 50
323.99167
 51
355.52055
  0
ARC
  8
0
  6
CONTINUOUS
 62
     7
 10
-162.90985
 20
-588.58136
 40
0.75
 50
126.8699
 51
233.1301
  0
ARC
  8
0
  6
CONTINUOUS
 62
     7
 10
-157.80985
 20
-588.58136
 40
0.75
 50
306.86991
 51
53.130105
  0
ARC
  8
0
  6
CONTINUOUS
 62
     7
 10
-151.80985
 20
-588.58136
 40
0.75
 50
306.86991
 51
53.130105
  0
ARC
  8
0
  6
CONTINUOUS
 62
     7
 10
-154.05754
 20
-588.58136
 40
6.4823079
 50
185.31088
 51
216.00833
  0
ARC
  8
0
  6
CONTINUOUS
 62
     7
 10
-154.05754
 20
-588.58136
 40
7.6823077
 50
184.47945
 51
216.00833
  0
ARC
  8
0
  6
CONTINUOUS
 62
     7
 10
-160.66216
 20
-588.58136
 40
7.6823077
 50
4.4794498
 51
36.008327
  0
LINE
  8
0
  6
CONTINUOUS
 62
     7
 10
-41.464615
 20
-588.37931
 11
-39.821148
 21
-588.37931
  0
LINE
  8
0
  6
CONTINUOUS
 62
     7
 10
-41.464615
 20
-589.57931
 11
-39.821148
 21
-589.57931
  0
LINE
  8
0
  6
CONTINUOUS
 62
     7
 10
-31.108081
 20
-589.57931
 11
-29.464615
 21
-589.57931
  0
LINE
  8
0
  6
CONTINUOUS
 62
     7
 10
-31.108081
 20
-588.37931
 11
-29.464615
 21
-588.37931
  0
LINE
  8
0
  6
CONTINUOUS
 62
     7
 10
-38.616787
 20
-589.57931
 11
-35.464615
 21
-589.57931
  0
LINE
  8
0
  6
CONTINUOUS
 62
     7
 10
-38.616787
 20
-588.37931
 11
-35.464615
 21
-588.37931
  0
ARC
  8
0
  6
CONTINUOUS
 62
     7
 10
-35.464615
 20
-586.57931
 40
2.4000001
 50
36.008327
 51
143.99168
  0
ARC
  8
0
  6
CONTINUOUS
 62
     7
 10
-35.464615
 20
-586.57931
 40
3.5999999
 50
36.008327
 51
143.99168
  0
ARC
  8
0
  6
CONTINUOUS
 62
     7
 10
-35.464615
 20
-591.37931
 40
2.4000001
 50
216.00833
 51
323.99168
  0
ARC
  8
0
  6
CONTINUOUS
 62
     7
 10
-35.464615
 20
-591.37931
 40
3.5999999
 50
216.00833
 51
323.99168
  0
ARC
  8
0
  6
CONTINUOUS
 62
     7
 10
-32.162307
 20
-588.97931
 40
7.6823077
 50
143.99168
 51
175.52056
  0
ARC
  8
0
  6
CONTINUOUS
 62
     7
 10
-32.162307
 20
-588.97931
 40
6.4823079
 50
143.99168
 51
174.68912
  0
ARC
  8
0
  6
CONTINUOUS
 62
     7
 10
-38.766922
 20
-588.97931
 40
6.4823079
 50
323.99167
 51
36.008327
  0
ARC
  8
0
  6
CONTINUOUS
 62
     7
 10
-38.766922
 20
-588.97931
 40
7.6823077
 50
323.99167
 51
355.52055
  0
ARC
  8
0
  6
CONTINUOUS
 62
     7
 10
-41.014615
 20
-588.97931
 40
0.75
 50
126.8699
 51
233.1301
  0
ARC
  8
0
  6
CONTINUOUS
 62
     7
 10
-35.914615
 20
-588.97931
 40
0.75
 50
306.86991
 51
53.130105
  0
ARC
  8
0
  6
CONTINUOUS
 62
     7
 10
-29.914615
 20
-588.97931
 40
0.75
 50
306.86991
 51
53.130105
  0
ARC
  8
0
  6
CONTINUOUS
 62
     7
 10
-32.162307
 20
-588.97931
 40
6.4823079
 50
185.31088
 51
216.00833
  0
ARC
  8
0
  6
CONTINUOUS
 62
     7
 10
-32.162307
 20
-588.97931
 40
7.6823077
 50
184.47945
 51
216.00833
  0
ARC
  8
0
  6
CONTINUOUS
 62
     7
 10
-38.766922
 20
-588.97931
 40
7.6823077
 50
4.4794498
 51
36.008327
  0
LINE
  8
0
  6
CONTINUOUS
 62
     7
 10
91.412849
 20
-588.18033
 11
93.056316
 21
-588.18033
  0
LINE
  8
0
  6
CONTINUOUS
 62
     7
 10
91.412849
 20
-589.38033
 11
93.056316
 21
-589.38033
  0
LINE
  8
0
  6
CONTINUOUS
 62
     7
 10
101.76938
 20
-589.38033
 11
103.41285
 21
-589.38033
  0
LINE
  8
0
  6
CONTINUOUS
 62
     7
 10
101.76938
 20
-588.18033
 11
103.41285
 21
-588.18033
  0
LINE
  8
0
  6
CONTINUOUS
 62
     7
 10
94.260677
 20
-589.38033
 11
97.412849
 21
-589.38033
  0
LINE
  8
0
  6
CONTINUOUS
 62
     7
 10
94.260677
 20
-588.18033
 11
97.412849
 21
-588.18033
  0
ARC
  8
0
  6
CONTINUOUS
 62
     7
 10
97.412849
 20
-586.38033
 40
2.4000001
 50
36.008327
 51
143.99168
  0
ARC
  8
0
  6
CONTINUOUS
 62
     7
 10
97.412849
 20
-586.38033
 40
3.5999999
 50
36.008327
 51
143.99168
  0
ARC
  8
0
  6
CONTINUOUS
 62
     7
 10
97.41285
 20
-591.18033
 40
2.4000001
 50
216.00833
 51
323.99168
  0
ARC
  8
0
  6
CONTINUOUS
 62
     7
 10
97.41285
 20
-591.18033
 40
3.5999999
 50
216.00833
 51
323.99168
  0
ARC
  8
0
  6
CONTINUOUS
 62
     7
 10
100.71516
 20
-588.78033
 40
7.6823077
 50
143.99168
 51
175.52056
  0
ARC
  8
0
  6
CONTINUOUS
 62
     7
 10
100.71516
 20
-588.78033
 40
6.4823079
 50
143.99168
 51
174.68912
  0
ARC
  8
0
  6
CONTINUOUS
 62
     7
 10
94.110542
 20
-588.78033
 40
6.4823079
 50
323.99167
 51
36.008327
  0
ARC
  8
0
  6
CONTINUOUS
 62
     7
 10
94.110542
 20
-588.78033
 40
7.6823077
 50
323.99167
 51
355.52055
  0
ARC
  8
0
  6
CONTINUOUS
 62
     7
 10
91.862849
 20
-588.78033
 40
0.75
 50
126.8699
 51
233.1301
  0
ARC
  8
0
  6
CONTINUOUS
 62
     7
 10
96.962849
 20
-588.78033
 40
0.75
 50
306.86991
 51
53.130105
  0
ARC
  8
0
  6
CONTINUOUS
 62
     7
 10
102.96285
 20
-588.78033
 40
0.75
 50
306.86991
 51
53.130105
  0
ARC
  8
0
  6
CONTINUOUS
 62
     7
 10
100.71516
 20
-588.78033
 40
6.4823079
 50
185.31088
 51
216.00833
  0
ARC
  8
0
  6
CONTINUOUS
 62
     7
 10
100.71516
 20
-588.78033
 40
7.6823077
 50
184.47945
 51
216.00833
  0
ARC
  8
0
  6
CONTINUOUS
 62
     7
 10
94.110542
 20
-588.78033
 40
7.6823077
 50
4.4794498
 51
36.008327
  0
LINE
  8
0
  6
CONTINUOUS
 62
     7
 10
224.2652
 20
-588.06195
 11
226.31953
 21
-588.06195
  0
LINE
  8
0
  6
CONTINUOUS
 62
     7
 10
224.2652
 20
-589.56195
 11
226.31953
 21
-589.56195
  0
LINE
  8
0
  6
CONTINUOUS
 62
     7
 10
237.21087
 20
-589.56195
 11
239.2652
 21
-589.56195
  0
LINE
  8
0
  6
CONTINUOUS
 62
     7
 10
237.21086
 20
-588.06195
 11
239.2652
 21
-588.06195
  0
LINE
  8
0
  6
CONTINUOUS
 62
     7
 10
227.82498
 20
-589.56195
 11
231.7652
 21
-589.56195
  0
LINE
  8
0
  6
CONTINUOUS
 62
     7
 10
227.82498
 20
-588.06195
 11
231.7652
 21
-588.06195
  0
ARC
  8
0
  6
CONTINUOUS
 62
     7
 10
231.7652
 20
-585.81195
 40
3
 50
36.008327
 51
143.99168
  0
ARC
  8
0
  6
CONTINUOUS
 62
     7
 10
231.7652
 20
-585.81195
 40
4.5
 50
36.008327
 51
143.99168
  0
ARC
  8
0
  6
CONTINUOUS
 62
     7
 10
231.7652
 20
-591.81195
 40
3
 50
216.00833
 51
323.99168
  0
ARC
  8
0
  6
CONTINUOUS
 62
     7
 10
231.7652
 20
-591.81195
 40
4.5
 50
216.00833
 51
323.99168
  0
ARC
  8
0
  6
CONTINUOUS
 62
     7
 10
235.89308
 20
-588.81195
 40
9.6028843
 50
143.99168
 51
175.52056
  0
ARC
  8
0
  6
CONTINUOUS
 62
     7
 10
235.89308
 20
-588.81195
 40
8.1028843
 50
143.99168
 51
174.68912
  0
ARC
  8
0
  6
CONTINUOUS
 62
     7
 10
227.63731
 20
-588.81195
 40
8.1028843
 50
323.99167
 51
36.008327
  0
ARC
  8
0
  6
CONTINUOUS
 62
     7
 10
227.63731
 20
-588.81195
 40
9.6028843
 50
323.99167
 51
355.52055
  0
ARC
  8
0
  6
CONTINUOUS
 62
     7
 10
224.8277
 20
-588.81195
 40
0.9375
 50
126.8699
 51
233.1301
  0
ARC
  8
0
  6
CONTINUOUS
 62
     7
 10
231.2027
 20
-588.81195
 40
0.9375
 50
306.86991
 51
53.130105
  0
ARC
  8
0
  6
CONTINUOUS
 62
     7
 10
238.7027
 20
-588.81195
 40
0.9375
 50
306.86991
 51
53.130105
  0
ARC
  8
0
  6
CONTINUOUS
 62
     7
 10
235.89308
 20
-588.81195
 40
9.6028843
 50
184.47945
 51
216.00833
  0
ARC
  8
0
  6
CONTINUOUS
 62
     7
 10
235.89308
 20
-588.81195
 40
8.1028843
 50
185.31088
 51
216.00833
  0
ARC
  8
0
  6
CONTINUOUS
 62
     7
 10
227.63731
 20
-588.81195
 40
9.6028843
 50
4.4794498
 51
36.008327
  0
LINE
  8
0
  6
CONTINUOUS
 62
     7
 10
606.38043
 20
-587.91528
 11
608.43476
 21
-587.91528
  0
LINE
  8
0
  6
CONTINUOUS
 62
     7
 10
606.38043
 20
-589.41528
 11
608.43476
 21
-589.41528
  0
LINE
  8
0
  6
CONTINUOUS
 62
     7
 10
619.3261
 20
-589.41528
 11
621.38043
 21
-589.41528
  0
LINE
  8
0
  6
CONTINUOUS
 62
     7
 10
619.3261
 20
-587.91528
 11
621.38043
 21
-587.91528
  0
LINE
  8
0
  6
CONTINUOUS
 62
     7
 10
609.94022
 20
-589.41528
 11
613.88043
 21
-589.41528
  0
LINE
  8
0
  6
CONTINUOUS
 62
     7
 10
609.94022
 20
-587.91528
 11
613.88043
 21
-587.91528
  0
ARC
  8
0
  6
CONTINUOUS
 62
     7
 10
613.88043
 20
-585.66528
 40
3
 50
36.008327
 51
143.99168
  0
ARC
  8
0
  6
CONTINUOUS
 62
     7
 10
613.88043
 20
-585.66528
 40
4.5
 50
36.008327
 51
143.99168
  0
ARC
  8
0
  6
CONTINUOUS
 62
     7
 10
613.88043
 20
-591.66528
 40
3
 50
216.00833
 51
323.99168
  0
ARC
  8
0
  6
CONTINUOUS
 62
     7
 10
613.88043
 20
-591.66528
 40
4.5
 50
216.00833
 51
323.99168
  0
ARC
  8
0
  6
CONTINUOUS
 62
     7
 10
618.00832
 20
-588.66528
 40
9.6028843
 50
143.99168
 51
175.52056
  0
ARC
  8
0
  6
CONTINUOUS
 62
     7
 10
618.00832
 20
-588.66528
 40
8.1028843
 50
143.99168
 51
174.68912
  0
ARC
  8
0
  6
CONTINUOUS
 62
     7
 10
609.75255
 20
-588.66528
 40
8.1028843
 50
323.99167
 51
36.008327
  0
ARC
  8
0
  6
CONTINUOUS
 62
     7
 10
609.75255
 20
-588.66528
 40
9.6028843
 50
323.99167
 51
355.52055
  0
ARC
  8
0
  6
CONTINUOUS
 62
     7
 10
606.94293
 20
-588.66528
 40
0.9375
 50
126.8699
 51
233.1301
  0
ARC
  8
0
  6
CONTINUOUS
 62
     7
 10
613.31793
 20
-588.66528
 40
0.9375
 50
306.86991
 51
53.130105
  0
ARC
  8
0
  6
CONTINUOUS
 62
     7
 10
620.81793
 20
-588.66528
 40
0.9375
 50
306.86991
 51
53.130105
  0
ARC
  8
0
  6
CONTINUOUS
 62
     7
 10
618.00832
 20
-588.66528
 40
9.6028843
 50
184.47945
 51
216.00833
  0
ARC
  8
0
  6
CONTINUOUS
 62
     7
 10
618.00832
 20
-588.66528
 40
8.1028843
 50
185.31088
 51
216.00833
  0
ARC
  8
0
  6
CONTINUOUS
 62
     7
 10
609.75255
 20
-588.66528
 40
9.6028843
 50
4.4794498
 51
36.008327
  0
LINE
  8
0
  6
CONTINUOUS
 62
     7
 10
737.13818
 20
-588.06195
 11
739.19252
 21
-588.06195
  0
LINE
  8
0
  6
CONTINUOUS
 62
     7
 10
737.13818
 20
-589.56195
 11
739.19252
 21
-589.56195
  0
LINE
  8
0
  6
CONTINUOUS
 62
     7
 10
750.08385
 20
-589.56195
 11
752.13818
 21
-589.56195
  0
LINE
  8
0
  6
CONTINUOUS
 62
     7
 10
750.08385
 20
-588.06195
 11
752.13818
 21
-588.06195
  0
LINE
  8
0
  6
CONTINUOUS
 62
     7
 10
740.69797
 20
-589.56195
 11
744.63818
 21
-589.56195
  0
LINE
  8
0
  6
CONTINUOUS
 62
     7
 10
740.69797
 20
-588.06195
 11
744.63818
 21
-588.06195
  0
ARC
  8
0
  6
CONTINUOUS
 62
     7
 10
744.63818
 20
-585.81195
 40
3
 50
36.008327
 51
143.99168
  0
ARC
  8
0
  6
CONTINUOUS
 62
     7
 10
744.63818
 20
-585.81195
 40
4.5
 50
36.008327
 51
143.99168
  0
ARC
  8
0
  6
CONTINUOUS
 62
     7
 10
744.63818
 20
-591.81195
 40
3
 50
216.00833
 51
323.99168
  0
ARC
  8
0
  6
CONTINUOUS
 62
     7
 10
744.63818
 20
-591.81195
 40
4.5
 50
216.00833
 51
323.99168
  0
ARC
  8
0
  6
CONTINUOUS
 62
     7
 10
748.76607
 20
-588.81195
 40
9.6028843
 50
143.99168
 51
175.52056
  0
ARC
  8
0
  6
CONTINUOUS
 62
     7
 10
748.76607
 20
-588.81195
 40
8.1028843
 50
143.99168
 51
174.68912
  0
ARC
  8
0
  6
CONTINUOUS
 62
     7
 10
740.5103
 20
-588.81195
 40
8.1028843
 50
323.99167
 51
36.008327
  0
ARC
  8
0
  6
CONTINUOUS
 62
     7
 10
740.5103
 20
-588.81195
 40
9.6028843
 50
323.99167
 51
355.52055
  0
ARC
  8
0
  6
CONTINUOUS
 62
     7
 10
737.70068
 20
-588.81195
 40
0.9375
 50
126.8699
 51
233.1301
  0
ARC
  8
0
  6
CONTINUOUS
 62
     7
 10
744.07568
 20
-588.81195
 40
0.9375
 50
306.86991
 51
53.130105
  0
ARC
  8
0
  6
CONTINUOUS
 62
     7
 10
751.57568
 20
-588.81195
 40
0.9375
 50
306.86991
 51
53.130105
  0
ARC
  8
0
  6
CONTINUOUS
 62
     7
 10
748.76607
 20
-588.81195
 40
9.6028843
 50
184.47945
 51
216.00833
  0
ARC
  8
0
  6
CONTINUOUS
 62
     7
 10
748.76607
 20
-588.81195
 40
8.1028843
 50
185.31088
 51
216.00833
  0
ARC
  8
0
  6
CONTINUOUS
 62
     7
 10
740.5103
 20
-588.81195
 40
9.6028843
 50
4.4794498
 51
36.008327
  0
LINE
  8
0
  6
CONTINUOUS
 62
     7
 10
883.07709
 20
-588.06195
 11
885.13142
 21
-588.06195
  0
LINE
  8
0
  6
CONTINUOUS
 62
     7
 10
883.07709
 20
-589.56195
 11
885.13142
 21
-589.56195
  0
LINE
  8
0
  6
CONTINUOUS
 62
     7
 10
896.02275
 20
-589.56195
 11
898.07709
 21
-589.56195
  0
LINE
  8
0
  6
CONTINUOUS
 62
     7
 10
896.02275
 20
-588.06195
 11
898.07709
 21
-588.06195
  0
LINE
  8
0
  6
CONTINUOUS
 62
     7
 10
886.63687
 20
-589.56195
 11
890.57709
 21
-589.56195
  0
LINE
  8
0
  6
CONTINUOUS
 62
     7
 10
886.63687
 20
-588.06195
 11
890.57709
 21
-588.06195
  0
ARC
  8
0
  6
CONTINUOUS
 62
     7
 10
890.57709
 20
-585.81195
 40
3
 50
36.008327
 51
143.99168
  0
ARC
  8
0
  6
CONTINUOUS
 62
     7
 10
890.57709
 20
-585.81195
 40
4.5
 50
36.008327
 51
143.99168
  0
ARC
  8
0
  6
CONTINUOUS
 62
     7
 10
890.57709
 20
-591.81195
 40
3
 50
216.00833
 51
323.99168
  0
ARC
  8
0
  6
CONTINUOUS
 62
     7
 10
890.57709
 20
-591.81195
 40
4.5
 50
216.00833
 51
323.99168
  0
ARC
  8
0
  6
CONTINUOUS
 62
     7
 10
894.70497
 20
-588.81195
 40
9.6028843
 50
143.99168
 51
175.52056
  0
ARC
  8
0
  6
CONTINUOUS
 62
     7
 10
894.70497
 20
-588.81195
 40
8.1028843
 50
143.99168
 51
174.68912
  0
ARC
  8
0
  6
CONTINUOUS
 62
     7
 10
886.4492
 20
-588.81195
 40
8.1028843
 50
323.99167
 51
36.008327
  0
ARC
  8
0
  6
CONTINUOUS
 62
     7
 10
886.4492
 20
-588.81195
 40
9.6028843
 50
323.99167
 51
355.52055
  0
ARC
  8
0
  6
CONTINUOUS
 62
     7
 10
883.63959
 20
-588.81195
 40
0.9375
 50
126.8699
 51
233.1301
  0
ARC
  8
0
  6
CONTINUOUS
 62
     7
 10
890.01459
 20
-588.81195
 40
0.9375
 50
306.86991
 51
53.130105
  0
ARC
  8
0
  6
CONTINUOUS
 62
     7
 10
897.51459
 20
-588.81195
 40
0.9375
 50
306.86991
 51
53.130105
  0
ARC
  8
0
  6
CONTINUOUS
 62
     7
 10
894.70497
 20
-588.81195
 40
9.6028843
 50
184.47945
 51
216.00833
  0
ARC
  8
0
  6
CONTINUOUS
 62
     7
 10
894.70497
 20
-588.81195
 40
8.1028843
 50
185.31088
 51
216.00833
  0
ARC
  8
0
  6
CONTINUOUS
 62
     7
 10
886.4492
 20
-588.81195
 40
9.6028843
 50
4.4794498
 51
36.008327
  0
LINE
  8
0
  6
CONTINUOUS
 62
     7
 10
1015.9681
 20
-587.91528
 11
1018.0225
 21
-587.91528
  0
LINE
  8
0
  6
CONTINUOUS
 62
     7
 10
1015.9681
 20
-589.41528
 11
1018.0225
 21
-589.41528
  0
LINE
  8
0
  6
CONTINUOUS
 62
     7
 10
1028.9138
 20
-589.41528
 11
1030.9681
 21
-589.41528
  0
LINE
  8
0
  6
CONTINUOUS
 62
     7
 10
1028.9138
 20
-587.91528
 11
1030.9681
 21
-587.91528
  0
LINE
  8
0
  6
CONTINUOUS
 62
     7
 10
1019.5279
 20
-589.41528
 11
1023.4681
 21
-589.41528
  0
LINE
  8
0
  6
CONTINUOUS
 62
     7
 10
1019.5279
 20
-587.91528
 11
1023.4681
 21
-587.91528
  0
ARC
  8
0
  6
CONTINUOUS
 62
     7
 10
1023.4681
 20
-585.66528
 40
3
 50
36.008327
 51
143.99168
  0
ARC
  8
0
  6
CONTINUOUS
 62
     7
 10
1023.4681
 20
-585.66528
 40
4.5
 50
36.008327
 51
143.99168
  0
ARC
  8
0
  6
CONTINUOUS
 62
     7
 10
1023.4681
 20
-591.66528
 40
3
 50
216.00833
 51
323.99168
  0
ARC
  8
0
  6
CONTINUOUS
 62
     7
 10
1023.4681
 20
-591.66528
 40
4.5
 50
216.00833
 51
323.99168
  0
ARC
  8
0
  6
CONTINUOUS
 62
     7
 10
1027.596
 20
-588.66528
 40
9.6028843
 50
143.99168
 51
175.52056
  0
ARC
  8
0
  6
CONTINUOUS
 62
     7
 10
1027.596
 20
-588.66528
 40
8.1028843
 50
143.99168
 51
174.68912
  0
ARC
  8
0
  6
CONTINUOUS
 62
     7
 10
1019.3403
 20
-588.66528
 40
8.1028843
 50
323.99167
 51
36.008327
  0
ARC
  8
0
  6
CONTINUOUS
 62
     7
 10
1019.3403
 20
-588.66528
 40
9.6028843
 50
323.99167
 51
355.52055
  0
ARC
  8
0
  6
CONTINUOUS
 62
     7
 10
1016.5306
 20
-588.66528
 40
0.9375
 50
126.8699
 51
233.1301
  0
ARC
  8
0
  6
CONTINUOUS
 62
     7
 10
1022.9056
 20
-588.66528
 40
0.9375
 50
306.86991
 51
53.130105
  0
ARC
  8
0
  6
CONTINUOUS
 62
     7
 10
1030.4056
 20
-588.66528
 40
0.9375
 50
306.86991
 51
53.130105
  0
ARC
  8
0
  6
CONTINUOUS
 62
     7
 10
1027.596
 20
-588.66528
 40
9.6028843
 50
184.47945
 51
216.00833
  0
ARC
  8
0
  6
CONTINUOUS
 62
     7
 10
1027.596
 20
-588.66528
 40
8.1028843
 50
185.31088
 51
216.00833
  0
ARC
  8
0
  6
CONTINUOUS
 62
     7
 10
1019.3403
 20
-588.66528
 40
9.6028843
 50
4.4794498
 51
36.008327
  0
POINT
  8
1
  6
CONTINUOUS
 62
     7
 10
1264
 20
-907.5
  0
LINE
  8
1
  6
CONTINUOUS
 62
     7
 10
420
 20
-297.5
 11
1259
 21
-297.5
  0
LINE
  8
1
  6
CONTINUOUS
 62
     7
 10
420
 20
297.5
 11
420
 21
-297.5
  0
LINE
  8
1
  6
CONTINUOUS
 62
     7
 10
1259
 20
297.5
 11
1259
 21
-297.5
  0
LINE
  8
1
  6
CONTINUOUS
 62
     7
 10
420
 20
297.5
 11
1259
 21
297.5
  0
LINE
  8
1
  6
CONTINUOUS
 62
     7
 10
-429
 20
297.5
 11
-429
 21
-297.5
  0
LINE
  8
1
  6
CONTINUOUS
 62
     7
 10
-429
 20
-297.5
 11
410
 21
-297.5
  0
LINE
  8
1
  6
CONTINUOUS
 62
     7
 10
410
 20
297.5
 11
410
 21
-297.5
  0
LINE
  8
1
  6
CONTINUOUS
 62
     7
 10
-429
 20
297.5
 11
410
 21
297.5
  0
LINE
  8
1
  6
CONTINUOUS
 62
     7
 10
-429
 20
-307.5
 11
-429
 21
-902.5
  0
LINE
  8
1
  6
CONTINUOUS
 62
     7
 10
-429
 20
-902.5
 11
410
 21
-902.5
  0
LINE
  8
1
  6
CONTINUOUS
 62
     7
 10
410
 20
-307.5
 11
410
 21
-902.5
  0
LINE
  8
1
  6
CONTINUOUS
 62
     7
 10
-429
 20
-307.5
 11
410
 21
-307.5
  0
LINE
  8
1
  6
CONTINUOUS
 62
     7
 10
420
 20
-307.5
 11
420
 21
-902.5
  0
LINE
  8
1
  6
CONTINUOUS
 62
     7
 10
420
 20
-902.5
 11
1259
 21
-902.5
  0
LINE
  8
1
  6
CONTINUOUS
 62
     7
 10
1259
 20
-307.5
 11
1259
 21
-902.5
  0
LINE
  8
1
  6
CONTINUOUS
 62
     7
 10
420
 20
-307.5
 11
1259
 21
-307.5
  0
ENDSEC
  0
EOF
