  0
SECTION
  2
HEADER
  9
$EXTMAX
 10
1259
 20
307.5
  9
$EXTMIN
 10
-439
 20
-902.5
  0
ENDSEC
  0
SECTION
  2
TABLES
  0
TABLE
  2
LTYPE
 70
    22
  0
LTYPE
  2
CONTINUOUS
 70
    64
  3
Solid line
 72
    65
 73
     0
 40
0.000000
  0
LTYPE
  2
DASHED
 70
    64
  3
__ __ __ __ __ __ __ __ __ __ __ __ __ __ __
 72
    65
 73
     2
 40
3.500000
 49
2.000000
 49
-1.500000
  0
LTYPE
  2
CENTER
 70
    64
  3
____ _ ____ _ ____ _ ____ _ ____ _ ____ _ ____
 72
    65
 73
     4
 40
17.500000
 49
13.000000
 49
-1.500000
 49
1.500000
 49
-1.500000
  0
LTYPE
  2
PHANTOM
 70
    64
  3
_____ _ _ _____ _ _ _____ _ _ _____ _ _ ____  
 72
    65
 73
     6
 40
15.500000
 49
8.000000
 49
-1.500000
 49
1.500000
 49
-1.500000
 49
1.500000
 49
-1.500000
  0
LTYPE
  2
DOT
 70
    64
  3
. . . . . . . . . . . . . . . . . . . . . . . .
 72
    65
 73
     2
 40
0.25
 49
0.0
 49
-0.25
  0
ENDTAB
  0
TABLE
  2
LAYER
 70
     2
  0
LAYER
  2
0
 70
     0
 62
     7
  6
CONTINUOUS
  0
LAYER
  2
1
 70
     0
 62
     7
  6
CONTINUOUS
  0
ENDTAB
  0
TABLE
  2
STYLE
 70
     1
  0
STYLE
  2
STANDARD
 70
     0
 40
0.000000
 41
1.000000
 50
0.000000
 71
     0
 42
0.200000
  3
txt
  4
BIGFONT
  0
ENDTAB
  0
TABLE
  2
VIEW
 70
     0
  0
ENDTAB
  0
ENDSEC
  0
SECTION
  2
BLOCKS
  0
ENDSEC
  0
SECTION
  2
ENTITIES
  0
POINT
  8
0
  6
CONTINUOUS
 62
     7
 10
-317.82849
 20
-610.00854
  0
POINT
  8
0
  6
CONTINUOUS
 62
     7
 10
-177.82849
 20
-610.00854
  0
POINT
  8
0
  6
CONTINUOUS
 62
     7
 10
-37.828495
 20
-610.00854
  0
POINT
  8
0
  6
CONTINUOUS
 62
     7
 10
102.17151
 20
-610.00854
  0
POINT
  8
0
  6
CONTINUOUS
 62
     7
 10
242.17151
 20
-610.00854
  0
POINT
  8
0
  6
CONTINUOUS
 62
     7
 10
-317.82849
 20
37.142578
  0
POINT
  8
0
  6
CONTINUOUS
 62
     7
 10
-177.82849
 20
37.142578
  0
POINT
  8
0
  6
CONTINUOUS
 62
     7
 10
-37.828495
 20
37.142578
  0
POINT
  8
0
  6
CONTINUOUS
 62
     7
 10
102.17151
 20
37.142578
  0
POINT
  8
0
  6
CONTINUOUS
 62
     7
 10
242.17151
 20
37.142578
  0
POINT
  8
0
  6
CONTINUOUS
 62
     7
 10
584.52332
 20
158.09171
  0
POINT
  8
0
  6
CONTINUOUS
 62
     7
 10
584.52332
 20
158.09171
  0
POINT
  8
0
  6
CONTINUOUS
 62
     7
 10
800.625
 20
154
  0
POINT
  8
0
  6
CONTINUOUS
 62
     7
 10
1041.075
 20
152.95
  0
POINT
  8
0
  6
CONTINUOUS
 62
     7
 10
612.43427
 20
-98.538277
  0
POINT
  8
0
  6
CONTINUOUS
 62
     7
 10
971.2085
 20
-102.55207
  0
POINT
  8
0
  6
CONTINUOUS
 62
     7
 10
971.2085
 20
-102.55207
  0
POINT
  8
0
  6
CONTINUOUS
 62
     7
 10
648.77332
 20
174.09171
  0
POINT
  8
0
  6
CONTINUOUS
 62
     7
 10
873.625
 20
175
  0
POINT
  8
0
  6
CONTINUOUS
 62
     7
 10
1131.575
 20
173.95
  0
POINT
  8
0
  6
CONTINUOUS
 62
     7
 10
1090.2085
 20
-75.552071
  0
POINT
  8
0
  6
CONTINUOUS
 62
     7
 10
716.43427
 20
-71.538269
  0
POINT
  8
0
  6
CONTINUOUS
 62
     7
 10
520.27332
 20
174.09171
  0
POINT
  8
0
  6
CONTINUOUS
 62
     7
 10
520.27332
 20
174.09171
  0
POINT
  8
0
  6
CONTINUOUS
 62
     7
 10
648.77332
 20
174.09171
  0
POINT
  8
0
  6
CONTINUOUS
 62
     7
 10
727.625
 20
175
  0
POINT
  8
0
  6
CONTINUOUS
 62
     7
 10
727.625
 20
175
  0
POINT
  8
0
  6
CONTINUOUS
 62
     7
 10
950.57501
 20
173.95
  0
POINT
  8
0
  6
CONTINUOUS
 62
     7
 10
1131.575
 20
173.95
  0
POINT
  8
0
  6
CONTINUOUS
 62
     7
 10
950.57501
 20
173.95
  0
POINT
  8
0
  6
CONTINUOUS
 62
     7
 10
873.625
 20
175
  0
POINT
  8
0
  6
CONTINUOUS
 62
     7
 10
508.43427
 20
-71.538269
  0
POINT
  8
0
  6
CONTINUOUS
 62
     7
 10
852.2085
 20
-75.552071
  0
POINT
  8
0
  6
CONTINUOUS
 62
     7
 10
508.43427
 20
-71.538269
  0
POINT
  8
0
  6
CONTINUOUS
 62
     7
 10
1090.2085
 20
-75.552071
  0
POINT
  8
0
  6
CONTINUOUS
 62
     7
 10
852.2085
 20
-75.552071
  0
POINT
  8
0
  6
CONTINUOUS
 62
     7
 10
716.43427
 20
-71.538269
  0
LINE
  8
0
  6
CONTINUOUS
 62
     7
 10
-343.33954
 20
37.142578
 11
-323.21201
 21
37.142578
  0
LINE
  8
0
  6
CONTINUOUS
 62
     7
 10
-330.45251
 20
87.142578
 11
-318.46201
 21
87.142578
  0
LINE
  8
0
  6
CENTER
 62
     7
 10
-356.33231
 20
37.142578
 11
-285.37616
 21
37.142578
  0
LINE
  8
0
  6
CONTINUOUS
 62
     7
 10
-318.46201
 20
53.142578
 11
-340.81744
 21
53.142578
  0
LINE
  8
0
  6
CONTINUOUS
 62
     7
 10
-318.46201
 20
21.142578
 11
-343.33954
 21
21.142578
  0
LINE
  8
0
  6
CONTINUOUS
 62
     7
 10
520.27332
 20
190.09171
 11
517.02332
 21
190.09171
  0
LINE
  8
0
  6
CONTINUOUS
 62
     7
 10
520.27332
 20
188.59171
 11
515.52332
 21
188.59171
  0
LINE
  8
0
  6
CONTINUOUS
 62
     7
 10
-327.112
 20
21.142578
 11
-327.112
 21
20.880493
  0
LINE
  8
0
  6
CONTINUOUS
 62
     7
 10
515.52332
 20
188.59171
 11
515.52332
 21
183.19171
  0
LINE
  8
0
  6
CONTINUOUS
 62
     7
 10
517.02332
 20
190.09171
 11
517.02332
 21
183.19171
  0
LINE
  8
0
  6
CONTINUOUS
 62
     7
 10
515.52332
 20
188.59174
 11
517.02332
 21
190.09172
  0
LINE
  8
0
  6
CONTINUOUS
 62
     7
 10
520.27332
 20
183.19171
 11
512.69922
 21
183.19171
  0
LINE
  8
0
  6
CONTINUOUS
 62
     7
 10
515.2251
 20
181.73337
 11
515.2251
 21
175.55005
  0
LINE
  8
0
  6
CONTINUOUS
 62
     7
 10
510.17331
 20
181.73337
 11
510.17331
 21
175.55005
  0
LINE
  8
0
  6
CONTINUOUS
 62
     7
 10
-340.81744
 20
78.642578
 11
-340.81744
 21
37.142578
  0
LINE
  8
0
  6
CONTINUOUS
 62
     7
 10
-332.56744
 20
81.111755
 11
-332.56744
 21
53.142578
  0
LINE
  8
0
  6
CONTINUOUS
 62
     7
 10
515.52332
 20
163.99207
 11
515.52332
 21
152.19136
  0
LINE
  8
0
  6
CONTINUOUS
 62
     7
 10
-332.97464
 20
-12.857422
 11
-318.46201
 21
-12.857422
  0
LINE
  8
0
  6
CONTINUOUS
 62
     7
 10
-335.08954
 20
-6.8265991
 11
-335.08954
 21
21.142578
  0
LINE
  8
0
  6
CONTINUOUS
 62
     7
 10
-343.33954
 20
37.142578
 11
-343.33954
 21
-4.3574219
  0
LINE
  8
0
  6
CONTINUOUS
 62
     7
 10
-294.83954
 20
37.142578
 11
-294.83954
 21
-4.3574219
  0
LINE
  8
0
  6
CONTINUOUS
 62
     7
 10
-292.31744
 20
78.642578
 11
-292.31744
 21
37.142578
  0
LINE
  8
0
  6
CONTINUOUS
 62
     7
 10
-319.71707
 20
21.142578
 11
-294.83954
 21
21.142578
  0
LINE
  8
0
  6
CONTINUOUS
 62
     7
 10
-305.20444
 20
-12.857422
 11
-319.71707
 21
-12.857422
  0
LINE
  8
0
  6
CONTINUOUS
 62
     7
 10
-303.08954
 20
-6.8265991
 11
-303.08954
 21
21.142578
  0
LINE
  8
0
  6
CONTINUOUS
 62
     7
 10
-309.81201
 20
21.142578
 11
-309.81201
 21
20.880493
  0
LINE
  8
0
  6
CONTINUOUS
 62
     7
 10
520.27332
 20
190.09171
 11
523.52332
 21
190.09171
  0
LINE
  8
0
  6
CONTINUOUS
 62
     7
 10
520.27332
 20
188.59171
 11
525.02332
 21
188.59171
  0
LINE
  8
0
  6
CONTINUOUS
 62
     7
 10
525.02332
 20
188.59171
 11
525.02332
 21
183.19171
  0
LINE
  8
0
  6
CONTINUOUS
 62
     7
 10
523.52332
 20
190.09171
 11
523.52332
 21
183.19171
  0
LINE
  8
0
  6
CONTINUOUS
 62
     7
 10
525.02332
 20
188.59171
 11
523.52332
 21
190.09172
  0
LINE
  8
0
  6
CONTINUOUS
 62
     7
 10
520.27332
 20
183.19171
 11
527.84741
 21
183.19171
  0
LINE
  8
0
  6
CONTINUOUS
 62
     7
 10
525.32153
 20
181.73337
 11
525.32153
 21
175.55005
  0
LINE
  8
0
  6
CONTINUOUS
 62
     7
 10
530.37329
 20
181.73337
 11
530.37329
 21
177.18182
  0
LINE
  8
0
  6
CONTINUOUS
 62
     7
 10
-302.68237
 20
87.142578
 11
-318.46201
 21
87.142578
  0
LINE
  8
0
  6
CONTINUOUS
 62
     7
 10
-314.67288
 20
53.142578
 11
-292.31744
 21
53.142578
  0
LINE
  8
0
  6
CONTINUOUS
 62
     7
 10
-292.31744
 20
78.642578
 11
-292.31744
 21
37.142578
  0
LINE
  8
0
  6
CONTINUOUS
 62
     7
 10
-300.56744
 20
81.111755
 11
-300.56744
 21
53.142578
  0
LINE
  8
0
  6
CONTINUOUS
 62
     7
 10
-189.90396
 20
16.142578
 11
-189.90396
 21
15.94278
  0
LINE
  8
0
  6
CONTINUOUS
 62
     7
 10
727.625
 20
196
 11
723.27502
 21
196
  0
LINE
  8
0
  6
CONTINUOUS
 62
     7
 10
727.625
 20
194
 11
721.27502
 21
194
  0
LINE
  8
0
  6
CONTINUOUS
 62
     7
 10
727.625
 20
187.29999
 11
717.97925
 21
187.29999
  0
LINE
  8
0
  6
CONTINUOUS
 62
     7
 10
721.18359
 20
185.45001
 11
721.18359
 21
176.85001
  0
LINE
  8
0
  6
CONTINUOUS
 62
     7
 10
714.77502
 20
185.45001
 11
714.77502
 21
176.85001
  0
LINE
  8
0
  6
CONTINUOUS
 62
     7
 10
723.27502
 20
196
 11
723.27502
 21
187.29999
  0
LINE
  8
0
  6
CONTINUOUS
 62
     7
 10
721.27502
 20
194
 11
721.27502
 21
187.29999
  0
LINE
  8
0
  6
CONTINUOUS
 62
     7
 10
721.27496
 20
194
 11
723.27496
 21
196
  0
LINE
  8
0
  6
CONTINUOUS
 62
     7
 10
721.27502
 20
163.16812
 11
721.27502
 21
144.83183
  0
LINE
  8
0
  6
CONTINUOUS
 62
     7
 10
-201.90396
 20
37.142578
 11
-187.15027
 21
37.142578
  0
LINE
  8
0
  6
CONTINUOUS
 62
     7
 10
-201.25299
 20
58.142578
 11
-177.00299
 21
58.142578
  0
LINE
  8
0
  6
CENTER
 62
     7
 10
-210.33789
 20
37.142578
 11
-144.39423
 21
37.142578
  0
LINE
  8
0
  6
CONTINUOUS
 62
     7
 10
-202.90396
 20
37.142578
 11
-185.00397
 21
37.142578
  0
LINE
  8
0
  6
CONTINUOUS
 62
     7
 10
-201.25299
 20
84.642578
 11
-201.25299
 21
37.142578
  0
LINE
  8
0
  6
CONTINUOUS
 62
     7
 10
-194.65396
 20
86.801697
 11
-194.65396
 21
58.142578
  0
LINE
  8
0
  6
CONTINUOUS
 62
     7
 10
-202.90396
 20
-10.357422
 11
-202.90396
 21
37.142578
  0
LINE
  8
0
  6
CONTINUOUS
 62
     7
 10
-196.3049
 20
-12.516541
 11
-196.3049
 21
16.142578
  0
LINE
  8
0
  6
CONTINUOUS
 62
     7
 10
-202.90396
 20
16.142578
 11
-178.65396
 21
16.142578
  0
LINE
  8
0
  6
CONTINUOUS
 62
     7
 10
-152.75299
 20
84.642578
 11
-152.75299
 21
37.142578
  0
LINE
  8
0
  6
CONTINUOUS
 62
     7
 10
-154.40396
 20
-10.357422
 11
-154.40396
 21
37.142578
  0
LINE
  8
0
  6
CONTINUOUS
 62
     7
 10
-161.00299
 20
-12.516541
 11
-161.00299
 21
16.142578
  0
LINE
  8
0
  6
CONTINUOUS
 62
     7
 10
-154.40396
 20
16.142578
 11
-178.65396
 21
16.142578
  0
LINE
  8
0
  6
CONTINUOUS
 62
     7
 10
-167.40396
 20
16.142578
 11
-167.40396
 21
15.94278
  0
LINE
  8
0
  6
CONTINUOUS
 62
     7
 10
-159.35205
 20
86.801697
 11
-159.35205
 21
58.142578
  0
LINE
  8
0
  6
CONTINUOUS
 62
     7
 10
-152.75299
 20
58.142578
 11
-177.00299
 21
58.142578
  0
LINE
  8
0
  6
CONTINUOUS
 62
     7
 10
727.625
 20
196
 11
731.97498
 21
196
  0
LINE
  8
0
  6
CONTINUOUS
 62
     7
 10
727.625
 20
194
 11
733.97498
 21
194
  0
LINE
  8
0
  6
CONTINUOUS
 62
     7
 10
727.625
 20
187.29999
 11
737.27075
 21
187.29999
  0
LINE
  8
0
  6
CONTINUOUS
 62
     7
 10
734.06641
 20
185.45001
 11
734.06641
 21
176.85001
  0
LINE
  8
0
  6
CONTINUOUS
 62
     7
 10
740.47498
 20
185.45001
 11
740.47498
 21
178.98927
  0
LINE
  8
0
  6
CONTINUOUS
 62
     7
 10
731.97498
 20
196
 11
731.97498
 21
187.29999
  0
LINE
  8
0
  6
CONTINUOUS
 62
     7
 10
733.97498
 20
194
 11
733.97498
 21
187.29999
  0
LINE
  8
0
  6
CONTINUOUS
 62
     7
 10
733.97504
 20
194
 11
731.97504
 21
196
  0
LINE
  8
0
  6
CONTINUOUS
 62
     7
 10
-152.75299
 20
37.142578
 11
-172.30396
 21
37.142578
  0
LINE
  8
0
  6
CONTINUOUS
 62
     7
 10
-38.895329
 20
79.142578
 11
-43.245335
 21
79.142578
  0
LINE
  8
0
  6
CONTINUOUS
 62
     7
 10
-38.895329
 20
77.142578
 11
-45.245335
 21
77.142578
  0
LINE
  8
0
  6
CONTINUOUS
 62
     7
 10
-38.895329
 20
70.442596
 11
-48.54105
 21
70.442596
  0
LINE
  8
0
  6
CONTINUOUS
 62
     7
 10
-51.745335
 20
68.59259
 11
-51.745335
 21
59.992584
  0
LINE
  8
0
  6
CONTINUOUS
 62
     7
 10
-43.245335
 20
79.142578
 11
-43.245335
 21
70.442596
  0
LINE
  8
0
  6
CONTINUOUS
 62
     7
 10
-45.245335
 20
77.142578
 11
-45.245335
 21
70.442596
  0
LINE
  8
0
  6
CONTINUOUS
 62
     7
 10
-45.245331
 20
77.142601
 11
-43.245331
 21
79.142601
  0
LINE
  8
0
  6
CONTINUOUS
 62
     7
 10
-45.336765
 20
68.59259
 11
-45.336765
 21
59.992584
  0
LINE
  8
0
  6
CONTINUOUS
 62
     7
 10
-45.245335
 20
47.658691
 11
-45.245335
 21
24.732117
  0
LINE
  8
0
  6
CONTINUOUS
 62
     7
 10
-50.145329
 20
16.142578
 11
-50.145329
 21
15.94278
  0
LINE
  8
0
  6
CENTER
 62
     7
 10
-71.235107
 20
37.142578
 11
-5.1933155
 21
37.142578
  0
LINE
  8
0
  6
CONTINUOUS
 62
     7
 10
-45.245335
 20
37.142578
 11
-64.395325
 21
37.142578
  0
LINE
  8
0
  6
CONTINUOUS
 62
     7
 10
-38.895329
 20
58.142578
 11
-62.261631
 21
58.142578
  0
LINE
  8
0
  6
CONTINUOUS
 62
     7
 10
-38.895329
 20
16.142578
 11
-64.395325
 21
16.142578
  0
LINE
  8
0
  6
CONTINUOUS
 62
     7
 10
-62.261631
 20
97.642578
 11
-62.261631
 21
37.142578
  0
LINE
  8
0
  6
CONTINUOUS
 62
     7
 10
-64.395325
 20
37.142578
 11
-64.395325
 21
-23.357391
  0
LINE
  8
0
  6
CONTINUOUS
 62
     7
 10
-56.395329
 20
16.142578
 11
-56.395329
 21
-27.562241
  0
LINE
  8
0
  6
CONTINUOUS
 62
     7
 10
-54.261631
 20
58.142578
 11
-54.261631
 21
101.84741
  0
LINE
  8
0
  6
CONTINUOUS
 62
     7
 10
-38.895329
 20
79.142578
 11
-34.545292
 21
79.142578
  0
LINE
  8
0
  6
CONTINUOUS
 62
     7
 10
-38.895329
 20
77.142578
 11
-32.545322
 21
77.142578
  0
LINE
  8
0
  6
CONTINUOUS
 62
     7
 10
-38.895329
 20
70.442596
 11
-29.249605
 21
70.442596
  0
LINE
  8
0
  6
CONTINUOUS
 62
     7
 10
-26.045321
 20
68.59259
 11
-26.045321
 21
59.992584
  0
LINE
  8
0
  6
CONTINUOUS
 62
     7
 10
-34.545322
 20
79.142578
 11
-34.545322
 21
70.442596
  0
LINE
  8
0
  6
CONTINUOUS
 62
     7
 10
-32.545322
 20
77.142578
 11
-32.545322
 21
70.442596
  0
LINE
  8
0
  6
CONTINUOUS
 62
     7
 10
-32.545319
 20
77.142616
 11
-34.545322
 21
79.142616
  0
LINE
  8
0
  6
CONTINUOUS
 62
     7
 10
-32.453892
 20
68.59259
 11
-32.453892
 21
59.992584
  0
LINE
  8
0
  6
CONTINUOUS
 62
     7
 10
-32.545322
 20
50.960571
 11
-32.545322
 21
24.732117
  0
LINE
  8
0
  6
CONTINUOUS
 62
     7
 10
-27.645327
 20
16.142578
 11
-27.645327
 21
15.94278
  0
LINE
  8
0
  6
CONTINUOUS
 62
     7
 10
-38.895329
 20
16.142578
 11
-13.395311
 21
16.142578
  0
LINE
  8
0
  6
CONTINUOUS
 62
     7
 10
-13.395311
 20
37.142578
 11
-13.395311
 21
-23.357391
  0
LINE
  8
0
  6
CONTINUOUS
 62
     7
 10
-21.395311
 20
16.142578
 11
-21.395311
 21
-27.562241
  0
LINE
  8
0
  6
CONTINUOUS
 62
     7
 10
-32.545322
 20
37.142578
 11
-11.261629
 21
37.142578
  0
LINE
  8
0
  6
CONTINUOUS
 62
     7
 10
-11.261629
 20
97.642578
 11
-11.261629
 21
37.142578
  0
LINE
  8
0
  6
CONTINUOUS
 62
     7
 10
-38.895329
 20
58.142578
 11
-11.261629
 21
58.142578
  0
LINE
  8
0
  6
CONTINUOUS
 62
     7
 10
-19.261644
 20
58.142578
 11
-19.261644
 21
101.84741
  0
LINE
  8
0
  6
CONTINUOUS
 62
     7
 10
77.188354
 20
112.14258
 11
77.188354
 21
37.142578
  0
LINE
  8
0
  6
CONTINUOUS
 62
     7
 10
75.154663
 20
37.142578
 11
93.254669
 21
37.142578
  0
LINE
  8
0
  6
CENTER
 62
     7
 10
61.40205
 20
37.142578
 11
139.14839
 21
37.142578
  0
LINE
  8
0
  6
CONTINUOUS
 62
     7
 10
77.188354
 20
64.142578
 11
103.18835
 21
64.142578
  0
LINE
  8
0
  6
CONTINUOUS
 62
     7
 10
101.15466
 20
90.142578
 11
95.254669
 21
90.142578
  0
LINE
  8
0
  6
CONTINUOUS
 62
     7
 10
101.15466
 20
88.142578
 11
93.254669
 21
88.142578
  0
LINE
  8
0
  6
CONTINUOUS
 62
     7
 10
95.254669
 20
90.142578
 11
95.254669
 21
79.642578
  0
LINE
  8
0
  6
CONTINUOUS
 62
     7
 10
93.254646
 20
88.142586
 11
95.254646
 21
90.142593
  0
LINE
  8
0
  6
CONTINUOUS
 62
     7
 10
93.254669
 20
88.142578
 11
93.254669
 21
79.642578
  0
LINE
  8
0
  6
CONTINUOUS
 62
     7
 10
87.654663
 20
10.142578
 11
87.654663
 21
9.9488525
  0
LINE
  8
0
  6
CONTINUOUS
 62
     7
 10
101.15466
 20
79.642578
 11
89.451782
 21
79.642578
  0
LINE
  8
0
  6
CONTINUOUS
 62
     7
 10
93.348892
 20
77.392578
 11
93.348892
 21
66.392578
  0
LINE
  8
0
  6
CONTINUOUS
 62
     7
 10
85.554657
 20
77.392578
 11
85.554657
 21
66.392578
  0
LINE
  8
0
  6
CONTINUOUS
 62
     7
 10
93.254669
 20
51.655334
 11
93.254669
 21
20.525818
  0
LINE
  8
0
  6
CONTINUOUS
 62
     7
 10
101.15466
 20
10.142578
 11
75.154663
 21
10.142578
  0
LINE
  8
0
  6
CONTINUOUS
 62
     7
 10
75.154663
 20
37.142578
 11
75.154663
 21
-37.857407
  0
LINE
  8
0
  6
CONTINUOUS
 62
     7
 10
114.65466
 20
10.142578
 11
114.65466
 21
9.9488525
  0
LINE
  8
0
  6
CONTINUOUS
 62
     7
 10
109.05466
 20
55.440186
 11
109.05466
 21
20.525818
  0
LINE
  8
0
  6
CONTINUOUS
 62
     7
 10
101.15466
 20
10.142578
 11
127.15466
 21
10.142578
  0
LINE
  8
0
  6
CONTINUOUS
 62
     7
 10
127.15466
 20
37.142578
 11
127.15466
 21
-37.857407
  0
LINE
  8
0
  6
CONTINUOUS
 62
     7
 10
129.18834
 20
112.14258
 11
129.18834
 21
37.142578
  0
LINE
  8
0
  6
CONTINUOUS
 62
     7
 10
129.18834
 20
64.142578
 11
103.18835
 21
64.142578
  0
LINE
  8
0
  6
CONTINUOUS
 62
     7
 10
109.05466
 20
37.142578
 11
129.18834
 21
37.142578
  0
LINE
  8
0
  6
CONTINUOUS
 62
     7
 10
101.15466
 20
90.142578
 11
107.05466
 21
90.142578
  0
LINE
  8
0
  6
CONTINUOUS
 62
     7
 10
101.15466
 20
88.142578
 11
109.05466
 21
88.142578
  0
LINE
  8
0
  6
CONTINUOUS
 62
     7
 10
107.05466
 20
90.142578
 11
107.05466
 21
79.642578
  0
LINE
  8
0
  6
CONTINUOUS
 62
     7
 10
109.05466
 20
88.142586
 11
107.05466
 21
90.142593
  0
LINE
  8
0
  6
CONTINUOUS
 62
     7
 10
109.05466
 20
88.142578
 11
109.05466
 21
79.642578
  0
LINE
  8
0
  6
CONTINUOUS
 62
     7
 10
101.15466
 20
79.642578
 11
112.85754
 21
79.642578
  0
LINE
  8
0
  6
CONTINUOUS
 62
     7
 10
108.96043
 20
77.392578
 11
108.96043
 21
66.392578
  0
LINE
  8
0
  6
CONTINUOUS
 62
     7
 10
116.75467
 20
77.392578
 11
116.75467
 21
66.392578
  0
LINE
  8
0
  6
CONTINUOUS
 62
     7
 10
121.68835
 20
64.142578
 11
121.68835
 21
117.88278
  0
LINE
  8
0
  6
CONTINUOUS
 62
     7
 10
84.688354
 20
64.142578
 11
84.688354
 21
117.88278
  0
LINE
  8
0
  6
CONTINUOUS
 62
     7
 10
82.654663
 20
10.142578
 11
82.654663
 21
-43.597595
  0
LINE
  8
0
  6
CONTINUOUS
 62
     7
 10
119.65466
 20
10.142578
 11
119.65466
 21
-43.597595
  0
LINE
  8
0
  6
CONTINUOUS
 62
     7
 10
508.43427
 20
-45.538273
 11
502.53427
 21
-45.538273
  0
LINE
  8
0
  6
CONTINUOUS
 62
     7
 10
508.43427
 20
-47.538273
 11
500.53427
 21
-47.538273
  0
LINE
  8
0
  6
CONTINUOUS
 62
     7
 10
502.53427
 20
-45.538273
 11
502.53427
 21
-56.038273
  0
LINE
  8
0
  6
CONTINUOUS
 62
     7
 10
500.53427
 20
-47.53828
 11
502.53427
 21
-45.538277
  0
LINE
  8
0
  6
CONTINUOUS
 62
     7
 10
500.53427
 20
-47.538273
 11
500.53427
 21
-56.038273
  0
LINE
  8
0
  6
CONTINUOUS
 62
     7
 10
227.65161
 20
10.142578
 11
227.65161
 21
9.9488525
  0
LINE
  8
0
  6
CONTINUOUS
 62
     7
 10
508.43427
 20
-56.038273
 11
496.73138
 21
-56.038273
  0
LINE
  8
0
  6
CONTINUOUS
 62
     7
 10
500.53427
 20
-87.601616
 11
500.53427
 21
-109.47491
  0
LINE
  8
0
  6
CONTINUOUS
 62
     7
 10
500.62851
 20
-58.288273
 11
500.62851
 21
-69.288269
  0
LINE
  8
0
  6
CONTINUOUS
 62
     7
 10
492.83426
 20
-58.288273
 11
492.83426
 21
-69.288269
  0
LINE
  8
0
  6
CONTINUOUS
 62
     7
 10
217.19141
 20
124.64259
 11
217.19141
 21
37.142578
  0
LINE
  8
0
  6
CONTINUOUS
 62
     7
 10
214.99188
 20
37.142578
 11
233.25162
 21
37.142578
  0
LINE
  8
0
  6
CENTER
 62
     7
 10
207.53986
 20
37.142578
 11
275.43985
 21
37.142578
  0
LINE
  8
0
  6
CONTINUOUS
 62
     7
 10
217.19141
 20
64.142586
 11
241.15161
 21
64.142586
  0
LINE
  8
0
  6
CONTINUOUS
 62
     7
 10
214.99188
 20
10.142578
 11
241.15161
 21
10.142578
  0
LINE
  8
0
  6
CONTINUOUS
 62
     7
 10
215.15161
 20
37.142578
 11
215.15161
 21
-50.357422
  0
LINE
  8
0
  6
CONTINUOUS
 62
     7
 10
228.57114
 20
136.64258
 11
241.15161
 21
136.64258
  0
LINE
  8
0
  6
CONTINUOUS
 62
     7
 10
226.53134
 20
-62.35743
 11
241.15161
 21
-62.35743
  0
LINE
  8
0
  6
CONTINUOUS
 62
     7
 10
224.69141
 20
127.38767
 11
224.69141
 21
64.142586
  0
LINE
  8
0
  6
CONTINUOUS
 62
     7
 10
222.65161
 20
-53.10252
 11
222.65161
 21
10.142578
  0
LINE
  8
0
  6
CONTINUOUS
 62
     7
 10
269.19141
 20
124.64259
 11
269.19141
 21
37.142578
  0
LINE
  8
0
  6
CONTINUOUS
 62
     7
 10
254.65161
 20
10.142578
 11
254.65161
 21
9.9488525
  0
LINE
  8
0
  6
CONTINUOUS
 62
     7
 10
267.31137
 20
10.142578
 11
241.15161
 21
10.142578
  0
LINE
  8
0
  6
CONTINUOUS
 62
     7
 10
267.15161
 20
37.142578
 11
267.15161
 21
-50.357422
  0
LINE
  8
0
  6
CONTINUOUS
 62
     7
 10
255.77188
 20
-62.35743
 11
241.15161
 21
-62.35743
  0
LINE
  8
0
  6
CONTINUOUS
 62
     7
 10
259.65161
 20
-53.10252
 11
259.65161
 21
10.142578
  0
LINE
  8
0
  6
CONTINUOUS
 62
     7
 10
267.31137
 20
37.142578
 11
249.05161
 21
37.142578
  0
LINE
  8
0
  6
CONTINUOUS
 62
     7
 10
508.43427
 20
-45.538273
 11
514.33423
 21
-45.538273
  0
LINE
  8
0
  6
CONTINUOUS
 62
     7
 10
508.43427
 20
-47.538273
 11
516.33423
 21
-47.538273
  0
LINE
  8
0
  6
CONTINUOUS
 62
     7
 10
514.33423
 20
-45.538273
 11
514.33423
 21
-56.038273
  0
LINE
  8
0
  6
CONTINUOUS
 62
     7
 10
516.33429
 20
-47.538258
 11
514.33429
 21
-45.538254
  0
LINE
  8
0
  6
CONTINUOUS
 62
     7
 10
516.33423
 20
-47.538273
 11
516.33423
 21
-56.038273
  0
LINE
  8
0
  6
CONTINUOUS
 62
     7
 10
508.43427
 20
-56.038273
 11
520.13715
 21
-56.038273
  0
LINE
  8
0
  6
CONTINUOUS
 62
     7
 10
516.24005
 20
-58.288273
 11
516.24005
 21
-69.288269
  0
LINE
  8
0
  6
CONTINUOUS
 62
     7
 10
524.03424
 20
-58.288273
 11
524.03424
 21
-64.005653
  0
LINE
  8
0
  6
CONTINUOUS
 62
     7
 10
269.19141
 20
124.64259
 11
269.19141
 21
37.142578
  0
LINE
  8
0
  6
CONTINUOUS
 62
     7
 10
269.19141
 20
64.142586
 11
241.15161
 21
64.142586
  0
LINE
  8
0
  6
CONTINUOUS
 62
     7
 10
261.69141
 20
127.38767
 11
261.69141
 21
64.142586
  0
LINE
  8
0
  6
CONTINUOUS
 62
     7
 10
257.81168
 20
136.64258
 11
241.15161
 21
136.64258
  0
LINE
  8
0
  6
CONTINUOUS
 62
     7
 10
-313.71201
 20
37.142578
 11
-292.31744
 21
37.142578
  0
LINE
  8
0
  6
CENTER
 62
     7
 10
-317.82849
 20
92.795105
 11
-317.82849
 21
-19.266205
  0
LINE
  8
0
  6
CENTER
 62
     7
 10
-177.82849
 20
-24.173584
 11
-177.82849
 21
102.15009
  0
LINE
  8
0
  6
CENTER
 62
     7
 10
-37.828495
 20
116.18353
 11
-37.828495
 21
-42.274033
  0
LINE
  8
0
  6
CENTER
 62
     7
 10
102.17151
 20
129.96576
 11
102.17151
 21
-55.812088
  0
LINE
  8
0
  6
CENTER
 62
     7
 10
242.17151
 20
144.51799
 11
242.17151
 21
-71.130005
  0
LINE
  8
0
  6
CENTER
 62
     7
 10
-317.82849
 20
-695.03839
 11
-317.82849
 21
-528.73041
  0
LINE
  8
0
  6
CONTINUOUS
 62
     7
 10
-342.07849
 20
-652.90857
 11
-342.07849
 21
-567.10876
  0
LINE
  8
0
  6
CONTINUOUS
 62
     7
 10
-293.57849
 20
-652.90857
 11
-293.57849
 21
-567.10876
  0
LINE
  8
0
  6
CENTER
 62
     7
 10
-346.54367
 20
-610.00854
 11
-285.37149
 21
-610.00854
  0
LINE
  8
0
  6
CONTINUOUS
 62
     7
 10
-293.57849
 20
-567.10876
 11
-299.60153
 21
-546.6441
  0
LINE
  8
0
  6
CONTINUOUS
 62
     7
 10
-342.07849
 20
-567.10876
 11
-336.05548
 21
-546.64417
  0
LINE
  8
0
  6
CONTINUOUS
 62
     7
 10
-293.57849
 20
-652.90863
 11
-299.60153
 21
-673.37305
  0
LINE
  8
0
  6
CONTINUOUS
 62
     7
 10
-342.07849
 20
-652.90857
 11
-336.05548
 21
-673.37305
  0
LINE
  8
0
  6
CONTINUOUS
 62
     7
 10
-293.57852
 20
-591.25476
 11
-298.68491
 21
-549.75854
  0
LINE
  8
0
  6
CONTINUOUS
 62
     7
 10
-342.07849
 20
-591.25476
 11
-336.97211
 21
-549.75854
  0
LINE
  8
0
  6
CONTINUOUS
 62
     7
 10
-342.07849
 20
-628.76233
 11
-336.97211
 21
-670.25854
  0
LINE
  8
0
  6
CONTINUOUS
 62
     7
 10
-293.57849
 20
-628.76233
 11
-298.68488
 21
-670.25861
  0
LINE
  8
0
  6
CONTINUOUS
 62
     7
 10
-335.52335
 20
-566.64215
 11
-333.44571
 21
-549.75861
  0
LINE
  8
0
  6
CONTINUOUS
 62
     7
 10
-300.13367
 20
-566.64215
 11
-302.2113
 21
-549.75861
  0
LINE
  8
0
  6
CONTINUOUS
 62
     7
 10
-300.13364
 20
-653.375
 11
-302.21127
 21
-670.25854
  0
LINE
  8
0
  6
CONTINUOUS
 62
     7
 10
-335.52335
 20
-653.375
 11
-333.45947
 21
-670.14667
  0
LINE
  8
0
  6
CONTINUOUS
 62
     7
 10
-333.82849
 20
-649.52588
 11
-333.82849
 21
-570.6972
  0
LINE
  8
0
  6
CONTINUOUS
 62
     7
 10
-301.82849
 20
-649.4361
 11
-301.82849
 21
-571.05658
  0
LINE
  8
0
  6
CONTINUOUS
 62
     7
 10
-325.80746
 20
-657.37946
 11
-309.85983
 21
-657.37946
  0
LINE
  8
0
  6
CONTINUOUS
 62
     7
 10
-325.79715
 20
-562.6377
 11
-309.85983
 21
-562.6377
  0
LINE
  8
0
  6
CONTINUOUS
 62
     7
 10
-320.97632
 20
-625.60858
 11
-318.12848
 21
-625.60858
  0
LINE
  8
0
  6
CONTINUOUS
 62
     7
 10
-318.5285
 20
-596.15436
 11
-318.5285
 21
-592.70856
  0
LINE
  8
0
  6
CONTINUOUS
 62
     7
 10
-324.0285
 20
-596.50854
 11
-324.0285
 21
-592.00854
  0
LINE
  8
0
  6
CONTINUOUS
 62
     7
 10
-328.19376
 20
-594.25854
 11
-324.60123
 21
-594.25854
  0
LINE
  8
0
  6
CONTINUOUS
 62
     7
 10
-319.22849
 20
-601.6236
 11
-319.22849
 21
-597.20856
  0
LINE
  8
0
  6
CONTINUOUS
 62
     7
 10
-324.39719
 20
-590.69397
 11
-324.39719
 21
-586.89392
  0
LINE
  8
0
  6
CONTINUOUS
 62
     7
 10
-318.5285
 20
-590.69397
 11
-318.5285
 21
-586.89392
  0
LINE
  8
0
  6
CONTINUOUS
 62
     7
 10
-321.46283
 20
-590.69397
 11
-321.46283
 21
-586.89392
  0
LINE
  8
0
  6
CONTINUOUS
 62
     7
 10
-324.75266
 20
-590.69397
 11
-318.1561
 21
-590.69397
  0
LINE
  8
0
  6
CONTINUOUS
 62
     7
 10
-312.32849
 20
-617.70856
 11
-310.32849
 21
-617.70856
  0
LINE
  8
0
  6
CONTINUOUS
 62
     7
 10
-312.32849
 20
-621.30859
 11
-310.32849
 21
-621.30859
  0
LINE
  8
0
  6
CONTINUOUS
 62
     7
 10
-314.12851
 20
-632.30859
 11
-314.12851
 21
-630.10858
  0
LINE
  8
0
  6
CONTINUOUS
 62
     7
 10
-311.32849
 20
-627.50854
 11
-311.32849
 21
-622.50854
  0
LINE
  8
0
  6
CONTINUOUS
 62
     7
 10
-308.52853
 20
-628.70862
 11
-311.32852
 21
-632.30859
  0
LINE
  8
0
  6
CONTINUOUS
 62
     7
 10
-308.5285
 20
-619.50854
 11
-308.5285
 21
-619.50854
  0
LINE
  8
0
  6
CONTINUOUS
 62
     7
 10
-308.08276
 20
-632.30859
 11
-314.46152
 21
-632.30859
  0
LINE
  8
0
  6
CONTINUOUS
 62
     7
 10
-314.12851
 20
-619.50854
 11
-314.12851
 21
-619.50854
  0
LINE
  8
0
  6
CONTINUOUS
 62
     7
 10
-311.32849
 20
-632.30859
 11
-311.32849
 21
-630.10858
  0
LINE
  8
0
  6
CONTINUOUS
 62
     7
 10
-327.82849
 20
-576.00861
 11
-317.82849
 21
-580.00861
  0
LINE
  8
0
  6
CONTINUOUS
 62
     7
 10
-317.82849
 20
-580.00854
 11
-317.82849
 21
-572.00854
  0
LINE
  8
0
  6
CONTINUOUS
 62
     7
 10
-317.82849
 20
-572.00861
 11
-327.82846
 21
-576.00861
  0
LINE
  8
0
  6
CONTINUOUS
 62
     7
 10
-317.82849
 20
-640.00854
 11
-317.82849
 21
-648.00854
  0
LINE
  8
0
  6
CONTINUOUS
 62
     7
 10
-317.82849
 20
-648.00854
 11
-307.82849
 21
-644.00854
  0
LINE
  8
0
  6
CONTINUOUS
 62
     7
 10
-317.82849
 20
-640.00861
 11
-307.82852
 21
-644.00861
  0
LINE
  8
0
  6
CENTER
 62
     7
 10
-177.82849
 20
-703.07739
 11
-177.82849
 21
-513.72235
  0
LINE
  8
0
  6
CENTER
 62
     7
 10
-208.25433
 20
-610.00854
 11
-149.38528
 21
-610.00854
  0
LINE
  8
0
  6
CONTINUOUS
 62
     7
 10
-202.07849
 20
-659.34583
 11
-202.07849
 21
-560.67126
  0
LINE
  8
0
  6
CONTINUOUS
 62
     7
 10
-153.57849
 20
-659.34583
 11
-153.57849
 21
-560.67126
  0
LINE
  8
0
  6
CONTINUOUS
 62
     7
 10
-202.07849
 20
-560.67126
 11
-196.28394
 21
-536.99231
  0
LINE
  8
0
  6
CONTINUOUS
 62
     7
 10
-153.57849
 20
-560.67126
 11
-159.37306
 21
-536.99225
  0
LINE
  8
0
  6
CONTINUOUS
 62
     7
 10
-202.07848
 20
-659.34583
 11
-196.28392
 21
-683.02478
  0
LINE
  8
0
  6
CONTINUOUS
 62
     7
 10
-153.57851
 20
-659.34583
 11
-159.37306
 21
-683.02478
  0
LINE
  8
0
  6
CONTINUOUS
 62
     7
 10
-197.26677
 20
-541.00854
 11
-202.07849
 21
-590.48871
  0
LINE
  8
0
  6
CONTINUOUS
 62
     7
 10
-158.39021
 20
-541.00854
 11
-153.57849
 21
-590.48871
  0
LINE
  8
0
  6
CONTINUOUS
 62
     7
 10
-197.26675
 20
-679.00854
 11
-202.07848
 21
-629.52838
  0
LINE
  8
0
  6
CONTINUOUS
 62
     7
 10
-158.39021
 20
-679.00848
 11
-153.57849
 21
-629.52838
  0
LINE
  8
0
  6
CONTINUOUS
 62
     7
 10
-184.90173
 20
-662.46088
 11
-170.75523
 21
-662.46088
  0
LINE
  8
0
  6
CONTINUOUS
 62
     7
 10
-184.90175
 20
-557.55615
 11
-170.75525
 21
-557.55615
  0
LINE
  8
0
  6
CONTINUOUS
 62
     7
 10
-161.87378
 20
-541.34735
 11
-159.94188
 21
-561.21362
  0
LINE
  8
0
  6
CONTINUOUS
 62
     7
 10
-193.78319
 20
-541.34729
 11
-195.7151
 21
-561.21362
  0
LINE
  8
0
  6
CONTINUOUS
 62
     7
 10
-193.78319
 20
-678.6698
 11
-195.7151
 21
-658.80341
  0
LINE
  8
0
  6
CONTINUOUS
 62
     7
 10
-161.87378
 20
-678.66974
 11
-159.94188
 21
-658.80347
  0
LINE
  8
0
  6
CONTINUOUS
 62
     7
 10
-161.82849
 20
-653.68671
 11
-161.82849
 21
-565.93256
  0
LINE
  8
0
  6
CONTINUOUS
 62
     7
 10
-193.82849
 20
-655.00854
 11
-193.82849
 21
-565.00854
  0
LINE
  8
0
  6
CONTINUOUS
 62
     7
 10
-190.12849
 20
-625.60852
 11
-184.12849
 21
-625.60852
  0
LINE
  8
0
  6
CONTINUOUS
 62
     7
 10
-188.12849
 20
-598.05853
 11
-188.12849
 21
-591.95856
  0
LINE
  8
0
  6
CONTINUOUS
 62
     7
 10
-188.12846
 20
-591.9585
 11
-184.40179
 21
-595.20605
  0
LINE
  8
0
  6
CONTINUOUS
 62
     7
 10
-171.32849
 20
-632.80853
 11
-171.32849
 21
-630.60852
  0
LINE
  8
0
  6
CONTINUOUS
 62
     7
 10
-174.12849
 20
-632.80853
 11
-168.52849
 21
-632.80853
  0
LINE
  8
0
  6
CONTINUOUS
 62
     7
 10
-174.12849
 20
-633.16418
 11
-174.12849
 21
-630.60852
  0
LINE
  8
0
  6
CONTINUOUS
 62
     7
 10
-172.32849
 20
-620.80853
 11
-170.32849
 21
-620.80853
  0
LINE
  8
0
  6
CONTINUOUS
 62
     7
 10
-174.12849
 20
-619.00854
 11
-174.12849
 21
-619.00854
  0
LINE
  8
0
  6
CONTINUOUS
 62
     7
 10
-172.32849
 20
-617.20856
 11
-170.32849
 21
-617.20856
  0
LINE
  8
0
  6
CONTINUOUS
 62
     7
 10
-168.52849
 20
-619.00854
 11
-168.52849
 21
-619.00854
  0
LINE
  8
0
  6
CONTINUOUS
 62
     7
 10
-171.32849
 20
-631.00854
 11
-168.52847
 21
-629.20856
  0
LINE
  8
0
  6
CONTINUOUS
 62
     7
 10
-171.32849
 20
-626.80853
 11
-171.32849
 21
-623.20856
  0
LINE
  8
0
  6
CONTINUOUS
 62
     7
 10
-63.328495
 20
-672.34857
 11
-63.328495
 21
-547.67133
  0
LINE
  8
0
  6
CONTINUOUS
 62
     7
 10
-12.328495
 20
-672.34857
 11
-12.328495
 21
-547.67133
  0
LINE
  8
0
  6
CONTINUOUS
 62
     7
 10
-63.328491
 20
-547.67126
 11
-57.372398
 21
-520.26178
  0
LINE
  8
0
  6
CONTINUOUS
 62
     7
 10
-12.328496
 20
-547.67133
 11
-18.284599
 21
-520.26178
  0
LINE
  8
0
  6
CONTINUOUS
 62
     7
 10
-61.023357
 20
-682.95557
 11
-57.372299
 21
-699.75586
  0
LINE
  8
0
  6
CONTINUOUS
 62
     7
 10
-12.328503
 20
-672.34857
 11
-18.284687
 21
-699.75586
  0
LINE
  8
0
  6
CONTINUOUS
 62
     7
 10
-63.328476
 20
-672.34857
 11
-57.372299
 21
-699.75586
  0
LINE
  8
0
  6
CENTER
 62
     7
 10
-37.828495
 20
-725.4942
 11
-37.828495
 21
-499.91113
  0
LINE
  8
0
  6
CONTINUOUS
 62
     7
 10
-47.409809
 20
-679.40057
 11
-28.247181
 21
-679.40057
  0
LINE
  8
0
  6
CONTINUOUS
 62
     7
 10
-47.409794
 20
-540.61658
 11
-28.247211
 21
-540.61658
  0
LINE
  8
0
  6
CONTINUOUS
 62
     7
 10
-58.295227
 20
-524.50854
 11
-63.328495
 21
-580.11804
  0
LINE
  8
0
  6
CONTINUOUS
 62
     7
 10
-17.361771
 20
-524.50854
 11
-12.328496
 21
-580.11804
  0
LINE
  8
0
  6
CONTINUOUS
 62
     7
 10
-58.295334
 20
-695.50861
 11
-63.328495
 21
-639.89856
  0
LINE
  8
0
  6
CONTINUOUS
 62
     7
 10
-17.361666
 20
-695.50861
 11
-12.3285
 21
-639.89856
  0
LINE
  8
0
  6
CONTINUOUS
 62
     7
 10
-21.345486
 20
-524.86914
 11
-19.296364
 21
-547.50854
  0
LINE
  8
0
  6
CONTINUOUS
 62
     7
 10
-54.311512
 20
-524.86914
 11
-56.360626
 21
-547.50854
  0
LINE
  8
0
  6
CONTINUOUS
 62
     7
 10
-54.311619
 20
-695.14801
 11
-56.360672
 21
-672.50861
  0
LINE
  8
0
  6
CONTINUOUS
 62
     7
 10
-21.345383
 20
-695.14807
 11
-19.296326
 21
-672.50861
  0
LINE
  8
0
  6
CENTER
 62
     7
 10
-69.044342
 20
-610.00854
 11
-10.810963
 21
-610.00854
  0
LINE
  8
0
  6
CONTINUOUS
 62
     7
 10
-40.658329
 20
-586.6272
 11
-40.658329
 21
-594.1272
  0
LINE
  8
0
  6
CONTINUOUS
 62
     7
 10
-48.828495
 20
-588.60858
 11
-37.822346
 21
-588.60858
  0
LINE
  8
0
  6
CONTINUOUS
 62
     7
 10
-40.658333
 20
-594.12714
 11
-48.828476
 21
-588.60858
  0
LINE
  8
0
  6
CONTINUOUS
 62
     7
 10
-31.328495
 20
-641.60358
 11
-31.328495
 21
-639.60358
  0
LINE
  8
0
  6
CONTINUOUS
 62
     7
 10
-34.328495
 20
-639.60358
 11
-34.328495
 21
-641.94464
  0
LINE
  8
0
  6
CONTINUOUS
 62
     7
 10
-34.328495
 20
-641.60358
 11
-31.328495
 21
-641.60358
  0
LINE
  8
0
  6
CONTINUOUS
 62
     7
 10
-28.328499
 20
-637.60358
 11
-31.328499
 21
-641.60358
  0
LINE
  8
0
  6
CONTINUOUS
 62
     7
 10
-28.328495
 20
-641.60358
 11
-31.328495
 21
-641.60358
  0
LINE
  8
0
  6
CONTINUOUS
 62
     7
 10
-31.328495
 20
-635.60358
 11
-31.328495
 21
-631.60358
  0
LINE
  8
0
  6
CONTINUOUS
 62
     7
 10
-28.328495
 20
-627.60358
 11
-28.328495
 21
-627.60358
  0
LINE
  8
0
  6
CONTINUOUS
 62
     7
 10
-32.328495
 20
-629.60358
 11
-30.328495
 21
-629.60358
  0
LINE
  8
0
  6
CONTINUOUS
 62
     7
 10
-32.328495
 20
-625.60358
 11
-30.328495
 21
-625.60358
  0
LINE
  8
0
  6
CONTINUOUS
 62
     7
 10
-34.328495
 20
-627.60358
 11
-34.328495
 21
-627.60358
  0
LINE
  8
0
  6
CONTINUOUS
 62
     7
 10
-50.373707
 20
-630.94983
 11
-44.373707
 21
-630.94983
  0
LINE
  8
0
  6
CONTINUOUS
 62
     7
 10
-50.373707
 20
-632.14984
 11
-44.373707
 21
-632.14984
  0
LINE
  8
0
  6
CONTINUOUS
 62
     7
 10
-41.221531
 20
-632.14984
 11
-38.373707
 21
-632.14984
  0
LINE
  8
0
  6
CONTINUOUS
 62
     7
 10
-41.221531
 20
-630.94983
 11
-38.373707
 21
-630.94983
  0
LINE
  8
0
  6
CONTINUOUS
 62
     7
 10
-55.32851
 20
-668.84271
 11
-55.32851
 21
-551.33405
  0
LINE
  8
0
  6
CONTINUOUS
 62
     7
 10
-20.328495
 20
-668.84271
 11
-20.328495
 21
-551.64178
  0
LINE
  8
0
  6
CONTINUOUS
 62
     7
 10
-37.828491
 20
-652.1106
 11
-27.828497
 21
-648.1106
  0
LINE
  8
0
  6
CENTER
 62
     7
 10
102.17151
 20
-748.49384
 11
102.17151
 21
-467.0968
  0
LINE
  8
0
  6
CONTINUOUS
 62
     7
 10
76.171494
 20
-687.37079
 11
76.171494
 21
-532.64636
  0
LINE
  8
0
  6
CONTINUOUS
 62
     7
 10
128.17151
 20
-687.37079
 11
128.17151
 21
-532.64636
  0
LINE
  8
0
  6
CONTINUOUS
 62
     7
 10
76.171494
 20
-687.37079
 11
78.272423
 21
-710.20728
  0
LINE
  8
0
  6
CONTINUOUS
 62
     7
 10
128.17151
 20
-687.37079
 11
126.07059
 21
-710.20728
  0
LINE
  8
0
  6
CONTINUOUS
 62
     7
 10
128.17149
 20
-532.64636
 11
126.07058
 21
-509.80988
  0
LINE
  8
0
  6
CONTINUOUS
 62
     7
 10
76.171494
 20
-532.64636
 11
78.272415
 21
-509.80988
  0
LINE
  8
0
  6
CONTINUOUS
 62
     7
 10
128.17149
 20
-571.52423
 11
125.99685
 21
-509.00858
  0
LINE
  8
0
  6
CONTINUOUS
 62
     7
 10
76.171501
 20
-571.52429
 11
78.346146
 21
-509.00854
  0
LINE
  8
0
  6
CONTINUOUS
 62
     7
 10
76.171486
 20
-648.4928
 11
78.34613
 21
-711.00854
  0
LINE
  8
0
  6
CONTINUOUS
 62
     7
 10
128.17151
 20
-648.49292
 11
125.99686
 21
-711.00861
  0
LINE
  8
0
  6
CONTINUOUS
 62
     7
 10
122.02146
 20
-538.55066
 11
120.99382
 21
-509.00854
  0
LINE
  8
0
  6
CONTINUOUS
 62
     7
 10
82.321526
 20
-538.55072
 11
83.349167
 21
-509.00858
  0
LINE
  8
0
  6
CONTINUOUS
 62
     7
 10
82.321518
 20
-681.46643
 11
83.349159
 21
-711.00854
  0
LINE
  8
0
  6
CONTINUOUS
 62
     7
 10
122.02148
 20
-681.46643
 11
120.99384
 21
-711.00861
  0
LINE
  8
0
  6
CONTINUOUS
 62
     7
 10
91.467163
 20
-528.62024
 11
112.87582
 21
-528.62024
  0
LINE
  8
0
  6
CONTINUOUS
 62
     7
 10
83.671494
 20
-676.39691
 11
83.671494
 21
-543.62024
  0
LINE
  8
0
  6
CONTINUOUS
 62
     7
 10
120.67151
 20
-676.39691
 11
120.67151
 21
-543.62024
  0
LINE
  8
0
  6
CONTINUOUS
 62
     7
 10
95.821503
 20
-600.85858
 11
95.821503
 21
-598.45856
  0
LINE
  8
0
  6
CONTINUOUS
 62
     7
 10
91.521515
 20
-600.85858
 11
91.521515
 21
-595.45856
  0
LINE
  8
0
  6
CONTINUOUS
 62
     7
 10
91.184113
 20
-600.85858
 11
96.184143
 21
-600.85858
  0
LINE
  8
0
  6
CONTINUOUS
 62
     7
 10
95.821503
 20
-594.02606
 11
95.821503
 21
-588.6839
  0
LINE
  8
0
  6
CONTINUOUS
 62
     7
 10
95.821503
 20
-593.6839
 11
101.8215
 21
-593.6839
  0
LINE
  8
0
  6
CONTINUOUS
 62
     7
 10
101.8215
 20
-594.02606
 11
101.8215
 21
-588.6839
  0
LINE
  8
0
  6
CONTINUOUS
 62
     7
 10
98.821503
 20
-593.6839
 11
98.821503
 21
-589.6839
  0
LINE
  8
0
  6
CONTINUOUS
 62
     7
 10
107.67151
 20
-621.15857
 11
109.67151
 21
-621.15857
  0
LINE
  8
0
  6
CONTINUOUS
 62
     7
 10
107.67151
 20
-616.85858
 11
109.67151
 21
-616.85858
  0
LINE
  8
0
  6
CONTINUOUS
 62
     7
 10
111.8215
 20
-619.00854
 11
111.8215
 21
-619.00854
  0
LINE
  8
0
  6
CONTINUOUS
 62
     7
 10
105.52148
 20
-619.00854
 11
105.52148
 21
-619.00854
  0
LINE
  8
0
  6
CONTINUOUS
 62
     7
 10
111.8215
 20
-633.15857
 11
105.52148
 21
-633.15857
  0
LINE
  8
0
  6
CONTINUOUS
 62
     7
 10
105.52148
 20
-633.51178
 11
105.52148
 21
-630.43359
  0
LINE
  8
0
  6
CONTINUOUS
 62
     7
 10
108.67151
 20
-630.43359
 11
108.67151
 21
-633.15857
  0
LINE
  8
0
  6
CONTINUOUS
 62
     7
 10
108.67152
 20
-631.25458
 11
111.82152
 21
-628.85858
  0
LINE
  8
0
  6
CONTINUOUS
 62
     7
 10
108.67151
 20
-627.15857
 11
108.67151
 21
-622.85858
  0
LINE
  8
0
  6
CENTER
 62
     7
 10
67.629227
 20
-610.00854
 11
134.13568
 21
-610.00854
  0
LINE
  8
0
  6
CENTER
 62
     7
 10
192.55084
 20
-610.00854
 11
270.6922
 21
-610.00854
  0
LINE
  8
0
  6
CONTINUOUS
 62
     7
 10
268.17151
 20
-700.00854
 11
268.17151
 21
-520.14636
  0
LINE
  8
0
  6
CENTER
 62
     7
 10
242.17151
 20
-760.61969
 11
242.17151
 21
-463.17847
  0
LINE
  8
0
  6
CONTINUOUS
 62
     7
 10
216.17151
 20
-700.00854
 11
216.17151
 21
-520.14636
  0
LINE
  8
0
  6
CONTINUOUS
 62
     7
 10
232.31812
 20
-705.77521
 11
252.0249
 21
-705.77521
  0
LINE
  8
0
  6
CONTINUOUS
 62
     7
 10
252.0249
 20
-514.24188
 11
232.31812
 21
-514.24188
  0
LINE
  8
0
  6
CONTINUOUS
 62
     7
 10
234.77036
 20
-597.62939
 11
238.27036
 21
-597.62939
  0
LINE
  8
0
  6
CONTINUOUS
 62
     7
 10
236.72037
 20
-589.12939
 11
236.72037
 21
-586.1051
  0
LINE
  8
0
  6
CONTINUOUS
 62
     7
 10
236.72037
 20
-587.17676
 11
241.25113
 21
-587.17676
  0
LINE
  8
0
  6
CONTINUOUS
 62
     7
 10
247.52148
 20
-623.92853
 11
249.8215
 21
-623.92853
  0
LINE
  8
0
  6
CONTINUOUS
 62
     7
 10
247.52148
 20
-628.22852
 11
249.8215
 21
-628.22852
  0
LINE
  8
0
  6
CONTINUOUS
 62
     7
 10
245.52148
 20
-626.22852
 11
245.52148
 21
-625.92853
  0
LINE
  8
0
  6
CONTINUOUS
 62
     7
 10
251.8215
 20
-626.22852
 11
251.8215
 21
-625.92853
  0
LINE
  8
0
  6
CONTINUOUS
 62
     7
 10
248.67151
 20
-634.22852
 11
248.67151
 21
-629.92853
  0
LINE
  8
0
  6
CONTINUOUS
 62
     7
 10
251.8215
 20
-640.22852
 11
245.52148
 21
-640.22852
  0
LINE
  8
0
  6
CONTINUOUS
 62
     7
 10
251.82153
 20
-635.92853
 11
248.67154
 21
-639.18768
  0
LINE
  8
0
  6
CONTINUOUS
 62
     7
 10
248.67151
 20
-637.08234
 11
248.67151
 21
-640.22852
  0
LINE
  8
0
  6
CONTINUOUS
 62
     7
 10
245.52148
 20
-638.07855
 11
245.52148
 21
-640.22852
  0
LINE
  8
0
  6
CONTINUOUS
 62
     7
 10
268.17148
 20
-560.85565
 11
265.98325
 21
-494.00851
  0
LINE
  8
0
  6
CONTINUOUS
 62
     7
 10
216.17149
 20
-560.85571
 11
218.35973
 21
-494.00858
  0
LINE
  8
0
  6
CONTINUOUS
 62
     7
 10
262.00858
 20
-525.41241
 11
260.98593
 21
-494.17212
  0
LINE
  8
0
  6
CONTINUOUS
 62
     7
 10
222.3344
 20
-525.41241
 11
223.35704
 21
-494.17215
  0
LINE
  8
0
  6
CONTINUOUS
 62
     7
 10
265.98328
 20
-726.00854
 11
268.17151
 21
-659.16138
  0
LINE
  8
0
  6
CONTINUOUS
 62
     7
 10
218.35971
 20
-726.00854
 11
216.17148
 21
-659.16138
  0
LINE
  8
0
  6
CONTINUOUS
 62
     7
 10
223.35704
 20
-725.84497
 11
222.3344
 21
-694.60468
  0
LINE
  8
0
  6
CONTINUOUS
 62
     7
 10
260.98593
 20
-725.84497
 11
262.00861
 21
-694.60468
  0
LINE
  8
0
  6
CONTINUOUS
 62
     7
 10
223.67151
 20
-688.55945
 11
223.67151
 21
-530.25696
  0
LINE
  8
0
  6
CONTINUOUS
 62
     7
 10
260.67151
 20
-688.55945
 11
260.67151
 21
-530.67944
  0
LINE
  8
0
  6
CONTINUOUS
 62
     7
 10
268.17148
 20
-520.14636
 11
265.98325
 21
-494.00854
  0
LINE
  8
0
  6
CONTINUOUS
 62
     7
 10
218.35971
 20
-494.00851
 11
216.17148
 21
-520.14636
  0
LINE
  8
0
  6
CONTINUOUS
 62
     7
 10
265.98325
 20
-726.00854
 11
268.17148
 21
-700.00854
  0
LINE
  8
0
  6
CONTINUOUS
 62
     7
 10
218.35971
 20
-726.00854
 11
216.17148
 21
-700.00854
  0
LINE
  8
0
  6
CONTINUOUS
 62
     7
 10
242.17151
 20
-661.00854
 11
252.17149
 21
-657.00854
  0
LINE
  8
0
  6
CONTINUOUS
 62
     7
 10
91.467163
 20
-691.39685
 11
112.87582
 21
-691.39685
  0
LINE
  8
0
  6
CONTINUOUS
 62
     7
 10
-320.88031
 20
-537.00854
 11
-325.93213
 21
-545.75854
  0
LINE
  8
0
  6
CONTINUOUS
 62
     7
 10
-325.93213
 20
-545.75854
 11
-320.88031
 21
-554.50854
  0
LINE
  8
0
  6
CONTINUOUS
 62
     7
 10
-310.77667
 20
-554.50854
 11
-320.88031
 21
-554.50854
  0
LINE
  8
0
  6
CONTINUOUS
 62
     7
 10
-305.72485
 20
-545.75854
 11
-310.77667
 21
-554.50854
  0
LINE
  8
0
  6
CONTINUOUS
 62
     7
 10
-310.77667
 20
-537.00854
 11
-305.72488
 21
-545.75854
  0
LINE
  8
0
  6
CONTINUOUS
 62
     7
 10
-320.88031
 20
-537.00854
 11
-310.77667
 21
-537.00854
  0
LINE
  8
0
  6
CONTINUOUS
 62
     7
 10
-45.73711
 20
-689.40857
 11
-52.145679
 21
-700.50854
  0
LINE
  8
0
  6
CONTINUOUS
 62
     7
 10
-52.14566
 20
-700.50854
 11
-45.737091
 21
-711.60852
  0
LINE
  8
0
  6
CONTINUOUS
 62
     7
 10
-32.919907
 20
-711.60852
 11
-45.737083
 21
-711.60852
  0
LINE
  8
0
  6
CONTINUOUS
 62
     7
 10
-26.511333
 20
-700.50854
 11
-32.919903
 21
-711.60852
  0
LINE
  8
0
  6
CONTINUOUS
 62
     7
 10
-32.919884
 20
-689.40857
 11
-26.511316
 21
-700.50854
  0
LINE
  8
0
  6
CONTINUOUS
 62
     7
 10
-45.737083
 20
-689.40857
 11
-32.919907
 21
-689.40857
  0
LINE
  8
0
  6
CONTINUOUS
 62
     7
 10
-324.88031
 20
-665.50854
 11
-329.93213
 21
-674.25854
  0
LINE
  8
0
  6
CONTINUOUS
 62
     7
 10
-324.88031
 20
-665.50854
 11
-314.77667
 21
-665.50854
  0
LINE
  8
0
  6
CONTINUOUS
 62
     7
 10
-329.93213
 20
-674.25854
 11
-324.88031
 21
-683.00854
  0
LINE
  8
0
  6
CONTINUOUS
 62
     7
 10
-314.77667
 20
-683.00854
 11
-324.88031
 21
-683.00854
  0
LINE
  8
0
  6
CONTINUOUS
 62
     7
 10
-309.72488
 20
-674.25854
 11
-314.7767
 21
-683.00854
  0
LINE
  8
0
  6
CONTINUOUS
 62
     7
 10
-314.77667
 20
-665.50854
 11
-309.72488
 21
-674.25854
  0
LINE
  8
0
  6
CONTINUOUS
 62
     7
 10
-167.01134
 20
-683.00854
 11
-173.41991
 21
-694.10852
  0
LINE
  8
0
  6
CONTINUOUS
 62
     7
 10
-173.41989
 20
-671.90857
 11
-167.01131
 21
-683.00854
  0
LINE
  8
0
  6
CONTINUOUS
 62
     7
 10
-186.23708
 20
-671.90857
 11
-173.41991
 21
-671.90857
  0
LINE
  8
0
  6
CONTINUOUS
 62
     7
 10
-186.23709
 20
-671.90857
 11
-192.64566
 21
-683.00854
  0
LINE
  8
0
  6
CONTINUOUS
 62
     7
 10
-192.64565
 20
-683.00854
 11
-186.23706
 21
-694.10852
  0
LINE
  8
0
  6
CONTINUOUS
 62
     7
 10
-173.41991
 20
-694.10852
 11
-186.23708
 21
-694.10852
  0
LINE
  8
0
  6
CONTINUOUS
 62
     7
 10
-163.01132
 20
-537.00854
 11
-169.41989
 21
-548.10852
  0
LINE
  8
0
  6
CONTINUOUS
 62
     7
 10
-169.41989
 20
-525.90857
 11
-163.01131
 21
-537.00854
  0
LINE
  8
0
  6
CONTINUOUS
 62
     7
 10
-182.23708
 20
-525.90857
 11
-169.41991
 21
-525.90857
  0
LINE
  8
0
  6
CONTINUOUS
 62
     7
 10
-182.23709
 20
-525.90857
 11
-188.64566
 21
-537.00854
  0
LINE
  8
0
  6
CONTINUOUS
 62
     7
 10
-188.64568
 20
-537.00854
 11
-182.23709
 21
-548.10852
  0
LINE
  8
0
  6
CONTINUOUS
 62
     7
 10
-169.41991
 20
-548.10852
 11
-182.23708
 21
-548.10852
  0
LINE
  8
0
  6
CONTINUOUS
 62
     7
 10
-23.511333
 20
-519.50854
 11
-29.919918
 21
-530.60852
  0
LINE
  8
0
  6
CONTINUOUS
 62
     7
 10
-29.919886
 20
-508.40854
 11
-23.511301
 21
-519.50854
  0
LINE
  8
0
  6
CONTINUOUS
 62
     7
 10
-42.737083
 20
-508.40854
 11
-29.919907
 21
-508.40854
  0
LINE
  8
0
  6
CONTINUOUS
 62
     7
 10
-42.737095
 20
-508.40857
 11
-49.145679
 21
-519.50854
  0
LINE
  8
0
  6
CONTINUOUS
 62
     7
 10
-49.14566
 20
-519.50854
 11
-42.737076
 21
-530.60858
  0
LINE
  8
0
  6
CONTINUOUS
 62
     7
 10
-29.919907
 20
-530.60852
 11
-42.737083
 21
-530.60852
  0
LINE
  8
0
  6
CONTINUOUS
 62
     7
 10
232.87726
 20
-715.50854
 11
225.08302
 21
-729.00854
  0
LINE
  8
0
  6
CONTINUOUS
 62
     7
 10
225.08307
 20
-729.00854
 11
232.87729
 21
-742.50854
  0
LINE
  8
0
  6
CONTINUOUS
 62
     7
 10
248.46574
 20
-742.50854
 11
232.87727
 21
-742.50854
  0
LINE
  8
0
  6
CONTINUOUS
 62
     7
 10
256.25995
 20
-729.00854
 11
248.4657
 21
-742.50854
  0
LINE
  8
0
  6
CONTINUOUS
 62
     7
 10
248.46576
 20
-715.50854
 11
256.25998
 21
-729.00854
  0
LINE
  8
0
  6
CONTINUOUS
 62
     7
 10
232.87727
 20
-715.50854
 11
248.46574
 21
-715.50854
  0
LINE
  8
0
  6
CONTINUOUS
 62
     7
 10
115.75996
 20
-714.00854
 11
107.96571
 21
-727.50854
  0
LINE
  8
0
  6
CONTINUOUS
 62
     7
 10
107.96574
 20
-727.50854
 11
92.377281
 21
-727.50854
  0
LINE
  8
0
  6
CONTINUOUS
 62
     7
 10
84.583046
 20
-714.00854
 11
92.377296
 21
-727.50854
  0
LINE
  8
0
  6
CONTINUOUS
 62
     7
 10
92.377281
 20
-700.50854
 11
84.583031
 21
-714.00854
  0
LINE
  8
0
  6
CONTINUOUS
 62
     7
 10
92.377281
 20
-700.50854
 11
107.96574
 21
-700.50854
  0
LINE
  8
0
  6
CONTINUOUS
 62
     7
 10
107.96574
 20
-700.50854
 11
115.75999
 21
-714.00854
  0
LINE
  8
0
  6
CONTINUOUS
 62
     7
 10
119.75996
 20
-506.00854
 11
111.96573
 21
-519.50854
  0
LINE
  8
0
  6
CONTINUOUS
 62
     7
 10
111.96574
 20
-519.50854
 11
96.377281
 21
-519.50854
  0
LINE
  8
0
  6
CONTINUOUS
 62
     7
 10
88.583061
 20
-506.00854
 11
96.377296
 21
-519.50854
  0
LINE
  8
0
  6
CONTINUOUS
 62
     7
 10
96.377281
 20
-492.50854
 11
88.583046
 21
-506.00858
  0
LINE
  8
0
  6
CONTINUOUS
 62
     7
 10
96.377281
 20
-492.50854
 11
111.96574
 21
-492.50854
  0
LINE
  8
0
  6
CONTINUOUS
 62
     7
 10
111.96574
 20
-492.50854
 11
119.75999
 21
-506.00854
  0
LINE
  8
0
  6
CONTINUOUS
 62
     7
 10
259.25998
 20
-491.00854
 11
251.46574
 21
-504.50854
  0
LINE
  8
0
  6
CONTINUOUS
 62
     7
 10
251.46574
 20
-504.50854
 11
235.87727
 21
-504.50854
  0
LINE
  8
0
  6
CONTINUOUS
 62
     7
 10
228.08305
 20
-491.00854
 11
235.87727
 21
-504.50851
  0
LINE
  8
0
  6
CONTINUOUS
 62
     7
 10
235.87729
 20
-477.50854
 11
228.08305
 21
-491.00854
  0
LINE
  8
0
  6
CONTINUOUS
 62
     7
 10
235.87727
 20
-477.50854
 11
251.46574
 21
-477.50854
  0
LINE
  8
0
  6
CONTINUOUS
 62
     7
 10
251.46574
 20
-477.50854
 11
259.25995
 21
-491.00851
  0
LINE
  8
0
  6
CONTINUOUS
 62
     7
 10
-190.8618
 20
93.642578
 11
-163.14418
 21
93.642578
  0
LINE
  8
0
  6
CONTINUOUS
 62
     7
 10
-192.51277
 20
-19.357422
 11
-164.79515
 21
-19.357422
  0
LINE
  8
0
  6
CONTINUOUS
 62
     7
 10
-51.980999
 20
109.14258
 11
-21.542255
 21
109.14258
  0
LINE
  8
0
  6
CONTINUOUS
 62
     7
 10
-54.114697
 20
-34.857422
 11
-23.675924
 21
-34.857422
  0
LINE
  8
0
  6
CONTINUOUS
 62
     7
 10
84.901894
 20
-48.357422
 11
117.40742
 21
-48.357422
  0
LINE
  8
0
  6
CONTINUOUS
 62
     7
 10
86.935585
 20
122.64258
 11
119.44111
 21
122.64258
  0
LINE
  8
0
  6
CONTINUOUS
 62
     7
 10
620.8233
 20
158.09171
 11
643.55066
 21
158.09171
  0
LINE
  8
0
  6
CONTINUOUS
 62
     7
 10
626.02332
 20
158.09171
 11
627.4231
 21
174.09171
  0
LINE
  8
0
  6
CONTINUOUS
 62
     7
 10
622.81494
 20
174.09171
 11
661.52332
 21
174.09171
  0
LINE
  8
0
  6
CONTINUOUS
 62
     7
 10
643.92102
 20
174.52345
 11
603.2771
 21
195.11259
  0
LINE
  8
0
  6
CONTINUOUS
 62
     7
 10
661.52325
 20
174.09171
 11
661.08582
 21
169.09171
  0
LINE
  8
0
  6
CONTINUOUS
 62
     7
 10
661.08588
 20
169.09172
 11
645.78699
 21
158.77528
  0
LINE
  8
0
  6
CENTER
 62
     7
 10
504.27777
 20
158.09171
 11
663.47479
 21
158.09171
  0
LINE
  8
0
  6
CENTER
 62
     7
 10
584.52332
 20
217.12302
 11
584.52332
 21
97.725273
  0
LINE
  8
0
  6
CONTINUOUS
 62
     7
 10
548.22327
 20
158.09171
 11
525.49597
 21
158.09171
  0
LINE
  8
0
  6
CONTINUOUS
 62
     7
 10
543.02332
 20
158.09171
 11
541.62347
 21
174.09171
  0
LINE
  8
0
  6
CONTINUOUS
 62
     7
 10
546.23163
 20
174.09171
 11
507.52328
 21
174.09171
  0
LINE
  8
0
  6
CONTINUOUS
 62
     7
 10
525.12549
 20
174.52342
 11
565.76947
 21
195.11258
  0
LINE
  8
0
  6
CONTINUOUS
 62
     7
 10
507.52325
 20
174.09171
 11
507.96069
 21
169.09171
  0
LINE
  8
0
  6
CONTINUOUS
 62
     7
 10
507.96075
 20
169.09171
 11
523.25958
 21
158.77528
  0
LINE
  8
0
  6
CONTINUOUS
 62
     7
 10
626.02332
 20
158.09171
 11
627.4231
 21
142.09171
  0
LINE
  8
0
  6
CONTINUOUS
 62
     7
 10
622.81494
 20
142.09171
 11
661.52332
 21
142.09171
  0
LINE
  8
0
  6
CONTINUOUS
 62
     7
 10
643.92108
 20
141.66
 11
603.2771
 21
121.07084
  0
LINE
  8
0
  6
CONTINUOUS
 62
     7
 10
661.52332
 20
142.09171
 11
661.08588
 21
147.09171
  0
LINE
  8
0
  6
CONTINUOUS
 62
     7
 10
661.08588
 20
147.09172
 11
645.78699
 21
157.40816
  0
LINE
  8
0
  6
CONTINUOUS
 62
     7
 10
543.02332
 20
158.09171
 11
541.62347
 21
142.09171
  0
LINE
  8
0
  6
CONTINUOUS
 62
     7
 10
546.23163
 20
142.09171
 11
507.52328
 21
142.09171
  0
LINE
  8
0
  6
CONTINUOUS
 62
     7
 10
525.12555
 20
141.65999
 11
565.76953
 21
121.07085
  0
LINE
  8
0
  6
CONTINUOUS
 62
     7
 10
507.52332
 20
142.09171
 11
507.96075
 21
147.09171
  0
LINE
  8
0
  6
CONTINUOUS
 62
     7
 10
507.96075
 20
147.09172
 11
523.25958
 21
157.40813
  0
LINE
  8
0
  6
CENTER
 62
     7
 10
800.625
 20
220.24452
 11
800.625
 21
89.141121
  0
LINE
  8
0
  6
CONTINUOUS
 62
     7
 10
843.23077
 20
175
 11
888.125
 21
175
  0
LINE
  8
0
  6
CONTINUOUS
 62
     7
 10
848.125
 20
154
 11
849.96228
 21
175
  0
LINE
  8
0
  6
CONTINUOUS
 62
     7
 10
843.22498
 20
154
 11
868.10815
 21
154
  0
LINE
  8
0
  6
CENTER
 62
     7
 10
709.51703
 20
154
 11
890.56458
 21
154
  0
LINE
  8
0
  6
CONTINUOUS
 62
     7
 10
887.68756
 20
169.99998
 11
870.76044
 21
155.00578
  0
LINE
  8
0
  6
CONTINUOUS
 62
     7
 10
868.64508
 20
175.4417
 11
820.14484
 21
197.30386
  0
LINE
  8
0
  6
CONTINUOUS
 62
     7
 10
888.125
 20
175
 11
887.68756
 21
170
  0
LINE
  8
0
  6
CONTINUOUS
 62
     7
 10
758.01923
 20
175
 11
713.125
 21
175
  0
LINE
  8
0
  6
CONTINUOUS
 62
     7
 10
753.125
 20
154
 11
751.28772
 21
175
  0
LINE
  8
0
  6
CONTINUOUS
 62
     7
 10
758.02502
 20
154
 11
733.14185
 21
154
  0
LINE
  8
0
  6
CONTINUOUS
 62
     7
 10
713.56244
 20
169.99998
 11
730.48956
 21
155.00578
  0
LINE
  8
0
  6
CONTINUOUS
 62
     7
 10
732.60486
 20
175.44168
 11
781.10516
 21
197.30388
  0
LINE
  8
0
  6
CONTINUOUS
 62
     7
 10
713.125
 20
175
 11
713.56244
 21
170
  0
LINE
  8
0
  6
CONTINUOUS
 62
     7
 10
843.23077
 20
133
 11
888.125
 21
133
  0
LINE
  8
0
  6
CONTINUOUS
 62
     7
 10
848.125
 20
154
 11
849.96228
 21
133
  0
LINE
  8
0
  6
CONTINUOUS
 62
     7
 10
843.22498
 20
154
 11
868.10815
 21
154
  0
LINE
  8
0
  6
CONTINUOUS
 62
     7
 10
887.68756
 20
138
 11
870.76044
 21
152.99423
  0
LINE
  8
0
  6
CONTINUOUS
 62
     7
 10
868.64514
 20
132.55832
 11
820.14484
 21
110.69612
  0
LINE
  8
0
  6
CONTINUOUS
 62
     7
 10
888.125
 20
133
 11
887.68756
 21
138
  0
LINE
  8
0
  6
CONTINUOUS
 62
     7
 10
758.01923
 20
133
 11
713.125
 21
133
  0
LINE
  8
0
  6
CONTINUOUS
 62
     7
 10
753.125
 20
154
 11
751.28772
 21
133
  0
LINE
  8
0
  6
CONTINUOUS
 62
     7
 10
758.02502
 20
154
 11
733.14185
 21
154
  0
LINE
  8
0
  6
CONTINUOUS
 62
     7
 10
713.56244
 20
138
 11
730.48956
 21
152.99419
  0
LINE
  8
0
  6
CONTINUOUS
 62
     7
 10
732.60486
 20
132.55829
 11
781.10516
 21
110.6961
  0
LINE
  8
0
  6
CONTINUOUS
 62
     7
 10
713.125
 20
133
 11
713.56244
 21
138
  0
LINE
  8
0
  6
CONTINUOUS
 62
     7
 10
1097.8135
 20
173.95
 11
1146.575
 21
173.95
  0
LINE
  8
0
  6
CONTINUOUS
 62
     7
 10
1101.5751
 20
152.95
 11
1103.4124
 21
173.95
  0
LINE
  8
0
  6
CONTINUOUS
 62
     7
 10
1146.575
 20
173.95
 11
1146.05
 21
167.95
  0
LINE
  8
0
  6
CONTINUOUS
 62
     7
 10
1128.6769
 20
153.84464
 11
1146.0499
 21
167.95001
  0
LINE
  8
0
  6
CONTINUOUS
 62
     7
 10
1096.275
 20
152.95
 11
1126.1556
 21
152.95
  0
LINE
  8
0
  6
CONTINUOUS
 62
     7
 10
1125.4261
 20
174.60286
 11
1070.9655
 21
205.55045
  0
LINE
  8
0
  6
CENTER
 62
     7
 10
931.92462
 20
152.95
 11
1148.0891
 21
152.95
  0
LINE
  8
0
  6
CENTER
 62
     7
 10
1041.075
 20
236.63245
 11
1041.075
 21
69.631683
  0
LINE
  8
0
  6
CONTINUOUS
 62
     7
 10
984.33655
 20
173.95
 11
935.57507
 21
173.95
  0
LINE
  8
0
  6
CONTINUOUS
 62
     7
 10
980.57501
 20
152.95
 11
978.73773
 21
173.95
  0
LINE
  8
0
  6
CONTINUOUS
 62
     7
 10
935.57513
 20
173.95
 11
936.10004
 21
167.95
  0
LINE
  8
0
  6
CONTINUOUS
 62
     7
 10
953.47308
 20
153.84464
 11
936.10004
 21
167.94997
  0
LINE
  8
0
  6
CONTINUOUS
 62
     7
 10
985.875
 20
152.95
 11
955.99438
 21
152.95
  0
LINE
  8
0
  6
CONTINUOUS
 62
     7
 10
956.72388
 20
174.60284
 11
1011.1844
 21
205.55043
  0
LINE
  8
0
  6
CONTINUOUS
 62
     7
 10
1097.8135
 20
131.95
 11
1146.575
 21
131.95
  0
LINE
  8
0
  6
CONTINUOUS
 62
     7
 10
1101.575
 20
152.95
 11
1103.4122
 21
131.95
  0
LINE
  8
0
  6
CONTINUOUS
 62
     7
 10
1146.575
 20
131.95
 11
1146.0499
 21
137.95
  0
LINE
  8
0
  6
CONTINUOUS
 62
     7
 10
1128.6769
 20
152.05534
 11
1146.0499
 21
137.94997
  0
LINE
  8
0
  6
CONTINUOUS
 62
     7
 10
1125.4261
 20
131.29712
 11
1070.9656
 21
100.34956
  0
LINE
  8
0
  6
CONTINUOUS
 62
     7
 10
984.33655
 20
131.95
 11
935.57507
 21
131.95
  0
LINE
  8
0
  6
CONTINUOUS
 62
     7
 10
980.57495
 20
152.95
 11
978.73773
 21
131.95
  0
LINE
  8
0
  6
CONTINUOUS
 62
     7
 10
935.57513
 20
131.95
 11
936.10004
 21
137.95
  0
LINE
  8
0
  6
CONTINUOUS
 62
     7
 10
953.47308
 20
152.05533
 11
936.10004
 21
137.95
  0
LINE
  8
0
  6
CONTINUOUS
 62
     7
 10
956.72388
 20
131.29712
 11
1011.1844
 21
100.34957
  0
LINE
  8
0
  6
CENTER
 62
     7
 10
612.43427
 20
-1.3826584
 11
612.43427
 21
-196.47701
  0
LINE
  8
0
  6
CENTER
 62
     7
 10
488.28006
 20
-98.538277
 11
736.44006
 21
-98.538277
  0
LINE
  8
0
  6
CONTINUOUS
 62
     7
 10
682.4057
 20
-71.538269
 11
734.43427
 21
-71.538269
  0
LINE
  8
0
  6
CONTINUOUS
 62
     7
 10
687.43427
 20
-98.538277
 11
689.79645
 21
-71.538277
  0
LINE
  8
0
  6
CONTINUOUS
 62
     7
 10
734.43427
 20
-71.538277
 11
733.8656
 21
-78.038277
  0
LINE
  8
0
  6
CONTINUOUS
 62
     7
 10
696.43427
 20
-98.538277
 11
680.33429
 21
-98.538277
  0
LINE
  8
0
  6
CONTINUOUS
 62
     7
 10
714.60669
 20
-97.361954
 11
733.8656
 21
-78.038269
  0
LINE
  8
0
  6
CONTINUOUS
 62
     7
 10
711.7735
 20
-98.538277
 11
687.43427
 21
-98.538277
  0
LINE
  8
0
  6
CONTINUOUS
 62
     7
 10
711.06427
 20
-70.121422
 11
650.91858
 21
-34.1647
  0
LINE
  8
0
  6
CONTINUOUS
 62
     7
 10
542.46283
 20
-71.538269
 11
490.43427
 21
-71.538269
  0
LINE
  8
0
  6
CONTINUOUS
 62
     7
 10
537.43427
 20
-98.538284
 11
535.07202
 21
-71.538277
  0
LINE
  8
0
  6
CONTINUOUS
 62
     7
 10
490.43427
 20
-71.538269
 11
491.00293
 21
-78.038277
  0
LINE
  8
0
  6
CONTINUOUS
 62
     7
 10
528.43427
 20
-98.538277
 11
544.5343
 21
-98.538277
  0
LINE
  8
0
  6
CONTINUOUS
 62
     7
 10
510.2619
 20
-97.361931
 11
491.00296
 21
-78.038246
  0
LINE
  8
0
  6
CONTINUOUS
 62
     7
 10
513.09503
 20
-98.538277
 11
537.43427
 21
-98.538277
  0
LINE
  8
0
  6
CONTINUOUS
 62
     7
 10
513.80426
 20
-70.121429
 11
573.95001
 21
-34.164677
  0
LINE
  8
0
  6
CONTINUOUS
 62
     7
 10
682.4057
 20
-125.53828
 11
734.43427
 21
-125.53828
  0
LINE
  8
0
  6
CONTINUOUS
 62
     7
 10
687.43427
 20
-98.538277
 11
689.79645
 21
-125.53828
  0
LINE
  8
0
  6
CONTINUOUS
 62
     7
 10
734.43427
 20
-125.53828
 11
733.86554
 21
-119.03828
  0
LINE
  8
0
  6
CONTINUOUS
 62
     7
 10
714.60663
 20
-99.714561
 11
733.8656
 21
-119.03826
  0
LINE
  8
0
  6
CONTINUOUS
 62
     7
 10
711.06427
 20
-126.95512
 11
650.91858
 21
-162.91187
  0
LINE
  8
0
  6
CONTINUOUS
 62
     7
 10
542.46283
 20
-125.53828
 11
490.43427
 21
-125.53828
  0
LINE
  8
0
  6
CONTINUOUS
 62
     7
 10
537.43427
 20
-98.538277
 11
535.07208
 21
-125.53828
  0
LINE
  8
0
  6
CONTINUOUS
 62
     7
 10
490.43427
 20
-125.53827
 11
491.00293
 21
-119.03828
  0
LINE
  8
0
  6
CONTINUOUS
 62
     7
 10
510.26187
 20
-99.714584
 11
491.00293
 21
-119.03827
  0
LINE
  8
0
  6
CONTINUOUS
 62
     7
 10
513.80426
 20
-126.95514
 11
573.95001
 21
-162.9119
  0
LINE
  8
0
  6
CENTER
 62
     7
 10
829.69513
 20
-102.55207
 11
1110.631
 21
-102.55207
  0
LINE
  8
0
  6
CONTINUOUS
 62
     7
 10
1057.063
 20
-75.552071
 11
1063.5707
 21
-75.552071
  0
LINE
  8
0
  6
CONTINUOUS
 62
     7
 10
1054.4386
 20
-75.552071
 11
1108.2085
 21
-75.552071
  0
LINE
  8
0
  6
CONTINUOUS
 62
     7
 10
1108.2085
 20
-75.552071
 11
1107.6398
 21
-82.052071
  0
LINE
  8
0
  6
CONTINUOUS
 62
     7
 10
1088.3809
 20
-101.37576
 11
1107.6398
 21
-82.052101
  0
LINE
  8
0
  6
CONTINUOUS
 62
     7
 10
1085.5477
 20
-102.55207
 11
1051.8085
 21
-102.55207
  0
LINE
  8
0
  6
CONTINUOUS
 62
     7
 10
1058.7085
 20
-102.55207
 11
1061.2085
 21
-102.55207
  0
LINE
  8
0
  6
CONTINUOUS
 62
     7
 10
1058.7085
 20
-102.55207
 11
1061.0707
 21
-75.552071
  0
LINE
  8
0
  6
CONTINUOUS
 62
     7
 10
1084.6652
 20
-73.825157
 11
1020.3613
 21
-30.162529
  0
LINE
  8
0
  6
CENTER
 62
     7
 10
971.2085
 20
10.323003
 11
971.2085
 21
-213.64531
  0
LINE
  8
0
  6
CONTINUOUS
 62
     7
 10
885.35394
 20
-75.552071
 11
878.84631
 21
-75.552071
  0
LINE
  8
0
  6
CONTINUOUS
 62
     7
 10
887.97839
 20
-75.552071
 11
834.2085
 21
-75.552071
  0
LINE
  8
0
  6
CONTINUOUS
 62
     7
 10
834.2085
 20
-75.552063
 11
834.77716
 21
-82.052063
  0
LINE
  8
0
  6
CONTINUOUS
 62
     7
 10
854.03607
 20
-101.37573
 11
834.77716
 21
-82.052071
  0
LINE
  8
0
  6
CONTINUOUS
 62
     7
 10
856.86926
 20
-102.55207
 11
890.60846
 21
-102.55207
  0
LINE
  8
0
  6
CONTINUOUS
 62
     7
 10
883.7085
 20
-102.55207
 11
881.2085
 21
-102.55207
  0
LINE
  8
0
  6
CONTINUOUS
 62
     7
 10
883.7085
 20
-102.55207
 11
881.34631
 21
-75.552071
  0
LINE
  8
0
  6
CONTINUOUS
 62
     7
 10
857.75177
 20
-73.825134
 11
922.0556
 21
-30.16254
  0
LINE
  8
0
  6
CONTINUOUS
 62
     7
 10
1057.063
 20
-129.55208
 11
1063.5707
 21
-129.55208
  0
LINE
  8
0
  6
CONTINUOUS
 62
     7
 10
1054.4386
 20
-129.55208
 11
1108.2085
 21
-129.55208
  0
LINE
  8
0
  6
CONTINUOUS
 62
     7
 10
1108.2085
 20
-129.55206
 11
1107.6398
 21
-123.05207
  0
LINE
  8
0
  6
CONTINUOUS
 62
     7
 10
1088.3809
 20
-103.7284
 11
1107.6398
 21
-123.05206
  0
LINE
  8
0
  6
CONTINUOUS
 62
     7
 10
1058.7085
 20
-102.55207
 11
1061.2085
 21
-102.55207
  0
LINE
  8
0
  6
CONTINUOUS
 62
     7
 10
1058.7085
 20
-102.55207
 11
1061.0707
 21
-129.55206
  0
LINE
  8
0
  6
CONTINUOUS
 62
     7
 10
1084.6652
 20
-131.27896
 11
1020.3613
 21
-174.94159
  0
LINE
  8
0
  6
CONTINUOUS
 62
     7
 10
885.35394
 20
-129.55208
 11
878.84631
 21
-129.55208
  0
LINE
  8
0
  6
CONTINUOUS
 62
     7
 10
887.97839
 20
-129.55208
 11
834.2085
 21
-129.55208
  0
LINE
  8
0
  6
CONTINUOUS
 62
     7
 10
834.20844
 20
-129.55206
 11
834.77716
 21
-123.05207
  0
LINE
  8
0
  6
CONTINUOUS
 62
     7
 10
854.03613
 20
-103.72839
 11
834.77716
 21
-123.05206
  0
LINE
  8
0
  6
CONTINUOUS
 62
     7
 10
883.7085
 20
-102.55207
 11
881.2085
 21
-102.55207
  0
LINE
  8
0
  6
CONTINUOUS
 62
     7
 10
883.7085
 20
-102.55207
 11
881.34625
 21
-129.55208
  0
LINE
  8
0
  6
CONTINUOUS
 62
     7
 10
857.75177
 20
-131.27899
 11
922.0556
 21
-174.94162
  0
LINE
  8
0
  6
CONTINUOUS
 62
     7
 10
-313.71201
 20
47.706787
 11
-313.71201
 21
27.624908
  0
LINE
  8
0
  6
CONTINUOUS
 62
     7
 10
-323.21201
 20
45.921051
 11
-323.21201
 21
27.030975
  0
LINE
  8
0
  6
CONTINUOUS
 62
     7
 10
-318.46201
 20
44.142578
 11
-323.21201
 21
44.142578
  0
LINE
  8
0
  6
CONTINUOUS
 62
     7
 10
-315.21201
 20
48.041626
 11
-315.21201
 21
44.142578
  0
LINE
  8
0
  6
CONTINUOUS
 62
     7
 10
-318.46201
 20
44.142578
 11
-313.71201
 21
44.142578
  0
LINE
  8
0
  6
CONTINUOUS
 62
     7
 10
-313.71201
 20
42.642555
 11
-315.21201
 21
44.142567
  0
LINE
  8
0
  6
CONTINUOUS
 62
     7
 10
-323.21201
 20
42.642586
 11
-321.71201
 21
44.14259
  0
LINE
  8
0
  6
CONTINUOUS
 62
     7
 10
-321.71201
 20
46.781036
 11
-321.71201
 21
44.142578
  0
LINE
  8
0
  6
CONTINUOUS
 62
     7
 10
-328.56201
 20
60.784241
 11
-328.56201
 21
54.600922
  0
LINE
  8
0
  6
CONTINUOUS
 62
     7
 10
-323.51019
 20
60.784241
 11
-323.51019
 21
54.600922
  0
LINE
  8
0
  6
CONTINUOUS
 62
     7
 10
-313.41382
 20
60.784241
 11
-313.41382
 21
54.600922
  0
LINE
  8
0
  6
CONTINUOUS
 62
     7
 10
-308.362
 20
60.784241
 11
-308.362
 21
54.600922
  0
LINE
  8
0
  6
CONTINUOUS
 62
     7
 10
-318.46201
 20
62.242584
 11
-310.88791
 21
62.242584
  0
LINE
  8
0
  6
CONTINUOUS
 62
     7
 10
-315.21201
 20
69.142578
 11
-315.21201
 21
62.242584
  0
LINE
  8
0
  6
CONTINUOUS
 62
     7
 10
-313.71201
 20
67.642578
 11
-313.71201
 21
62.242584
  0
LINE
  8
0
  6
CONTINUOUS
 62
     7
 10
-313.71201
 20
67.64257
 11
-315.21204
 21
69.142586
  0
LINE
  8
0
  6
CONTINUOUS
 62
     7
 10
-318.46201
 20
69.142578
 11
-315.21201
 21
69.142578
  0
LINE
  8
0
  6
CONTINUOUS
 62
     7
 10
-318.46201
 20
67.642578
 11
-313.71201
 21
67.642578
  0
LINE
  8
0
  6
CONTINUOUS
 62
     7
 10
-321.71201
 20
69.142578
 11
-321.71201
 21
62.242584
  0
LINE
  8
0
  6
CONTINUOUS
 62
     7
 10
-318.46201
 20
69.142578
 11
-321.71201
 21
69.142578
  0
LINE
  8
0
  6
CONTINUOUS
 62
     7
 10
-323.21201
 20
67.642593
 11
-321.71201
 21
69.142593
  0
LINE
  8
0
  6
CONTINUOUS
 62
     7
 10
-318.46201
 20
67.642578
 11
-323.21201
 21
67.642578
  0
LINE
  8
0
  6
CONTINUOUS
 62
     7
 10
-323.21201
 20
67.642578
 11
-323.21201
 21
62.242584
  0
LINE
  8
0
  6
CONTINUOUS
 62
     7
 10
-318.46201
 20
62.242584
 11
-326.0361
 21
62.242584
  0
LINE
  8
0
  6
CONTINUOUS
 62
     7
 10
648.77332
 20
190.09171
 11
645.52332
 21
190.09171
  0
LINE
  8
0
  6
CONTINUOUS
 62
     7
 10
648.77332
 20
188.59171
 11
644.02332
 21
188.59171
  0
LINE
  8
0
  6
CONTINUOUS
 62
     7
 10
644.02332
 20
188.59171
 11
644.02332
 21
183.19171
  0
LINE
  8
0
  6
CONTINUOUS
 62
     7
 10
645.52332
 20
190.09171
 11
645.52332
 21
183.19171
  0
LINE
  8
0
  6
CONTINUOUS
 62
     7
 10
644.02332
 20
188.59174
 11
645.52332
 21
190.09175
  0
LINE
  8
0
  6
CONTINUOUS
 62
     7
 10
648.77332
 20
183.19171
 11
641.19922
 21
183.19171
  0
LINE
  8
0
  6
CONTINUOUS
 62
     7
 10
643.7251
 20
181.73337
 11
643.7251
 21
175.55005
  0
LINE
  8
0
  6
CONTINUOUS
 62
     7
 10
638.67334
 20
181.73337
 11
638.67334
 21
177.18181
  0
LINE
  8
0
  6
CONTINUOUS
 62
     7
 10
653.52332
 20
163.9921
 11
653.52332
 21
152.19135
  0
LINE
  8
0
  6
CONTINUOUS
 62
     7
 10
648.77332
 20
190.09171
 11
652.02332
 21
190.09171
  0
LINE
  8
0
  6
CONTINUOUS
 62
     7
 10
648.77332
 20
188.59171
 11
653.52332
 21
188.59171
  0
LINE
  8
0
  6
CONTINUOUS
 62
     7
 10
653.52332
 20
188.59171
 11
653.52332
 21
183.19171
  0
LINE
  8
0
  6
CONTINUOUS
 62
     7
 10
652.02332
 20
190.09171
 11
652.02332
 21
183.19171
  0
LINE
  8
0
  6
CONTINUOUS
 62
     7
 10
653.52332
 20
188.59169
 11
652.02325
 21
190.09171
  0
LINE
  8
0
  6
CONTINUOUS
 62
     7
 10
648.77332
 20
183.19171
 11
656.34741
 21
183.19171
  0
LINE
  8
0
  6
CONTINUOUS
 62
     7
 10
653.82153
 20
181.73337
 11
653.82153
 21
175.55005
  0
LINE
  8
0
  6
CONTINUOUS
 62
     7
 10
658.87329
 20
181.73337
 11
658.87329
 21
175.55005
  0
LINE
  8
0
  6
CONTINUOUS
 62
     7
 10
-172.30396
 20
52.378021
 11
-172.30396
 21
23.275055
  0
LINE
  8
0
  6
CONTINUOUS
 62
     7
 10
-185.00397
 20
49.29303
 11
-185.00397
 21
23.275055
  0
LINE
  8
0
  6
CONTINUOUS
 62
     7
 10
-172.21252
 20
68.59259
 11
-172.21252
 21
59.992584
  0
LINE
  8
0
  6
CONTINUOUS
 62
     7
 10
-185.0954
 20
68.59259
 11
-185.0954
 21
59.992584
  0
LINE
  8
0
  6
CONTINUOUS
 62
     7
 10
-191.50397
 20
68.59259
 11
-191.50397
 21
59.992584
  0
LINE
  8
0
  6
CONTINUOUS
 62
     7
 10
-165.80396
 20
68.59259
 11
-165.80396
 21
59.992584
  0
LINE
  8
0
  6
CONTINUOUS
 62
     7
 10
-178.65396
 20
70.442566
 11
-169.00824
 21
70.442566
  0
LINE
  8
0
  6
CONTINUOUS
 62
     7
 10
-174.30396
 20
79.142578
 11
-174.30396
 21
70.442566
  0
LINE
  8
0
  6
CONTINUOUS
 62
     7
 10
-172.30396
 20
77.142578
 11
-174.30396
 21
79.142578
  0
LINE
  8
0
  6
CONTINUOUS
 62
     7
 10
-178.65396
 20
77.142578
 11
-172.30396
 21
77.142578
  0
LINE
  8
0
  6
CONTINUOUS
 62
     7
 10
-172.30396
 20
77.142578
 11
-172.30396
 21
70.442566
  0
LINE
  8
0
  6
CONTINUOUS
 62
     7
 10
-178.65396
 20
79.142578
 11
-174.30396
 21
79.142578
  0
LINE
  8
0
  6
CONTINUOUS
 62
     7
 10
-178.65396
 20
79.142578
 11
-183.00397
 21
79.142578
  0
LINE
  8
0
  6
CONTINUOUS
 62
     7
 10
-178.65396
 20
77.142578
 11
-185.00397
 21
77.142578
  0
LINE
  8
0
  6
CONTINUOUS
 62
     7
 10
-185.00398
 20
77.142586
 11
-183.00398
 21
79.142586
  0
LINE
  8
0
  6
CONTINUOUS
 62
     7
 10
-183.00397
 20
79.142578
 11
-183.00397
 21
70.442566
  0
LINE
  8
0
  6
CONTINUOUS
 62
     7
 10
-185.00397
 20
77.142578
 11
-185.00397
 21
70.442566
  0
LINE
  8
0
  6
CONTINUOUS
 62
     7
 10
-178.65396
 20
70.442566
 11
-188.29968
 21
70.442566
  0
LINE
  8
0
  6
CONTINUOUS
 62
     7
 10
1131.575
 20
194.95
 11
1127.225
 21
194.95
  0
LINE
  8
0
  6
CONTINUOUS
 62
     7
 10
1131.575
 20
192.95
 11
1125.225
 21
192.95
  0
LINE
  8
0
  6
CONTINUOUS
 62
     7
 10
1131.575
 20
186.24998
 11
1121.9292
 21
186.24998
  0
LINE
  8
0
  6
CONTINUOUS
 62
     7
 10
1125.1335
 20
184.40001
 11
1125.1335
 21
175.8
  0
LINE
  8
0
  6
CONTINUOUS
 62
     7
 10
1118.725
 20
184.40001
 11
1118.725
 21
178.41083
  0
LINE
  8
0
  6
CONTINUOUS
 62
     7
 10
1127.225
 20
194.95
 11
1127.225
 21
186.24998
  0
LINE
  8
0
  6
CONTINUOUS
 62
     7
 10
1125.225
 20
192.95
 11
1125.225
 21
186.24998
  0
LINE
  8
0
  6
CONTINUOUS
 62
     7
 10
1125.225
 20
192.95004
 11
1127.225
 21
194.95004
  0
LINE
  8
0
  6
CONTINUOUS
 62
     7
 10
1137.9249
 20
161.35323
 11
1137.9249
 21
144.54674
  0
LINE
  8
0
  6
CONTINUOUS
 62
     7
 10
1131.575
 20
194.95
 11
1135.9249
 21
194.95
  0
LINE
  8
0
  6
CONTINUOUS
 62
     7
 10
1131.575
 20
192.95
 11
1137.9249
 21
192.95
  0
LINE
  8
0
  6
CONTINUOUS
 62
     7
 10
1131.575
 20
186.24998
 11
1141.2207
 21
186.24998
  0
LINE
  8
0
  6
CONTINUOUS
 62
     7
 10
1138.0164
 20
184.40001
 11
1138.0164
 21
175.8
  0
LINE
  8
0
  6
CONTINUOUS
 62
     7
 10
1144.4249
 20
184.40001
 11
1144.4249
 21
175.8
  0
LINE
  8
0
  6
CONTINUOUS
 62
     7
 10
1135.9249
 20
194.95
 11
1135.9249
 21
186.24998
  0
LINE
  8
0
  6
CONTINUOUS
 62
     7
 10
1137.9249
 20
192.95
 11
1137.9249
 21
186.24998
  0
LINE
  8
0
  6
CONTINUOUS
 62
     7
 10
1137.9249
 20
192.95
 11
1135.9249
 21
194.95
  0
LINE
  8
0
  6
CONTINUOUS
 62
     7
 10
950.57501
 20
194.95
 11
946.22498
 21
194.95
  0
LINE
  8
0
  6
CONTINUOUS
 62
     7
 10
950.57501
 20
192.95
 11
944.22498
 21
192.95
  0
LINE
  8
0
  6
CONTINUOUS
 62
     7
 10
950.57501
 20
186.24998
 11
940.92932
 21
186.24998
  0
LINE
  8
0
  6
CONTINUOUS
 62
     7
 10
944.13354
 20
184.40001
 11
944.13354
 21
175.8
  0
LINE
  8
0
  6
CONTINUOUS
 62
     7
 10
937.72498
 20
184.40001
 11
937.72498
 21
175.8
  0
LINE
  8
0
  6
CONTINUOUS
 62
     7
 10
946.22498
 20
194.95
 11
946.22498
 21
186.24998
  0
LINE
  8
0
  6
CONTINUOUS
 62
     7
 10
944.22498
 20
192.95
 11
944.22498
 21
186.24998
  0
LINE
  8
0
  6
CONTINUOUS
 62
     7
 10
944.22498
 20
192.95
 11
946.22498
 21
194.95
  0
LINE
  8
0
  6
CONTINUOUS
 62
     7
 10
944.22498
 20
161.35323
 11
944.22498
 21
144.54674
  0
LINE
  8
0
  6
CONTINUOUS
 62
     7
 10
950.57501
 20
194.95
 11
954.92505
 21
194.95
  0
LINE
  8
0
  6
CONTINUOUS
 62
     7
 10
950.57501
 20
192.95
 11
956.92505
 21
192.95
  0
LINE
  8
0
  6
CONTINUOUS
 62
     7
 10
950.57501
 20
186.24998
 11
960.2207
 21
186.24998
  0
LINE
  8
0
  6
CONTINUOUS
 62
     7
 10
957.01648
 20
184.40001
 11
957.01648
 21
175.8
  0
LINE
  8
0
  6
CONTINUOUS
 62
     7
 10
963.42505
 20
184.40001
 11
963.42505
 21
178.41081
  0
LINE
  8
0
  6
CONTINUOUS
 62
     7
 10
954.92505
 20
194.95
 11
954.92505
 21
186.24998
  0
LINE
  8
0
  6
CONTINUOUS
 62
     7
 10
956.92505
 20
192.95
 11
956.92505
 21
186.24998
  0
LINE
  8
0
  6
CONTINUOUS
 62
     7
 10
956.92499
 20
192.95
 11
954.92499
 21
194.95
  0
LINE
  8
0
  6
CONTINUOUS
 62
     7
 10
873.625
 20
196
 11
869.27502
 21
196
  0
LINE
  8
0
  6
CONTINUOUS
 62
     7
 10
873.625
 20
194
 11
867.27502
 21
194
  0
LINE
  8
0
  6
CONTINUOUS
 62
     7
 10
873.625
 20
187.29999
 11
863.97925
 21
187.29999
  0
LINE
  8
0
  6
CONTINUOUS
 62
     7
 10
867.18359
 20
185.45001
 11
867.18359
 21
176.85001
  0
LINE
  8
0
  6
CONTINUOUS
 62
     7
 10
860.77502
 20
185.45001
 11
860.77502
 21
178.98926
  0
LINE
  8
0
  6
CONTINUOUS
 62
     7
 10
869.27502
 20
196
 11
869.27502
 21
187.29999
  0
LINE
  8
0
  6
CONTINUOUS
 62
     7
 10
867.27502
 20
194
 11
867.27502
 21
187.29999
  0
LINE
  8
0
  6
CONTINUOUS
 62
     7
 10
867.27496
 20
194.00002
 11
869.27496
 21
196.00002
  0
LINE
  8
0
  6
CONTINUOUS
 62
     7
 10
879.97498
 20
163.16812
 11
879.97498
 21
144.83188
  0
LINE
  8
0
  6
CONTINUOUS
 62
     7
 10
873.625
 20
196
 11
877.97498
 21
196
  0
LINE
  8
0
  6
CONTINUOUS
 62
     7
 10
873.625
 20
194
 11
879.97498
 21
194
  0
LINE
  8
0
  6
CONTINUOUS
 62
     7
 10
873.625
 20
187.29999
 11
883.27075
 21
187.29999
  0
LINE
  8
0
  6
CONTINUOUS
 62
     7
 10
880.06641
 20
185.45001
 11
880.06641
 21
176.85001
  0
LINE
  8
0
  6
CONTINUOUS
 62
     7
 10
886.47498
 20
185.45001
 11
886.47498
 21
176.85001
  0
LINE
  8
0
  6
CONTINUOUS
 62
     7
 10
877.97498
 20
196
 11
877.97498
 21
187.29999
  0
LINE
  8
0
  6
CONTINUOUS
 62
     7
 10
879.97498
 20
194
 11
879.97498
 21
187.29999
  0
LINE
  8
0
  6
CONTINUOUS
 62
     7
 10
879.97504
 20
194.00002
 11
877.97504
 21
196.00002
  0
LINE
  8
0
  6
CONTINUOUS
 62
     7
 10
249.05161
 20
55.444557
 11
249.05161
 21
20.525826
  0
LINE
  8
0
  6
CONTINUOUS
 62
     7
 10
233.25162
 20
51.64843
 11
233.25162
 21
20.525826
  0
LINE
  8
0
  6
CONTINUOUS
 62
     7
 10
225.55161
 20
77.392586
 11
225.55161
 21
66.392586
  0
LINE
  8
0
  6
CONTINUOUS
 62
     7
 10
233.34586
 20
77.392586
 11
233.34586
 21
66.392586
  0
LINE
  8
0
  6
CONTINUOUS
 62
     7
 10
248.9574
 20
77.392586
 11
248.9574
 21
66.392586
  0
LINE
  8
0
  6
CONTINUOUS
 62
     7
 10
256.75162
 20
77.392586
 11
256.75162
 21
66.392586
  0
LINE
  8
0
  6
CONTINUOUS
 62
     7
 10
241.15161
 20
79.642586
 11
229.44873
 21
79.642586
  0
LINE
  8
0
  6
CONTINUOUS
 62
     7
 10
235.25162
 20
90.142586
 11
235.25162
 21
79.642586
  0
LINE
  8
0
  6
CONTINUOUS
 62
     7
 10
233.25162
 20
88.142586
 11
233.25162
 21
79.642586
  0
LINE
  8
0
  6
CONTINUOUS
 62
     7
 10
241.15161
 20
88.142586
 11
233.25162
 21
88.142586
  0
LINE
  8
0
  6
CONTINUOUS
 62
     7
 10
241.15161
 20
90.142586
 11
235.25162
 21
90.142586
  0
LINE
  8
0
  6
CONTINUOUS
 62
     7
 10
233.25162
 20
88.142578
 11
235.25162
 21
90.142578
  0
LINE
  8
0
  6
CONTINUOUS
 62
     7
 10
241.15161
 20
90.142586
 11
247.05161
 21
90.142586
  0
LINE
  8
0
  6
CONTINUOUS
 62
     7
 10
241.15161
 20
88.142586
 11
249.05161
 21
88.142586
  0
LINE
  8
0
  6
CONTINUOUS
 62
     7
 10
247.05161
 20
90.142586
 11
247.05161
 21
79.642586
  0
LINE
  8
0
  6
CONTINUOUS
 62
     7
 10
249.05161
 20
88.142586
 11
249.05161
 21
79.642586
  0
LINE
  8
0
  6
CONTINUOUS
 62
     7
 10
249.05164
 20
88.142586
 11
247.05164
 21
90.142593
  0
LINE
  8
0
  6
CONTINUOUS
 62
     7
 10
241.15161
 20
79.642586
 11
252.85449
 21
79.642586
  0
LINE
  8
0
  6
CONTINUOUS
 62
     7
 10
1098.1084
 20
-91.615456
 11
1098.1084
 21
-113.48869
  0
LINE
  8
0
  6
CONTINUOUS
 62
     7
 10
1074.6084
 20
-62.302071
 11
1074.6084
 21
-66.99659
  0
LINE
  8
0
  6
CONTINUOUS
 62
     7
 10
1082.4027
 20
-62.302071
 11
1082.4027
 21
-72.288925
  0
LINE
  8
0
  6
CONTINUOUS
 62
     7
 10
1098.0143
 20
-62.302071
 11
1098.0143
 21
-73.302071
  0
LINE
  8
0
  6
CONTINUOUS
 62
     7
 10
1105.8085
 20
-62.302071
 11
1105.8085
 21
-73.302071
  0
LINE
  8
0
  6
CONTINUOUS
 62
     7
 10
1090.2085
 20
-60.052071
 11
1078.5056
 21
-60.052071
  0
LINE
  8
0
  6
CONTINUOUS
 62
     7
 10
1084.3085
 20
-49.552071
 11
1084.3085
 21
-60.052071
  0
LINE
  8
0
  6
CONTINUOUS
 62
     7
 10
1082.3085
 20
-51.552071
 11
1082.3085
 21
-60.052071
  0
LINE
  8
0
  6
CONTINUOUS
 62
     7
 10
1090.2085
 20
-51.552071
 11
1082.3085
 21
-51.552071
  0
LINE
  8
0
  6
CONTINUOUS
 62
     7
 10
1090.2085
 20
-49.552071
 11
1084.3085
 21
-49.552071
  0
LINE
  8
0
  6
CONTINUOUS
 62
     7
 10
1082.3085
 20
-51.552116
 11
1084.3085
 21
-49.552113
  0
LINE
  8
0
  6
CONTINUOUS
 62
     7
 10
1090.2085
 20
-49.552071
 11
1096.1084
 21
-49.552071
  0
LINE
  8
0
  6
CONTINUOUS
 62
     7
 10
1090.2085
 20
-51.552071
 11
1098.1084
 21
-51.552071
  0
LINE
  8
0
  6
CONTINUOUS
 62
     7
 10
1096.1084
 20
-49.552071
 11
1096.1084
 21
-60.052071
  0
LINE
  8
0
  6
CONTINUOUS
 62
     7
 10
1098.1084
 20
-51.552071
 11
1098.1084
 21
-60.052071
  0
LINE
  8
0
  6
CONTINUOUS
 62
     7
 10
1098.1085
 20
-51.552071
 11
1096.1085
 21
-49.552071
  0
LINE
  8
0
  6
CONTINUOUS
 62
     7
 10
1090.2085
 20
-60.052071
 11
1101.9114
 21
-60.052071
  0
LINE
  8
0
  6
CONTINUOUS
 62
     7
 10
844.30847
 20
-91.615425
 11
844.30847
 21
-113.48872
  0
LINE
  8
0
  6
CONTINUOUS
 62
     7
 10
836.60846
 20
-62.302071
 11
836.60846
 21
-73.302071
  0
LINE
  8
0
  6
CONTINUOUS
 62
     7
 10
844.40271
 20
-62.302071
 11
844.40271
 21
-73.302071
  0
LINE
  8
0
  6
CONTINUOUS
 62
     7
 10
860.01422
 20
-62.302071
 11
860.01422
 21
-72.288925
  0
LINE
  8
0
  6
CONTINUOUS
 62
     7
 10
867.80847
 20
-62.302071
 11
867.80847
 21
-66.996613
  0
LINE
  8
0
  6
CONTINUOUS
 62
     7
 10
852.20844
 20
-60.052071
 11
840.50555
 21
-60.052071
  0
LINE
  8
0
  6
CONTINUOUS
 62
     7
 10
846.30847
 20
-49.552071
 11
846.30847
 21
-60.052071
  0
LINE
  8
0
  6
CONTINUOUS
 62
     7
 10
844.30847
 20
-51.552071
 11
844.30847
 21
-60.052071
  0
LINE
  8
0
  6
CONTINUOUS
 62
     7
 10
852.20844
 20
-51.552071
 11
844.30847
 21
-51.552071
  0
LINE
  8
0
  6
CONTINUOUS
 62
     7
 10
852.20844
 20
-49.552071
 11
846.30847
 21
-49.552071
  0
LINE
  8
0
  6
CONTINUOUS
 62
     7
 10
844.30847
 20
-51.552071
 11
846.30847
 21
-49.552071
  0
LINE
  8
0
  6
CONTINUOUS
 62
     7
 10
852.20844
 20
-49.552071
 11
858.10846
 21
-49.552071
  0
LINE
  8
0
  6
CONTINUOUS
 62
     7
 10
852.20844
 20
-51.552071
 11
860.10846
 21
-51.552071
  0
LINE
  8
0
  6
CONTINUOUS
 62
     7
 10
858.10846
 20
-49.552071
 11
858.10846
 21
-60.052071
  0
LINE
  8
0
  6
CONTINUOUS
 62
     7
 10
860.10846
 20
-51.552071
 11
860.10846
 21
-60.052071
  0
LINE
  8
0
  6
CONTINUOUS
 62
     7
 10
860.10846
 20
-51.552071
 11
858.10846
 21
-49.552071
  0
LINE
  8
0
  6
CONTINUOUS
 62
     7
 10
852.20844
 20
-60.052071
 11
863.91132
 21
-60.052071
  0
LINE
  8
0
  6
CONTINUOUS
 62
     7
 10
724.33423
 20
-87.6017
 11
724.33423
 21
-109.47487
  0
LINE
  8
0
  6
CONTINUOUS
 62
     7
 10
700.83423
 20
-58.288273
 11
700.83423
 21
-64.005615
  0
LINE
  8
0
  6
CONTINUOUS
 62
     7
 10
708.62848
 20
-58.288273
 11
708.62848
 21
-69.288269
  0
LINE
  8
0
  6
CONTINUOUS
 62
     7
 10
724.23999
 20
-58.288273
 11
724.23999
 21
-69.288269
  0
LINE
  8
0
  6
CONTINUOUS
 62
     7
 10
732.03424
 20
-58.288273
 11
732.03424
 21
-69.288269
  0
LINE
  8
0
  6
CONTINUOUS
 62
     7
 10
716.4342
 20
-56.038273
 11
704.73132
 21
-56.038273
  0
LINE
  8
0
  6
CONTINUOUS
 62
     7
 10
710.53424
 20
-45.538273
 11
710.53424
 21
-56.038273
  0
LINE
  8
0
  6
CONTINUOUS
 62
     7
 10
708.53424
 20
-47.538273
 11
708.53424
 21
-56.038273
  0
LINE
  8
0
  6
CONTINUOUS
 62
     7
 10
716.4342
 20
-47.538273
 11
708.53424
 21
-47.538273
  0
LINE
  8
0
  6
CONTINUOUS
 62
     7
 10
716.4342
 20
-45.538273
 11
710.53424
 21
-45.538273
  0
LINE
  8
0
  6
CONTINUOUS
 62
     7
 10
708.53424
 20
-47.5383
 11
710.53424
 21
-45.5383
  0
LINE
  8
0
  6
CONTINUOUS
 62
     7
 10
716.4342
 20
-45.538273
 11
722.33423
 21
-45.538273
  0
LINE
  8
0
  6
CONTINUOUS
 62
     7
 10
716.4342
 20
-47.538273
 11
724.33423
 21
-47.538273
  0
LINE
  8
0
  6
CONTINUOUS
 62
     7
 10
722.33423
 20
-45.538273
 11
722.33423
 21
-56.038273
  0
LINE
  8
0
  6
CONTINUOUS
 62
     7
 10
724.33423
 20
-47.538273
 11
724.33423
 21
-56.038273
  0
LINE
  8
0
  6
CONTINUOUS
 62
     7
 10
724.33429
 20
-47.53828
 11
722.33429
 21
-45.538277
  0
LINE
  8
0
  6
CONTINUOUS
 62
     7
 10
716.4342
 20
-56.038273
 11
728.13708
 21
-56.038273
  0
ARC
  8
0
  6
CONTINUOUS
 62
     7
 10
520.27332
 20
146.59171
 40
11
 50
232.53091
 51
270
  0
ARC
  8
0
  6
CONTINUOUS
 62
     7
 10
516.62329
 20
141.82962
 40
5
 50
179.99999
 51
232.53092
  0
ARC
  8
0
  6
CONTINUOUS
 62
     7
 10
-342.73212
 20
86.410095
 40
8
 50
283.84729
 51
340.83626
  0
ARC
  8
0
  6
CONTINUOUS
 62
     7
 10
-330.45251
 20
82.142578
 40
5
 50
90.000003
 51
160.83626
  0
ARC
  8
0
  6
CONTINUOUS
 62
     7
 10
-345.25424
 20
-12.124939
 40
8
 50
19.163742
 51
76.152709
  0
ARC
  8
0
  6
CONTINUOUS
 62
     7
 10
-332.97464
 20
-7.8574219
 40
5
 50
199.16374
 51
270
  0
ARC
  8
0
  6
CONTINUOUS
 62
     7
 10
-292.92484
 20
-12.124939
 40
8
 50
103.84729
 51
160.83626
  0
ARC
  8
0
  6
CONTINUOUS
 62
     7
 10
-305.20444
 20
-7.8574219
 40
5
 50
270
 51
340.83626
  0
ARC
  8
0
  6
CONTINUOUS
 62
     7
 10
523.92334
 20
141.82962
 40
5
 50
307.46909
 51
5.008956E-006
  0
ARC
  8
0
  6
CONTINUOUS
 62
     7
 10
520.27332
 20
146.59171
 40
11
 50
270
 51
307.46909
  0
ARC
  8
0
  6
CONTINUOUS
 62
     7
 10
-302.68237
 20
82.142578
 40
5
 50
19.163743
 51
89.999996
  0
ARC
  8
0
  6
CONTINUOUS
 62
     7
 10
-290.40277
 20
86.410095
 40
8
 50
199.16374
 51
256.15271
  0
ARC
  8
0
  6
CONTINUOUS
 62
     7
 10
727.625
 20
139
 40
15
 50
242.33599
 51
270
  0
ARC
  8
0
  6
CONTINUOUS
 62
     7
 10
724.375
 20
132.8002
 40
8
 50
179.99999
 51
242.33599
  0
ARC
  8
0
  6
CONTINUOUS
 62
     7
 10
-203.31531
 20
92.372192
 40
8
 50
284.93899
 51
343.32794
  0
ARC
  8
0
  6
CONTINUOUS
 62
     7
 10
-204.96628
 20
-18.087036
 40
8
 50
16.67206
 51
75.061013
  0
ARC
  8
0
  6
CONTINUOUS
 62
     7
 10
-152.34164
 20
-18.087036
 40
8
 50
104.93899
 51
163.32794
  0
ARC
  8
0
  6
CONTINUOUS
 62
     7
 10
730.875
 20
132.8002
 40
8
 50
297.66401
 51
339.24989
  0
ARC
  8
0
  6
CONTINUOUS
 62
     7
 10
727.625
 20
139
 40
15
 50
270
 51
297.66401
  0
ARC
  8
0
  6
CONTINUOUS
 62
     7
 10
-150.69067
 20
92.372192
 40
8
 50
196.67206
 51
255.06101
  0
ARC
  8
0
  6
CONTINUOUS
 62
     7
 10
-42.145329
 20
15.94278
 40
8
 50
179.99999
 51
242.33599
  0
ARC
  8
0
  6
CONTINUOUS
 62
     7
 10
-38.895329
 20
22.142578
 40
15
 50
242.33599
 51
270
  0
ARC
  8
0
  6
CONTINUOUS
 62
     7
 10
-64.939453
 20
105.18109
 40
8
 50
289.55607
 51
355.41801
  0
ARC
  8
0
  6
CONTINUOUS
 62
     7
 10
-67.073151
 20
-30.895905
 40
8
 50
4.581857
 51
70.443928
  0
ARC
  8
0
  6
CONTINUOUS
 62
     7
 10
-35.645329
 20
15.94278
 40
8
 50
297.66401
 51
8.6514222E-006
  0
ARC
  8
0
  6
CONTINUOUS
 62
     7
 10
-38.895329
 20
22.142578
 40
15
 50
270
 51
297.66401
  0
ARC
  8
0
  6
CONTINUOUS
 62
     7
 10
-10.71747
 20
-30.895905
 40
8
 50
109.55607
 51
175.41814
  0
ARC
  8
0
  6
CONTINUOUS
 62
     7
 10
-8.5838032
 20
105.18109
 40
8
 50
184.58199
 51
250.44393
  0
ARC
  8
0
  6
CONTINUOUS
 62
     7
 10
97.654663
 20
9.9488525
 40
10
 50
179.99999
 51
244.05553
  0
ARC
  8
0
  6
CONTINUOUS
 62
     7
 10
101.15466
 20
17.142578
 40
18
 50
244.05552
 51
270
  0
ARC
  8
0
  6
CONTINUOUS
 62
     7
 10
74.070404
 20
119.50998
 40
8
 50
292.93857
 51
351.74111
  0
ARC
  8
0
  6
CONTINUOUS
 62
     7
 10
72.036713
 20
-45.224792
 40
8
 50
8.2587582
 51
67.061427
  0
ARC
  8
0
  6
CONTINUOUS
 62
     7
 10
104.65466
 20
9.9488525
 40
10
 50
295.94448
 51
5.0089561E-006
  0
ARC
  8
0
  6
CONTINUOUS
 62
     7
 10
101.15466
 20
17.142578
 40
18
 50
270
 51
295.94448
  0
ARC
  8
0
  6
CONTINUOUS
 62
     7
 10
130.2726
 20
-45.224792
 40
8
 50
112.93857
 51
171.74124
  0
ARC
  8
0
  6
CONTINUOUS
 62
     7
 10
132.30629
 20
119.50998
 40
8
 50
188.2589
 51
247.06143
  0
ARC
  8
0
  6
CONTINUOUS
 62
     7
 10
508.43427
 20
-118.53828
 40
18
 50
244.05552
 51
270
  0
ARC
  8
0
  6
CONTINUOUS
 62
     7
 10
504.93427
 20
-125.732
 40
10
 50
179.99999
 51
244.05553
  0
ARC
  8
0
  6
CONTINUOUS
 62
     7
 10
211.93707
 20
133.15094
 40
10
 50
301.69727
 51
348.09007
  0
ARC
  8
0
  6
CONTINUOUS
 62
     7
 10
228.57114
 20
129.64258
 40
7
 50
90.000003
 51
168.09007
  0
ARC
  8
0
  6
CONTINUOUS
 62
     7
 10
209.89734
 20
-58.865784
 40
10
 50
11.909931
 51
58.302734
  0
ARC
  8
0
  6
CONTINUOUS
 62
     7
 10
226.53134
 20
-55.35743
 40
7
 50
191.90993
 51
270
  0
ARC
  8
0
  6
CONTINUOUS
 62
     7
 10
508.43427
 20
-118.53828
 40
18
 50
270
 51
295.94448
  0
ARC
  8
0
  6
CONTINUOUS
 62
     7
 10
511.93427
 20
-125.732
 40
10
 50
295.94447
 51
328.61056
  0
ARC
  8
0
  6
CONTINUOUS
 62
     7
 10
272.40594
 20
-58.865784
 40
10
 50
121.69726
 51
168.09007
  0
ARC
  8
0
  6
CONTINUOUS
 62
     7
 10
255.77188
 20
-55.35743
 40
7
 50
270
 51
348.09007
  0
ARC
  8
0
  6
CONTINUOUS
 62
     7
 10
274.44571
 20
133.15094
 40
10
 50
191.90993
 51
238.30274
  0
ARC
  8
0
  6
CONTINUOUS
 62
     7
 10
257.81168
 20
129.64258
 40
7
 50
11.909932
 51
89.999996
  0
ARC
  8
0
  6
CONTINUOUS
 62
     7
 10
-317.82849
 20
-552.00854
 40
19
 50
90.000003
 51
163.60015
  0
ARC
  8
0
  6
CONTINUOUS
 62
     7
 10
-317.82849
 20
-668.00854
 40
19
 50
196.4
 51
343.59998
  0
ARC
  8
0
  6
CONTINUOUS
 62
     7
 10
-317.82849
 20
-552.00854
 40
19
 50
16.399877
 51
90.000003
  0
ARC
  8
0
  6
CONTINUOUS
 62
     7
 10
-332.54581
 20
-653.00854
 40
3
 50
142.43592
 51
187.01535
  0
ARC
  8
0
  6
CONTINUOUS
 62
     7
 10
-317.51859
 20
-591.93817
 40
4
 50
194.73256
 51
255.37605
  0
ARC
  8
0
  6
CONTINUOUS
 62
     7
 10
-317.91544
 20
-594.4328
 40
7
 50
213.01662
 51
259.18842
  0
ARC
  8
0
  6
CONTINUOUS
 62
     7
 10
-325.44675
 20
-599.32684
 40
1.9817494
 50
90.000003
 51
270
  0
ARC
  8
0
  6
CONTINUOUS
 62
     7
 10
-325.44675
 20
-599.32684
 40
1.9817494
 50
33.016619
 51
90.000003
  0
ARC
  8
0
  6
CONTINUOUS
 62
     7
 10
-312.72849
 20
-630.10858
 40
1.4
 50
90.000003
 51
180.00001
  0
ARC
  8
0
  6
CONTINUOUS
 62
     7
 10
-312.72849
 20
-630.10858
 40
1.4
 50
360
 51
90.000003
  0
ARC
  8
0
  6
CONTINUOUS
 62
     7
 10
-312.32849
 20
-619.50854
 40
1.8
 50
180.00001
 51
270
  0
ARC
  8
0
  6
CONTINUOUS
 62
     7
 10
-312.32849
 20
-619.50854
 40
1.8
 50
90.000003
 51
180.00001
  0
ARC
  8
0
  6
CONTINUOUS
 62
     7
 10
-310.32849
 20
-619.50854
 40
1.8
 50
270
 51
360
  0
ARC
  8
0
  6
CONTINUOUS
 62
     7
 10
-310.32849
 20
-619.50854
 40
1.8
 50
360
 51
90.000003
  0
ARC
  8
0
  6
CONTINUOUS
 62
     7
 10
-177.82849
 20
-678.50854
 40
19
 50
193.75078
 51
346.24922
  0
ARC
  8
0
  6
CONTINUOUS
 62
     7
 10
-177.82849
 20
-541.50854
 40
19
 50
90.000003
 51
166.24922
  0
ARC
  8
0
  6
CONTINUOUS
 62
     7
 10
-177.82849
 20
-541.50854
 40
19
 50
13.75078
 51
90.000003
  0
ARC
  8
0
  6
CONTINUOUS
 62
     7
 10
-191.73389
 20
-658.41626
 40
4
 50
142.90343
 51
185.55429
  0
ARC
  8
0
  6
CONTINUOUS
 62
     7
 10
-184.12849
 20
-622.60852
 40
2.4000001
 50
36.008324
 51
143.99167
  0
ARC
  8
0
  6
CONTINUOUS
 62
     7
 10
-181.57849
 20
-595.00854
 40
3.05
 50
90.000003
 51
180.00001
  0
ARC
  8
0
  6
CONTINUOUS
 62
     7
 10
-181.57849
 20
-595.00854
 40
3.05
 50
305.59068
 51
90.000003
  0
ARC
  8
0
  6
CONTINUOUS
 62
     7
 10
-172.72849
 20
-630.60852
 40
1.4
 50
90.000003
 51
180.00001
  0
ARC
  8
0
  6
CONTINUOUS
 62
     7
 10
-172.72849
 20
-630.60852
 40
1.4
 50
360
 51
90.000003
  0
ARC
  8
0
  6
CONTINUOUS
 62
     7
 10
-172.32849
 20
-619.00854
 40
1.8
 50
180.00001
 51
270
  0
ARC
  8
0
  6
CONTINUOUS
 62
     7
 10
-172.32849
 20
-619.00854
 40
1.8
 50
90.000003
 51
180.00001
  0
ARC
  8
0
  6
CONTINUOUS
 62
     7
 10
-170.32849
 20
-619.00854
 40
1.8
 50
270
 51
360
  0
ARC
  8
0
  6
CONTINUOUS
 62
     7
 10
-170.32849
 20
-619.00854
 40
1.8
 50
360
 51
90.000003
  0
ARC
  8
0
  6
CONTINUOUS
 62
     7
 10
-37.828495
 20
-524.50867
 40
20
 50
90.000003
 51
167.74021
  0
ARC
  8
0
  6
CONTINUOUS
 62
     7
 10
-37.828495
 20
-524.50867
 40
20
 50
12.259805
 51
90.000003
  0
ARC
  8
0
  6
CONTINUOUS
 62
     7
 10
-37.828495
 20
-695.50854
 40
20
 50
192.26094
 51
347.73905
  0
ARC
  8
0
  6
CONTINUOUS
 62
     7
 10
-38.818409
 20
-588.90356
 40
0.75
 50
306.8699
 51
53.130102
  0
ARC
  8
0
  6
CONTINUOUS
 62
     7
 10
-30.328495
 20
-627.60358
 40
2
 50
270
 51
360
  0
ARC
  8
0
  6
CONTINUOUS
 62
     7
 10
-30.328495
 20
-627.60358
 40
2
 50
360
 51
90.000003
  0
ARC
  8
0
  6
CONTINUOUS
 62
     7
 10
-32.328495
 20
-627.60358
 40
2
 50
90.000003
 51
180.00001
  0
ARC
  8
0
  6
CONTINUOUS
 62
     7
 10
-32.328495
 20
-627.60358
 40
2
 50
180.00001
 51
270
  0
ARC
  8
0
  6
CONTINUOUS
 62
     7
 10
-44.373707
 20
-629.14984
 40
2.4000001
 50
36.008324
 51
143.99167
  0
ARC
  8
0
  6
CONTINUOUS
 62
     7
 10
-44.373707
 20
-629.14984
 40
3.5999999
 50
36.008324
 51
143.99167
  0
ARC
  8
0
  6
CONTINUOUS
 62
     7
 10
-44.373707
 20
-633.94983
 40
2.4000001
 50
216.00833
 51
323.99168
  0
ARC
  8
0
  6
CONTINUOUS
 62
     7
 10
-44.373707
 20
-633.94983
 40
3.5999999
 50
216.00833
 51
323.99168
  0
ARC
  8
0
  6
CONTINUOUS
 62
     7
 10
-41.0714
 20
-631.54987
 40
7.6823077
 50
143.99167
 51
216.00833
  0
ARC
  8
0
  6
CONTINUOUS
 62
     7
 10
-41.0714
 20
-631.54987
 40
6.4823079
 50
143.99167
 51
216.00833
  0
ARC
  8
0
  6
CONTINUOUS
 62
     7
 10
-47.676014
 20
-631.54987
 40
6.4823079
 50
323.99167
 51
36.008324
  0
ARC
  8
0
  6
CONTINUOUS
 62
     7
 10
-47.676014
 20
-631.54987
 40
7.6823077
 50
323.99167
 51
36.008324
  0
ARC
  8
0
  6
CONTINUOUS
 62
     7
 10
-49.92371
 20
-631.54987
 40
0.75
 50
126.8699
 51
233.13009
  0
ARC
  8
0
  6
CONTINUOUS
 62
     7
 10
-44.823704
 20
-631.54987
 40
0.75
 50
306.8699
 51
53.130102
  0
ARC
  8
0
  6
CONTINUOUS
 62
     7
 10
-38.823704
 20
-631.54987
 40
0.75
 50
306.8699
 51
53.130102
  0
ARC
  8
0
  6
CONTINUOUS
 62
     7
 10
102.17151
 20
-708.00854
 40
24
 50
185.25634
 51
354.74365
  0
ARC
  8
0
  6
CONTINUOUS
 62
     7
 10
102.17151
 20
-512.00854
 40
24
 50
90.000003
 51
174.74367
  0
ARC
  8
0
  6
CONTINUOUS
 62
     7
 10
102.17151
 20
-512.00854
 40
24
 50
5.2563334
 51
90.000003
  0
ARC
  8
0
  6
CONTINUOUS
 62
     7
 10
92.569183
 20
-625.00854
 40
7.6823077
 50
323.99167
 51
36.008324
  0
ARC
  8
0
  6
CONTINUOUS
 62
     7
 10
98.821503
 20
-598.45856
 40
3
 50
90.000003
 51
180.00001
  0
ARC
  8
0
  6
CONTINUOUS
 62
     7
 10
98.821503
 20
-598.45856
 40
3
 50
285.54545
 51
90.000003
  0
ARC
  8
0
  6
CONTINUOUS
 62
     7
 10
107.0965
 20
-630.43359
 40
1.575
 50
90.000003
 51
180.00001
  0
ARC
  8
0
  6
CONTINUOUS
 62
     7
 10
107.0965
 20
-630.43359
 40
1.575
 50
360
 51
90.000003
  0
ARC
  8
0
  6
CONTINUOUS
 62
     7
 10
107.67151
 20
-619.00854
 40
2.1500001
 50
180.00001
 51
270
  0
ARC
  8
0
  6
CONTINUOUS
 62
     7
 10
107.67151
 20
-619.00854
 40
2.1500001
 50
90.000003
 51
180.00001
  0
ARC
  8
0
  6
CONTINUOUS
 62
     7
 10
109.67151
 20
-619.00854
 40
2.1500001
 50
360
 51
90.000003
  0
ARC
  8
0
  6
CONTINUOUS
 62
     7
 10
109.67151
 20
-619.00854
 40
2.1500001
 50
269.99999
 51
6.832466E-007
  0
ARC
  8
0
  6
CONTINUOUS
 62
     7
 10
242.17151
 20
-723.00854
 40
24
 50
187.18076
 51
352.81923
  0
ARC
  8
0
  6
CONTINUOUS
 62
     7
 10
242.17151
 20
-497.00854
 40
24
 50
90.000003
 51
172.81925
  0
ARC
  8
0
  6
CONTINUOUS
 62
     7
 10
242.17151
 20
-497.00854
 40
24
 50
7.1807529
 51
90.000003
  0
CIRCLE
  8
0
  6
CONTINUOUS
 62
     7
 10
238.27036
 20
-594.57941
 40
3.05
  0
ARC
  8
0
  6
CONTINUOUS
 62
     7
 10
234.77036
 20
-594.57941
 40
3.05
 50
90.000003
 51
270
  0
ARC
  8
0
  6
CONTINUOUS
 62
     7
 10
240.75427
 20
-588.21381
 40
1.0040559
 50
250.73891
 51
90.000003
  0
ARC
  8
0
  6
CONTINUOUS
 62
     7
 10
247.52148
 20
-625.92853
 40
2
 50
90.000003
 51
180.00001
  0
ARC
  8
0
  6
CONTINUOUS
 62
     7
 10
247.52148
 20
-626.22852
 40
2
 50
180.00001
 51
270
  0
ARC
  8
0
  6
CONTINUOUS
 62
     7
 10
249.8215
 20
-626.22852
 40
2
 50
269.99999
 51
6.8324625E-007
  0
ARC
  8
0
  6
CONTINUOUS
 62
     7
 10
249.8215
 20
-625.92853
 40
2
 50
360
 51
90.000003
  0
ARC
  8
0
  6
CONTINUOUS
 62
     7
 10
247.0965
 20
-637.58044
 40
1.6518896
 50
90.000003
 51
197.55011
  0
ARC
  8
0
  6
CONTINUOUS
 62
     7
 10
247.0965
 20
-637.58044
 40
1.6518896
 50
17.550115
 51
90.000003
  0
CIRCLE
  8
0
  6
CONTINUOUS
 62
     7
 10
-315.82849
 20
-545.75854
 40
4.7624998
  0
CIRCLE
  8
0
  6
CONTINUOUS
 62
     7
 10
-315.82849
 20
-545.75854
 40
3.9024999
  0
CIRCLE
  8
0
  6
CONTINUOUS
 62
     7
 10
-39.328495
 20
-700.50854
 40
6.3499999
  0
CIRCLE
  8
0
  6
CONTINUOUS
 62
     7
 10
-39.328495
 20
-700.50854
 40
5.2919998
  0
CIRCLE
  8
0
  6
CONTINUOUS
 62
     7
 10
-319.82849
 20
-674.25854
 40
3.9024999
  0
CIRCLE
  8
0
  6
CONTINUOUS
 62
     7
 10
-319.82849
 20
-674.25854
 40
4.7624998
  0
CIRCLE
  8
0
  6
CONTINUOUS
 62
     7
 10
-179.82849
 20
-683.00854
 40
5.2919998
  0
CIRCLE
  8
0
  6
CONTINUOUS
 62
     7
 10
-179.82849
 20
-683.00854
 40
6.3499999
  0
CIRCLE
  8
0
  6
CONTINUOUS
 62
     7
 10
-175.82849
 20
-537.00854
 40
5.2919998
  0
CIRCLE
  8
0
  6
CONTINUOUS
 62
     7
 10
-175.82849
 20
-537.00854
 40
6.3499999
  0
CIRCLE
  8
0
  6
CONTINUOUS
 62
     7
 10
-36.328495
 20
-519.50854
 40
5.2919998
  0
CIRCLE
  8
0
  6
CONTINUOUS
 62
     7
 10
-36.328495
 20
-519.50854
 40
6.3499999
  0
CIRCLE
  8
0
  6
CONTINUOUS
 62
     7
 10
240.67151
 20
-729.00854
 40
7.9375
  0
CIRCLE
  8
0
  6
CONTINUOUS
 62
     7
 10
240.67151
 20
-729.00854
 40
6.6880002
  0
CIRCLE
  8
0
  6
CONTINUOUS
 62
     7
 10
100.17151
 20
-714.00854
 40
7.9375
  0
CIRCLE
  8
0
  6
CONTINUOUS
 62
     7
 10
100.17151
 20
-714.00854
 40
6.6880002
  0
CIRCLE
  8
0
  6
CONTINUOUS
 62
     7
 10
104.17151
 20
-506.00854
 40
7.9375
  0
CIRCLE
  8
0
  6
CONTINUOUS
 62
     7
 10
104.17151
 20
-506.00854
 40
6.6880002
  0
CIRCLE
  8
0
  6
CONTINUOUS
 62
     7
 10
243.67151
 20
-491.00854
 40
7.9375
  0
CIRCLE
  8
0
  6
CONTINUOUS
 62
     7
 10
243.67151
 20
-491.00854
 40
6.6880002
  0
ARC
  8
0
  6
CONTINUOUS
 62
     7
 10
-192.51277
 20
-14.357422
 40
5
 50
196.67206
 51
270
  0
ARC
  8
0
  6
CONTINUOUS
 62
     7
 10
-164.79515
 20
-14.357422
 40
5
 50
270
 51
343.32794
  0
ARC
  8
0
  6
CONTINUOUS
 62
     7
 10
-190.8618
 20
88.642578
 40
5
 50
90.000003
 51
163.32794
  0
ARC
  8
0
  6
CONTINUOUS
 62
     7
 10
-163.14418
 20
88.642578
 40
5
 50
16.67206
 51
90.000003
  0
ARC
  8
0
  6
CONTINUOUS
 62
     7
 10
-54.114697
 20
-29.857422
 40
5
 50
184.58186
 51
270
  0
ARC
  8
0
  6
CONTINUOUS
 62
     7
 10
-23.675924
 20
-29.857422
 40
5
 50
270
 51
355.41814
  0
ARC
  8
0
  6
CONTINUOUS
 62
     7
 10
-51.980999
 20
104.14258
 40
5
 50
90.000003
 51
175.41801
  0
ARC
  8
0
  6
CONTINUOUS
 62
     7
 10
-21.542255
 20
104.14258
 40
5
 50
4.5819919
 51
90.000003
  0
ARC
  8
0
  6
CONTINUOUS
 62
     7
 10
84.901894
 20
-43.357422
 40
5
 50
188.25876
 51
270
  0
ARC
  8
0
  6
CONTINUOUS
 62
     7
 10
117.40742
 20
-43.357422
 40
5
 50
270
 51
351.74124
  0
ARC
  8
0
  6
CONTINUOUS
 62
     7
 10
86.935585
 20
117.64258
 40
5
 50
90.000003
 51
171.7411
  0
ARC
  8
0
  6
CONTINUOUS
 62
     7
 10
119.44111
 20
117.64258
 40
5
 50
8.258894
 51
90.000003
  0
ARC
  8
0
  6
CONTINUOUS
 62
     7
 10
584.52332
 20
158.09171
 40
36.299999
 50
0
 51
180.00001
  0
ARC
  8
0
  6
CONTINUOUS
 62
     7
 10
584.52332
 20
158.09171
 40
41.5
 50
22.677403
 51
90.000003
  0
ARC
  8
0
  6
CONTINUOUS
 62
     7
 10
584.52332
 20
158.09171
 40
50
 50
29.233175
 51
150.76682
  0
ARC
  8
0
  6
CONTINUOUS
 62
     7
 10
645.72864
 20
178.09171
 40
4
 50
243.13444
 51
270
  0
ARC
  8
0
  6
CONTINUOUS
 62
     7
 10
643.55066
 20
162.09171
 40
4
 50
270
 51
303.99286
  0
ARC
  8
0
  6
CONTINUOUS
 62
     7
 10
525.49597
 20
162.09171
 40
4
 50
236.00715
 51
270
  0
ARC
  8
0
  6
CONTINUOUS
 62
     7
 10
523.31793
 20
178.09171
 40
4
 50
270
 51
296.86556
  0
ARC
  8
0
  6
CONTINUOUS
 62
     7
 10
584.52332
 20
158.09171
 40
41.5
 50
89.999996
 51
157.3226
  0
ARC
  8
0
  6
CONTINUOUS
 62
     7
 10
643.55066
 20
154.09171
 40
4
 50
56.007145
 51
90.000003
  0
ARC
  8
0
  6
CONTINUOUS
 62
     7
 10
523.31793
 20
138.09171
 40
4
 50
63.134437
 51
89.999996
  0
ARC
  8
0
  6
CONTINUOUS
 62
     7
 10
525.49597
 20
154.09171
 40
4
 50
89.999996
 51
123.99285
  0
ARC
  8
0
  6
CONTINUOUS
 62
     7
 10
584.52332
 20
158.09171
 40
41.5
 50
202.6774
 51
270
  0
ARC
  8
0
  6
CONTINUOUS
 62
     7
 10
584.52332
 20
158.09171
 40
36.299999
 50
179.99999
 51
1.0017913E-005
  0
ARC
  8
0
  6
CONTINUOUS
 62
     7
 10
584.52332
 20
158.09171
 40
41.5
 50
270
 51
337.3226
  0
ARC
  8
0
  6
CONTINUOUS
 62
     7
 10
584.52332
 20
158.09171
 40
50
 50
209.23318
 51
330.76682
  0
ARC
  8
0
  6
CONTINUOUS
 62
     7
 10
645.72864
 20
138.09171
 40
4
 50
90.000003
 51
116.86556
  0
ARC
  8
0
  6
CONTINUOUS
 62
     7
 10
800.625
 20
154
 40
56.5
 50
32.950813
 51
147.04918
  0
ARC
  8
0
  6
CONTINUOUS
 62
     7
 10
800.625
 20
154
 40
42.599998
 50
0
 51
180.00001
  0
ARC
  8
0
  6
CONTINUOUS
 62
     7
 10
800.625
 20
154
 40
47.5
 50
26.238283
 51
90.000003
  0
ARC
  8
0
  6
CONTINUOUS
 62
     7
 10
868.10815
 20
158
 40
4
 50
270
 51
311.53486
  0
ARC
  8
0
  6
CONTINUOUS
 62
     7
 10
870.69983
 20
180
 40
5
 50
245.73586
 51
270
  0
ARC
  8
0
  6
CONTINUOUS
 62
     7
 10
730.55017
 20
180
 40
5
 50
270
 51
294.26414
  0
ARC
  8
0
  6
CONTINUOUS
 62
     7
 10
800.625
 20
154
 40
47.5
 50
89.999996
 51
153.76172
  0
ARC
  8
0
  6
CONTINUOUS
 62
     7
 10
733.14185
 20
158
 40
4
 50
228.46515
 51
270
  0
ARC
  8
0
  6
CONTINUOUS
 62
     7
 10
730.55017
 20
128
 40
5
 50
65.735858
 51
89.999996
  0
ARC
  8
0
  6
CONTINUOUS
 62
     7
 10
800.625
 20
154
 40
47.5
 50
206.23828
 51
270
  0
ARC
  8
0
  6
CONTINUOUS
 62
     7
 10
733.14185
 20
150
 40
4
 50
89.999996
 51
131.53485
  0
ARC
  8
0
  6
CONTINUOUS
 62
     7
 10
800.625
 20
154
 40
56.5
 50
212.95082
 51
327.04919
  0
ARC
  8
0
  6
CONTINUOUS
 62
     7
 10
800.625
 20
154
 40
42.599998
 50
179.99999
 51
1.0017913E-005
  0
ARC
  8
0
  6
CONTINUOUS
 62
     7
 10
800.625
 20
154
 40
47.5
 50
270
 51
333.76172
  0
ARC
  8
0
  6
CONTINUOUS
 62
     7
 10
868.10815
 20
150
 40
4
 50
48.465144
 51
90.000003
  0
ARC
  8
0
  6
CONTINUOUS
 62
     7
 10
870.69983
 20
128
 40
5
 50
90.000003
 51
114.26414
  0
ARC
  8
0
  6
CONTINUOUS
 62
     7
 10
1127.8964
 20
178.95
 40
5
 50
240.39232
 51
270
  0
ARC
  8
0
  6
CONTINUOUS
 62
     7
 10
1126.1556
 20
156.95
 40
4
 50
270
 51
309.07347
  0
ARC
  8
0
  6
CONTINUOUS
 62
     7
 10
1041.075
 20
152.95
 40
72
 50
27.561782
 51
152.43821
  0
ARC
  8
0
  6
CONTINUOUS
 62
     7
 10
1041.075
 20
152.95
 40
55.200001
 50
0
 51
180.00001
  0
ARC
  8
0
  6
CONTINUOUS
 62
     7
 10
1041.075
 20
152.95
 40
60.5
 50
20.310495
 51
90.000003
  0
ARC
  8
0
  6
CONTINUOUS
 62
     7
 10
1041.075
 20
152.95
 40
60.5
 50
89.999996
 51
159.68951
  0
ARC
  8
0
  6
CONTINUOUS
 62
     7
 10
954.2536
 20
178.95
 40
5
 50
270
 51
299.60768
  0
ARC
  8
0
  6
CONTINUOUS
 62
     7
 10
955.99438
 20
156.95
 40
4
 50
230.92653
 51
270
  0
ARC
  8
0
  6
CONTINUOUS
 62
     7
 10
1041.075
 20
152.95
 40
60.5
 50
200.31049
 51
270
  0
ARC
  8
0
  6
CONTINUOUS
 62
     7
 10
1041.075
 20
152.95
 40
55.200001
 50
179.99999
 51
1.0017913E-005
  0
ARC
  8
0
  6
CONTINUOUS
 62
     7
 10
954.2536
 20
126.95
 40
5
 50
60.392321
 51
89.999996
  0
ARC
  8
0
  6
CONTINUOUS
 62
     7
 10
955.99438
 20
148.95
 40
4
 50
89.999996
 51
129.07347
  0
ARC
  8
0
  6
CONTINUOUS
 62
     7
 10
1041.075
 20
152.95
 40
60.5
 50
270
 51
339.68951
  0
ARC
  8
0
  6
CONTINUOUS
 62
     7
 10
1127.8964
 20
126.95
 40
5
 50
90.000003
 51
119.60768
  0
ARC
  8
0
  6
CONTINUOUS
 62
     7
 10
1126.1556
 20
148.95
 40
4
 50
50.926529
 51
90.000003
  0
ARC
  8
0
  6
CONTINUOUS
 62
     7
 10
1041.075
 20
152.95
 40
72
 50
207.56179
 51
332.43822
  0
ARC
  8
0
  6
CONTINUOUS
 62
     7
 10
612.43427
 20
-98.538277
 40
67.900002
 50
0
 51
180.00001
  0
ARC
  8
0
  6
CONTINUOUS
 62
     7
 10
612.43427
 20
-98.538277
 40
75
 50
21.100196
 51
90.000003
  0
ARC
  8
0
  6
CONTINUOUS
 62
     7
 10
612.43427
 20
-98.538277
 40
85.75
 50
30.129744
 51
149.87025
  0
ARC
  8
0
  6
CONTINUOUS
 62
     7
 10
711.7735
 20
-94.538277
 40
4
 50
270
 51
315.09613
  0
ARC
  8
0
  6
CONTINUOUS
 62
     7
 10
716.1955
 20
-61.538273
 40
10
 50
239.12786
 51
270
  0
ARC
  8
0
  6
CONTINUOUS
 62
     7
 10
612.43427
 20
-98.538277
 40
75
 50
89.999996
 51
158.8998
  0
ARC
  8
0
  6
CONTINUOUS
 62
     7
 10
508.673
 20
-61.538273
 40
10
 50
270
 51
300.87214
  0
ARC
  8
0
  6
CONTINUOUS
 62
     7
 10
513.09503
 20
-94.538277
 40
4
 50
224.90387
 51
270
  0
ARC
  8
0
  6
CONTINUOUS
 62
     7
 10
612.43427
 20
-98.538277
 40
75
 50
201.1002
 51
270
  0
ARC
  8
0
  6
CONTINUOUS
 62
     7
 10
508.673
 20
-135.53827
 40
10
 50
59.127862
 51
89.999996
  0
ARC
  8
0
  6
CONTINUOUS
 62
     7
 10
513.09503
 20
-102.53828
 40
4
 50
89.999996
 51
135.09613
  0
ARC
  8
0
  6
CONTINUOUS
 62
     7
 10
612.43427
 20
-98.538277
 40
85.75
 50
210.12975
 51
329.87026
  0
ARC
  8
0
  6
CONTINUOUS
 62
     7
 10
716.1955
 20
-135.53827
 40
10
 50
90.000003
 51
120.87214
  0
ARC
  8
0
  6
CONTINUOUS
 62
     7
 10
612.43427
 20
-98.538277
 40
75
 50
270
 51
338.8998
  0
ARC
  8
0
  6
CONTINUOUS
 62
     7
 10
711.7735
 20
-102.53828
 40
4
 50
44.903866
 51
90.000003
  0
ARC
  8
0
  6
CONTINUOUS
 62
     7
 10
612.43427
 20
-98.538277
 40
67.900002
 50
179.99999
 51
1.0017913E-005
  0
ARC
  8
0
  6
CONTINUOUS
 62
     7
 10
971.2085
 20
-102.55207
 40
99.5
 50
27.393005
 51
152.607
  0
ARC
  8
0
  6
CONTINUOUS
 62
     7
 10
971.2085
 20
-102.55207
 40
80.599998
 50
0
 51
180.00001
  0
ARC
  8
0
  6
CONTINUOUS
 62
     7
 10
1085.5477
 20
-98.552071
 40
4
 50
270
 51
315.09613
  0
ARC
  8
0
  6
CONTINUOUS
 62
     7
 10
971.2085
 20
-102.55207
 40
87.5
 50
17.97316
 51
90.000003
  0
ARC
  8
0
  6
CONTINUOUS
 62
     7
 10
1090.2826
 20
-65.552071
 40
10
 50
235.8233
 51
270
  0
ARC
  8
0
  6
CONTINUOUS
 62
     7
 10
856.86926
 20
-98.552071
 40
4
 50
224.90387
 51
270
  0
ARC
  8
0
  6
CONTINUOUS
 62
     7
 10
852.13428
 20
-65.552071
 40
10
 50
270
 51
304.1767
  0
ARC
  8
0
  6
CONTINUOUS
 62
     7
 10
971.2085
 20
-102.55207
 40
87.5
 50
89.999996
 51
162.02684
  0
ARC
  8
0
  6
CONTINUOUS
 62
     7
 10
852.13428
 20
-139.55206
 40
10
 50
55.823297
 51
89.999996
  0
ARC
  8
0
  6
CONTINUOUS
 62
     7
 10
856.86926
 20
-106.55207
 40
4
 50
89.999996
 51
135.09613
  0
ARC
  8
0
  6
CONTINUOUS
 62
     7
 10
1090.2826
 20
-139.55206
 40
10
 50
90.000003
 51
124.1767
  0
ARC
  8
0
  6
CONTINUOUS
 62
     7
 10
971.2085
 20
-102.55207
 40
87.5
 50
197.97316
 51
270
  0
ARC
  8
0
  6
CONTINUOUS
 62
     7
 10
971.2085
 20
-102.55207
 40
99.5
 50
207.393
 51
332.607
  0
ARC
  8
0
  6
CONTINUOUS
 62
     7
 10
971.2085
 20
-102.55207
 40
80.599998
 50
179.99999
 51
1.0017913E-005
  0
ARC
  8
0
  6
CONTINUOUS
 62
     7
 10
1085.5477
 20
-106.55207
 40
4
 50
44.903866
 51
90.000003
  0
ARC
  8
0
  6
CONTINUOUS
 62
     7
 10
971.2085
 20
-102.55207
 40
87.5
 50
270
 51
342.02684
  0
ARC
  8
0
  6
CONTINUOUS
 62
     7
 10
-318.46201
 20
25.642578
 40
11
 50
232.53091
 51
270
  0
ARC
  8
0
  6
CONTINUOUS
 62
     7
 10
-322.112
 20
20.880493
 40
5
 50
179.99999
 51
232.53092
  0
ARC
  8
0
  6
CONTINUOUS
 62
     7
 10
-318.46201
 20
25.642578
 40
11
 50
270
 51
307.46909
  0
ARC
  8
0
  6
CONTINUOUS
 62
     7
 10
-314.81201
 20
20.880493
 40
5
 50
307.46909
 51
5.0089561E-006
  0
ARC
  8
0
  6
CONTINUOUS
 62
     7
 10
648.77332
 20
146.59171
 40
11
 50
232.53091
 51
270
  0
ARC
  8
0
  6
CONTINUOUS
 62
     7
 10
645.12329
 20
141.82962
 40
5
 50
202.36914
 51
232.53093
  0
ARC
  8
0
  6
CONTINUOUS
 62
     7
 10
652.42334
 20
141.82962
 40
5
 50
307.46909
 51
5.008956E-006
  0
ARC
  8
0
  6
CONTINUOUS
 62
     7
 10
648.77332
 20
146.59171
 40
11
 50
270
 51
307.46909
  0
ARC
  8
0
  6
CONTINUOUS
 62
     7
 10
-181.90396
 20
15.94278
 40
8
 50
179.99999
 51
242.33599
  0
ARC
  8
0
  6
CONTINUOUS
 62
     7
 10
-178.65396
 20
22.142578
 40
15
 50
270
 51
297.66401
  0
ARC
  8
0
  6
CONTINUOUS
 62
     7
 10
-175.40396
 20
15.94278
 40
8
 50
297.66401
 51
8.6514222E-006
  0
ARC
  8
0
  6
CONTINUOUS
 62
     7
 10
-178.65396
 20
22.142578
 40
15
 50
242.33599
 51
270
  0
ARC
  8
0
  6
CONTINUOUS
 62
     7
 10
1131.575
 20
137.95
 40
15
 50
242.33599
 51
270
  0
ARC
  8
0
  6
CONTINUOUS
 62
     7
 10
1128.325
 20
131.7502
 40
8
 50
202.1505
 51
242.33599
  0
ARC
  8
0
  6
CONTINUOUS
 62
     7
 10
1134.825
 20
131.7502
 40
8
 50
297.66401
 51
8.6514222E-006
  0
ARC
  8
0
  6
CONTINUOUS
 62
     7
 10
1131.575
 20
137.95
 40
15
 50
270
 51
297.66401
  0
ARC
  8
0
  6
CONTINUOUS
 62
     7
 10
950.57501
 20
137.95
 40
15
 50
242.33599
 51
270
  0
ARC
  8
0
  6
CONTINUOUS
 62
     7
 10
947.32501
 20
131.7502
 40
8
 50
179.99999
 51
242.33599
  0
ARC
  8
0
  6
CONTINUOUS
 62
     7
 10
953.82501
 20
131.7502
 40
8
 50
297.66401
 51
337.84962
  0
ARC
  8
0
  6
CONTINUOUS
 62
     7
 10
950.57501
 20
137.95
 40
15
 50
270
 51
297.66401
  0
ARC
  8
0
  6
CONTINUOUS
 62
     7
 10
873.625
 20
139
 40
15
 50
242.33599
 51
270
  0
ARC
  8
0
  6
CONTINUOUS
 62
     7
 10
870.375
 20
132.8002
 40
8
 50
200.74999
 51
242.33599
  0
ARC
  8
0
  6
CONTINUOUS
 62
     7
 10
876.875
 20
132.8002
 40
8
 50
297.66401
 51
8.6514222E-006
  0
ARC
  8
0
  6
CONTINUOUS
 62
     7
 10
873.625
 20
139
 40
15
 50
270
 51
297.66401
  0
ARC
  8
0
  6
CONTINUOUS
 62
     7
 10
237.65161
 20
9.9488525
 40
10
 50
179.99999
 51
244.05553
  0
ARC
  8
0
  6
CONTINUOUS
 62
     7
 10
241.15161
 20
17.142578
 40
18
 50
244.05552
 51
270
  0
ARC
  8
0
  6
CONTINUOUS
 62
     7
 10
241.15161
 20
17.142578
 40
18
 50
270
 51
295.94448
  0
ARC
  8
0
  6
CONTINUOUS
 62
     7
 10
244.65161
 20
9.9488525
 40
10
 50
295.94447
 51
8.6514222E-006
  0
ARC
  8
0
  6
CONTINUOUS
 62
     7
 10
1086.7085
 20
-129.7458
 40
10
 50
214.86774
 51
244.05553
  0
ARC
  8
0
  6
CONTINUOUS
 62
     7
 10
1090.2085
 20
-122.55208
 40
18
 50
244.05552
 51
270
  0
ARC
  8
0
  6
CONTINUOUS
 62
     7
 10
1090.2085
 20
-122.55208
 40
18
 50
270
 51
295.94448
  0
ARC
  8
0
  6
CONTINUOUS
 62
     7
 10
1093.7085
 20
-129.7458
 40
10
 50
295.94447
 51
8.6514222E-006
  0
ARC
  8
0
  6
CONTINUOUS
 62
     7
 10
848.70844
 20
-129.7458
 40
10
 50
179.99999
 51
244.05553
  0
ARC
  8
0
  6
CONTINUOUS
 62
     7
 10
852.20844
 20
-122.55208
 40
18
 50
244.05552
 51
270
  0
ARC
  8
0
  6
CONTINUOUS
 62
     7
 10
852.20844
 20
-122.55208
 40
18
 50
270
 51
295.94448
  0
ARC
  8
0
  6
CONTINUOUS
 62
     7
 10
855.70844
 20
-129.7458
 40
10
 50
295.94447
 51
325.13236
  0
ARC
  8
0
  6
CONTINUOUS
 62
     7
 10
712.9342
 20
-125.732
 40
10
 50
211.38952
 51
244.05553
  0
ARC
  8
0
  6
CONTINUOUS
 62
     7
 10
716.4342
 20
-118.53828
 40
18
 50
244.05552
 51
270
  0
ARC
  8
0
  6
CONTINUOUS
 62
     7
 10
716.4342
 20
-118.53828
 40
18
 50
270
 51
295.94448
  0
ARC
  8
0
  6
CONTINUOUS
 62
     7
 10
719.9342
 20
-125.732
 40
10
 50
295.94447
 51
8.6514222E-006
  0
POLYLINE
  8
0
  6
CONTINUOUS
 62
     7
 66
     1
 10
0
 20
0
  0
VERTEX
  8
0
  6
CONTINUOUS
 62
     7
 10
515.2251
 20
181.73337
 42
0.10382964
  0
VERTEX
  8
0
  6
CONTINUOUS
 62
     7
 10
513.66462
 20
182.96251
 42
0.23738717
  0
VERTEX
  8
0
  6
CONTINUOUS
 62
     7
 10
511.73411
 20
182.96264
 42
0.1038664
  0
VERTEX
  8
0
  6
CONTINUOUS
 62
     7
 10
510.17331
 20
181.73337
 42
0
  0
SEQEND
  8
0
  0
POLYLINE
  8
0
  6
CONTINUOUS
 62
     7
 66
     1
 10
0
 20
0
  0
VERTEX
  8
0
  6
CONTINUOUS
 62
     7
 10
515.2251
 20
175.55005
 42
-0.10382964
  0
VERTEX
  8
0
  6
CONTINUOUS
 62
     7
 10
513.66462
 20
174.32091
 42
-0.23738717
  0
VERTEX
  8
0
  6
CONTINUOUS
 62
     7
 10
511.73411
 20
174.32078
 42
-0.1038664
  0
VERTEX
  8
0
  6
CONTINUOUS
 62
     7
 10
510.17331
 20
175.55005
 42
0
  0
SEQEND
  8
0
  0
POLYLINE
  8
0
  6
CONTINUOUS
 62
     7
 66
     1
 10
0
 20
0
  0
VERTEX
  8
0
  6
CONTINUOUS
 62
     7
 10
515.2251
 20
181.73337
 42
-0.037692077
  0
VERTEX
  8
0
  6
CONTINUOUS
 62
     7
 10
516.81934
 20
182.50238
 42
-0.042616645
  0
VERTEX
  8
0
  6
CONTINUOUS
 62
     7
 10
518.51482
 20
183.00795
 42
-0.050587247
  0
VERTEX
  8
0
  6
CONTINUOUS
 62
     7
 10
520.27332
 20
183.19171
 42
0
  0
SEQEND
  8
0
  0
POLYLINE
  8
0
  6
CONTINUOUS
 62
     7
 66
     1
 10
0
 20
0
  0
VERTEX
  8
0
  6
CONTINUOUS
 62
     7
 10
515.2251
 20
175.55005
 42
0.037692077
  0
VERTEX
  8
0
  6
CONTINUOUS
 62
     7
 10
516.81934
 20
174.78103
 42
0.042616645
  0
VERTEX
  8
0
  6
CONTINUOUS
 62
     7
 10
518.51482
 20
174.27547
 42
0.050587247
  0
VERTEX
  8
0
  6
CONTINUOUS
 62
     7
 10
520.27332
 20
174.09171
 42
0
  0
SEQEND
  8
0
  0
POLYLINE
  8
0
  6
CONTINUOUS
 62
     7
 66
     1
 10
0
 20
0
  0
VERTEX
  8
0
  6
CONTINUOUS
 62
     7
 10
-331.90326
 20
37.142578
 42
-0.041517849
  0
VERTEX
  8
0
  6
CONTINUOUS
 62
     7
 10
-327.76333
 20
42.155948
 42
-0.063435904
  0
VERTEX
  8
0
  6
CONTINUOUS
 62
     7
 10
-322.70911
 20
46.230894
 42
-0.13423638
  0
VERTEX
  8
0
  6
CONTINUOUS
 62
     7
 10
-316.56744
 20
48.142578
 42
0
  0
SEQEND
  8
0
  0
POLYLINE
  8
0
  6
CONTINUOUS
 62
     7
 66
     1
 10
0
 20
0
  0
VERTEX
  8
0
  6
CONTINUOUS
 62
     7
 10
-334.42538
 20
37.142578
 42
0.041518206
  0
VERTEX
  8
0
  6
CONTINUOUS
 62
     7
 10
-330.28544
 20
32.129206
 42
0.063435812
  0
VERTEX
  8
0
  6
CONTINUOUS
 62
     7
 10
-325.23121
 20
28.054262
 42
0.13423603
  0
VERTEX
  8
0
  6
CONTINUOUS
 62
     7
 10
-319.08954
 20
26.142578
 42
0
  0
SEQEND
  8
0
  0
POLYLINE
  8
0
  6
CONTINUOUS
 62
     7
 66
     1
 10
0
 20
0
  0
VERTEX
  8
0
  6
CONTINUOUS
 62
     7
 10
-303.75369
 20
37.142578
 42
-0.041518206
  0
VERTEX
  8
0
  6
CONTINUOUS
 62
     7
 10
-307.89363
 20
32.129206
 42
-0.063435812
  0
VERTEX
  8
0
  6
CONTINUOUS
 62
     7
 10
-312.94787
 20
28.054262
 42
-0.13423603
  0
VERTEX
  8
0
  6
CONTINUOUS
 62
     7
 10
-319.08954
 20
26.142578
 42
0
  0
SEQEND
  8
0
  0
POLYLINE
  8
0
  6
CONTINUOUS
 62
     7
 66
     1
 10
0
 20
0
  0
VERTEX
  8
0
  6
CONTINUOUS
 62
     7
 10
525.32153
 20
181.73337
 42
-0.103829
  0
VERTEX
  8
0
  6
CONTINUOUS
 62
     7
 10
526.88201
 20
182.9625
 42
-0.23738946
  0
VERTEX
  8
0
  6
CONTINUOUS
 62
     7
 10
528.81251
 20
182.96264
 42
-0.10386485
  0
VERTEX
  8
0
  6
CONTINUOUS
 62
     7
 10
530.37329
 20
181.73337
 42
0
  0
SEQEND
  8
0
  0
POLYLINE
  8
0
  6
CONTINUOUS
 62
     7
 66
     1
 10
0
 20
0
  0
VERTEX
  8
0
  6
CONTINUOUS
 62
     7
 10
525.32153
 20
175.55005
 42
0.012264562
  0
VERTEX
  8
0
  6
CONTINUOUS
 62
     7
 10
525.51686
 20
175.33538
 42
0.012582139
  0
VERTEX
  8
0
  6
CONTINUOUS
 62
     7
 10
525.72301
 20
175.13023
 42
0.013358681
  0
VERTEX
  8
0
  6
CONTINUOUS
 62
     7
 10
525.9395
 20
174.93603
 42
0
  0
SEQEND
  8
0
  0
POLYLINE
  8
0
  6
CONTINUOUS
 62
     7
 66
     1
 10
0
 20
0
  0
VERTEX
  8
0
  6
CONTINUOUS
 62
     7
 10
525.32153
 20
181.73337
 42
0.037692077
  0
VERTEX
  8
0
  6
CONTINUOUS
 62
     7
 10
523.72729
 20
182.50238
 42
0.042616645
  0
VERTEX
  8
0
  6
CONTINUOUS
 62
     7
 10
522.03181
 20
183.00795
 42
0.050587247
  0
VERTEX
  8
0
  6
CONTINUOUS
 62
     7
 10
520.27332
 20
183.19171
 42
0
  0
SEQEND
  8
0
  0
POLYLINE
  8
0
  6
CONTINUOUS
 62
     7
 66
     1
 10
0
 20
0
  0
VERTEX
  8
0
  6
CONTINUOUS
 62
     7
 10
525.32153
 20
175.55005
 42
-0.037692077
  0
VERTEX
  8
0
  6
CONTINUOUS
 62
     7
 10
523.72729
 20
174.78103
 42
-0.042616645
  0
VERTEX
  8
0
  6
CONTINUOUS
 62
     7
 10
522.03181
 20
174.27547
 42
-0.050587247
  0
VERTEX
  8
0
  6
CONTINUOUS
 62
     7
 10
520.27332
 20
174.09171
 42
0
  0
SEQEND
  8
0
  0
POLYLINE
  8
0
  6
CONTINUOUS
 62
     7
 66
     1
 10
0
 20
0
  0
VERTEX
  8
0
  6
CONTINUOUS
 62
     7
 10
-301.23163
 20
37.142578
 42
0.041517849
  0
VERTEX
  8
0
  6
CONTINUOUS
 62
     7
 10
-305.37156
 20
42.155948
 42
0.063435904
  0
VERTEX
  8
0
  6
CONTINUOUS
 62
     7
 10
-310.42578
 20
46.230894
 42
0.13423638
  0
VERTEX
  8
0
  6
CONTINUOUS
 62
     7
 10
-316.56744
 20
48.142578
 42
0
  0
SEQEND
  8
0
  0
POLYLINE
  8
0
  6
CONTINUOUS
 62
     7
 66
     1
 10
0
 20
0
  0
VERTEX
  8
0
  6
CONTINUOUS
 62
     7
 10
721.18359
 20
185.45001
 42
0.10383304
  0
VERTEX
  8
0
  6
CONTINUOUS
 62
     7
 10
719.20399
 20
187.00922
 42
0.23738341
  0
VERTEX
  8
0
  6
CONTINUOUS
 62
     7
 10
716.75494
 20
187.0094
 42
0.10386597
  0
VERTEX
  8
0
  6
CONTINUOUS
 62
     7
 10
714.77502
 20
185.45001
 42
0
  0
SEQEND
  8
0
  0
POLYLINE
  8
0
  6
CONTINUOUS
 62
     7
 66
     1
 10
0
 20
0
  0
VERTEX
  8
0
  6
CONTINUOUS
 62
     7
 10
721.18359
 20
185.45001
 42
-0.037569831
  0
VERTEX
  8
0
  6
CONTINUOUS
 62
     7
 10
723.21887
 20
186.42604
 42
-0.042426399
  0
VERTEX
  8
0
  6
CONTINUOUS
 62
     7
 10
725.38217
 20
187.06715
 42
-0.050271197
  0
VERTEX
  8
0
  6
CONTINUOUS
 62
     7
 10
727.625
 20
187.29999
 42
0
  0
SEQEND
  8
0
  0
POLYLINE
  8
0
  6
CONTINUOUS
 62
     7
 66
     1
 10
0
 20
0
  0
VERTEX
  8
0
  6
CONTINUOUS
 62
     7
 10
721.18359
 20
176.85001
 42
-0.10383025
  0
VERTEX
  8
0
  6
CONTINUOUS
 62
     7
 10
719.20399
 20
175.29078
 42
-0.23739069
  0
VERTEX
  8
0
  6
CONTINUOUS
 62
     7
 10
716.75494
 20
175.2906
 42
-0.10386319
  0
VERTEX
  8
0
  6
CONTINUOUS
 62
     7
 10
714.77502
 20
176.85001
 42
0
  0
SEQEND
  8
0
  0
POLYLINE
  8
0
  6
CONTINUOUS
 62
     7
 66
     1
 10
0
 20
0
  0
VERTEX
  8
0
  6
CONTINUOUS
 62
     7
 10
721.18359
 20
176.85001
 42
0.037568432
  0
VERTEX
  8
0
  6
CONTINUOUS
 62
     7
 10
723.21887
 20
175.87397
 42
0.042426292
  0
VERTEX
  8
0
  6
CONTINUOUS
 62
     7
 10
725.38217
 20
175.23284
 42
0.050272693
  0
VERTEX
  8
0
  6
CONTINUOUS
 62
     7
 10
727.625
 20
175
 42
0
  0
SEQEND
  8
0
  0
POLYLINE
  8
0
  6
CONTINUOUS
 62
     7
 66
     1
 10
0
 20
0
  0
VERTEX
  8
0
  6
CONTINUOUS
 62
     7
 10
-192.50299
 20
37.142578
 42
-0.032083747
  0
VERTEX
  8
0
  6
CONTINUOUS
 62
     7
 10
-188.73847
 20
44.178353
 42
-0.054816026
  0
VERTEX
  8
0
  6
CONTINUOUS
 62
     7
 10
-183.88243
 20
50.496838
 42
-0.19120016
  0
VERTEX
  8
0
  6
CONTINUOUS
 62
     7
 10
-177.00299
 20
54.142578
 42
0
  0
SEQEND
  8
0
  0
POLYLINE
  8
0
  6
CONTINUOUS
 62
     7
 66
     1
 10
0
 20
0
  0
VERTEX
  8
0
  6
CONTINUOUS
 62
     7
 10
-194.15396
 20
37.142578
 42
0.032083747
  0
VERTEX
  8
0
  6
CONTINUOUS
 62
     7
 10
-190.38944
 20
30.106803
 42
0.054816026
  0
VERTEX
  8
0
  6
CONTINUOUS
 62
     7
 10
-185.5334
 20
23.788318
 42
0.19120016
  0
VERTEX
  8
0
  6
CONTINUOUS
 62
     7
 10
-178.65396
 20
20.142578
 42
0
  0
SEQEND
  8
0
  0
POLYLINE
  8
0
  6
CONTINUOUS
 62
     7
 66
     1
 10
0
 20
0
  0
VERTEX
  8
0
  6
CONTINUOUS
 62
     7
 10
-163.15396
 20
37.142578
 42
-0.032083747
  0
VERTEX
  8
0
  6
CONTINUOUS
 62
     7
 10
-166.91848
 20
30.106803
 42
-0.054816026
  0
VERTEX
  8
0
  6
CONTINUOUS
 62
     7
 10
-171.77452
 20
23.788318
 42
-0.19120016
  0
VERTEX
  8
0
  6
CONTINUOUS
 62
     7
 10
-178.65396
 20
20.142578
 42
0
  0
SEQEND
  8
0
  0
POLYLINE
  8
0
  6
CONTINUOUS
 62
     7
 66
     1
 10
0
 20
0
  0
VERTEX
  8
0
  6
CONTINUOUS
 62
     7
 10
-161.50299
 20
37.142578
 42
0.032084056
  0
VERTEX
  8
0
  6
CONTINUOUS
 62
     7
 10
-165.26752
 20
44.178356
 42
0.054816037
  0
VERTEX
  8
0
  6
CONTINUOUS
 62
     7
 10
-170.12357
 20
50.496839
 42
0.19119972
  0
VERTEX
  8
0
  6
CONTINUOUS
 62
     7
 10
-177.00302
 20
54.142578
 42
0
  0
SEQEND
  8
0
  0
POLYLINE
  8
0
  6
CONTINUOUS
 62
     7
 66
     1
 10
0
 20
0
  0
VERTEX
  8
0
  6
CONTINUOUS
 62
     7
 10
734.06641
 20
185.45001
 42
-0.10383304
  0
VERTEX
  8
0
  6
CONTINUOUS
 62
     7
 10
736.04601
 20
187.00922
 42
-0.23738341
  0
VERTEX
  8
0
  6
CONTINUOUS
 62
     7
 10
738.49506
 20
187.0094
 42
-0.10386597
  0
VERTEX
  8
0
  6
CONTINUOUS
 62
     7
 10
740.47498
 20
185.45001
 42
0
  0
SEQEND
  8
0
  0
POLYLINE
  8
0
  6
CONTINUOUS
 62
     7
 66
     1
 10
0
 20
0
  0
VERTEX
  8
0
  6
CONTINUOUS
 62
     7
 10
734.06641
 20
185.45001
 42
0.037569831
  0
VERTEX
  8
0
  6
CONTINUOUS
 62
     7
 10
732.03113
 20
186.42604
 42
0.042426399
  0
VERTEX
  8
0
  6
CONTINUOUS
 62
     7
 10
729.86783
 20
187.06715
 42
0.050271197
  0
VERTEX
  8
0
  6
CONTINUOUS
 62
     7
 10
727.625
 20
187.29999
 42
0
  0
SEQEND
  8
0
  0
POLYLINE
  8
0
  6
CONTINUOUS
 62
     7
 66
     1
 10
0
 20
0
  0
VERTEX
  8
0
  6
CONTINUOUS
 62
     7
 10
734.06641
 20
176.85001
 42
0.0080456026
  0
VERTEX
  8
0
  6
CONTINUOUS
 62
     7
 10
734.22747
 20
176.66997
 42
0.0081122587
  0
VERTEX
  8
0
  6
CONTINUOUS
 62
     7
 10
734.39463
 20
176.49484
 42
0.0082887096
  0
VERTEX
  8
0
  6
CONTINUOUS
 62
     7
 10
734.56708
 20
176.32563
 42
0
  0
SEQEND
  8
0
  0
POLYLINE
  8
0
  6
CONTINUOUS
 62
     7
 66
     1
 10
0
 20
0
  0
VERTEX
  8
0
  6
CONTINUOUS
 62
     7
 10
734.06641
 20
176.85001
 42
-0.037568432
  0
VERTEX
  8
0
  6
CONTINUOUS
 62
     7
 10
732.03113
 20
175.87397
 42
-0.042426292
  0
VERTEX
  8
0
  6
CONTINUOUS
 62
     7
 10
729.86783
 20
175.23284
 42
-0.050272693
  0
VERTEX
  8
0
  6
CONTINUOUS
 62
     7
 10
727.625
 20
175
 42
0
  0
SEQEND
  8
0
  0
POLYLINE
  8
0
  6
CONTINUOUS
 62
     7
 66
     1
 10
0
 20
0
  0
VERTEX
  8
0
  6
CONTINUOUS
 62
     7
 10
-45.336765
 20
59.992584
 42
-0.10383042
  0
VERTEX
  8
0
  6
CONTINUOUS
 62
     7
 10
-47.316359
 20
58.433345
 42
-0.23738651
  0
VERTEX
  8
0
  6
CONTINUOUS
 62
     7
 10
-49.765358
 20
58.43317
 42
-0.10386627
  0
VERTEX
  8
0
  6
CONTINUOUS
 62
     7
 10
-51.745335
 20
59.992584
 42
0
  0
SEQEND
  8
0
  0
POLYLINE
  8
0
  6
CONTINUOUS
 62
     7
 66
     1
 10
0
 20
0
  0
VERTEX
  8
0
  6
CONTINUOUS
 62
     7
 10
-45.336765
 20
68.59259
 42
0.10383042
  0
VERTEX
  8
0
  6
CONTINUOUS
 62
     7
 10
-47.316359
 20
70.151829
 42
0.23738651
  0
VERTEX
  8
0
  6
CONTINUOUS
 62
     7
 10
-49.765358
 20
70.152004
 42
0.10386627
  0
VERTEX
  8
0
  6
CONTINUOUS
 62
     7
 10
-51.745335
 20
68.59259
 42
0
  0
SEQEND
  8
0
  0
POLYLINE
  8
0
  6
CONTINUOUS
 62
     7
 66
     1
 10
0
 20
0
  0
VERTEX
  8
0
  6
CONTINUOUS
 62
     7
 10
-45.336765
 20
68.59259
 42
-0.037568999
  0
VERTEX
  8
0
  6
CONTINUOUS
 62
     7
 10
-43.301481
 20
69.568627
 42
-0.042425947
  0
VERTEX
  8
0
  6
CONTINUOUS
 62
     7
 10
-41.138169
 20
70.209751
 42
-0.050272402
  0
VERTEX
  8
0
  6
CONTINUOUS
 62
     7
 10
-38.895329
 20
70.442596
 42
0
  0
SEQEND
  8
0
  0
POLYLINE
  8
0
  6
CONTINUOUS
 62
     7
 66
     1
 10
0
 20
0
  0
VERTEX
  8
0
  6
CONTINUOUS
 62
     7
 10
-45.336765
 20
59.992584
 42
0.037568999
  0
VERTEX
  8
0
  6
CONTINUOUS
 62
     7
 10
-43.301481
 20
59.016547
 42
0.042425947
  0
VERTEX
  8
0
  6
CONTINUOUS
 62
     7
 10
-41.138169
 20
58.375423
 42
0.050272402
  0
VERTEX
  8
0
  6
CONTINUOUS
 62
     7
 10
-38.895329
 20
58.142578
 42
0
  0
SEQEND
  8
0
  0
POLYLINE
  8
0
  6
CONTINUOUS
 62
     7
 66
     1
 10
0
 20
0
  0
VERTEX
  8
0
  6
CONTINUOUS
 62
     7
 10
-52.761631
 20
37.142578
 42
-0.035905209
  0
VERTEX
  8
0
  6
CONTINUOUS
 62
     7
 10
-48.725031
 20
43.569649
 42
-0.059401837
  0
VERTEX
  8
0
  6
CONTINUOUS
 62
     7
 10
-43.604897
 20
49.157069
 42
-0.17037278
  0
VERTEX
  8
0
  6
CONTINUOUS
 62
     7
 10
-36.77994
 20
52.142554
 42
0
  0
SEQEND
  8
0
  0
POLYLINE
  8
0
  6
CONTINUOUS
 62
     7
 66
     1
 10
0
 20
0
  0
VERTEX
  8
0
  6
CONTINUOUS
 62
     7
 10
-54.895329
 20
37.142578
 42
0.035941098
  0
VERTEX
  8
0
  6
CONTINUOUS
 62
     7
 10
-50.854726
 20
30.710087
 42
0.059519785
  0
VERTEX
  8
0
  6
CONTINUOUS
 62
     7
 10
-45.728212
 20
25.119494
 42
0.17091942
  0
VERTEX
  8
0
  6
CONTINUOUS
 62
     7
 10
-38.895329
 20
22.142578
 42
0
  0
SEQEND
  8
0
  0
POLYLINE
  8
0
  6
CONTINUOUS
 62
     7
 66
     1
 10
0
 20
0
  0
VERTEX
  8
0
  6
CONTINUOUS
 62
     7
 10
-32.453892
 20
68.59259
 42
-0.10383045
  0
VERTEX
  8
0
  6
CONTINUOUS
 62
     7
 10
-30.474298
 20
70.151829
 42
-0.23738653
  0
VERTEX
  8
0
  6
CONTINUOUS
 62
     7
 10
-28.025297
 20
70.152004
 42
-0.10386625
  0
VERTEX
  8
0
  6
CONTINUOUS
 62
     7
 10
-26.045321
 20
68.59259
 42
0
  0
SEQEND
  8
0
  0
POLYLINE
  8
0
  6
CONTINUOUS
 62
     7
 66
     1
 10
0
 20
0
  0
VERTEX
  8
0
  6
CONTINUOUS
 62
     7
 10
-32.453892
 20
68.59259
 42
0.037568999
  0
VERTEX
  8
0
  6
CONTINUOUS
 62
     7
 10
-34.489176
 20
69.568627
 42
0.042425947
  0
VERTEX
  8
0
  6
CONTINUOUS
 62
     7
 10
-36.652488
 20
70.209751
 42
0.050272402
  0
VERTEX
  8
0
  6
CONTINUOUS
 62
     7
 10
-38.895329
 20
70.442596
 42
0
  0
SEQEND
  8
0
  0
POLYLINE
  8
0
  6
CONTINUOUS
 62
     7
 66
     1
 10
0
 20
0
  0
VERTEX
  8
0
  6
CONTINUOUS
 62
     7
 10
-32.453892
 20
59.992584
 42
-0.037568999
  0
VERTEX
  8
0
  6
CONTINUOUS
 62
     7
 10
-34.489176
 20
59.016547
 42
-0.042425947
  0
VERTEX
  8
0
  6
CONTINUOUS
 62
     7
 10
-36.652488
 20
58.375423
 42
-0.050272402
  0
VERTEX
  8
0
  6
CONTINUOUS
 62
     7
 10
-38.895329
 20
58.142578
 42
0
  0
SEQEND
  8
0
  0
POLYLINE
  8
0
  6
CONTINUOUS
 62
     7
 66
     1
 10
0
 20
0
  0
VERTEX
  8
0
  6
CONTINUOUS
 62
     7
 10
-32.453892
 20
59.992584
 42
0.10383045
  0
VERTEX
  8
0
  6
CONTINUOUS
 62
     7
 10
-30.474298
 20
58.433346
 42
0.23738653
  0
VERTEX
  8
0
  6
CONTINUOUS
 62
     7
 10
-28.025297
 20
58.433171
 42
0.10386625
  0
VERTEX
  8
0
  6
CONTINUOUS
 62
     7
 10
-26.045321
 20
59.992584
 42
0
  0
SEQEND
  8
0
  0
POLYLINE
  8
0
  6
CONTINUOUS
 62
     7
 66
     1
 10
0
 20
0
  0
VERTEX
  8
0
  6
CONTINUOUS
 62
     7
 10
-22.895311
 20
37.142578
 42
-0.035941279
  0
VERTEX
  8
0
  6
CONTINUOUS
 62
     7
 10
-26.935919
 20
30.710086
 42
-0.059519772
  0
VERTEX
  8
0
  6
CONTINUOUS
 62
     7
 10
-32.06244
 20
25.119494
 42
-0.1709192
  0
VERTEX
  8
0
  6
CONTINUOUS
 62
     7
 10
-38.895329
 20
22.142578
 42
0
  0
SEQEND
  8
0
  0
POLYLINE
  8
0
  6
CONTINUOUS
 62
     7
 66
     1
 10
0
 20
0
  0
VERTEX
  8
0
  6
CONTINUOUS
 62
     7
 10
-20.761644
 20
37.142578
 42
0.035905069
  0
VERTEX
  8
0
  6
CONTINUOUS
 62
     7
 10
-24.798241
 20
43.569648
 42
0.059401847
  0
VERTEX
  8
0
  6
CONTINUOUS
 62
     7
 10
-29.918368
 20
49.157068
 42
0.17037296
  0
VERTEX
  8
0
  6
CONTINUOUS
 62
     7
 10
-36.743322
 20
52.142554
 42
0
  0
SEQEND
  8
0
  0
POLYLINE
  8
0
  6
CONTINUOUS
 62
     7
 66
     1
 10
0
 20
0
  0
VERTEX
  8
0
  6
CONTINUOUS
 62
     7
 10
93.348892
 20
77.392578
 42
-0.037645514
  0
VERTEX
  8
0
  6
CONTINUOUS
 62
     7
 10
95.814462
 20
78.579278
 42
-0.042545111
  0
VERTEX
  8
0
  6
CONTINUOUS
 62
     7
 10
98.436049
 20
79.359187
 42
-0.050468053
  0
VERTEX
  8
0
  6
CONTINUOUS
 62
     7
 10
101.15466
 20
79.642578
 42
0
  0
SEQEND
  8
0
  0
POLYLINE
  8
0
  6
CONTINUOUS
 62
     7
 66
     1
 10
0
 20
0
  0
VERTEX
  8
0
  6
CONTINUOUS
 62
     7
 10
93.348892
 20
66.392578
 42
-0.10378446
  0
VERTEX
  8
0
  6
CONTINUOUS
 62
     7
 10
90.942233
 20
64.49665
 42
-0.23752977
  0
VERTEX
  8
0
  6
CONTINUOUS
 62
     7
 10
87.961736
 20
64.496463
 42
-0.10380915
  0
VERTEX
  8
0
  6
CONTINUOUS
 62
     7
 10
85.554657
 20
66.392578
 42
0
  0
SEQEND
  8
0
  0
POLYLINE
  8
0
  6
CONTINUOUS
 62
     7
 66
     1
 10
0
 20
0
  0
VERTEX
  8
0
  6
CONTINUOUS
 62
     7
 10
93.348892
 20
77.392578
 42
0.10378446
  0
VERTEX
  8
0
  6
CONTINUOUS
 62
     7
 10
90.942233
 20
79.288506
 42
0.23752977
  0
VERTEX
  8
0
  6
CONTINUOUS
 62
     7
 10
87.961736
 20
79.288693
 42
0.10380915
  0
VERTEX
  8
0
  6
CONTINUOUS
 62
     7
 10
85.554657
 20
77.392578
 42
0
  0
SEQEND
  8
0
  0
POLYLINE
  8
0
  6
CONTINUOUS
 62
     7
 66
     1
 10
0
 20
0
  0
VERTEX
  8
0
  6
CONTINUOUS
 62
     7
 10
93.348892
 20
66.392578
 42
0.037645514
  0
VERTEX
  8
0
  6
CONTINUOUS
 62
     7
 10
95.814462
 20
65.205878
 42
0.042545111
  0
VERTEX
  8
0
  6
CONTINUOUS
 62
     7
 10
98.436049
 20
64.425969
 42
0.050468053
  0
VERTEX
  8
0
  6
CONTINUOUS
 62
     7
 10
101.15466
 20
64.142578
 42
0
  0
SEQEND
  8
0
  0
POLYLINE
  8
0
  6
CONTINUOUS
 62
     7
 66
     1
 10
0
 20
0
  0
VERTEX
  8
0
  6
CONTINUOUS
 62
     7
 10
84.188354
 20
37.142578
 42
-0.032493104
  0
VERTEX
  8
0
  6
CONTINUOUS
 62
     7
 10
88.821464
 20
45.657886
 42
-0.055366916
  0
VERTEX
  8
0
  6
CONTINUOUS
 62
     7
 10
94.788907
 20
53.280967
 42
-0.18921746
  0
VERTEX
  8
0
  6
CONTINUOUS
 62
     7
 10
103.18835
 20
57.642578
 42
0
  0
SEQEND
  8
0
  0
POLYLINE
  8
0
  6
CONTINUOUS
 62
     7
 66
     1
 10
0
 20
0
  0
VERTEX
  8
0
  6
CONTINUOUS
 62
     7
 10
82.154663
 20
37.142578
 42
0.032493104
  0
VERTEX
  8
0
  6
CONTINUOUS
 62
     7
 10
86.787772
 20
28.62727
 42
0.055366916
  0
VERTEX
  8
0
  6
CONTINUOUS
 62
     7
 10
92.755216
 20
21.004189
 42
0.18921746
  0
VERTEX
  8
0
  6
CONTINUOUS
 62
     7
 10
101.15466
 20
16.642578
 42
0
  0
SEQEND
  8
0
  0
POLYLINE
  8
0
  6
CONTINUOUS
 62
     7
 66
     1
 10
0
 20
0
  0
VERTEX
  8
0
  6
CONTINUOUS
 62
     7
 10
120.15466
 20
37.142578
 42
-0.032493104
  0
VERTEX
  8
0
  6
CONTINUOUS
 62
     7
 10
115.52155
 20
28.62727
 42
-0.055366916
  0
VERTEX
  8
0
  6
CONTINUOUS
 62
     7
 10
109.55411
 20
21.004189
 42
-0.18921746
  0
VERTEX
  8
0
  6
CONTINUOUS
 62
     7
 10
101.15466
 20
16.642578
 42
0
  0
SEQEND
  8
0
  0
POLYLINE
  8
0
  6
CONTINUOUS
 62
     7
 66
     1
 10
0
 20
0
  0
VERTEX
  8
0
  6
CONTINUOUS
 62
     7
 10
122.18835
 20
37.142578
 42
0.032493041
  0
VERTEX
  8
0
  6
CONTINUOUS
 62
     7
 10
117.55524
 20
45.657886
 42
0.055366915
  0
VERTEX
  8
0
  6
CONTINUOUS
 62
     7
 10
111.5878
 20
53.280967
 42
0.18921755
  0
VERTEX
  8
0
  6
CONTINUOUS
 62
     7
 10
103.18835
 20
57.642578
 42
0
  0
SEQEND
  8
0
  0
POLYLINE
  8
0
  6
CONTINUOUS
 62
     7
 66
     1
 10
0
 20
0
  0
VERTEX
  8
0
  6
CONTINUOUS
 62
     7
 10
108.96043
 20
77.392578
 42
0.037645514
  0
VERTEX
  8
0
  6
CONTINUOUS
 62
     7
 10
106.49486
 20
78.579278
 42
0.042545111
  0
VERTEX
  8
0
  6
CONTINUOUS
 62
     7
 10
103.87328
 20
79.359187
 42
0.050468053
  0
VERTEX
  8
0
  6
CONTINUOUS
 62
     7
 10
101.15466
 20
79.642578
 42
0
  0
SEQEND
  8
0
  0
POLYLINE
  8
0
  6
CONTINUOUS
 62
     7
 66
     1
 10
0
 20
0
  0
VERTEX
  8
0
  6
CONTINUOUS
 62
     7
 10
108.96043
 20
66.392578
 42
0.10378446
  0
VERTEX
  8
0
  6
CONTINUOUS
 62
     7
 10
111.36709
 20
64.49665
 42
0.23752977
  0
VERTEX
  8
0
  6
CONTINUOUS
 62
     7
 10
114.34759
 20
64.496463
 42
0.10380915
  0
VERTEX
  8
0
  6
CONTINUOUS
 62
     7
 10
116.75467
 20
66.392578
 42
0
  0
SEQEND
  8
0
  0
POLYLINE
  8
0
  6
CONTINUOUS
 62
     7
 66
     1
 10
0
 20
0
  0
VERTEX
  8
0
  6
CONTINUOUS
 62
     7
 10
108.96043
 20
77.392578
 42
-0.10378446
  0
VERTEX
  8
0
  6
CONTINUOUS
 62
     7
 10
111.36709
 20
79.288506
 42
-0.23752977
  0
VERTEX
  8
0
  6
CONTINUOUS
 62
     7
 10
114.34759
 20
79.288693
 42
-0.10380915
  0
VERTEX
  8
0
  6
CONTINUOUS
 62
     7
 10
116.75467
 20
77.392578
 42
0
  0
SEQEND
  8
0
  0
POLYLINE
  8
0
  6
CONTINUOUS
 62
     7
 66
     1
 10
0
 20
0
  0
VERTEX
  8
0
  6
CONTINUOUS
 62
     7
 10
108.96043
 20
66.392578
 42
-0.037645514
  0
VERTEX
  8
0
  6
CONTINUOUS
 62
     7
 10
106.49486
 20
65.205878
 42
-0.042545111
  0
VERTEX
  8
0
  6
CONTINUOUS
 62
     7
 10
103.87328
 20
64.425969
 42
-0.050468053
  0
VERTEX
  8
0
  6
CONTINUOUS
 62
     7
 10
101.15466
 20
64.142578
 42
0
  0
SEQEND
  8
0
  0
POLYLINE
  8
0
  6
CONTINUOUS
 62
     7
 66
     1
 10
0
 20
0
  0
VERTEX
  8
0
  6
CONTINUOUS
 62
     7
 10
500.62851
 20
-58.288273
 42
0.10378463
  0
VERTEX
  8
0
  6
CONTINUOUS
 62
     7
 10
498.22184
 20
-56.392346
 42
0.23752989
  0
VERTEX
  8
0
  6
CONTINUOUS
 62
     7
 10
495.24134
 20
-56.392159
 42
0.10380902
  0
VERTEX
  8
0
  6
CONTINUOUS
 62
     7
 10
492.83426
 20
-58.288273
 42
0
  0
SEQEND
  8
0
  0
POLYLINE
  8
0
  6
CONTINUOUS
 62
     7
 66
     1
 10
0
 20
0
  0
VERTEX
  8
0
  6
CONTINUOUS
 62
     7
 10
500.62851
 20
-69.288269
 42
-0.10378463
  0
VERTEX
  8
0
  6
CONTINUOUS
 62
     7
 10
498.22184
 20
-71.184195
 42
-0.23752989
  0
VERTEX
  8
0
  6
CONTINUOUS
 62
     7
 10
495.24134
 20
-71.184383
 42
-0.10380902
  0
VERTEX
  8
0
  6
CONTINUOUS
 62
     7
 10
492.83426
 20
-69.288269
 42
0
  0
SEQEND
  8
0
  0
POLYLINE
  8
0
  6
CONTINUOUS
 62
     7
 66
     1
 10
0
 20
0
  0
VERTEX
  8
0
  6
CONTINUOUS
 62
     7
 10
500.62851
 20
-58.288273
 42
-0.03764528
  0
VERTEX
  8
0
  6
CONTINUOUS
 62
     7
 10
503.09407
 20
-57.101573
 42
-0.042545253
  0
VERTEX
  8
0
  6
CONTINUOUS
 62
     7
 10
505.71566
 20
-56.321664
 42
-0.050468174
  0
VERTEX
  8
0
  6
CONTINUOUS
 62
     7
 10
508.43427
 20
-56.038273
 42
0
  0
SEQEND
  8
0
  0
POLYLINE
  8
0
  6
CONTINUOUS
 62
     7
 66
     1
 10
0
 20
0
  0
VERTEX
  8
0
  6
CONTINUOUS
 62
     7
 10
500.62851
 20
-69.288269
 42
0.03764528
  0
VERTEX
  8
0
  6
CONTINUOUS
 62
     7
 10
503.09407
 20
-70.474969
 42
0.042545253
  0
VERTEX
  8
0
  6
CONTINUOUS
 62
     7
 10
505.71566
 20
-71.254878
 42
0.050468174
  0
VERTEX
  8
0
  6
CONTINUOUS
 62
     7
 10
508.43427
 20
-71.538269
 42
0
  0
SEQEND
  8
0
  0
POLYLINE
  8
0
  6
CONTINUOUS
 62
     7
 66
     1
 10
0
 20
0
  0
VERTEX
  8
0
  6
CONTINUOUS
 62
     7
 10
224.19141
 20
37.142578
 42
-0.032472351
  0
VERTEX
  8
0
  6
CONTINUOUS
 62
     7
 10
228.82157
 20
45.653255
 42
-0.055293305
  0
VERTEX
  8
0
  6
CONTINUOUS
 62
     7
 10
234.78413
 20
53.273273
 42
-0.18873717
  0
VERTEX
  8
0
  6
CONTINUOUS
 62
     7
 10
243.17605
 20
57.642569
 42
0
  0
SEQEND
  8
0
  0
POLYLINE
  8
0
  6
CONTINUOUS
 62
     7
 66
     1
 10
0
 20
0
  0
VERTEX
  8
0
  6
CONTINUOUS
 62
     7
 10
222.15161
 20
37.142578
 42
0.032493104
  0
VERTEX
  8
0
  6
CONTINUOUS
 62
     7
 10
226.78472
 20
28.62727
 42
0.055366916
  0
VERTEX
  8
0
  6
CONTINUOUS
 62
     7
 10
232.75216
 20
21.004189
 42
0.18921746
  0
VERTEX
  8
0
  6
CONTINUOUS
 62
     7
 10
241.15161
 20
16.642578
 42
0
  0
SEQEND
  8
0
  0
POLYLINE
  8
0
  6
CONTINUOUS
 62
     7
 66
     1
 10
0
 20
0
  0
VERTEX
  8
0
  6
CONTINUOUS
 62
     7
 10
260.15161
 20
37.142578
 42
-0.032493104
  0
VERTEX
  8
0
  6
CONTINUOUS
 62
     7
 10
255.5185
 20
28.62727
 42
-0.055366916
  0
VERTEX
  8
0
  6
CONTINUOUS
 62
     7
 10
249.55106
 20
21.004189
 42
-0.18921746
  0
VERTEX
  8
0
  6
CONTINUOUS
 62
     7
 10
241.15161
 20
16.642578
 42
0
  0
SEQEND
  8
0
  0
POLYLINE
  8
0
  6
CONTINUOUS
 62
     7
 66
     1
 10
0
 20
0
  0
VERTEX
  8
0
  6
CONTINUOUS
 62
     7
 10
516.24005
 20
-58.288273
 42
-0.10378388
  0
VERTEX
  8
0
  6
CONTINUOUS
 62
     7
 10
518.6467
 20
-56.392346
 42
-0.23753115
  0
VERTEX
  8
0
  6
CONTINUOUS
 62
     7
 10
521.62719
 20
-56.392159
 42
-0.10380826
  0
VERTEX
  8
0
  6
CONTINUOUS
 62
     7
 10
524.03424
 20
-58.288273
 42
0
  0
SEQEND
  8
0
  0
POLYLINE
  8
0
  6
CONTINUOUS
 62
     7
 66
     1
 10
0
 20
0
  0
VERTEX
  8
0
  6
CONTINUOUS
 62
     7
 10
516.24005
 20
-58.288273
 42
0.037645749
  0
VERTEX
  8
0
  6
CONTINUOUS
 62
     7
 10
513.77448
 20
-57.101572
 42
0.042544968
  0
VERTEX
  8
0
  6
CONTINUOUS
 62
     7
 10
511.15288
 20
-56.321664
 42
0.050467933
  0
VERTEX
  8
0
  6
CONTINUOUS
 62
     7
 10
508.43427
 20
-56.038273
 42
0
  0
SEQEND
  8
0
  0
POLYLINE
  8
0
  6
CONTINUOUS
 62
     7
 66
     1
 10
0
 20
0
  0
VERTEX
  8
0
  6
CONTINUOUS
 62
     7
 10
516.24005
 20
-69.288269
 42
-0.037645749
  0
VERTEX
  8
0
  6
CONTINUOUS
 62
     7
 10
513.77448
 20
-70.474969
 42
-0.042544968
  0
VERTEX
  8
0
  6
CONTINUOUS
 62
     7
 10
511.15288
 20
-71.254878
 42
-0.050467933
  0
VERTEX
  8
0
  6
CONTINUOUS
 62
     7
 10
508.43427
 20
-71.538269
 42
0
  0
SEQEND
  8
0
  0
POLYLINE
  8
0
  6
CONTINUOUS
 62
     7
 66
     1
 10
0
 20
0
  0
VERTEX
  8
0
  6
CONTINUOUS
 62
     7
 10
262.19141
 20
37.142578
 42
0.032472351
  0
VERTEX
  8
0
  6
CONTINUOUS
 62
     7
 10
257.56124
 20
45.653255
 42
0.055293305
  0
VERTEX
  8
0
  6
CONTINUOUS
 62
     7
 10
251.59868
 20
53.273273
 42
0.18873717
  0
VERTEX
  8
0
  6
CONTINUOUS
 62
     7
 10
243.20677
 20
57.642569
 42
0
  0
SEQEND
  8
0
  0
POLYLINE
  8
0
  6
CONTINUOUS
 62
     7
 66
     1
 10
0
 20
0
  0
VERTEX
  8
0
  6
CONTINUOUS
 62
     7
 10
-321.9285
 20
-592.70856
 42
0.094357875
  0
VERTEX
  8
0
  6
CONTINUOUS
 62
     7
 10
-322.1744
 20
-592.75615
 42
0.076363446
  0
VERTEX
  8
0
  6
CONTINUOUS
 62
     7
 10
-322.39074
 20
-592.88408
 42
0.057344739
  0
VERTEX
  8
0
  6
CONTINUOUS
 62
     7
 10
-322.56653
 20
-593.06504
 42
0.043960773
  0
VERTEX
  8
0
  6
CONTINUOUS
 62
     7
 10
-322.70265
 20
-593.2774
 42
0.035774105
  0
VERTEX
  8
0
  6
CONTINUOUS
 62
     7
 10
-322.80397
 20
-593.50949
 42
0.030714604
  0
VERTEX
  8
0
  6
CONTINUOUS
 62
     7
 10
-322.87376
 20
-593.75278
 42
0.027859478
  0
VERTEX
  8
0
  6
CONTINUOUS
 62
     7
 10
-322.91477
 20
-594.00261
 42
0.026556886
  0
VERTEX
  8
0
  6
CONTINUOUS
 62
     7
 10
-322.9285
 20
-594.25545
 42
0.02649613
  0
VERTEX
  8
0
  6
CONTINUOUS
 62
     7
 10
-322.91547
 20
-594.50791
 42
0.027777701
  0
VERTEX
  8
0
  6
CONTINUOUS
 62
     7
 10
-322.87524
 20
-594.75762
 42
0.030632229
  0
VERTEX
  8
0
  6
CONTINUOUS
 62
     7
 10
-322.80621
 20
-595.00131
 42
0.035672593
  0
VERTEX
  8
0
  6
CONTINUOUS
 62
     7
 10
-322.70555
 20
-595.2342
 42
0.044044986
  0
VERTEX
  8
0
  6
CONTINUOUS
 62
     7
 10
-322.56926
 20
-595.44857
 42
0.057472611
  0
VERTEX
  8
0
  6
CONTINUOUS
 62
     7
 10
-322.39294
 20
-595.63127
 42
0.076734942
  0
VERTEX
  8
0
  6
CONTINUOUS
 62
     7
 10
-322.17543
 20
-595.76059
 42
0.094752917
  0
VERTEX
  8
0
  6
CONTINUOUS
 62
     7
 10
-321.9285
 20
-595.80859
 42
0
  0
SEQEND
  8
0
  0
POLYLINE
  8
0
  6
CONTINUOUS
 62
     7
 66
     1
 10
0
 20
0
  0
VERTEX
  8
0
  6
CONTINUOUS
 62
     7
 10
-321.21337
 20
-593.17511
 42
0.0098701443
  0
VERTEX
  8
0
  6
CONTINUOUS
 62
     7
 10
-321.24406
 20
-593.1285
 42
0.01042826
  0
VERTEX
  8
0
  6
CONTINUOUS
 62
     7
 10
-321.27661
 20
-593.08316
 42
0.011046822
  0
VERTEX
  8
0
  6
CONTINUOUS
 62
     7
 10
-321.31109
 20
-593.03926
 42
0.011730134
  0
VERTEX
  8
0
  6
CONTINUOUS
 62
     7
 10
-321.34752
 20
-592.99698
 42
0.012481475
  0
VERTEX
  8
0
  6
CONTINUOUS
 62
     7
 10
-321.38596
 20
-592.9565
 42
0.013302267
  0
VERTEX
  8
0
  6
CONTINUOUS
 62
     7
 10
-321.42643
 20
-592.91807
 42
0.014190894
  0
VERTEX
  8
0
  6
CONTINUOUS
 62
     7
 10
-321.46895
 20
-592.88192
 42
0.015141162
  0
VERTEX
  8
0
  6
CONTINUOUS
 62
     7
 10
-321.51351
 20
-592.84832
 42
0.016140437
  0
VERTEX
  8
0
  6
CONTINUOUS
 62
     7
 10
-321.56008
 20
-592.81758
 42
0.017167661
  0
VERTEX
  8
0
  6
CONTINUOUS
 62
     7
 10
-321.60858
 20
-592.79001
 42
0.01819166
  0
VERTEX
  8
0
  6
CONTINUOUS
 62
     7
 10
-321.6589
 20
-592.76595
 42
0.019170499
  0
VERTEX
  8
0
  6
CONTINUOUS
 62
     7
 10
-321.71087
 20
-592.74571
 42
0.02005279
  0
VERTEX
  8
0
  6
CONTINUOUS
 62
     7
 10
-321.76426
 20
-592.7296
 42
0.021419541
  0
VERTEX
  8
0
  6
CONTINUOUS
 62
     7
 10
-321.82043
 20
-592.71763
 42
0.021642221
  0
VERTEX
  8
0
  6
CONTINUOUS
 62
     7
 10
-321.8766
 20
-592.71065
 42
0.021494383
  0
VERTEX
  8
0
  6
CONTINUOUS
 62
     7
 10
-321.93208
 20
-592.70857
 42
0
  0
SEQEND
  8
0
  0
POLYLINE
  8
0
  6
CONTINUOUS
 62
     7
 66
     1
 10
0
 20
0
  0
VERTEX
  8
0
  6
CONTINUOUS
 62
     7
 10
-32.828495
 20
-637.60358
 42
0.037835354
  0
VERTEX
  8
0
  6
CONTINUOUS
 62
     7
 10
-32.998768
 20
-637.6165
 42
0.036861058
  0
VERTEX
  8
0
  6
CONTINUOUS
 62
     7
 10
-33.165763
 20
-637.65479
 42
0.03499016
  0
VERTEX
  8
0
  6
CONTINUOUS
 62
     7
 10
-33.325995
 20
-637.71678
 42
0.032572116
  0
VERTEX
  8
0
  6
CONTINUOUS
 62
     7
 10
-33.476728
 20
-637.79998
 42
0.029842986
  0
VERTEX
  8
0
  6
CONTINUOUS
 62
     7
 10
-33.615568
 20
-637.90102
 42
0.027300367
  0
VERTEX
  8
0
  6
CONTINUOUS
 62
     7
 10
-33.741979
 20
-638.01722
 42
0.025074817
  0
VERTEX
  8
0
  6
CONTINUOUS
 62
     7
 10
-33.855931
 20
-638.14641
 42
0.023093706
  0
VERTEX
  8
0
  6
CONTINUOUS
 62
     7
 10
-33.957106
 20
-638.28618
 42
0.021335902
  0
VERTEX
  8
0
  6
CONTINUOUS
 62
     7
 10
-34.045289
 20
-638.43403
 42
0.020070043
  0
VERTEX
  8
0
  6
CONTINUOUS
 62
     7
 10
-34.121526
 20
-638.58983
 42
0.018824276
  0
VERTEX
  8
0
  6
CONTINUOUS
 62
     7
 10
-34.185137
 20
-638.75032
 42
0.017915222
  0
VERTEX
  8
0
  6
CONTINUOUS
 62
     7
 10
-34.236808
 20
-638.91506
 42
0.017218907
  0
VERTEX
  8
0
  6
CONTINUOUS
 62
     7
 10
-34.276797
 20
-639.08303
 42
0.016713709
  0
VERTEX
  8
0
  6
CONTINUOUS
 62
     7
 10
-34.305315
 20
-639.25333
 42
0.016383374
  0
VERTEX
  8
0
  6
CONTINUOUS
 62
     7
 10
-34.322513
 20
-639.42514
 42
0.016289299
  0
VERTEX
  8
0
  6
CONTINUOUS
 62
     7
 10
-34.32849
 20
-639.59847
 42
0
  0
SEQEND
  8
0
  0
POLYLINE
  8
0
  6
CONTINUOUS
 62
     7
 66
     1
 10
0
 20
0
  0
VERTEX
  8
0
  6
CONTINUOUS
 62
     7
 10
-31.328495
 20
-639.60358
 42
0.016208358
  0
VERTEX
  8
0
  6
CONTINUOUS
 62
     7
 10
-31.334085
 20
-639.43107
 42
0.016365793
  0
VERTEX
  8
0
  6
CONTINUOUS
 62
     7
 10
-31.350884
 20
-639.25931
 42
0.016690028
  0
VERTEX
  8
0
  6
CONTINUOUS
 62
     7
 10
-31.378985
 20
-639.08904
 42
0.01719115
  0
VERTEX
  8
0
  6
CONTINUOUS
 62
     7
 10
-31.418547
 20
-638.92104
 42
0.017884738
  0
VERTEX
  8
0
  6
CONTINUOUS
 62
     7
 10
-31.469789
 20
-638.75618
 42
0.018791785
  0
VERTEX
  8
0
  6
CONTINUOUS
 62
     7
 10
-31.53298
 20
-638.59548
 42
0.019938085
  0
VERTEX
  8
0
  6
CONTINUOUS
 62
     7
 10
-31.608426
 20
-638.44011
 42
0.021352368
  0
VERTEX
  8
0
  6
CONTINUOUS
 62
     7
 10
-31.696442
 20
-638.29144
 42
0.023061919
  0
VERTEX
  8
0
  6
CONTINUOUS
 62
     7
 10
-31.797308
 20
-638.15113
 42
0.025083663
  0
VERTEX
  8
0
  6
CONTINUOUS
 62
     7
 10
-31.911197
 20
-638.02114
 42
0.027408034
  0
VERTEX
  8
0
  6
CONTINUOUS
 62
     7
 10
-32.038067
 20
-637.90379
 42
0.02997354
  0
VERTEX
  8
0
  6
CONTINUOUS
 62
     7
 10
-32.177508
 20
-637.80174
 42
0.032634395
  0
VERTEX
  8
0
  6
CONTINUOUS
 62
     7
 10
-32.328553
 20
-637.71793
 42
0.035135115
  0
VERTEX
  8
0
  6
CONTINUOUS
 62
     7
 10
-32.489472
 20
-637.65533
 42
0.037122559
  0
VERTEX
  8
0
  6
CONTINUOUS
 62
     7
 10
-32.657661
 20
-637.61659
 42
0.037960476
  0
VERTEX
  8
0
  6
CONTINUOUS
 62
     7
 10
-32.828495
 20
-637.60358
 42
0
  0
SEQEND
  8
0
  0
POLYLINE
  8
0
  6
CONTINUOUS
 62
     7
 66
     1
 10
0
 20
0
  0
VERTEX
  8
0
  6
CONTINUOUS
 62
     7
 10
-313.41382
 20
54.600922
 42
0.10383017
  0
VERTEX
  8
0
  6
CONTINUOUS
 62
     7
 10
-311.85332
 20
53.371788
 42
0.23738753
  0
VERTEX
  8
0
  6
CONTINUOUS
 62
     7
 10
-309.9228
 20
53.37165
 42
0.103866
  0
VERTEX
  8
0
  6
CONTINUOUS
 62
     7
 10
-308.362
 20
54.600922
 42
0
  0
SEQEND
  8
0
  0
POLYLINE
  8
0
  6
CONTINUOUS
 62
     7
 66
     1
 10
0
 20
0
  0
VERTEX
  8
0
  6
CONTINUOUS
 62
     7
 10
-313.41382
 20
54.600922
 42
-0.037691351
  0
VERTEX
  8
0
  6
CONTINUOUS
 62
     7
 10
-315.00805
 20
53.831907
 42
-0.042617086
  0
VERTEX
  8
0
  6
CONTINUOUS
 62
     7
 10
-316.70352
 20
53.32634
 42
-0.050587621
  0
VERTEX
  8
0
  6
CONTINUOUS
 62
     7
 10
-318.46201
 20
53.142578
 42
0
  0
SEQEND
  8
0
  0
POLYLINE
  8
0
  6
CONTINUOUS
 62
     7
 66
     1
 10
0
 20
0
  0
VERTEX
  8
0
  6
CONTINUOUS
 62
     7
 10
-323.51019
 20
54.600922
 42
0.037691351
  0
VERTEX
  8
0
  6
CONTINUOUS
 62
     7
 10
-321.91596
 20
53.831907
 42
0.042617086
  0
VERTEX
  8
0
  6
CONTINUOUS
 62
     7
 10
-320.22049
 20
53.32634
 42
0.050587621
  0
VERTEX
  8
0
  6
CONTINUOUS
 62
     7
 10
-318.46201
 20
53.142578
 42
0
  0
SEQEND
  8
0
  0
POLYLINE
  8
0
  6
CONTINUOUS
 62
     7
 66
     1
 10
0
 20
0
  0
VERTEX
  8
0
  6
CONTINUOUS
 62
     7
 10
-323.51019
 20
54.600922
 42
-0.10383017
  0
VERTEX
  8
0
  6
CONTINUOUS
 62
     7
 10
-325.07069
 20
53.371788
 42
-0.23738753
  0
VERTEX
  8
0
  6
CONTINUOUS
 62
     7
 10
-327.00121
 20
53.37165
 42
-0.103866
  0
VERTEX
  8
0
  6
CONTINUOUS
 62
     7
 10
-328.56201
 20
54.600922
 42
0
  0
SEQEND
  8
0
  0
POLYLINE
  8
0
  6
CONTINUOUS
 62
     7
 66
     1
 10
0
 20
0
  0
VERTEX
  8
0
  6
CONTINUOUS
 62
     7
 10
-323.51019
 20
60.784241
 42
0.10383017
  0
VERTEX
  8
0
  6
CONTINUOUS
 62
     7
 10
-325.07069
 20
62.013374
 42
0.23738753
  0
VERTEX
  8
0
  6
CONTINUOUS
 62
     7
 10
-327.00121
 20
62.013512
 42
0.103866
  0
VERTEX
  8
0
  6
CONTINUOUS
 62
     7
 10
-328.56201
 20
60.784241
 42
0
  0
SEQEND
  8
0
  0
POLYLINE
  8
0
  6
CONTINUOUS
 62
     7
 66
     1
 10
0
 20
0
  0
VERTEX
  8
0
  6
CONTINUOUS
 62
     7
 10
-323.51019
 20
60.784241
 42
-0.037691351
  0
VERTEX
  8
0
  6
CONTINUOUS
 62
     7
 10
-321.91596
 20
61.553255
 42
-0.042617086
  0
VERTEX
  8
0
  6
CONTINUOUS
 62
     7
 10
-320.22049
 20
62.058822
 42
-0.050587621
  0
VERTEX
  8
0
  6
CONTINUOUS
 62
     7
 10
-318.46201
 20
62.242584
 42
0
  0
SEQEND
  8
0
  0
POLYLINE
  8
0
  6
CONTINUOUS
 62
     7
 66
     1
 10
0
 20
0
  0
VERTEX
  8
0
  6
CONTINUOUS
 62
     7
 10
-313.41382
 20
60.784241
 42
0.037691351
  0
VERTEX
  8
0
  6
CONTINUOUS
 62
     7
 10
-315.00805
 20
61.553255
 42
0.042617086
  0
VERTEX
  8
0
  6
CONTINUOUS
 62
     7
 10
-316.70352
 20
62.058822
 42
0.050587621
  0
VERTEX
  8
0
  6
CONTINUOUS
 62
     7
 10
-318.46201
 20
62.242584
 42
0
  0
SEQEND
  8
0
  0
POLYLINE
  8
0
  6
CONTINUOUS
 62
     7
 66
     1
 10
0
 20
0
  0
VERTEX
  8
0
  6
CONTINUOUS
 62
     7
 10
-313.41382
 20
60.784241
 42
-0.10383017
  0
VERTEX
  8
0
  6
CONTINUOUS
 62
     7
 10
-311.85332
 20
62.013374
 42
-0.23738753
  0
VERTEX
  8
0
  6
CONTINUOUS
 62
     7
 10
-309.9228
 20
62.013512
 42
-0.103866
  0
VERTEX
  8
0
  6
CONTINUOUS
 62
     7
 10
-308.362
 20
60.784241
 42
0
  0
SEQEND
  8
0
  0
POLYLINE
  8
0
  6
CONTINUOUS
 62
     7
 66
     1
 10
0
 20
0
  0
VERTEX
  8
0
  6
CONTINUOUS
 62
     7
 10
643.7251
 20
181.73337
 42
0.103829
  0
VERTEX
  8
0
  6
CONTINUOUS
 62
     7
 10
642.16462
 20
182.9625
 42
0.23738946
  0
VERTEX
  8
0
  6
CONTINUOUS
 62
     7
 10
640.23412
 20
182.96264
 42
0.10386485
  0
VERTEX
  8
0
  6
CONTINUOUS
 62
     7
 10
638.67334
 20
181.73337
 42
0
  0
SEQEND
  8
0
  0
POLYLINE
  8
0
  6
CONTINUOUS
 62
     7
 66
     1
 10
0
 20
0
  0
VERTEX
  8
0
  6
CONTINUOUS
 62
     7
 10
643.7251
 20
175.55005
 42
-0.012264562
  0
VERTEX
  8
0
  6
CONTINUOUS
 62
     7
 10
643.52977
 20
175.33538
 42
-0.012582139
  0
VERTEX
  8
0
  6
CONTINUOUS
 62
     7
 10
643.32362
 20
175.13023
 42
-0.013358681
  0
VERTEX
  8
0
  6
CONTINUOUS
 62
     7
 10
643.10713
 20
174.93603
 42
0
  0
SEQEND
  8
0
  0
POLYLINE
  8
0
  6
CONTINUOUS
 62
     7
 66
     1
 10
0
 20
0
  0
VERTEX
  8
0
  6
CONTINUOUS
 62
     7
 10
643.7251
 20
181.73337
 42
-0.037692077
  0
VERTEX
  8
0
  6
CONTINUOUS
 62
     7
 10
645.31934
 20
182.50238
 42
-0.042616645
  0
VERTEX
  8
0
  6
CONTINUOUS
 62
     7
 10
647.01482
 20
183.00795
 42
-0.050587247
  0
VERTEX
  8
0
  6
CONTINUOUS
 62
     7
 10
648.77332
 20
183.19171
 42
0
  0
SEQEND
  8
0
  0
POLYLINE
  8
0
  6
CONTINUOUS
 62
     7
 66
     1
 10
0
 20
0
  0
VERTEX
  8
0
  6
CONTINUOUS
 62
     7
 10
643.7251
 20
175.55005
 42
0.037692077
  0
VERTEX
  8
0
  6
CONTINUOUS
 62
     7
 10
645.31934
 20
174.78103
 42
0.042616645
  0
VERTEX
  8
0
  6
CONTINUOUS
 62
     7
 10
647.01482
 20
174.27547
 42
0.050587247
  0
VERTEX
  8
0
  6
CONTINUOUS
 62
     7
 10
648.77332
 20
174.09171
 42
0
  0
SEQEND
  8
0
  0
POLYLINE
  8
0
  6
CONTINUOUS
 62
     7
 66
     1
 10
0
 20
0
  0
VERTEX
  8
0
  6
CONTINUOUS
 62
     7
 10
653.82153
 20
181.73337
 42
-0.103829
  0
VERTEX
  8
0
  6
CONTINUOUS
 62
     7
 10
655.38201
 20
182.9625
 42
-0.23738946
  0
VERTEX
  8
0
  6
CONTINUOUS
 62
     7
 10
657.31251
 20
182.96264
 42
-0.10386485
  0
VERTEX
  8
0
  6
CONTINUOUS
 62
     7
 10
658.87329
 20
181.73337
 42
0
  0
SEQEND
  8
0
  0
POLYLINE
  8
0
  6
CONTINUOUS
 62
     7
 66
     1
 10
0
 20
0
  0
VERTEX
  8
0
  6
CONTINUOUS
 62
     7
 10
653.82153
 20
175.55005
 42
0.103829
  0
VERTEX
  8
0
  6
CONTINUOUS
 62
     7
 10
655.38201
 20
174.32092
 42
0.23738946
  0
VERTEX
  8
0
  6
CONTINUOUS
 62
     7
 10
657.31251
 20
174.32078
 42
0.10386485
  0
VERTEX
  8
0
  6
CONTINUOUS
 62
     7
 10
658.87329
 20
175.55005
 42
0
  0
SEQEND
  8
0
  0
POLYLINE
  8
0
  6
CONTINUOUS
 62
     7
 66
     1
 10
0
 20
0
  0
VERTEX
  8
0
  6
CONTINUOUS
 62
     7
 10
653.82153
 20
181.73337
 42
0.037692077
  0
VERTEX
  8
0
  6
CONTINUOUS
 62
     7
 10
652.22729
 20
182.50238
 42
0.042616645
  0
VERTEX
  8
0
  6
CONTINUOUS
 62
     7
 10
650.53181
 20
183.00795
 42
0.050587247
  0
VERTEX
  8
0
  6
CONTINUOUS
 62
     7
 10
648.77332
 20
183.19171
 42
0
  0
SEQEND
  8
0
  0
POLYLINE
  8
0
  6
CONTINUOUS
 62
     7
 66
     1
 10
0
 20
0
  0
VERTEX
  8
0
  6
CONTINUOUS
 62
     7
 10
653.82153
 20
175.55005
 42
-0.037692077
  0
VERTEX
  8
0
  6
CONTINUOUS
 62
     7
 10
652.22729
 20
174.78103
 42
-0.042616645
  0
VERTEX
  8
0
  6
CONTINUOUS
 62
     7
 10
650.53181
 20
174.27547
 42
-0.050587247
  0
VERTEX
  8
0
  6
CONTINUOUS
 62
     7
 10
648.77332
 20
174.09171
 42
0
  0
SEQEND
  8
0
  0
POLYLINE
  8
0
  6
CONTINUOUS
 62
     7
 66
     1
 10
0
 20
0
  0
VERTEX
  8
0
  6
CONTINUOUS
 62
     7
 10
-172.21252
 20
59.992584
 42
0.10383042
  0
VERTEX
  8
0
  6
CONTINUOUS
 62
     7
 10
-170.23293
 20
58.433345
 42
0.23738651
  0
VERTEX
  8
0
  6
CONTINUOUS
 62
     7
 10
-167.78393
 20
58.43317
 42
0.10386627
  0
VERTEX
  8
0
  6
CONTINUOUS
 62
     7
 10
-165.80396
 20
59.992584
 42
0
  0
SEQEND
  8
0
  0
POLYLINE
  8
0
  6
CONTINUOUS
 62
     7
 66
     1
 10
0
 20
0
  0
VERTEX
  8
0
  6
CONTINUOUS
 62
     7
 10
-172.21252
 20
59.992584
 42
-0.037568999
  0
VERTEX
  8
0
  6
CONTINUOUS
 62
     7
 10
-174.24781
 20
59.016547
 42
-0.042425947
  0
VERTEX
  8
0
  6
CONTINUOUS
 62
     7
 10
-176.41112
 20
58.375423
 42
-0.050272402
  0
VERTEX
  8
0
  6
CONTINUOUS
 62
     7
 10
-178.65396
 20
58.142578
 42
0
  0
SEQEND
  8
0
  0
POLYLINE
  8
0
  6
CONTINUOUS
 62
     7
 66
     1
 10
0
 20
0
  0
VERTEX
  8
0
  6
CONTINUOUS
 62
     7
 10
-185.0954
 20
59.992584
 42
0.037568999
  0
VERTEX
  8
0
  6
CONTINUOUS
 62
     7
 10
-183.06011
 20
59.016547
 42
0.042425947
  0
VERTEX
  8
0
  6
CONTINUOUS
 62
     7
 10
-180.8968
 20
58.375423
 42
0.050272402
  0
VERTEX
  8
0
  6
CONTINUOUS
 62
     7
 10
-178.65396
 20
58.142578
 42
0
  0
SEQEND
  8
0
  0
POLYLINE
  8
0
  6
CONTINUOUS
 62
     7
 66
     1
 10
0
 20
0
  0
VERTEX
  8
0
  6
CONTINUOUS
 62
     7
 10
-185.0954
 20
59.992584
 42
-0.10383042
  0
VERTEX
  8
0
  6
CONTINUOUS
 62
     7
 10
-187.07499
 20
58.433345
 42
-0.23738651
  0
VERTEX
  8
0
  6
CONTINUOUS
 62
     7
 10
-189.52399
 20
58.43317
 42
-0.10386627
  0
VERTEX
  8
0
  6
CONTINUOUS
 62
     7
 10
-191.50397
 20
59.992584
 42
0
  0
SEQEND
  8
0
  0
POLYLINE
  8
0
  6
CONTINUOUS
 62
     7
 66
     1
 10
0
 20
0
  0
VERTEX
  8
0
  6
CONTINUOUS
 62
     7
 10
-185.0954
 20
68.59259
 42
0.10383321
  0
VERTEX
  8
0
  6
CONTINUOUS
 62
     7
 10
-187.07499
 20
70.151808
 42
0.23737923
  0
VERTEX
  8
0
  6
CONTINUOUS
 62
     7
 10
-189.52399
 20
70.151983
 42
0.10386905
  0
VERTEX
  8
0
  6
CONTINUOUS
 62
     7
 10
-191.50397
 20
68.59259
 42
0
  0
SEQEND
  8
0
  0
POLYLINE
  8
0
  6
CONTINUOUS
 62
     7
 66
     1
 10
0
 20
0
  0
VERTEX
  8
0
  6
CONTINUOUS
 62
     7
 10
-185.0954
 20
68.59259
 42
-0.037570398
  0
VERTEX
  8
0
  6
CONTINUOUS
 62
     7
 10
-183.06011
 20
69.568619
 42
-0.042426054
  0
VERTEX
  8
0
  6
CONTINUOUS
 62
     7
 10
-180.8968
 20
70.209729
 42
-0.050270906
  0
VERTEX
  8
0
  6
CONTINUOUS
 62
     7
 10
-178.65396
 20
70.442566
 42
0
  0
SEQEND
  8
0
  0
POLYLINE
  8
0
  6
CONTINUOUS
 62
     7
 66
     1
 10
0
 20
0
  0
VERTEX
  8
0
  6
CONTINUOUS
 62
     7
 10
-172.21252
 20
68.59259
 42
0.037570398
  0
VERTEX
  8
0
  6
CONTINUOUS
 62
     7
 10
-174.24781
 20
69.568619
 42
0.042426054
  0
VERTEX
  8
0
  6
CONTINUOUS
 62
     7
 10
-176.41112
 20
70.209729
 42
0.050270906
  0
VERTEX
  8
0
  6
CONTINUOUS
 62
     7
 10
-178.65396
 20
70.442566
 42
0
  0
SEQEND
  8
0
  0
POLYLINE
  8
0
  6
CONTINUOUS
 62
     7
 66
     1
 10
0
 20
0
  0
VERTEX
  8
0
  6
CONTINUOUS
 62
     7
 10
-172.21252
 20
68.59259
 42
-0.10383321
  0
VERTEX
  8
0
  6
CONTINUOUS
 62
     7
 10
-170.23293
 20
70.151808
 42
-0.23737923
  0
VERTEX
  8
0
  6
CONTINUOUS
 62
     7
 10
-167.78393
 20
70.151983
 42
-0.10386905
  0
VERTEX
  8
0
  6
CONTINUOUS
 62
     7
 10
-165.80396
 20
68.59259
 42
0
  0
SEQEND
  8
0
  0
POLYLINE
  8
0
  6
CONTINUOUS
 62
     7
 66
     1
 10
0
 20
0
  0
VERTEX
  8
0
  6
CONTINUOUS
 62
     7
 10
1125.1335
 20
184.40001
 42
0.10383304
  0
VERTEX
  8
0
  6
CONTINUOUS
 62
     7
 10
1123.1539
 20
185.95921
 42
0.23738341
  0
VERTEX
  8
0
  6
CONTINUOUS
 62
     7
 10
1120.7049
 20
185.9594
 42
0.10386597
  0
VERTEX
  8
0
  6
CONTINUOUS
 62
     7
 10
1118.725
 20
184.40001
 42
0
  0
SEQEND
  8
0
  0
POLYLINE
  8
0
  6
CONTINUOUS
 62
     7
 66
     1
 10
0
 20
0
  0
VERTEX
  8
0
  6
CONTINUOUS
 62
     7
 10
1125.1335
 20
184.40001
 42
-0.037569831
  0
VERTEX
  8
0
  6
CONTINUOUS
 62
     7
 10
1127.1688
 20
185.37604
 42
-0.042426399
  0
VERTEX
  8
0
  6
CONTINUOUS
 62
     7
 10
1129.3321
 20
186.01715
 42
-0.050271197
  0
VERTEX
  8
0
  6
CONTINUOUS
 62
     7
 10
1131.575
 20
186.24998
 42
0
  0
SEQEND
  8
0
  0
POLYLINE
  8
0
  6
CONTINUOUS
 62
     7
 66
     1
 10
0
 20
0
  0
VERTEX
  8
0
  6
CONTINUOUS
 62
     7
 10
1125.1335
 20
175.8
 42
-0.010312708
  0
VERTEX
  8
0
  6
CONTINUOUS
 62
     7
 10
1124.9261
 20
175.57017
 42
-0.010482423
  0
VERTEX
  8
0
  6
CONTINUOUS
 62
     7
 10
1124.7088
 20
175.34871
 42
-0.010903448
  0
VERTEX
  8
0
  6
CONTINUOUS
 62
     7
 10
1124.4827
 20
175.13713
 42
0
  0
SEQEND
  8
0
  0
POLYLINE
  8
0
  6
CONTINUOUS
 62
     7
 66
     1
 10
0
 20
0
  0
VERTEX
  8
0
  6
CONTINUOUS
 62
     7
 10
1125.1335
 20
175.8
 42
0.037568432
  0
VERTEX
  8
0
  6
CONTINUOUS
 62
     7
 10
1127.1688
 20
174.82397
 42
0.042426292
  0
VERTEX
  8
0
  6
CONTINUOUS
 62
     7
 10
1129.3321
 20
174.18284
 42
0.050272693
  0
VERTEX
  8
0
  6
CONTINUOUS
 62
     7
 10
1131.575
 20
173.95
 42
0
  0
SEQEND
  8
0
  0
POLYLINE
  8
0
  6
CONTINUOUS
 62
     7
 66
     1
 10
0
 20
0
  0
VERTEX
  8
0
  6
CONTINUOUS
 62
     7
 10
1138.0164
 20
184.40001
 42
-0.10383304
  0
VERTEX
  8
0
  6
CONTINUOUS
 62
     7
 10
1139.996
 20
185.95921
 42
-0.23738341
  0
VERTEX
  8
0
  6
CONTINUOUS
 62
     7
 10
1142.445
 20
185.9594
 42
-0.10386597
  0
VERTEX
  8
0
  6
CONTINUOUS
 62
     7
 10
1144.4249
 20
184.40001
 42
0
  0
SEQEND
  8
0
  0
POLYLINE
  8
0
  6
CONTINUOUS
 62
     7
 66
     1
 10
0
 20
0
  0
VERTEX
  8
0
  6
CONTINUOUS
 62
     7
 10
1138.0164
 20
184.40001
 42
0.037569831
  0
VERTEX
  8
0
  6
CONTINUOUS
 62
     7
 10
1135.9811
 20
185.37604
 42
0.042426399
  0
VERTEX
  8
0
  6
CONTINUOUS
 62
     7
 10
1133.8178
 20
186.01715
 42
0.050271197
  0
VERTEX
  8
0
  6
CONTINUOUS
 62
     7
 10
1131.575
 20
186.24998
 42
0
  0
SEQEND
  8
0
  0
POLYLINE
  8
0
  6
CONTINUOUS
 62
     7
 66
     1
 10
0
 20
0
  0
VERTEX
  8
0
  6
CONTINUOUS
 62
     7
 10
1138.0164
 20
175.8
 42
0.10383025
  0
VERTEX
  8
0
  6
CONTINUOUS
 62
     7
 10
1139.996
 20
174.24078
 42
0.23739069
  0
VERTEX
  8
0
  6
CONTINUOUS
 62
     7
 10
1142.445
 20
174.2406
 42
0.10386319
  0
VERTEX
  8
0
  6
CONTINUOUS
 62
     7
 10
1144.4249
 20
175.8
 42
0
  0
SEQEND
  8
0
  0
POLYLINE
  8
0
  6
CONTINUOUS
 62
     7
 66
     1
 10
0
 20
0
  0
VERTEX
  8
0
  6
CONTINUOUS
 62
     7
 10
1138.0164
 20
175.8
 42
-0.037568432
  0
VERTEX
  8
0
  6
CONTINUOUS
 62
     7
 10
1135.9811
 20
174.82397
 42
-0.042426292
  0
VERTEX
  8
0
  6
CONTINUOUS
 62
     7
 10
1133.8178
 20
174.18284
 42
-0.050272693
  0
VERTEX
  8
0
  6
CONTINUOUS
 62
     7
 10
1131.575
 20
173.95
 42
0
  0
SEQEND
  8
0
  0
POLYLINE
  8
0
  6
CONTINUOUS
 62
     7
 66
     1
 10
0
 20
0
  0
VERTEX
  8
0
  6
CONTINUOUS
 62
     7
 10
944.13354
 20
184.40001
 42
0.10383339
  0
VERTEX
  8
0
  6
CONTINUOUS
 62
     7
 10
942.15396
 20
185.95924
 42
0.23737505
  0
VERTEX
  8
0
  6
CONTINUOUS
 62
     7
 10
939.70501
 20
185.95941
 42
0.10387213
  0
VERTEX
  8
0
  6
CONTINUOUS
 62
     7
 10
937.72498
 20
184.40001
 42
0
  0
SEQEND
  8
0
  0
POLYLINE
  8
0
  6
CONTINUOUS
 62
     7
 66
     1
 10
0
 20
0
  0
VERTEX
  8
0
  6
CONTINUOUS
 62
     7
 10
944.13354
 20
184.40001
 42
-0.037570965
  0
VERTEX
  8
0
  6
CONTINUOUS
 62
     7
 10
946.16884
 20
185.37604
 42
-0.04242571
  0
VERTEX
  8
0
  6
CONTINUOUS
 62
     7
 10
948.33216
 20
186.01715
 42
-0.050270615
  0
VERTEX
  8
0
  6
CONTINUOUS
 62
     7
 10
950.57501
 20
186.24998
 42
0
  0
SEQEND
  8
0
  0
POLYLINE
  8
0
  6
CONTINUOUS
 62
     7
 66
     1
 10
0
 20
0
  0
VERTEX
  8
0
  6
CONTINUOUS
 62
     7
 10
944.13354
 20
175.8
 42
-0.1038306
  0
VERTEX
  8
0
  6
CONTINUOUS
 62
     7
 10
942.15396
 20
174.24075
 42
-0.23738233
  0
VERTEX
  8
0
  6
CONTINUOUS
 62
     7
 10
939.70501
 20
174.24058
 42
-0.10386934
  0
VERTEX
  8
0
  6
CONTINUOUS
 62
     7
 10
937.72498
 20
175.8
 42
0
  0
SEQEND
  8
0
  0
POLYLINE
  8
0
  6
CONTINUOUS
 62
     7
 66
     1
 10
0
 20
0
  0
VERTEX
  8
0
  6
CONTINUOUS
 62
     7
 10
944.13354
 20
175.8
 42
0.037569566
  0
VERTEX
  8
0
  6
CONTINUOUS
 62
     7
 10
946.16884
 20
174.82397
 42
0.042425603
  0
VERTEX
  8
0
  6
CONTINUOUS
 62
     7
 10
948.33216
 20
174.18284
 42
0.050272111
  0
VERTEX
  8
0
  6
CONTINUOUS
 62
     7
 10
950.57501
 20
173.95
 42
0
  0
SEQEND
  8
0
  0
POLYLINE
  8
0
  6
CONTINUOUS
 62
     7
 66
     1
 10
0
 20
0
  0
VERTEX
  8
0
  6
CONTINUOUS
 62
     7
 10
957.01648
 20
184.40001
 42
-0.10383339
  0
VERTEX
  8
0
  6
CONTINUOUS
 62
     7
 10
958.99606
 20
185.95924
 42
-0.23737505
  0
VERTEX
  8
0
  6
CONTINUOUS
 62
     7
 10
961.44501
 20
185.95941
 42
-0.10387213
  0
VERTEX
  8
0
  6
CONTINUOUS
 62
     7
 10
963.42505
 20
184.40001
 42
0
  0
SEQEND
  8
0
  0
POLYLINE
  8
0
  6
CONTINUOUS
 62
     7
 66
     1
 10
0
 20
0
  0
VERTEX
  8
0
  6
CONTINUOUS
 62
     7
 10
957.01648
 20
184.40001
 42
0.037570965
  0
VERTEX
  8
0
  6
CONTINUOUS
 62
     7
 10
954.98119
 20
185.37604
 42
0.04242571
  0
VERTEX
  8
0
  6
CONTINUOUS
 62
     7
 10
952.81786
 20
186.01715
 42
0.050270615
  0
VERTEX
  8
0
  6
CONTINUOUS
 62
     7
 10
950.57501
 20
186.24998
 42
0
  0
SEQEND
  8
0
  0
POLYLINE
  8
0
  6
CONTINUOUS
 62
     7
 66
     1
 10
0
 20
0
  0
VERTEX
  8
0
  6
CONTINUOUS
 62
     7
 10
957.01648
 20
175.8
 42
0.010309978
  0
VERTEX
  8
0
  6
CONTINUOUS
 62
     7
 10
957.22397
 20
175.57018
 42
0.010480664
  0
VERTEX
  8
0
  6
CONTINUOUS
 62
     7
 10
957.44126
 20
175.34871
 42
0.010902328
  0
VERTEX
  8
0
  6
CONTINUOUS
 62
     7
 10
957.66735
 20
175.13713
 42
0
  0
SEQEND
  8
0
  0
POLYLINE
  8
0
  6
CONTINUOUS
 62
     7
 66
     1
 10
0
 20
0
  0
VERTEX
  8
0
  6
CONTINUOUS
 62
     7
 10
957.01648
 20
175.8
 42
-0.037569566
  0
VERTEX
  8
0
  6
CONTINUOUS
 62
     7
 10
954.98119
 20
174.82397
 42
-0.042425603
  0
VERTEX
  8
0
  6
CONTINUOUS
 62
     7
 10
952.81786
 20
174.18284
 42
-0.050272111
  0
VERTEX
  8
0
  6
CONTINUOUS
 62
     7
 10
950.57501
 20
173.95
 42
0
  0
SEQEND
  8
0
  0
POLYLINE
  8
0
  6
CONTINUOUS
 62
     7
 66
     1
 10
0
 20
0
  0
VERTEX
  8
0
  6
CONTINUOUS
 62
     7
 10
867.18359
 20
185.45001
 42
0.10383304
  0
VERTEX
  8
0
  6
CONTINUOUS
 62
     7
 10
865.20399
 20
187.00922
 42
0.23738341
  0
VERTEX
  8
0
  6
CONTINUOUS
 62
     7
 10
862.75494
 20
187.0094
 42
0.10386597
  0
VERTEX
  8
0
  6
CONTINUOUS
 62
     7
 10
860.77502
 20
185.45001
 42
0
  0
SEQEND
  8
0
  0
POLYLINE
  8
0
  6
CONTINUOUS
 62
     7
 66
     1
 10
0
 20
0
  0
VERTEX
  8
0
  6
CONTINUOUS
 62
     7
 10
867.18359
 20
185.45001
 42
-0.037569831
  0
VERTEX
  8
0
  6
CONTINUOUS
 62
     7
 10
869.21887
 20
186.42604
 42
-0.042426399
  0
VERTEX
  8
0
  6
CONTINUOUS
 62
     7
 10
871.38217
 20
187.06715
 42
-0.050271197
  0
VERTEX
  8
0
  6
CONTINUOUS
 62
     7
 10
873.625
 20
187.29999
 42
0
  0
SEQEND
  8
0
  0
POLYLINE
  8
0
  6
CONTINUOUS
 62
     7
 66
     1
 10
0
 20
0
  0
VERTEX
  8
0
  6
CONTINUOUS
 62
     7
 10
867.18359
 20
176.85001
 42
-0.0080456026
  0
VERTEX
  8
0
  6
CONTINUOUS
 62
     7
 10
867.02253
 20
176.66997
 42
-0.0081122587
  0
VERTEX
  8
0
  6
CONTINUOUS
 62
     7
 10
866.85537
 20
176.49484
 42
-0.0082887097
  0
VERTEX
  8
0
  6
CONTINUOUS
 62
     7
 10
866.68292
 20
176.32563
 42
0
  0
SEQEND
  8
0
  0
POLYLINE
  8
0
  6
CONTINUOUS
 62
     7
 66
     1
 10
0
 20
0
  0
VERTEX
  8
0
  6
CONTINUOUS
 62
     7
 10
867.18359
 20
176.85001
 42
0.037568432
  0
VERTEX
  8
0
  6
CONTINUOUS
 62
     7
 10
869.21887
 20
175.87397
 42
0.042426292
  0
VERTEX
  8
0
  6
CONTINUOUS
 62
     7
 10
871.38217
 20
175.23284
 42
0.050272693
  0
VERTEX
  8
0
  6
CONTINUOUS
 62
     7
 10
873.625
 20
175
 42
0
  0
SEQEND
  8
0
  0
POLYLINE
  8
0
  6
CONTINUOUS
 62
     7
 66
     1
 10
0
 20
0
  0
VERTEX
  8
0
  6
CONTINUOUS
 62
     7
 10
880.06641
 20
185.45001
 42
-0.10383304
  0
VERTEX
  8
0
  6
CONTINUOUS
 62
     7
 10
882.04601
 20
187.00922
 42
-0.23738341
  0
VERTEX
  8
0
  6
CONTINUOUS
 62
     7
 10
884.49506
 20
187.0094
 42
-0.10386597
  0
VERTEX
  8
0
  6
CONTINUOUS
 62
     7
 10
886.47498
 20
185.45001
 42
0
  0
SEQEND
  8
0
  0
POLYLINE
  8
0
  6
CONTINUOUS
 62
     7
 66
     1
 10
0
 20
0
  0
VERTEX
  8
0
  6
CONTINUOUS
 62
     7
 10
880.06641
 20
185.45001
 42
0.037569831
  0
VERTEX
  8
0
  6
CONTINUOUS
 62
     7
 10
878.03113
 20
186.42604
 42
0.042426399
  0
VERTEX
  8
0
  6
CONTINUOUS
 62
     7
 10
875.86783
 20
187.06715
 42
0.050271197
  0
VERTEX
  8
0
  6
CONTINUOUS
 62
     7
 10
873.625
 20
187.29999
 42
0
  0
SEQEND
  8
0
  0
POLYLINE
  8
0
  6
CONTINUOUS
 62
     7
 66
     1
 10
0
 20
0
  0
VERTEX
  8
0
  6
CONTINUOUS
 62
     7
 10
880.06641
 20
176.85001
 42
0.10383025
  0
VERTEX
  8
0
  6
CONTINUOUS
 62
     7
 10
882.04601
 20
175.29078
 42
0.23739069
  0
VERTEX
  8
0
  6
CONTINUOUS
 62
     7
 10
884.49506
 20
175.2906
 42
0.10386319
  0
VERTEX
  8
0
  6
CONTINUOUS
 62
     7
 10
886.47498
 20
176.85001
 42
0
  0
SEQEND
  8
0
  0
POLYLINE
  8
0
  6
CONTINUOUS
 62
     7
 66
     1
 10
0
 20
0
  0
VERTEX
  8
0
  6
CONTINUOUS
 62
     7
 10
880.06641
 20
176.85001
 42
-0.037568432
  0
VERTEX
  8
0
  6
CONTINUOUS
 62
     7
 10
878.03113
 20
175.87397
 42
-0.042426292
  0
VERTEX
  8
0
  6
CONTINUOUS
 62
     7
 10
875.86783
 20
175.23284
 42
-0.050272693
  0
VERTEX
  8
0
  6
CONTINUOUS
 62
     7
 10
873.625
 20
175
 42
0
  0
SEQEND
  8
0
  0
POLYLINE
  8
0
  6
CONTINUOUS
 62
     7
 66
     1
 10
0
 20
0
  0
VERTEX
  8
0
  6
CONTINUOUS
 62
     7
 10
233.34586
 20
66.392586
 42
0.03764528
  0
VERTEX
  8
0
  6
CONTINUOUS
 62
     7
 10
235.81142
 20
65.205886
 42
0.042545253
  0
VERTEX
  8
0
  6
CONTINUOUS
 62
     7
 10
238.433
 20
64.425977
 42
0.050468174
  0
VERTEX
  8
0
  6
CONTINUOUS
 62
     7
 10
241.15161
 20
64.142586
 42
0
  0
SEQEND
  8
0
  0
POLYLINE
  8
0
  6
CONTINUOUS
 62
     7
 66
     1
 10
0
 20
0
  0
VERTEX
  8
0
  6
CONTINUOUS
 62
     7
 10
233.34586
 20
66.392586
 42
-0.10378463
  0
VERTEX
  8
0
  6
CONTINUOUS
 62
     7
 10
230.93919
 20
64.496659
 42
-0.23752989
  0
VERTEX
  8
0
  6
CONTINUOUS
 62
     7
 10
227.95868
 20
64.496472
 42
-0.10380902
  0
VERTEX
  8
0
  6
CONTINUOUS
 62
     7
 10
225.55161
 20
66.392586
 42
0
  0
SEQEND
  8
0
  0
POLYLINE
  8
0
  6
CONTINUOUS
 62
     7
 66
     1
 10
0
 20
0
  0
VERTEX
  8
0
  6
CONTINUOUS
 62
     7
 10
248.9574
 20
66.392586
 42
-0.037645749
  0
VERTEX
  8
0
  6
CONTINUOUS
 62
     7
 10
246.49182
 20
65.205885
 42
-0.042544968
  0
VERTEX
  8
0
  6
CONTINUOUS
 62
     7
 10
243.87023
 20
64.425977
 42
-0.050467933
  0
VERTEX
  8
0
  6
CONTINUOUS
 62
     7
 10
241.15161
 20
64.142586
 42
0
  0
SEQEND
  8
0
  0
POLYLINE
  8
0
  6
CONTINUOUS
 62
     7
 66
     1
 10
0
 20
0
  0
VERTEX
  8
0
  6
CONTINUOUS
 62
     7
 10
248.9574
 20
66.392586
 42
0.10378429
  0
VERTEX
  8
0
  6
CONTINUOUS
 62
     7
 10
251.36405
 20
64.496656
 42
0.23752966
  0
VERTEX
  8
0
  6
CONTINUOUS
 62
     7
 10
254.34454
 20
64.49647
 42
0.10380928
  0
VERTEX
  8
0
  6
CONTINUOUS
 62
     7
 10
256.75162
 20
66.392586
 42
0
  0
SEQEND
  8
0
  0
POLYLINE
  8
0
  6
CONTINUOUS
 62
     7
 66
     1
 10
0
 20
0
  0
VERTEX
  8
0
  6
CONTINUOUS
 62
     7
 10
248.9574
 20
77.392586
 42
-0.10378429
  0
VERTEX
  8
0
  6
CONTINUOUS
 62
     7
 10
251.36405
 20
79.288516
 42
-0.23752966
  0
VERTEX
  8
0
  6
CONTINUOUS
 62
     7
 10
254.34454
 20
79.288702
 42
-0.10380928
  0
VERTEX
  8
0
  6
CONTINUOUS
 62
     7
 10
256.75162
 20
77.392586
 42
0
  0
SEQEND
  8
0
  0
POLYLINE
  8
0
  6
CONTINUOUS
 62
     7
 66
     1
 10
0
 20
0
  0
VERTEX
  8
0
  6
CONTINUOUS
 62
     7
 10
248.9574
 20
77.392586
 42
0.037645749
  0
VERTEX
  8
0
  6
CONTINUOUS
 62
     7
 10
246.49182
 20
78.579286
 42
0.042544968
  0
VERTEX
  8
0
  6
CONTINUOUS
 62
     7
 10
243.87023
 20
79.359194
 42
0.050467933
  0
VERTEX
  8
0
  6
CONTINUOUS
 62
     7
 10
241.15161
 20
79.642586
 42
0
  0
SEQEND
  8
0
  0
POLYLINE
  8
0
  6
CONTINUOUS
 62
     7
 66
     1
 10
0
 20
0
  0
VERTEX
  8
0
  6
CONTINUOUS
 62
     7
 10
233.34586
 20
77.392586
 42
-0.03764528
  0
VERTEX
  8
0
  6
CONTINUOUS
 62
     7
 10
235.81142
 20
78.579285
 42
-0.042545253
  0
VERTEX
  8
0
  6
CONTINUOUS
 62
     7
 10
238.433
 20
79.359195
 42
-0.050468174
  0
VERTEX
  8
0
  6
CONTINUOUS
 62
     7
 10
241.15161
 20
79.642586
 42
0
  0
SEQEND
  8
0
  0
POLYLINE
  8
0
  6
CONTINUOUS
 62
     7
 66
     1
 10
0
 20
0
  0
VERTEX
  8
0
  6
CONTINUOUS
 62
     7
 10
233.34586
 20
77.392586
 42
0.10378463
  0
VERTEX
  8
0
  6
CONTINUOUS
 62
     7
 10
230.93919
 20
79.288512
 42
0.23752989
  0
VERTEX
  8
0
  6
CONTINUOUS
 62
     7
 10
227.95868
 20
79.2887
 42
0.10380902
  0
VERTEX
  8
0
  6
CONTINUOUS
 62
     7
 10
225.55161
 20
77.392586
 42
0
  0
SEQEND
  8
0
  0
POLYLINE
  8
0
  6
CONTINUOUS
 62
     7
 66
     1
 10
0
 20
0
  0
VERTEX
  8
0
  6
CONTINUOUS
 62
     7
 10
1098.0143
 20
-73.302071
 42
-0.037645749
  0
VERTEX
  8
0
  6
CONTINUOUS
 62
     7
 10
1095.5487
 20
-74.488771
 42
-0.042544968
  0
VERTEX
  8
0
  6
CONTINUOUS
 62
     7
 10
1092.9271
 20
-75.268679
 42
-0.050467933
  0
VERTEX
  8
0
  6
CONTINUOUS
 62
     7
 10
1090.2085
 20
-75.552071
 42
0
  0
SEQEND
  8
0
  0
POLYLINE
  8
0
  6
CONTINUOUS
 62
     7
 66
     1
 10
0
 20
0
  0
VERTEX
  8
0
  6
CONTINUOUS
 62
     7
 10
1098.0143
 20
-73.302071
 42
0.10378388
  0
VERTEX
  8
0
  6
CONTINUOUS
 62
     7
 10
1100.4209
 20
-75.197997
 42
0.23753115
  0
VERTEX
  8
0
  6
CONTINUOUS
 62
     7
 10
1103.4014
 20
-75.198185
 42
0.10380826
  0
VERTEX
  8
0
  6
CONTINUOUS
 62
     7
 10
1105.8085
 20
-73.302071
 42
0
  0
SEQEND
  8
0
  0
POLYLINE
  8
0
  6
CONTINUOUS
 62
     7
 66
     1
 10
0
 20
0
  0
VERTEX
  8
0
  6
CONTINUOUS
 62
     7
 10
1098.0143
 20
-62.302071
 42
-0.10378388
  0
VERTEX
  8
0
  6
CONTINUOUS
 62
     7
 10
1100.4209
 20
-60.406144
 42
-0.23753115
  0
VERTEX
  8
0
  6
CONTINUOUS
 62
     7
 10
1103.4014
 20
-60.405956
 42
-0.10380826
  0
VERTEX
  8
0
  6
CONTINUOUS
 62
     7
 10
1105.8085
 20
-62.302071
 42
0
  0
SEQEND
  8
0
  0
POLYLINE
  8
0
  6
CONTINUOUS
 62
     7
 66
     1
 10
0
 20
0
  0
VERTEX
  8
0
  6
CONTINUOUS
 62
     7
 10
1098.0143
 20
-62.302071
 42
0.037645749
  0
VERTEX
  8
0
  6
CONTINUOUS
 62
     7
 10
1095.5487
 20
-61.11537
 42
0.042544968
  0
VERTEX
  8
0
  6
CONTINUOUS
 62
     7
 10
1092.9271
 20
-60.335462
 42
0.050467933
  0
VERTEX
  8
0
  6
CONTINUOUS
 62
     7
 10
1090.2085
 20
-60.052071
 42
0
  0
SEQEND
  8
0
  0
POLYLINE
  8
0
  6
CONTINUOUS
 62
     7
 66
     1
 10
0
 20
0
  0
VERTEX
  8
0
  6
CONTINUOUS
 62
     7
 10
1082.4027
 20
-62.302071
 42
-0.037645749
  0
VERTEX
  8
0
  6
CONTINUOUS
 62
     7
 10
1084.8683
 20
-61.11537
 42
-0.042544968
  0
VERTEX
  8
0
  6
CONTINUOUS
 62
     7
 10
1087.4899
 20
-60.335462
 42
-0.050467933
  0
VERTEX
  8
0
  6
CONTINUOUS
 62
     7
 10
1090.2085
 20
-60.052071
 42
0
  0
SEQEND
  8
0
  0
POLYLINE
  8
0
  6
CONTINUOUS
 62
     7
 66
     1
 10
0
 20
0
  0
VERTEX
  8
0
  6
CONTINUOUS
 62
     7
 10
1082.4027
 20
-62.302071
 42
0.10378553
  0
VERTEX
  8
0
  6
CONTINUOUS
 62
     7
 10
1079.996
 20
-60.40613
 42
0.23752518
  0
VERTEX
  8
0
  6
CONTINUOUS
 62
     7
 10
1077.0156
 20
-60.40595
 42
0.10381232
  0
VERTEX
  8
0
  6
CONTINUOUS
 62
     7
 10
1074.6084
 20
-62.302071
 42
0
  0
SEQEND
  8
0
  0
POLYLINE
  8
0
  6
CONTINUOUS
 62
     7
 66
     1
 10
0
 20
0
  0
VERTEX
  8
0
  6
CONTINUOUS
 62
     7
 10
844.40271
 20
-73.302071
 42
0.037644811
  0
VERTEX
  8
0
  6
CONTINUOUS
 62
     7
 10
846.86826
 20
-74.488769
 42
0.042545538
  0
VERTEX
  8
0
  6
CONTINUOUS
 62
     7
 10
849.48984
 20
-75.26868
 42
0.050468415
  0
VERTEX
  8
0
  6
CONTINUOUS
 62
     7
 10
852.20844
 20
-75.552071
 42
0
  0
SEQEND
  8
0
  0
POLYLINE
  8
0
  6
CONTINUOUS
 62
     7
 66
     1
 10
0
 20
0
  0
VERTEX
  8
0
  6
CONTINUOUS
 62
     7
 10
844.40271
 20
-73.302071
 42
-0.10378456
  0
VERTEX
  8
0
  6
CONTINUOUS
 62
     7
 10
841.99604
 20
-75.19799
 42
-0.23753162
  0
VERTEX
  8
0
  6
CONTINUOUS
 62
     7
 10
839.01551
 20
-75.198181
 42
-0.10380775
  0
VERTEX
  8
0
  6
CONTINUOUS
 62
     7
 10
836.60846
 20
-73.302071
 42
0
  0
SEQEND
  8
0
  0
POLYLINE
  8
0
  6
CONTINUOUS
 62
     7
 66
     1
 10
0
 20
0
  0
VERTEX
  8
0
  6
CONTINUOUS
 62
     7
 10
860.01422
 20
-62.302071
 42
-0.1037847
  0
VERTEX
  8
0
  6
CONTINUOUS
 62
     7
 10
862.42088
 20
-60.406137
 42
-0.23752816
  0
VERTEX
  8
0
  6
CONTINUOUS
 62
     7
 10
865.40137
 20
-60.405953
 42
-0.10381029
  0
VERTEX
  8
0
  6
CONTINUOUS
 62
     7
 10
867.80847
 20
-62.302071
 42
0
  0
SEQEND
  8
0
  0
POLYLINE
  8
0
  6
CONTINUOUS
 62
     7
 66
     1
 10
0
 20
0
  0
VERTEX
  8
0
  6
CONTINUOUS
 62
     7
 10
860.01422
 20
-62.302071
 42
0.037645749
  0
VERTEX
  8
0
  6
CONTINUOUS
 62
     7
 10
857.54865
 20
-61.11537
 42
0.042544968
  0
VERTEX
  8
0
  6
CONTINUOUS
 62
     7
 10
854.92705
 20
-60.335462
 42
0.050467933
  0
VERTEX
  8
0
  6
CONTINUOUS
 62
     7
 10
852.20844
 20
-60.052071
 42
0
  0
SEQEND
  8
0
  0
POLYLINE
  8
0
  6
CONTINUOUS
 62
     7
 66
     1
 10
0
 20
0
  0
VERTEX
  8
0
  6
CONTINUOUS
 62
     7
 10
844.40271
 20
-62.302071
 42
-0.037644811
  0
VERTEX
  8
0
  6
CONTINUOUS
 62
     7
 10
846.86826
 20
-61.115372
 42
-0.042545538
  0
VERTEX
  8
0
  6
CONTINUOUS
 62
     7
 10
849.48984
 20
-60.335461
 42
-0.050468415
  0
VERTEX
  8
0
  6
CONTINUOUS
 62
     7
 10
852.20844
 20
-60.052071
 42
0
  0
SEQEND
  8
0
  0
POLYLINE
  8
0
  6
CONTINUOUS
 62
     7
 66
     1
 10
0
 20
0
  0
VERTEX
  8
0
  6
CONTINUOUS
 62
     7
 10
844.40271
 20
-62.302071
 42
0.10378456
  0
VERTEX
  8
0
  6
CONTINUOUS
 62
     7
 10
841.99604
 20
-60.406152
 42
0.23753162
  0
VERTEX
  8
0
  6
CONTINUOUS
 62
     7
 10
839.01551
 20
-60.40596
 42
0.10380775
  0
VERTEX
  8
0
  6
CONTINUOUS
 62
     7
 10
836.60846
 20
-62.302071
 42
0
  0
SEQEND
  8
0
  0
POLYLINE
  8
0
  6
CONTINUOUS
 62
     7
 66
     1
 10
0
 20
0
  0
VERTEX
  8
0
  6
CONTINUOUS
 62
     7
 10
708.62848
 20
-69.288269
 42
0.037644811
  0
VERTEX
  8
0
  6
CONTINUOUS
 62
     7
 10
711.09403
 20
-70.474968
 42
0.042545538
  0
VERTEX
  8
0
  6
CONTINUOUS
 62
     7
 10
713.71561
 20
-71.254879
 42
0.050468415
  0
VERTEX
  8
0
  6
CONTINUOUS
 62
     7
 10
716.4342
 20
-71.538269
 42
0
  0
SEQEND
  8
0
  0
POLYLINE
  8
0
  6
CONTINUOUS
 62
     7
 66
     1
 10
0
 20
0
  0
VERTEX
  8
0
  6
CONTINUOUS
 62
     7
 10
724.23999
 20
-69.288269
 42
-0.037645749
  0
VERTEX
  8
0
  6
CONTINUOUS
 62
     7
 10
721.77442
 20
-70.474969
 42
-0.042544968
  0
VERTEX
  8
0
  6
CONTINUOUS
 62
     7
 10
719.15282
 20
-71.254878
 42
-0.050467933
  0
VERTEX
  8
0
  6
CONTINUOUS
 62
     7
 10
716.4342
 20
-71.538269
 42
0
  0
SEQEND
  8
0
  0
POLYLINE
  8
0
  6
CONTINUOUS
 62
     7
 66
     1
 10
0
 20
0
  0
VERTEX
  8
0
  6
CONTINUOUS
 62
     7
 10
724.23999
 20
-69.288269
 42
0.1037847
  0
VERTEX
  8
0
  6
CONTINUOUS
 62
     7
 10
726.64665
 20
-71.184203
 42
0.23752816
  0
VERTEX
  8
0
  6
CONTINUOUS
 62
     7
 10
729.62713
 20
-71.184386
 42
0.10381029
  0
VERTEX
  8
0
  6
CONTINUOUS
 62
     7
 10
732.03424
 20
-69.288269
 42
0
  0
SEQEND
  8
0
  0
POLYLINE
  8
0
  6
CONTINUOUS
 62
     7
 66
     1
 10
0
 20
0
  0
VERTEX
  8
0
  6
CONTINUOUS
 62
     7
 10
724.23999
 20
-58.288273
 42
-0.1037847
  0
VERTEX
  8
0
  6
CONTINUOUS
 62
     7
 10
726.64665
 20
-56.392339
 42
-0.23752816
  0
VERTEX
  8
0
  6
CONTINUOUS
 62
     7
 10
729.62713
 20
-56.392155
 42
-0.10381029
  0
VERTEX
  8
0
  6
CONTINUOUS
 62
     7
 10
732.03424
 20
-58.288273
 42
0
  0
SEQEND
  8
0
  0
POLYLINE
  8
0
  6
CONTINUOUS
 62
     7
 66
     1
 10
0
 20
0
  0
VERTEX
  8
0
  6
CONTINUOUS
 62
     7
 10
724.23999
 20
-58.288273
 42
0.037645749
  0
VERTEX
  8
0
  6
CONTINUOUS
 62
     7
 10
721.77442
 20
-57.101572
 42
0.042544968
  0
VERTEX
  8
0
  6
CONTINUOUS
 62
     7
 10
719.15282
 20
-56.321664
 42
0.050467933
  0
VERTEX
  8
0
  6
CONTINUOUS
 62
     7
 10
716.4342
 20
-56.038273
 42
0
  0
SEQEND
  8
0
  0
POLYLINE
  8
0
  6
CONTINUOUS
 62
     7
 66
     1
 10
0
 20
0
  0
VERTEX
  8
0
  6
CONTINUOUS
 62
     7
 10
708.62848
 20
-58.288273
 42
-0.037644811
  0
VERTEX
  8
0
  6
CONTINUOUS
 62
     7
 10
711.09403
 20
-57.101574
 42
-0.042545538
  0
VERTEX
  8
0
  6
CONTINUOUS
 62
     7
 10
713.71561
 20
-56.321663
 42
-0.050468415
  0
VERTEX
  8
0
  6
CONTINUOUS
 62
     7
 10
716.4342
 20
-56.038273
 42
0
  0
SEQEND
  8
0
  0
POLYLINE
  8
0
  6
CONTINUOUS
 62
     7
 66
     1
 10
0
 20
0
  0
VERTEX
  8
0
  6
CONTINUOUS
 62
     7
 10
708.62848
 20
-58.288273
 42
0.10378456
  0
VERTEX
  8
0
  6
CONTINUOUS
 62
     7
 10
706.22181
 20
-56.392354
 42
0.23753162
  0
VERTEX
  8
0
  6
CONTINUOUS
 62
     7
 10
703.24128
 20
-56.392162
 42
0.10380775
  0
VERTEX
  8
0
  6
CONTINUOUS
 62
     7
 10
700.83423
 20
-58.288273
 42
0
  0
SEQEND
  8
0
  0
TEXT
  8
0
  6
CONTINUOUS
 62
     7
 10
-339.87433
 20
126.81413
 40
14
 41
1.0129871
  1
21/2
  0
TEXT
  8
0
  6
CONTINUOUS
 62
     7
 10
-183.98606
 20
140.62703
 40
14
 41
1.0714291
  1
3
  0
TEXT
  8
0
  6
CONTINUOUS
 62
     7
 10
-43.883921
 20
148.5201
 40
14
 41
1.0714291
  1
4
  0
TEXT
  8
0
  6
CONTINUOUS
 62
     7
 10
92.271673
 20
162.33299
 40
14
 41
1.0714291
  1
5
  0
TEXT
  8
0
  6
CONTINUOUS
 62
     7
 10
234.34707
 20
176.14587
 40
14
 41
1.0714291
  1
6
  0
TEXT
  8
0
  6
CONTINUOUS
 62
     7
 10
-360.94851
 20
233.23981
 40
15
 41
0.84306452
  1
ＴＯＰ－Ｊ　Ｒ－０　５サイス゛
  0
TEXT
  8
0
  6
CONTINUOUS
 62
     7
 10
-343.82089
 20
-494.76575
 40
14
 41
1.0129871
  1
21/2
  0
TEXT
  8
0
  6
CONTINUOUS
 62
     7
 10
-182.01279
 20
-471.08652
 40
14
 41
1.0714291
  1
3
  0
TEXT
  8
0
  6
CONTINUOUS
 62
     7
 10
-47.830462
 20
-457.27362
 40
14
 41
1.0714291
  1
4
  0
TEXT
  8
0
  6
CONTINUOUS
 62
     7
 10
96.218214
 20
-439.51419
 40
14
 41
1.0714291
  1
5
  0
TEXT
  8
0
  6
CONTINUOUS
 62
     7
 10
236.32034
 20
-429.64786
 40
14
 41
1.0714291
  1
6
  0
TEXT
  8
0
  6
CONTINUOUS
 62
     7
 10
559.42187
 20
233.01947
 40
14
 41
1.0129871
  1
21/2
  0
TEXT
  8
0
  6
CONTINUOUS
 62
     7
 10
796.56598
 20
236.50688
 40
14
 41
1.0714291
  1
3
  0
TEXT
  8
0
  6
CONTINUOUS
 62
     7
 10
1033.71
 20
248.13159
 40
14
 41
1.0714291
  1
4
  0
TEXT
  8
0
  6
CONTINUOUS
 62
     7
 10
608.24157
 20
7.9623184
 40
14
 41
1.0714291
  1
5
  0
TEXT
  8
0
  6
CONTINUOUS
 62
     7
 10
963.96173
 20
20.287306
 40
14
 41
1.0714291
  1
6
  0
POINT
  8
1
  6
CONTINUOUS
 62
     7
 10
1264
 20
-907.5
  0
LINE
  8
1
  6
CONTINUOUS
 62
     7
 10
420
 20
-902.5
 11
1259
 21
-902.5
  0
LINE
  8
1
  6
CONTINUOUS
 62
     7
 10
420
 20
-307.5
 11
420
 21
-902.5
  0
LINE
  8
1
  6
CONTINUOUS
 62
     7
 10
1259
 20
-307.5
 11
1259
 21
-902.5
  0
LINE
  8
1
  6
CONTINUOUS
 62
     7
 10
420
 20
-307.5
 11
1259
 21
-307.5
  0
LINE
  8
1
  6
CONTINUOUS
 62
     7
 10
420
 20
297.5
 11
420
 21
-297.5
  0
LINE
  8
1
  6
CONTINUOUS
 62
     7
 10
420
 20
-297.5
 11
1259
 21
-297.5
  0
LINE
  8
1
  6
CONTINUOUS
 62
     7
 10
420
 20
297.5
 11
1259
 21
297.5
  0
LINE
  8
1
  6
CONTINUOUS
 62
     7
 10
1259
 20
297.5
 11
1259
 21
-297.5
  0
LINE
  8
1
  6
CONTINUOUS
 62
     7
 10
-429
 20
-307.5
 11
410
 21
-307.5
  0
LINE
  8
1
  6
CONTINUOUS
 62
     7
 10
-429
 20
-307.5
 11
-429
 21
-902.5
  0
LINE
  8
1
  6
CONTINUOUS
 62
     7
 10
410
 20
-307.5
 11
410
 21
-902.5
  0
LINE
  8
1
  6
CONTINUOUS
 62
     7
 10
-429
 20
-902.5
 11
410
 21
-902.5
  0
LINE
  8
1
  6
CONTINUOUS
 62
     7
 10
-429
 20
-297.5
 11
410
 21
-297.5
  0
LINE
  8
1
  6
CONTINUOUS
 62
     7
 10
410
 20
297.5
 11
410
 21
-297.5
  0
LINE
  8
1
  6
CONTINUOUS
 62
     7
 10
-429
 20
297.5
 11
-429
 21
-297.5
  0
LINE
  8
1
  6
CONTINUOUS
 62
     7
 10
-429
 20
297.5
 11
410
 21
297.5
  0
ENDSEC
  0
EOF
