  0
SECTION
  2
HEADER
  9
$EXTMAX
 10
1264
 20
302.5
  9
$EXTMIN
 10
-434
 20
-907.5
  0
ENDSEC
  0
SECTION
  2
TABLES
  0
TABLE
  2
LTYPE
 70
    22
  0
LTYPE
  2
CONTINUOUS
 70
    64
  3
Solid line
 72
    65
 73
     0
 40
0.000000
  0
LTYPE
  2
DASHED
 70
    64
  3
__ __ __ __ __ __ __ __ __ __ __ __ __ __ __
 72
    65
 73
     2
 40
3.500000
 49
2.000000
 49
-1.500000
  0
LTYPE
  2
CENTER
 70
    64
  3
____ _ ____ _ ____ _ ____ _ ____ _ ____ _ ____
 72
    65
 73
     4
 40
17.500000
 49
13.000000
 49
-1.500000
 49
1.500000
 49
-1.500000
  0
LTYPE
  2
PHANTOM
 70
    64
  3
_____ _ _ _____ _ _ _____ _ _ _____ _ _ ____  
 72
    65
 73
     6
 40
15.500000
 49
8.000000
 49
-1.500000
 49
1.500000
 49
-1.500000
 49
1.500000
 49
-1.500000
  0
LTYPE
  2
DOT
 70
    64
  3
. . . . . . . . . . . . . . . . . . . . . . . .
 72
    65
 73
     2
 40
0.25
 49
0.0
 49
-0.25
  0
ENDTAB
  0
TABLE
  2
LAYER
 70
     2
  0
LAYER
  2
0
 70
     0
 62
     7
  6
CONTINUOUS
  0
LAYER
  2
1
 70
     0
 62
     7
  6
CONTINUOUS
  0
ENDTAB
  0
TABLE
  2
STYLE
 70
     1
  0
STYLE
  2
STANDARD
 70
     0
 40
0.000000
 41
1.000000
 50
0.000000
 71
     0
 42
0.200000
  3
txt
  4
BIGFONT
  0
ENDTAB
  0
TABLE
  2
VIEW
 70
     0
  0
ENDTAB
  0
ENDSEC
  0
SECTION
  2
BLOCKS
  0
ENDSEC
  0
SECTION
  2
ENTITIES
  0
POINT
  8
0
  6
CONTINUOUS
 62
     7
 10
-129.2464
 20
91.85392
  0
POINT
  8
0
  6
CONTINUOUS
 62
     7
 10
-164.8
 20
-168.10356
  0
POINT
  8
0
  6
CONTINUOUS
 62
     7
 10
12.934719
 20
-614.92267
  0
POINT
  8
0
  6
CONTINUOUS
 62
     7
 10
958.20538
 20
-11.220401
  0
POINT
  8
0
  6
CONTINUOUS
 62
     7
 10
-292.37033
 20
91.85392
  0
POINT
  8
0
  6
CONTINUOUS
 62
     7
 10
47.687317
 20
-17.177988
  0
POINT
  8
0
  6
CONTINUOUS
 62
     7
 10
-337.63522
 20
-168.10356
  0
POINT
  8
0
  6
CONTINUOUS
 62
     7
 10
-225.63988
 20
-614.92267
  0
POINT
  8
0
  6
CONTINUOUS
 62
     7
 10
667.60297
 20
-11.220401
  0
POINT
  8
0
  6
CONTINUOUS
 62
     7
 10
252.10114
 20
-17.177988
  0
LINE
  8
0
  6
CENTER
 62
     7
 10
-307.00775
 20
91.85392
 11
-259.25699
 21
91.85392
  0
LINE
  8
0
  6
CONTINUOUS
 62
     7
 10
-292.37033
 20
179.35393
 11
-292.37033
 21
4.3539181
  0
LINE
  8
0
  6
CONTINUOUS
 62
     7
 10
-273.37033
 20
179.35393
 11
-273.37033
 21
4.3539181
  0
LINE
  8
0
  6
CONTINUOUS
 62
     7
 10
-292.37033
 20
179.35393
 11
-273.37033
 21
179.35393
  0
LINE
  8
0
  6
CONTINUOUS
 62
     7
 10
-292.37033
 20
4.3539181
 11
-273.37033
 21
4.3539181
  0
LINE
  8
0
  6
CENTER
 62
     7
 10
-129.2464
 20
188.16843
 11
-129.2464
 21
-12.114362
  0
LINE
  8
0
  6
CONTINUOUS
 62
     7
 10
-283.27032
 20
74.35392
 11
-273.37033
 21
74.35392
  0
LINE
  8
0
  6
CONTINUOUS
 62
     7
 10
-282.47034
 20
109.35393
 11
-282.47034
 21
74.35392
  0
LINE
  8
0
  6
CONTINUOUS
 62
     7
 10
-292.37033
 20
109.35393
 11
-282.47034
 21
109.35393
  0
LINE
  8
0
  6
CONTINUOUS
 62
     7
 10
-283.27032
 20
109.35393
 11
-283.27032
 21
74.35392
  0
LINE
  8
0
  6
CONTINUOUS
 62
     7
 10
-272.37033
 20
141.85393
 11
-272.37033
 21
41.853916
  0
LINE
  8
0
  6
CONTINUOUS
 62
     7
 10
-273.37033
 20
141.85393
 11
-272.37033
 21
141.85393
  0
LINE
  8
0
  6
CONTINUOUS
 62
     7
 10
-273.37033
 20
41.853916
 11
-272.37033
 21
41.853916
  0
LINE
  8
0
  6
CONTINUOUS
 62
     7
 10
-337.63522
 20
-75.603561
 11
-337.63522
 21
-260.60355
  0
LINE
  8
0
  6
CONTINUOUS
 62
     7
 10
-318.63522
 20
-75.603561
 11
-318.63522
 21
-260.60355
  0
LINE
  8
0
  6
CONTINUOUS
 62
     7
 10
-317.63522
 20
-113.10356
 11
-317.63522
 21
-223.10356
  0
LINE
  8
0
  6
CENTER
 62
     7
 10
-164.8
 20
-58.228642
 11
-164.8
 21
-273.95331
  0
LINE
  8
0
  6
CONTINUOUS
 62
     7
 10
-337.63522
 20
-260.60355
 11
-318.63522
 21
-260.60355
  0
LINE
  8
0
  6
CONTINUOUS
 62
     7
 10
-337.63522
 20
-75.603561
 11
-318.63522
 21
-75.603561
  0
LINE
  8
0
  6
CONTINUOUS
 62
     7
 10
-318.63522
 20
-113.10356
 11
-317.63522
 21
-113.10356
  0
LINE
  8
0
  6
CONTINUOUS
 62
     7
 10
-318.63522
 20
-223.10356
 11
-317.63522
 21
-223.10356
  0
LINE
  8
0
  6
CONTINUOUS
 62
     7
 10
-328.53522
 20
-150.60356
 11
-328.53522
 21
-185.60356
  0
LINE
  8
0
  6
CONTINUOUS
 62
     7
 10
-327.73523
 20
-150.60356
 11
-327.73523
 21
-185.60356
  0
LINE
  8
0
  6
CONTINUOUS
 62
     7
 10
-337.63522
 20
-150.60356
 11
-327.73523
 21
-150.60356
  0
LINE
  8
0
  6
CONTINUOUS
 62
     7
 10
-328.53522
 20
-185.60356
 11
-318.63522
 21
-185.60356
  0
LINE
  8
0
  6
CENTER
 62
     7
 10
-91.672333
 20
-94.975891
 11
-246.70158
 21
-250.00514
  0
LINE
  8
0
  6
CENTER
 62
     7
 10
-241.40146
 20
-91.50209
 11
-88.566017
 21
-244.33754
  0
LINE
  8
0
  6
CENTER
 62
     7
 10
-350.129
 20
-168.10356
 11
-308.15689
 21
-168.10356
  0
LINE
  8
0
  6
CENTER
 62
     7
 10
32.328823
 20
-17.177988
 11
81.296272
 21
-17.177988
  0
LINE
  8
0
  6
CONTINUOUS
 62
     7
 10
47.687317
 20
87.822014
 11
47.687317
 21
-122.17799
  0
LINE
  8
0
  6
CONTINUOUS
 62
     7
 10
66.687317
 20
87.822014
 11
66.687317
 21
-122.17799
  0
LINE
  8
0
  6
CONTINUOUS
 62
     7
 10
68.187317
 20
50.32201
 11
68.187317
 21
-84.677986
  0
LINE
  8
0
  6
CONTINUOUS
 62
     7
 10
47.687317
 20
-122.17799
 11
66.687317
 21
-122.17799
  0
LINE
  8
0
  6
CONTINUOUS
 62
     7
 10
47.687317
 20
87.822014
 11
66.687317
 21
87.822014
  0
LINE
  8
0
  6
CENTER
 62
     7
 10
252.10114
 20
97.822014
 11
252.10114
 21
-132.17799
  0
LINE
  8
0
  6
CONTINUOUS
 62
     7
 10
66.687317
 20
50.32201
 11
68.187317
 21
50.32201
  0
LINE
  8
0
  6
CONTINUOUS
 62
     7
 10
66.687317
 20
-84.677986
 11
68.187317
 21
-84.677986
  0
LINE
  8
0
  6
CENTER
 62
     7
 10
170.78386
 20
64.13929
 11
333.41843
 21
-98.495262
  0
LINE
  8
0
  6
CENTER
 62
     7
 10
170.78384
 20
-98.495262
 11
333.41843
 21
64.139297
  0
LINE
  8
0
  6
CONTINUOUS
 62
     7
 10
47.687317
 20
0.32201123
 11
57.587318
 21
0.32201123
  0
LINE
  8
0
  6
CONTINUOUS
 62
     7
 10
56.787319
 20
-34.67799
 11
66.687317
 21
-34.67799
  0
LINE
  8
0
  6
CONTINUOUS
 62
     7
 10
56.787319
 20
0.32201123
 11
56.787319
 21
-34.67799
  0
LINE
  8
0
  6
CONTINUOUS
 62
     7
 10
57.587318
 20
0.32201123
 11
57.587318
 21
-34.67799
  0
LINE
  8
0
  6
CENTER
 62
     7
 10
-239.42288
 20
-614.92267
 11
-192.4541
 21
-614.92267
  0
LINE
  8
0
  6
CONTINUOUS
 62
     7
 10
-225.63988
 20
-489.9227
 11
-225.63988
 21
-739.92267
  0
LINE
  8
0
  6
CONTINUOUS
 62
     7
 10
-204.63988
 20
-489.9227
 11
-204.63988
 21
-739.92267
  0
LINE
  8
0
  6
CONTINUOUS
 62
     7
 10
-204.13988
 20
-533.92267
 11
-204.13988
 21
-695.92267
  0
LINE
  8
0
  6
CONTINUOUS
 62
     7
 10
-225.63988
 20
-739.92267
 11
-204.63988
 21
-739.92267
  0
LINE
  8
0
  6
CONTINUOUS
 62
     7
 10
-225.63988
 20
-489.9227
 11
-204.63988
 21
-489.9227
  0
LINE
  8
0
  6
CONTINUOUS
 62
     7
 10
-204.63988
 20
-533.92267
 11
-204.13988
 21
-533.92267
  0
LINE
  8
0
  6
CONTINUOUS
 62
     7
 10
-204.63988
 20
-695.92267
 11
-204.13988
 21
-695.92267
  0
LINE
  8
0
  6
CENTER
 62
     7
 10
12.934719
 20
-479.9227
 11
12.934719
 21
-749.92267
  0
LINE
  8
0
  6
CENTER
 62
     7
 10
-82.524696
 20
-519.46326
 11
108.39413
 21
-710.38208
  0
LINE
  8
0
  6
CENTER
 62
     7
 10
-82.524719
 20
-710.38214
 11
108.39413
 21
-519.46326
  0
LINE
  8
0
  6
CONTINUOUS
 62
     7
 10
-215.53987
 20
-594.92267
 11
-215.53987
 21
-634.92267
  0
LINE
  8
0
  6
CONTINUOUS
 62
     7
 10
-214.73988
 20
-594.92267
 11
-214.73988
 21
-634.92267
  0
LINE
  8
0
  6
CONTINUOUS
 62
     7
 10
-225.63988
 20
-594.92267
 11
-214.73988
 21
-594.92267
  0
LINE
  8
0
  6
CONTINUOUS
 62
     7
 10
-215.53987
 20
-634.92267
 11
-204.63988
 21
-634.92267
  0
LINE
  8
0
  6
CENTER
 62
     7
 10
651.2406
 20
-11.220401
 11
702.54883
 21
-11.220401
  0
LINE
  8
0
  6
CONTINUOUS
 62
     7
 10
667.60297
 20
128.7796
 11
667.60297
 21
-151.2204
  0
LINE
  8
0
  6
CONTINUOUS
 62
     7
 10
690.60297
 20
128.7796
 11
690.60297
 21
-151.2204
  0
LINE
  8
0
  6
CONTINUOUS
 62
     7
 10
667.60297
 20
-151.2204
 11
690.60297
 21
-151.2204
  0
LINE
  8
0
  6
CONTINUOUS
 62
     7
 10
667.60297
 20
128.7796
 11
690.60297
 21
128.7796
  0
LINE
  8
0
  6
CENTER
 62
     7
 10
958.20538
 20
138.7796
 11
958.20538
 21
-161.2204
  0
LINE
  8
0
  6
CENTER
 62
     7
 10
852.13934
 20
94.845619
 11
1064.2714
 21
-117.28642
  0
LINE
  8
0
  6
CENTER
 62
     7
 10
852.13934
 20
-117.28642
 11
1064.2714
 21
94.845619
  0
LINE
  8
0
  6
CONTINUOUS
 62
     7
 10
678.703
 20
8.7795992
 11
678.703
 21
-31.2204
  0
LINE
  8
0
  6
CONTINUOUS
 62
     7
 10
679.50299
 20
8.7795992
 11
679.50299
 21
-31.2204
  0
LINE
  8
0
  6
CONTINUOUS
 62
     7
 10
667.60297
 20
8.7795992
 11
679.50299
 21
8.7795992
  0
LINE
  8
0
  6
CONTINUOUS
 62
     7
 10
678.703
 20
-31.2204
 11
690.60297
 21
-31.2204
  0
LINE
  8
0
  6
CENTER
 62
     7
 10
-125.4986
 20
-614.92267
 11
147.93472
 21
-614.92267
  0
LINE
  8
0
  6
CENTER
 62
     7
 10
132.28232
 20
-17.177988
 11
367.10114
 21
-17.177988
  0
LINE
  8
0
  6
CENTER
 62
     7
 10
-224.26695
 20
91.85392
 11
-30.395817
 21
91.85392
  0
LINE
  8
0
  6
CENTER
 62
     7
 10
-269.1828
 20
-168.10356
 11
-48.116028
 21
-168.10356
  0
LINE
  8
0
  6
CENTER
 62
     7
 10
808.47845
 20
-11.220401
 11
1108.2054
 21
-11.220401
  0
LINE
  8
0
  6
CENTER
 62
     7
 10
-308.99112
 20
161.85393
 11
-257.26031
 21
161.85393
  0
LINE
  8
0
  6
CENTER
 62
     7
 10
-306.96246
 20
21.853918
 11
-257.26031
 21
21.853918
  0
LINE
  8
0
  6
CENTER
 62
     7
 10
-353.67371
 20
-93.103561
 11
-304.9859
 21
-93.103561
  0
LINE
  8
0
  6
CENTER
 62
     7
 10
-352.65936
 20
-243.10356
 11
-301.9429
 21
-243.10356
  0
LINE
  8
0
  6
CENTER
 62
     7
 10
30.249895
 20
70.322014
 11
80.966354
 21
70.322014
  0
LINE
  8
0
  6
CENTER
 62
     7
 10
30.249895
 20
-104.67799
 11
79.952026
 21
-104.67799
  0
LINE
  8
0
  6
CENTER
 62
     7
 10
-241.59032
 20
-509.92267
 11
-187.83087
 21
-509.92267
  0
LINE
  8
0
  6
CENTER
 62
     7
 10
-245.64764
 20
-719.92267
 11
-186.81654
 21
-719.92267
  0
LINE
  8
0
  6
CENTER
 62
     7
 10
651.01935
 20
108.7796
 11
706.80743
 21
108.7796
  0
LINE
  8
0
  6
CENTER
 62
     7
 10
651.01935
 20
-131.2204
 11
708.83612
 21
-131.2204
  0
CIRCLE
  8
0
  6
CONTINUOUS
 62
     7
 10
-129.2464
 20
91.85392
 40
87.5
  0
CIRCLE
  8
0
  6
CENTER
 62
     7
 10
-129.2464
 20
91.85392
 40
70
  0
ARC
  8
0
  6
CONTINUOUS
 62
     7
 10
-199.2464
 20
91.85392
 40
17.5
 50
179.99999
 51
1.0017913E-005
  0
CIRCLE
  8
0
  6
CONTINUOUS
 62
     7
 10
-129.2464
 20
91.85392
 40
50
  0
ARC
  8
0
  6
CONTINUOUS
 62
     7
 10
-59.246395
 20
91.85392
 40
17.5
 50
0
 51
180.00001
  0
CIRCLE
  8
0
  6
CONTINUOUS
 62
     7
 10
-164.8
 20
-168.10356
 40
92.5
  0
CIRCLE
  8
0
  6
CENTER
 62
     7
 10
-164.8
 20
-168.10356
 40
75
  0
ARC
  8
0
  6
CONTINUOUS
 62
     7
 10
-239.8
 20
-168.10356
 40
17.5
 50
179.99999
 51
1.0017913E-005
  0
ARC
  8
0
  6
CONTINUOUS
 62
     7
 10
-89.800003
 20
-168.10356
 40
17.5
 50
0
 51
180.00001
  0
CIRCLE
  8
0
  6
CONTINUOUS
 62
     7
 10
-164.8
 20
-168.10356
 40
55
  0
CIRCLE
  8
0
  6
CONTINUOUS
 62
     7
 10
252.10114
 20
-17.177988
 40
105
  0
CIRCLE
  8
0
  6
CENTER
 62
     7
 10
252.10114
 20
-17.177988
 40
87.5
  0
CIRCLE
  8
0
  6
CONTINUOUS
 62
     7
 10
252.10114
 20
-17.177988
 40
67.5
  0
ARC
  8
0
  6
CONTINUOUS
 62
     7
 10
164.60114
 20
-17.177988
 40
17.5
 50
179.99999
 51
1.0017913E-005
  0
ARC
  8
0
  6
CONTINUOUS
 62
     7
 10
339.60114
 20
-17.177988
 40
17.5
 50
0
 51
180.00001
  0
CIRCLE
  8
0
  6
CONTINUOUS
 62
     7
 10
12.934719
 20
-614.92267
 40
125
  0
CIRCLE
  8
0
  6
CONTINUOUS
 62
     7
 10
12.934719
 20
-614.92267
 40
81
  0
CIRCLE
  8
0
  6
CENTER
 62
     7
 10
12.934719
 20
-614.92267
 40
105
  0
ARC
  8
0
  6
CONTINUOUS
 62
     7
 10
-92.065285
 20
-614.92267
 40
20
 50
179.99999
 51
1.0017913E-005
  0
ARC
  8
0
  6
CONTINUOUS
 62
     7
 10
117.93472
 20
-614.92267
 40
20
 50
0
 51
180.00001
  0
CIRCLE
  8
0
  6
CONTINUOUS
 62
     7
 10
958.20538
 20
-11.220401
 40
140
  0
CIRCLE
  8
0
  6
CENTER
 62
     7
 10
958.20538
 20
-11.220401
 40
120
  0
ARC
  8
0
  6
CONTINUOUS
 62
     7
 10
838.20538
 20
-11.220401
 40
20
 50
179.99999
 51
1.0017913E-005
  0
ARC
  8
0
  6
CONTINUOUS
 62
     7
 10
1078.2054
 20
-11.220401
 40
20
 50
0
 51
180.00001
  0
CIRCLE
  8
0
  6
CONTINUOUS
 62
     7
 10
958.20538
 20
-11.220401
 40
97
  0
CIRCLE
  8
0
  6
CONTINUOUS
 62
     7
 10
958.20538
 20
108.7796
 40
11.5
  0
CIRCLE
  8
0
  6
CONTINUOUS
 62
     7
 10
873.3526
 20
73.632416
 40
11.5
  0
CIRCLE
  8
0
  6
CONTINUOUS
 62
     7
 10
838.20538
 20
-11.220401
 40
11.5
  0
CIRCLE
  8
0
  6
CONTINUOUS
 62
     7
 10
873.3526
 20
-96.073212
 40
11.5
  0
CIRCLE
  8
0
  6
CONTINUOUS
 62
     7
 10
958.20538
 20
-131.2204
 40
11.5
  0
CIRCLE
  8
0
  6
CONTINUOUS
 62
     7
 10
1043.0582
 20
-96.073212
 40
11.5
  0
CIRCLE
  8
0
  6
CONTINUOUS
 62
     7
 10
1078.2054
 20
-11.220401
 40
11.5
  0
CIRCLE
  8
0
  6
CONTINUOUS
 62
     7
 10
1043.0582
 20
73.632416
 40
11.5
  0
CIRCLE
  8
0
  6
CONTINUOUS
 62
     7
 10
-129.2464
 20
161.85393
 40
9.5
  0
CIRCLE
  8
0
  6
CONTINUOUS
 62
     7
 10
-59.246395
 20
91.85392
 40
9.5
  0
CIRCLE
  8
0
  6
CONTINUOUS
 62
     7
 10
-129.2464
 20
21.853918
 40
9.5
  0
CIRCLE
  8
0
  6
CONTINUOUS
 62
     7
 10
-199.2464
 20
91.85392
 40
9.5
  0
CIRCLE
  8
0
  6
CONTINUOUS
 62
     7
 10
-217.83301
 20
-115.07055
 40
9.5
  0
CIRCLE
  8
0
  6
CONTINUOUS
 62
     7
 10
-164.8
 20
-93.103561
 40
9.5
  0
CIRCLE
  8
0
  6
CONTINUOUS
 62
     7
 10
-111.76699
 20
-115.07055
 40
9.5
  0
CIRCLE
  8
0
  6
CONTINUOUS
 62
     7
 10
-89.800003
 20
-168.10356
 40
9.5
  0
CIRCLE
  8
0
  6
CONTINUOUS
 62
     7
 10
-111.76699
 20
-221.13657
 40
9.5
  0
CIRCLE
  8
0
  6
CONTINUOUS
 62
     7
 10
-164.8
 20
-243.10356
 40
9.5
  0
CIRCLE
  8
0
  6
CONTINUOUS
 62
     7
 10
-239.8
 20
-168.10356
 40
9.5
  0
CIRCLE
  8
0
  6
CONTINUOUS
 62
     7
 10
-217.83301
 20
-221.13657
 40
9.5
  0
CIRCLE
  8
0
  6
CONTINUOUS
 62
     7
 10
252.10114
 20
70.322014
 40
9.5
  0
CIRCLE
  8
0
  6
CONTINUOUS
 62
     7
 10
313.97299
 20
44.693855
 40
9.5
  0
CIRCLE
  8
0
  6
CONTINUOUS
 62
     7
 10
339.60114
 20
-17.177988
 40
9.5
  0
CIRCLE
  8
0
  6
CONTINUOUS
 62
     7
 10
313.97299
 20
-79.049835
 40
9.5
  0
CIRCLE
  8
0
  6
CONTINUOUS
 62
     7
 10
252.10114
 20
-104.67799
 40
9.5
  0
CIRCLE
  8
0
  6
CONTINUOUS
 62
     7
 10
190.22929
 20
-79.049835
 40
9.5
  0
CIRCLE
  8
0
  6
CONTINUOUS
 62
     7
 10
164.60114
 20
-17.177988
 40
9.5
  0
CIRCLE
  8
0
  6
CONTINUOUS
 62
     7
 10
190.22929
 20
44.693855
 40
9.5
  0
CIRCLE
  8
0
  6
CONTINUOUS
 62
     7
 10
-92.065285
 20
-614.92267
 40
11.1
  0
CIRCLE
  8
0
  6
CONTINUOUS
 62
     7
 10
-61.311493
 20
-540.67645
 40
11.1
  0
CIRCLE
  8
0
  6
CONTINUOUS
 62
     7
 10
87.180931
 20
-540.67645
 40
11.1
  0
CIRCLE
  8
0
  6
CONTINUOUS
 62
     7
 10
117.93472
 20
-614.92267
 40
11.1
  0
CIRCLE
  8
0
  6
CONTINUOUS
 62
     7
 10
87.180931
 20
-689.16888
 40
11.1
  0
CIRCLE
  8
0
  6
CONTINUOUS
 62
     7
 10
12.934719
 20
-719.92267
 40
11.1
  0
CIRCLE
  8
0
  6
CONTINUOUS
 62
     7
 10
-61.311493
 20
-689.16888
 40
11.1
  0
CIRCLE
  8
0
  6
CONTINUOUS
 62
     7
 10
12.934719
 20
-509.9227
 40
11.1
  0
CIRCLE
  8
0
  6
CONTINUOUS
 62
     7
 10
-129.2464
 20
91.85392
 40
36.25
  0
CIRCLE
  8
0
  6
CONTINUOUS
 62
     7
 10
-164.8
 20
-168.10356
 40
42.599998
  0
CIRCLE
  8
0
  6
CONTINUOUS
 62
     7
 10
252.10114
 20
-17.177988
 40
55.200001
  0
CIRCLE
  8
0
  6
CONTINUOUS
 62
     7
 10
12.934719
 20
-614.92267
 40
67.900002
  0
CIRCLE
  8
0
  6
CONTINUOUS
 62
     7
 10
958.20538
 20
-11.220401
 40
80.599998
  0
TEXT
  8
0
  6
CONTINUOUS
 62
     7
 10
-235.28951
 20
191.39864
 40
14
 41
1.0129871
  1
21/2
  0
TEXT
  8
0
  6
CONTINUOUS
 62
     7
 10
-278.88581
 20
-54.035084
 40
14
 41
1.0714291
  1
3
  0
TEXT
  8
0
  6
CONTINUOUS
 62
     7
 10
147.55121
 20
99.26786
 40
14
 41
1.0714291
  1
4
  0
TEXT
  8
0
  6
CONTINUOUS
 62
     7
 10
-129.96552
 20
-481.55908
 40
14
 41
1.071429
  1
5
  0
TEXT
  8
0
  6
CONTINUOUS
 62
     7
 10
783.62903
 20
166.80896
 40
14
 41
1.0714291
  1
6
  0
TEXT
  8
0
  6
CONTINUOUS
 62
     7
 10
-112.55983
 20
147.67061
 40
7
 41
1.0178573
  1
10K
 50
337.5
  0
TEXT
  8
0
  6
CONTINUOUS
 62
     7
 10
-168.42481
 20
136.63971
 40
7
 41
1.0102042
  1
FL-10
 50
22.500001
  0
TEXT
  8
0
  6
CONTINUOUS
 62
     7
 10
-170.18585
 20
154.6095
 40
7
 41
1.0178573
  1
2/E
 50
22.500001
  0
TEXT
  8
0
  6
CONTINUOUS
 62
     7
 10
-148.51571
 20
-107.12597
 40
7
 41
1.0178573
  1
10K
 50
337.5
  0
TEXT
  8
0
  6
CONTINUOUS
 62
     7
 10
-202.86864
 20
-117.64194
 40
7
 41
1.0102042
  1
FL-10
 50
22.500001
  0
TEXT
  8
0
  6
CONTINUOUS
 62
     7
 10
-197.41084
 20
-96.854866
 40
9
 41
1.0714291
  1
3
 50
22.500001
  0
TEXT
  8
0
  6
CONTINUOUS
 62
     7
 10
268.22189
 20
55.256676
 40
10
 41
1.0178573
  1
10K
 50
337.5
  0
TEXT
  8
0
  6
CONTINUOUS
 62
     7
 10
210.56174
 20
45.681451
 40
7
 41
1.0102042
  1
FL-10
 50
22.500001
  0
TEXT
  8
0
  6
CONTINUOUS
 62
     7
 10
214.46469
 20
64.999761
 40
10
 41
1.0714291
  1
4
 50
22.500001
  0
TEXT
  8
0
  6
CONTINUOUS
 62
     7
 10
35.714284
 20
-527.7202
 40
10
 41
1.0178573
  1
10K
 50
337.5
  0
TEXT
  8
0
  6
CONTINUOUS
 62
     7
 10
-34.182481
 20
-537.65531
 40
7
 41
1.0102042
  1
FL-10
 50
22.500001
  0
TEXT
  8
0
  6
CONTINUOUS
 62
     7
 10
-36.037926
 20
-518.57695
 40
10
 41
1.0285716
  1
5E
 50
22.500001
  0
TEXT
  8
0
  6
CONTINUOUS
 62
     7
 10
905.21829
 20
80.368238
 40
7
 41
1.0102042
  1
FL-10
 50
22.500001
  0
TEXT
  8
0
  6
CONTINUOUS
 62
     7
 10
983.72524
 20
90.500259
 40
10
 41
1.0178573
  1
10K
 50
337.5
  0
TEXT
  8
0
  6
CONTINUOUS
 62
     7
 10
903.6161
 20
100.22374
 40
10
 41
1.0285716
  1
6J
 50
22.500001
  0
TEXT
  8
0
  6
CONTINUOUS
 62
     7
 10
-363.20218
 20
244.37297
 40
15
 41
0.84273711
  1
ＴＯＰ－Ｊ　ＦＬ－１０　　５サイズ
  0
TEXT
  8
0
  6
CONTINUOUS
 62
     7
 10
-165.04635
 20
161.49699
 40
3.2
 41
1.0714291
  1
1
 50
22.500001
  0
TEXT
  8
0
  6
CONTINUOUS
 62
     7
 10
-160.04919
 20
158.42181
 40
3.2
 41
1.0714291
  1
2
 50
22.500001
  0
LINE
  8
0
  6
CONTINUOUS
 62
     7
 10
-95.735973
 20
167.36899
 11
-96.207669
 21
166.23022
  0
LINE
  8
0
  6
CONTINUOUS
 62
     7
 10
-96.567465
 20
167.71341
 11
-97.03916
 21
166.57464
  0
LINE
  8
0
  6
CONTINUOUS
 62
     7
 10
-99.53992
 20
160.53727
 11
-100.01162
 21
159.39849
  0
LINE
  8
0
  6
CONTINUOUS
 62
     7
 10
-98.708429
 20
160.19285
 11
-99.180124
 21
159.05408
  0
LINE
  8
0
  6
CONTINUOUS
 62
     7
 10
-97.384827
 20
165.74012
 11
-98.28954
 21
163.55595
  0
LINE
  8
0
  6
CONTINUOUS
 62
     7
 10
-96.553336
 20
165.39571
 11
-97.458049
 21
163.21154
  0
ARC
  8
0
  6
CONTINUOUS
 62
     7
 10
-96.210811
 20
162.69491
 40
1.8
 50
283.50832
 51
31.491675
  0
ARC
  8
0
  6
CONTINUOUS
 62
     7
 10
-96.210811
 20
162.69491
 40
2.7
 50
283.50832
 51
31.491675
  0
ARC
  8
0
  6
CONTINUOUS
 62
     7
 10
-99.536778
 20
164.07257
 40
1.8
 50
103.50833
 51
211.49168
  0
ARC
  8
0
  6
CONTINUOUS
 62
     7
 10
-99.536778
 20
164.07257
 40
2.7
 50
103.50833
 51
211.49168
  0
ARC
  8
0
  6
CONTINUOUS
 62
     7
 10
-98.821598
 20
161.09554
 40
5.7617307
 50
31.491675
 51
63.020552
  0
ARC
  8
0
  6
CONTINUOUS
 62
     7
 10
-98.821598
 20
161.09554
 40
4.8617306
 50
31.491675
 51
62.18912
  0
ARC
  8
0
  6
CONTINUOUS
 62
     7
 10
-96.925991
 20
165.67194
 40
4.8617306
 50
211.49167
 51
283.50832
  0
ARC
  8
0
  6
CONTINUOUS
 62
     7
 10
-96.925991
 20
165.67194
 40
5.7617307
 50
211.49167
 51
243.02055
  0
ARC
  8
0
  6
CONTINUOUS
 62
     7
 10
-96.280875
 20
167.22939
 40
0.5625
 50
14.369897
 51
120.6301
  0
ARC
  8
0
  6
CONTINUOUS
 62
     7
 10
-97.744639
 20
163.69555
 40
0.5625
 50
194.3699
 51
300.6301
  0
ARC
  8
0
  6
CONTINUOUS
 62
     7
 10
-99.466714
 20
159.53809
 40
0.5625
 50
194.3699
 51
300.6301
  0
ARC
  8
0
  6
CONTINUOUS
 62
     7
 10
-98.821598
 20
161.09554
 40
5.7617307
 50
71.979452
 51
103.50833
  0
ARC
  8
0
  6
CONTINUOUS
 62
     7
 10
-98.821598
 20
161.09554
 40
4.8617306
 50
72.810877
 51
103.50833
  0
ARC
  8
0
  6
CONTINUOUS
 62
     7
 10
-96.925991
 20
165.67194
 40
5.7617307
 50
251.97945
 51
283.50832
  0
LINE
  8
0
  6
CONTINUOUS
 62
     7
 10
-130.28614
 20
-86.83008
 11
-130.75784
 21
-87.968854
  0
LINE
  8
0
  6
CONTINUOUS
 62
     7
 10
-131.11764
 20
-86.485665
 11
-131.58933
 21
-87.624439
  0
LINE
  8
0
  6
CONTINUOUS
 62
     7
 10
-134.09009
 20
-93.661807
 11
-134.56179
 21
-94.800581
  0
LINE
  8
0
  6
CONTINUOUS
 62
     7
 10
-133.2586
 20
-94.006222
 11
-133.7303
 21
-95.144996
  0
LINE
  8
0
  6
CONTINUOUS
 62
     7
 10
-131.935
 20
-88.458952
 11
-132.83971
 21
-90.643123
  0
LINE
  8
0
  6
CONTINUOUS
 62
     7
 10
-131.10351
 20
-88.803367
 11
-132.00822
 21
-90.987538
  0
ARC
  8
0
  6
CONTINUOUS
 62
     7
 10
-130.76098
 20
-91.504161
 40
1.8
 50
283.50832
 51
31.491675
  0
ARC
  8
0
  6
CONTINUOUS
 62
     7
 10
-130.76098
 20
-91.504161
 40
2.7
 50
283.50832
 51
31.491675
  0
ARC
  8
0
  6
CONTINUOUS
 62
     7
 10
-134.08695
 20
-90.1265
 40
1.8
 50
103.50833
 51
211.49168
  0
ARC
  8
0
  6
CONTINUOUS
 62
     7
 10
-134.08695
 20
-90.1265
 40
2.7
 50
103.50833
 51
211.49168
  0
ARC
  8
0
  6
CONTINUOUS
 62
     7
 10
-133.37177
 20
-93.103531
 40
5.7617307
 50
31.491675
 51
63.020552
  0
ARC
  8
0
  6
CONTINUOUS
 62
     7
 10
-133.37177
 20
-93.103531
 40
4.8617306
 50
31.491675
 51
62.18912
  0
ARC
  8
0
  6
CONTINUOUS
 62
     7
 10
-131.47616
 20
-88.52713
 40
4.8617306
 50
211.49167
 51
283.50832
  0
ARC
  8
0
  6
CONTINUOUS
 62
     7
 10
-131.47616
 20
-88.52713
 40
5.7617307
 50
211.49167
 51
243.02055
  0
ARC
  8
0
  6
CONTINUOUS
 62
     7
 10
-130.83105
 20
-86.969682
 40
0.5625
 50
14.369897
 51
120.6301
  0
ARC
  8
0
  6
CONTINUOUS
 62
     7
 10
-132.29481
 20
-90.503521
 40
0.5625
 50
194.3699
 51
300.6301
  0
ARC
  8
0
  6
CONTINUOUS
 62
     7
 10
-134.01689
 20
-94.660979
 40
0.5625
 50
194.3699
 51
300.6301
  0
ARC
  8
0
  6
CONTINUOUS
 62
     7
 10
-133.37177
 20
-93.103531
 40
5.7617307
 50
71.979452
 51
103.50833
  0
ARC
  8
0
  6
CONTINUOUS
 62
     7
 10
-133.37177
 20
-93.103531
 40
4.8617306
 50
72.810877
 51
103.50833
  0
ARC
  8
0
  6
CONTINUOUS
 62
     7
 10
-131.47616
 20
-88.52713
 40
5.7617307
 50
251.97945
 51
283.50832
  0
LINE
  8
0
  6
CONTINUOUS
 62
     7
 10
291.15515
 20
76.849914
 11
290.52622
 21
75.331549
  0
LINE
  8
0
  6
CONTINUOUS
 62
     7
 10
290.04649
 20
77.309134
 11
289.41756
 21
75.790769
  0
LINE
  8
0
  6
CONTINUOUS
 62
     7
 10
286.08322
 20
67.740945
 11
285.45429
 21
66.22258
  0
LINE
  8
0
  6
CONTINUOUS
 62
     7
 10
287.19187
 20
67.281725
 11
286.56295
 21
65.76336
  0
LINE
  8
0
  6
CONTINUOUS
 62
     7
 10
288.95667
 20
74.678085
 11
287.75039
 21
71.765857
  0
LINE
  8
0
  6
CONTINUOUS
 62
     7
 10
290.06533
 20
74.218865
 11
288.85905
 21
71.306637
  0
ARC
  8
0
  6
CONTINUOUS
 62
     7
 10
290.52203
 20
70.617807
 40
2.4000001
 50
283.50832
 51
31.491675
  0
ARC
  8
0
  6
CONTINUOUS
 62
     7
 10
290.52203
 20
70.617807
 40
3.5999999
 50
283.50832
 51
31.491675
  0
ARC
  8
0
  6
CONTINUOUS
 62
     7
 10
286.08741
 20
72.454688
 40
2.4000001
 50
103.50833
 51
211.49168
  0
ARC
  8
0
  6
CONTINUOUS
 62
     7
 10
286.08741
 20
72.454688
 40
3.5999999
 50
103.50833
 51
211.49168
  0
ARC
  8
0
  6
CONTINUOUS
 62
     7
 10
287.04098
 20
68.485313
 40
7.6823077
 50
31.491675
 51
63.020552
  0
ARC
  8
0
  6
CONTINUOUS
 62
     7
 10
287.04098
 20
68.485313
 40
6.4823079
 50
31.491675
 51
62.18912
  0
ARC
  8
0
  6
CONTINUOUS
 62
     7
 10
289.56846
 20
74.587182
 40
6.4823079
 50
211.49167
 51
283.50832
  0
ARC
  8
0
  6
CONTINUOUS
 62
     7
 10
289.56846
 20
74.587182
 40
7.6823077
 50
211.49167
 51
243.02055
  0
ARC
  8
0
  6
CONTINUOUS
 62
     7
 10
290.42861
 20
76.663779
 40
0.75
 50
14.369897
 51
120.6301
  0
ARC
  8
0
  6
CONTINUOUS
 62
     7
 10
288.47693
 20
71.951993
 40
0.75
 50
194.3699
 51
300.6301
  0
ARC
  8
0
  6
CONTINUOUS
 62
     7
 10
286.18082
 20
66.408716
 40
0.75
 50
194.3699
 51
300.6301
  0
ARC
  8
0
  6
CONTINUOUS
 62
     7
 10
287.04098
 20
68.485313
 40
6.4823079
 50
72.810877
 51
103.50833
  0
ARC
  8
0
  6
CONTINUOUS
 62
     7
 10
287.04098
 20
68.485313
 40
7.6823077
 50
71.979452
 51
103.50833
  0
ARC
  8
0
  6
CONTINUOUS
 62
     7
 10
289.56846
 20
74.587182
 40
7.6823077
 50
251.97945
 51
283.50832
  0
LINE
  8
0
  6
CONTINUOUS
 62
     7
 10
60.333113
 20
-503.31823
 11
59.704186
 21
-504.83659
  0
LINE
  8
0
  6
CONTINUOUS
 62
     7
 10
59.224458
 20
-502.85901
 11
58.595531
 21
-504.37737
  0
LINE
  8
0
  6
CONTINUOUS
 62
     7
 10
55.261184
 20
-512.4272
 11
54.632257
 21
-513.94556
  0
LINE
  8
0
  6
CONTINUOUS
 62
     7
 10
56.36984
 20
-512.88642
 11
55.740912
 21
-514.40478
  0
LINE
  8
0
  6
CONTINUOUS
 62
     7
 10
58.134642
 20
-505.49006
 11
56.928357
 21
-508.40229
  0
LINE
  8
0
  6
CONTINUOUS
 62
     7
 10
59.243297
 20
-505.94928
 11
58.037013
 21
-508.86151
  0
ARC
  8
0
  6
CONTINUOUS
 62
     7
 10
59.699996
 20
-509.55034
 40
2.4000001
 50
283.50832
 51
31.491675
  0
ARC
  8
0
  6
CONTINUOUS
 62
     7
 10
59.699996
 20
-509.55034
 40
3.5999999
 50
283.50832
 51
31.491675
  0
ARC
  8
0
  6
CONTINUOUS
 62
     7
 10
55.265374
 20
-507.71346
 40
2.4000001
 50
103.50833
 51
211.49168
  0
ARC
  8
0
  6
CONTINUOUS
 62
     7
 10
55.265374
 20
-507.71346
 40
3.5999999
 50
103.50833
 51
211.49168
  0
ARC
  8
0
  6
CONTINUOUS
 62
     7
 10
56.218947
 20
-511.68283
 40
7.6823077
 50
31.491675
 51
63.020552
  0
ARC
  8
0
  6
CONTINUOUS
 62
     7
 10
56.218947
 20
-511.68283
 40
6.4823079
 50
31.491675
 51
62.18912
  0
ARC
  8
0
  6
CONTINUOUS
 62
     7
 10
58.746424
 20
-505.58096
 40
6.4823079
 50
211.49167
 51
283.50832
  0
ARC
  8
0
  6
CONTINUOUS
 62
     7
 10
58.746424
 20
-505.58096
 40
7.6823077
 50
211.49167
 51
243.02055
  0
ARC
  8
0
  6
CONTINUOUS
 62
     7
 10
59.606578
 20
-503.50437
 40
0.75
 50
14.369897
 51
120.6301
  0
ARC
  8
0
  6
CONTINUOUS
 62
     7
 10
57.654893
 20
-508.21615
 40
0.75
 50
194.3699
 51
300.6301
  0
ARC
  8
0
  6
CONTINUOUS
 62
     7
 10
55.358792
 20
-513.75943
 40
0.75
 50
194.3699
 51
300.6301
  0
ARC
  8
0
  6
CONTINUOUS
 62
     7
 10
56.218947
 20
-511.68283
 40
6.4823079
 50
72.810877
 51
103.50833
  0
ARC
  8
0
  6
CONTINUOUS
 62
     7
 10
56.218947
 20
-511.68283
 40
7.6823077
 50
71.979452
 51
103.50833
  0
ARC
  8
0
  6
CONTINUOUS
 62
     7
 10
58.746424
 20
-505.58096
 40
7.6823077
 50
251.97945
 51
283.50832
  0
LINE
  8
0
  6
CONTINUOUS
 62
     7
 10
1008.6756
 20
114.09029
 11
1008.0467
 21
112.57193
  0
LINE
  8
0
  6
CONTINUOUS
 62
     7
 10
1007.567
 20
114.54951
 11
1006.938
 21
113.03115
  0
LINE
  8
0
  6
CONTINUOUS
 62
     7
 10
1003.6037
 20
104.98132
 11
1002.9748
 21
103.46296
  0
LINE
  8
0
  6
CONTINUOUS
 62
     7
 10
1004.7123
 20
104.5221
 11
1004.0834
 21
103.00374
  0
LINE
  8
0
  6
CONTINUOUS
 62
     7
 10
1006.4772
 20
111.91846
 11
1005.2709
 21
109.00624
  0
LINE
  8
0
  6
CONTINUOUS
 62
     7
 10
1007.5858
 20
111.45924
 11
1006.3795
 21
108.54702
  0
ARC
  8
0
  6
CONTINUOUS
 62
     7
 10
1008.0425
 20
107.85819
 40
2.4000001
 50
283.50832
 51
31.491675
  0
ARC
  8
0
  6
CONTINUOUS
 62
     7
 10
1008.0425
 20
107.85819
 40
3.5999999
 50
283.50832
 51
31.491675
  0
ARC
  8
0
  6
CONTINUOUS
 62
     7
 10
1003.6079
 20
109.69507
 40
2.4000001
 50
103.50833
 51
211.49168
  0
ARC
  8
0
  6
CONTINUOUS
 62
     7
 10
1003.6079
 20
109.69507
 40
3.5999999
 50
103.50833
 51
211.49168
  0
ARC
  8
0
  6
CONTINUOUS
 62
     7
 10
1004.5615
 20
105.72569
 40
7.6823077
 50
31.491675
 51
63.020552
  0
ARC
  8
0
  6
CONTINUOUS
 62
     7
 10
1004.5615
 20
105.72569
 40
6.4823079
 50
31.491675
 51
62.18912
  0
ARC
  8
0
  6
CONTINUOUS
 62
     7
 10
1007.0889
 20
111.82756
 40
6.4823079
 50
211.49167
 51
283.50832
  0
ARC
  8
0
  6
CONTINUOUS
 62
     7
 10
1007.0889
 20
111.82756
 40
7.6823077
 50
211.49167
 51
243.02055
  0
ARC
  8
0
  6
CONTINUOUS
 62
     7
 10
1007.9491
 20
113.90416
 40
0.75
 50
14.369897
 51
120.6301
  0
ARC
  8
0
  6
CONTINUOUS
 62
     7
 10
1005.9974
 20
109.19237
 40
0.75
 50
194.3699
 51
300.6301
  0
ARC
  8
0
  6
CONTINUOUS
 62
     7
 10
1003.7013
 20
103.6491
 40
0.75
 50
194.3699
 51
300.6301
  0
ARC
  8
0
  6
CONTINUOUS
 62
     7
 10
1004.5615
 20
105.72569
 40
6.4823079
 50
72.810877
 51
103.50833
  0
ARC
  8
0
  6
CONTINUOUS
 62
     7
 10
1004.5615
 20
105.72569
 40
7.6823077
 50
71.979452
 51
103.50833
  0
ARC
  8
0
  6
CONTINUOUS
 62
     7
 10
1007.0889
 20
111.82756
 40
7.6823077
 50
251.97945
 51
283.50832
  0
POINT
  8
1
  6
CONTINUOUS
 62
     7
 10
1264
 20
-907.5
  0
LINE
  8
1
  6
CONTINUOUS
 62
     7
 10
420
 20
-902.5
 11
1259
 21
-902.5
  0
LINE
  8
1
  6
CONTINUOUS
 62
     7
 10
420
 20
-307.5
 11
420
 21
-902.5
  0
LINE
  8
1
  6
CONTINUOUS
 62
     7
 10
1259
 20
-307.5
 11
1259
 21
-902.5
  0
LINE
  8
1
  6
CONTINUOUS
 62
     7
 10
420
 20
-307.5
 11
1259
 21
-307.5
  0
LINE
  8
1
  6
CONTINUOUS
 62
     7
 10
420
 20
297.5
 11
420
 21
-297.5
  0
LINE
  8
1
  6
CONTINUOUS
 62
     7
 10
420
 20
-297.5
 11
1259
 21
-297.5
  0
LINE
  8
1
  6
CONTINUOUS
 62
     7
 10
1259
 20
297.5
 11
1259
 21
-297.5
  0
LINE
  8
1
  6
CONTINUOUS
 62
     7
 10
420
 20
297.5
 11
1259
 21
297.5
  0
LINE
  8
1
  6
CONTINUOUS
 62
     7
 10
-429
 20
297.5
 11
-429
 21
-297.5
  0
LINE
  8
1
  6
CONTINUOUS
 62
     7
 10
-429
 20
297.5
 11
410
 21
297.5
  0
LINE
  8
1
  6
CONTINUOUS
 62
     7
 10
410
 20
297.5
 11
410
 21
-297.5
  0
LINE
  8
1
  6
CONTINUOUS
 62
     7
 10
-429
 20
-297.5
 11
410
 21
-297.5
  0
LINE
  8
1
  6
CONTINUOUS
 62
     7
 10
-429
 20
-902.5
 11
410
 21
-902.5
  0
LINE
  8
1
  6
CONTINUOUS
 62
     7
 10
-429
 20
-307.5
 11
-429
 21
-902.5
  0
LINE
  8
1
  6
CONTINUOUS
 62
     7
 10
410
 20
-307.5
 11
410
 21
-902.5
  0
LINE
  8
1
  6
CONTINUOUS
 62
     7
 10
-429
 20
-307.5
 11
410
 21
-307.5
  0
ENDSEC
  0
EOF
