  0
SECTION
  2
HEADER
  9
$EXTMAX
 10
1264
 20
302.5
  9
$EXTMIN
 10
-434
 20
-907.5
  0
ENDSEC
  0
SECTION
  2
TABLES
  0
TABLE
  2
LTYPE
 70
    22
  0
LTYPE
  2
CONTINUOUS
 70
    64
  3
Solid line
 72
    65
 73
     0
 40
0.000000
  0
LTYPE
  2
DASHED
 70
    64
  3
__ __ __ __ __ __ __ __ __ __ __ __ __ __ __
 72
    65
 73
     2
 40
3.500000
 49
2.000000
 49
-1.500000
  0
LTYPE
  2
CENTER
 70
    64
  3
____ _ ____ _ ____ _ ____ _ ____ _ ____ _ ____
 72
    65
 73
     4
 40
17.500000
 49
13.000000
 49
-1.500000
 49
1.500000
 49
-1.500000
  0
LTYPE
  2
PHANTOM
 70
    64
  3
_____ _ _ _____ _ _ _____ _ _ _____ _ _ ____  
 72
    65
 73
     6
 40
15.500000
 49
8.000000
 49
-1.500000
 49
1.500000
 49
-1.500000
 49
1.500000
 49
-1.500000
  0
LTYPE
  2
DOT
 70
    64
  3
. . . . . . . . . . . . . . . . . . . . . . . .
 72
    65
 73
     2
 40
0.25
 49
0.0
 49
-0.25
  0
ENDTAB
  0
TABLE
  2
LAYER
 70
     2
  0
LAYER
  2
0
 70
     0
 62
     7
  6
CONTINUOUS
  0
LAYER
  2
1
 70
     0
 62
     7
  6
CONTINUOUS
  0
ENDTAB
  0
TABLE
  2
STYLE
 70
     1
  0
STYLE
  2
STANDARD
 70
     0
 40
0.000000
 41
1.000000
 50
0.000000
 71
     0
 42
0.200000
  3
txt
  0
ENDTAB
  0
TABLE
  2
VIEW
 70
     0
  0
ENDTAB
  0
ENDSEC
  0
SECTION
  2
BLOCKS
  0
BLOCK
  8
0
  2
KOZU1
 70
    64
 10
0
 20
0
  0
POINT
  8
0
  6
CONTINUOUS
 62
     7
 10
0
 20
0
  0
POINT
  8
0
  6
CONTINUOUS
 62
     7
 10
93.71904
 20
0.34136963
  0
POINT
  8
0
  6
CONTINUOUS
 62
     7
 10
212.24539
 20
-0.98718262
  0
POINT
  8
0
  6
CONTINUOUS
 62
     7
 10
18.26297
 20
-81.936584
  0
POINT
  8
0
  6
CONTINUOUS
 62
     7
 10
216.43433
 20
-81.602905
  0
POINT
  8
0
  6
CONTINUOUS
 62
     7
 10
11.756348
 20
-172.2529
  0
LINE
  8
0
  6
CENTER
 62
     7
 10
0
 20
30.922806
 11
0
 21
-7.4110413
  0
LINE
  8
0
  6
CONTINUOUS
 62
     7
 10
-29.649994
 20
0
 11
29.649994
 21
0
  0
LINE
  8
0
  6
CONTINUOUS
 62
     7
 10
-30.149994
 20
16
 11
30.149994
 21
16
  0
LINE
  8
0
  6
CONTINUOUS
 62
     7
 10
-28.600006
 20
23
 11
28.600006
 21
23
  0
LINE
  8
0
  6
CONTINUOUS
 62
     7
 10
-29.650009
 20
1.0690548E-005
 11
-30.149998
 21
0.50000048
  0
LINE
  8
0
  6
CONTINUOUS
 62
     7
 10
-30.149994
 20
16
 11
-30.149994
 21
0.5
  0
LINE
  8
0
  6
CONTINUOUS
 62
     7
 10
-28.600006
 20
23
 11
-28.600006
 21
16
  0
LINE
  8
0
  6
CONTINUOUS
 62
     7
 10
28.600006
 20
23
 11
28.600006
 21
16
  0
LINE
  8
0
  6
CONTINUOUS
 62
     7
 10
30.149994
 20
16
 11
30.149994
 21
0.5
  0
LINE
  8
0
  6
CONTINUOUS
 62
     7
 10
29.649996
 20
1.0690548E-005
 11
30.149996
 21
0.50001127
  0
LINE
  8
0
  6
CENTER
 62
     7
 10
93.71904
 20
31.264175
 11
93.71904
 21
-7.0696716
  0
LINE
  8
0
  6
CONTINUOUS
 62
     7
 10
56.069031
 20
0.34136963
 11
131.36905
 21
0.34136963
  0
LINE
  8
0
  6
CONTINUOUS
 62
     7
 10
55.569031
 20
16.34137
 11
131.86905
 21
16.34137
  0
LINE
  8
0
  6
CONTINUOUS
 62
     7
 10
57.619019
 20
23.34137
 11
129.81905
 21
23.34137
  0
LINE
  8
0
  6
CONTINUOUS
 62
     7
 10
56.069027
 20
0.34138036
 11
55.569038
 21
0.84137017
  0
LINE
  8
0
  6
CONTINUOUS
 62
     7
 10
55.569031
 20
16.34137
 11
55.569031
 21
0.84136963
  0
LINE
  8
0
  6
CONTINUOUS
 62
     7
 10
57.619019
 20
23.34137
 11
57.619019
 21
16.34137
  0
LINE
  8
0
  6
CONTINUOUS
 62
     7
 10
131.86905
 20
16.34137
 11
131.86905
 21
0.84136963
  0
LINE
  8
0
  6
CONTINUOUS
 62
     7
 10
129.81905
 20
23.34137
 11
129.81905
 21
16.34137
  0
LINE
  8
0
  6
CONTINUOUS
 62
     7
 10
131.36903
 20
0.34137207
 11
131.86903
 21
0.84137267
  0
LINE
  8
0
  6
CENTER
 62
     7
 10
212.24539
 20
29.935608
 11
212.24539
 21
-8.3982239
  0
LINE
  8
0
  6
CONTINUOUS
 62
     7
 10
168.29539
 20
-0.98718262
 11
256.1954
 21
-0.98718262
  0
LINE
  8
0
  6
CONTINUOUS
 62
     7
 10
167.79539
 20
15.012817
 11
256.6954
 21
15.012817
  0
LINE
  8
0
  6
CONTINUOUS
 62
     7
 10
169.79539
 20
22.012802
 11
254.6954
 21
22.012802
  0
LINE
  8
0
  6
CONTINUOUS
 62
     7
 10
168.29539
 20
-0.98720634
 11
167.79538
 21
-0.48719496
  0
LINE
  8
0
  6
CONTINUOUS
 62
     7
 10
167.79539
 20
15.012817
 11
167.79539
 21
-0.48718262
  0
LINE
  8
0
  6
CONTINUOUS
 62
     7
 10
169.79539
 20
22.012802
 11
169.79539
 21
15.012817
  0
LINE
  8
0
  6
CONTINUOUS
 62
     7
 10
254.6954
 20
22.012802
 11
254.6954
 21
15.012817
  0
LINE
  8
0
  6
CONTINUOUS
 62
     7
 10
256.6954
 20
15.012817
 11
256.6954
 21
-0.48718262
  0
LINE
  8
0
  6
CONTINUOUS
 62
     7
 10
256.19537
 20
-0.98719382
 11
256.69537
 21
-0.48719326
  0
LINE
  8
0
  6
CENTER
 62
     7
 10
18.26297
 20
-51.013794
 11
18.26297
 21
-89.347626
  0
LINE
  8
0
  6
CONTINUOUS
 62
     7
 10
-38.387024
 20
-81.936584
 11
74.912994
 21
-81.936584
  0
LINE
  8
0
  6
CONTINUOUS
 62
     7
 10
-38.887024
 20
-64.436584
 11
-38.887024
 21
-81.436584
  0
LINE
  8
0
  6
CONTINUOUS
 62
     7
 10
-31.637024
 20
-81.936584
 11
-31.637024
 21
-81.936584
  0
LINE
  8
0
  6
CONTINUOUS
 62
     7
 10
-36.787018
 20
-56.4366
 11
-36.787018
 21
-64.436584
  0
LINE
  8
0
  6
CONTINUOUS
 62
     7
 10
-36.787018
 20
-56.4366
 11
73.313004
 21
-56.4366
  0
LINE
  8
0
  6
CONTINUOUS
 62
     7
 10
-38.887024
 20
-64.436584
 11
75.412994
 21
-64.436584
  0
LINE
  8
0
  6
CONTINUOUS
 62
     7
 10
-38.387028
 20
-81.936584
 11
-38.88702
 21
-81.436592
  0
LINE
  8
0
  6
CONTINUOUS
 62
     7
 10
74.912987
 20
-81.936592
 11
75.412987
 21
-81.436592
  0
LINE
  8
0
  6
CONTINUOUS
 62
     7
 10
75.412994
 20
-64.436584
 11
75.412994
 21
-81.436584
  0
LINE
  8
0
  6
CONTINUOUS
 62
     7
 10
73.313004
 20
-56.4366
 11
73.313004
 21
-64.436584
  0
LINE
  8
0
  6
CENTER
 62
     7
 10
216.43433
 20
-46.661728
 11
216.43433
 21
-91.308792
  0
LINE
  8
0
  6
CONTINUOUS
 62
     7
 10
147.03432
 20
-81.602905
 11
285.83435
 21
-81.602905
  0
LINE
  8
0
  6
CONTINUOUS
 62
     7
 10
148.68434
 20
-56.102905
 11
284.18433
 21
-56.102905
  0
LINE
  8
0
  6
CONTINUOUS
 62
     7
 10
146.53432
 20
-64.102905
 11
146.53432
 21
-81.102905
  0
LINE
  8
0
  6
CONTINUOUS
 62
     7
 10
147.03435
 20
-81.602905
 11
146.53433
 21
-81.10289
  0
LINE
  8
0
  6
CONTINUOUS
 62
     7
 10
148.68434
 20
-56.102905
 11
148.68434
 21
-64.102905
  0
LINE
  8
0
  6
CONTINUOUS
 62
     7
 10
146.53432
 20
-64.102905
 11
286.33435
 21
-64.102905
  0
LINE
  8
0
  6
CONTINUOUS
 62
     7
 10
284.18433
 20
-56.102905
 11
284.18433
 21
-64.102905
  0
LINE
  8
0
  6
CONTINUOUS
 62
     7
 10
286.33435
 20
-64.102905
 11
286.33435
 21
-81.102905
  0
LINE
  8
0
  6
CONTINUOUS
 62
     7
 10
285.83432
 20
-81.602898
 11
286.33432
 21
-81.102898
  0
LINE
  8
0
  6
CENTER
 62
     7
 10
11.756348
 20
-137.31172
 11
11.756348
 21
-181.95879
  0
LINE
  8
0
  6
CONTINUOUS
 62
     7
 10
-70.343628
 20
-172.2529
 11
93.856369
 21
-172.2529
  0
LINE
  8
0
  6
CONTINUOUS
 62
     7
 10
-68.643646
 20
-146.7529
 11
92.156357
 21
-146.7529
  0
LINE
  8
0
  6
CONTINUOUS
 62
     7
 10
-70.843628
 20
-154.7529
 11
94.356369
 21
-154.7529
  0
LINE
  8
0
  6
CONTINUOUS
 62
     7
 10
-70.843628
 20
-154.7529
 11
-70.843628
 21
-171.7529
  0
LINE
  8
0
  6
CONTINUOUS
 62
     7
 10
-70.343643
 20
-172.2529
 11
-70.843636
 21
-171.7529
  0
LINE
  8
0
  6
CONTINUOUS
 62
     7
 10
-68.643646
 20
-146.7529
 11
-68.643646
 21
-154.7529
  0
LINE
  8
0
  6
CONTINUOUS
 62
     7
 10
94.356369
 20
-154.7529
 11
94.356369
 21
-171.7529
  0
LINE
  8
0
  6
CONTINUOUS
 62
     7
 10
92.156357
 20
-146.7529
 11
92.156357
 21
-154.7529
  0
LINE
  8
0
  6
CONTINUOUS
 62
     7
 10
93.856354
 20
-172.2529
 11
94.356354
 21
-171.7529
  0
TEXT
  8
0
  6
CONTINUOUS
 62
     7
 10
-2.7540863
 20
37.904877
 40
8
 41
1.071429
  1
2
  0
TEXT
  8
0
  6
CONTINUOUS
 62
     7
 10
83.966068
 20
39.601929
 40
8
 41
1.0129871
  1
21/2
  0
TEXT
  8
0
  6
CONTINUOUS
 62
     7
 10
209.2714
 20
34.600098
 40
8
 41
1.071429
  1
3
  0
TEXT
  8
0
  6
CONTINUOUS
 62
     7
 10
14.978244
 20
-46.003128
 40
8
 41
1.071429
  1
4
  0
TEXT
  8
0
  6
CONTINUOUS
 62
     7
 10
213.45807
 20
-42.885254
 40
8
 41
1.071429
  1
5
  0
TEXT
  8
0
  6
CONTINUOUS
 62
     7
 10
9.3050873
 20
-132.48526
 40
8
 41
1.071429
  1
6
  0
TEXT
  8
0
  6
CONTINUOUS
 62
     7
 10
-70.985645
 20
76.902786
 40
10
 41
1.0032468
  1
TOP-J F-4 6ｻｲｽﾞ
  0
ENDBLK
  8
0
  0
ENDSEC
  0
SECTION
  2
ENTITIES
  0
POINT
  8
0
  6
CONTINUOUS
 62
     7
 10
-237.0726
 20
101.51669
  0
POINT
  8
0
  6
CONTINUOUS
 62
     7
 10
-127.72194
 20
98.450775
  0
POINT
  8
0
  6
CONTINUOUS
 62
     7
 10
-9.1735516
 20
86.187157
  0
POINT
  8
0
  6
CONTINUOUS
 62
     7
 10
99.469917
 20
74.488914
  0
POINT
  8
0
  6
CONTINUOUS
 62
     7
 10
218.72549
 20
60.637932
  0
POINT
  8
0
  6
CONTINUOUS
 62
     7
 10
-341.80356
 20
107.08629
  0
LINE
  8
0
  6
CONTINUOUS
 62
     7
 10
-237.0726
 20
139.16669
 11
-237.0726
 21
63.866676
  0
LINE
  8
0
  6
CONTINUOUS
 62
     7
 10
-221.0726
 20
139.66669
 11
-221.0726
 21
63.366676
  0
LINE
  8
0
  6
CONTINUOUS
 62
     7
 10
-214.0726
 20
137.6167
 11
-214.0726
 21
65.416679
  0
LINE
  8
0
  6
CONTINUOUS
 62
     7
 10
-237.07259
 20
139.1667
 11
-236.5726
 21
139.66669
  0
LINE
  8
0
  6
CONTINUOUS
 62
     7
 10
-221.0726
 20
139.66669
 11
-236.5726
 21
139.66669
  0
LINE
  8
0
  6
CONTINUOUS
 62
     7
 10
-214.0726
 20
137.6167
 11
-221.0726
 21
137.6167
  0
LINE
  8
0
  6
CONTINUOUS
 62
     7
 10
-221.0726
 20
63.366676
 11
-236.5726
 21
63.366676
  0
LINE
  8
0
  6
CONTINUOUS
 62
     7
 10
-214.0726
 20
65.416679
 11
-221.0726
 21
65.416679
  0
LINE
  8
0
  6
CONTINUOUS
 62
     7
 10
-237.0726
 20
63.866695
 11
-236.5726
 21
63.366695
  0
LINE
  8
0
  6
CONTINUOUS
 62
     7
 10
-127.72194
 20
142.40077
 11
-127.72194
 21
54.500767
  0
LINE
  8
0
  6
CONTINUOUS
 62
     7
 10
-111.72194
 20
142.90077
 11
-111.72194
 21
54.000767
  0
LINE
  8
0
  6
CONTINUOUS
 62
     7
 10
-104.72195
 20
140.90077
 11
-104.72195
 21
56.000767
  0
LINE
  8
0
  6
CONTINUOUS
 62
     7
 10
-127.72195
 20
142.40077
 11
-127.22195
 21
142.90079
  0
LINE
  8
0
  6
CONTINUOUS
 62
     7
 10
-111.72194
 20
142.90077
 11
-127.22194
 21
142.90077
  0
LINE
  8
0
  6
CONTINUOUS
 62
     7
 10
-104.72195
 20
140.90077
 11
-111.72194
 21
140.90077
  0
LINE
  8
0
  6
CONTINUOUS
 62
     7
 10
-104.72195
 20
56.000767
 11
-111.72194
 21
56.000767
  0
LINE
  8
0
  6
CONTINUOUS
 62
     7
 10
-111.72194
 20
54.000767
 11
-127.22194
 21
54.000767
  0
LINE
  8
0
  6
CONTINUOUS
 62
     7
 10
-127.72195
 20
54.500786
 11
-127.22195
 21
54.000786
  0
LINE
  8
0
  6
CENTER
 62
     7
 10
21.749239
 20
86.187157
 11
-16.584593
 21
86.187157
  0
LINE
  8
0
  6
CONTINUOUS
 62
     7
 10
-9.1735516
 20
142.83714
 11
-9.1735516
 21
29.537128
  0
LINE
  8
0
  6
CONTINUOUS
 62
     7
 10
8.3264484
 20
143.33714
 11
-8.6735516
 21
143.33714
  0
LINE
  8
0
  6
CONTINUOUS
 62
     7
 10
-9.1735516
 20
136.08714
 11
-9.1735516
 21
136.08714
  0
LINE
  8
0
  6
CONTINUOUS
 62
     7
 10
16.326433
 20
141.23714
 11
8.3264484
 21
141.23714
  0
LINE
  8
0
  6
CONTINUOUS
 62
     7
 10
16.326433
 20
141.23714
 11
16.326433
 21
31.137119
  0
LINE
  8
0
  6
CONTINUOUS
 62
     7
 10
8.3264484
 20
143.33714
 11
8.3264484
 21
29.037128
  0
LINE
  8
0
  6
CONTINUOUS
 62
     7
 10
-9.1735544
 20
142.83716
 11
-8.6735649
 21
143.33714
  0
LINE
  8
0
  6
CONTINUOUS
 62
     7
 10
-9.1735573
 20
29.537134
 11
-8.6735563
 21
29.037132
  0
LINE
  8
0
  6
CONTINUOUS
 62
     7
 10
8.3264484
 20
29.037128
 11
-8.6735516
 21
29.037128
  0
LINE
  8
0
  6
CONTINUOUS
 62
     7
 10
16.326433
 20
31.137119
 11
8.3264484
 21
31.137119
  0
LINE
  8
0
  6
CENTER
 62
     7
 10
134.41109
 20
74.488914
 11
89.76403
 21
74.488914
  0
LINE
  8
0
  6
CONTINUOUS
 62
     7
 10
99.469917
 20
143.88892
 11
99.469917
 21
5.088902
  0
LINE
  8
0
  6
CONTINUOUS
 62
     7
 10
124.96992
 20
142.23889
 11
124.96992
 21
6.7389112
  0
LINE
  8
0
  6
CONTINUOUS
 62
     7
 10
116.96992
 20
144.38892
 11
99.969917
 21
144.38892
  0
LINE
  8
0
  6
CONTINUOUS
 62
     7
 10
99.46991
 20
143.88889
 11
99.969925
 21
144.3889
  0
LINE
  8
0
  6
CONTINUOUS
 62
     7
 10
124.96992
 20
142.23889
 11
116.96992
 21
142.23889
  0
LINE
  8
0
  6
CONTINUOUS
 62
     7
 10
116.96992
 20
144.38892
 11
116.96992
 21
4.588902
  0
LINE
  8
0
  6
CONTINUOUS
 62
     7
 10
124.96992
 20
6.7389112
 11
116.96992
 21
6.7389112
  0
LINE
  8
0
  6
CONTINUOUS
 62
     7
 10
116.96992
 20
4.588902
 11
99.969917
 21
4.588902
  0
LINE
  8
0
  6
CENTER
 62
     7
 10
253.66667
 20
60.637932
 11
209.01961
 21
60.637932
  0
LINE
  8
0
  6
CONTINUOUS
 62
     7
 10
218.72549
 20
142.73792
 11
218.72549
 21
-21.46209
  0
LINE
  8
0
  6
CONTINUOUS
 62
     7
 10
244.22549
 20
141.03793
 11
244.22549
 21
-19.762077
  0
LINE
  8
0
  6
CONTINUOUS
 62
     7
 10
236.22549
 20
143.23792
 11
236.22549
 21
-21.96209
  0
LINE
  8
0
  6
CONTINUOUS
 62
     7
 10
236.22549
 20
143.23792
 11
219.22549
 21
143.23792
  0
LINE
  8
0
  6
CONTINUOUS
 62
     7
 10
218.72551
 20
142.73793
 11
219.22548
 21
143.2379
  0
LINE
  8
0
  6
CONTINUOUS
 62
     7
 10
244.22549
 20
141.03793
 11
236.22549
 21
141.03793
  0
LINE
  8
0
  6
CONTINUOUS
 62
     7
 10
236.22549
 20
-21.96209
 11
219.22549
 21
-21.96209
  0
LINE
  8
0
  6
CONTINUOUS
 62
     7
 10
244.22549
 20
-19.762077
 11
236.22549
 21
-19.762077
  0
LINE
  8
0
  6
CONTINUOUS
 62
     7
 10
218.72549
 20
-21.462078
 11
219.22551
 21
-21.962078
  0
LINE
  8
0
  6
CONTINUOUS
 62
     7
 10
-341.80353
 20
77.436279
 11
-341.30356
 21
76.936295
  0
LINE
  8
0
  6
CONTINUOUS
 62
     7
 10
-341.80356
 20
136.73628
 11
-341.80356
 21
77.436295
  0
LINE
  8
0
  6
CONTINUOUS
 62
     7
 10
-325.80356
 20
137.23628
 11
-325.80356
 21
76.936295
  0
LINE
  8
0
  6
CONTINUOUS
 62
     7
 10
-318.80356
 20
135.68629
 11
-318.80356
 21
78.486282
  0
LINE
  8
0
  6
CONTINUOUS
 62
     7
 10
-341.80353
 20
136.7363
 11
-341.30356
 21
137.23628
  0
LINE
  8
0
  6
CONTINUOUS
 62
     7
 10
-325.80356
 20
137.23628
 11
-341.30356
 21
137.23628
  0
LINE
  8
0
  6
CONTINUOUS
 62
     7
 10
-318.80356
 20
135.68629
 11
-325.80356
 21
135.68629
  0
LINE
  8
0
  6
CONTINUOUS
 62
     7
 10
-318.80356
 20
78.486282
 11
-325.80356
 21
78.486282
  0
LINE
  8
0
  6
CONTINUOUS
 62
     7
 10
-325.80356
 20
76.936295
 11
-341.30356
 21
76.936295
  0
LINE
  8
0
  6
CENTER
 62
     7
 10
-307.47992
 20
107.08629
 11
-354.92731
 21
107.08629
  0
LINE
  8
0
  6
CENTER
 62
     7
 10
-200.72993
 20
101.51669
 11
-255.24394
 21
101.51669
  0
LINE
  8
0
  6
CENTER
 62
     7
 10
-89.360229
 20
98.450775
 11
-146.90279
 21
98.450775
  0
LINE
  8
0
  6
CONTINUOUS
 62
     7
 10
99.46991
 20
5.0888996
 11
99.96991
 21
4.5888991
  0
TEXT
  8
0
  6
CONTINUOUS
 62
     7
 10
-337.72245
 20
160.63126
 40
14
 41
1.0714291
  1
2
  0
TEXT
  8
0
  6
CONTINUOUS
 62
     7
 10
-252.92229
 20
162.60715
 40
14
 41
1.0129871
  1
21/2
  0
TEXT
  8
0
  6
CONTINUOUS
 62
     7
 10
-124.81335
 20
160.29666
 40
14
 41
1.0714291
  1
3
  0
TEXT
  8
0
  6
CONTINUOUS
 62
     7
 10
-5.8370901
 20
163.74272
 40
14
 41
1.0714291
  1
4
  0
TEXT
  8
0
  6
CONTINUOUS
 62
     7
 10
102.80638
 20
168.71741
 40
14
 41
1.0714291
  1
5
  0
TEXT
  8
0
  6
CONTINUOUS
 62
     7
 10
222.06196
 20
173.9212
 40
14
 41
1.0714291
  1
6
  0
TEXT
  8
0
  6
CONTINUOUS
 62
     7
 10
-369.0379
 20
240.88219
 40
15
 41
1.0032468
  1
TOP-J F-4 6ｻｲｽﾞ
  0
LINE
  8
1
  6
CONTINUOUS
 62
     7
 10
-429
 20
297.5
 11
410
 21
297.5
  0
LINE
  8
1
  6
CONTINUOUS
 62
     7
 10
410
 20
297.5
 11
410
 21
-297.5
  0
LINE
  8
1
  6
CONTINUOUS
 62
     7
 10
-429
 20
-297.5
 11
410
 21
-297.5
  0
LINE
  8
1
  6
CONTINUOUS
 62
     7
 10
-429
 20
297.5
 11
-429
 21
-297.5
  0
ENDSEC
  0
EOF
