  0
SECTION
  2
HEADER
  9
$EXTMAX
 10
1264
 20
-907.5
  9
$EXTMIN
 10
-434
 20
-2117.5
  0
ENDSEC
  0
SECTION
  2
TABLES
  0
TABLE
  2
LTYPE
 70
    22
  0
LTYPE
  2
CONTINUOUS
 70
    64
  3
Solid line
 72
    65
 73
     0
 40
0.000000
  0
LTYPE
  2
DASHED
 70
    64
  3
__ __ __ __ __ __ __ __ __ __ __ __ __ __ __
 72
    65
 73
     2
 40
3.500000
 49
2.000000
 49
-1.500000
  0
LTYPE
  2
CENTER
 70
    64
  3
____ _ ____ _ ____ _ ____ _ ____ _ ____ _ ____
 72
    65
 73
     4
 40
17.500000
 49
13.000000
 49
-1.500000
 49
1.500000
 49
-1.500000
  0
LTYPE
  2
PHANTOM
 70
    64
  3
_____ _ _ _____ _ _ _____ _ _ _____ _ _ ____  
 72
    65
 73
     6
 40
15.500000
 49
8.000000
 49
-1.500000
 49
1.500000
 49
-1.500000
 49
1.500000
 49
-1.500000
  0
LTYPE
  2
DOT
 70
    64
  3
. . . . . . . . . . . . . . . . . . . . . . . .
 72
    65
 73
     2
 40
0.25
 49
0.0
 49
-0.25
  0
ENDTAB
  0
TABLE
  2
LAYER
 70
     2
  0
LAYER
  2
0
 70
     0
 62
     7
  6
CONTINUOUS
  0
LAYER
  2
1
 70
     0
 62
     7
  6
CONTINUOUS
  0
ENDTAB
  0
TABLE
  2
STYLE
 70
     1
  0
STYLE
  2
STANDARD
 70
     0
 40
0.000000
 41
1.000000
 50
0.000000
 71
     0
 42
0.200000
  3
txt
  0
ENDTAB
  0
TABLE
  2
VIEW
 70
     0
  0
ENDTAB
  0
ENDSEC
  0
SECTION
  2
BLOCKS
  0
ENDSEC
  0
SECTION
  2
ENTITIES
  0
POINT
  8
0
  6
CONTINUOUS
 62
     7
 10
-327.36267
 20
-39.604618
  0
POINT
  8
0
  6
CONTINUOUS
 62
     7
 10
-83.033539
 20
-36.431515
  0
POINT
  8
0
  6
CONTINUOUS
 62
     7
 10
210.47871
 20
-38.018066
  0
POINT
  8
0
  6
CONTINUOUS
 62
     7
 10
599.46521
 20
-0.8985821
  0
POINT
  8
0
  6
CONTINUOUS
 62
     7
 10
999.27655
 20
-0.8985821
  0
POINT
  8
0
  6
CONTINUOUS
 62
     7
 10
-327.36267
 20
55.395393
  0
POINT
  8
0
  6
CONTINUOUS
 62
     7
 10
-232.36266
 20
-39.604618
  0
POINT
  8
0
  6
CONTINUOUS
 62
     7
 10
-327.36267
 20
-134.60461
  0
POINT
  8
0
  6
CONTINUOUS
 62
     7
 10
-83.033539
 20
-144.43152
  0
POINT
  8
0
  6
CONTINUOUS
 62
     7
 10
24.966455
 20
-36.431515
  0
POINT
  8
0
  6
CONTINUOUS
 62
     7
 10
-83.033539
 20
71.568459
  0
POINT
  8
0
  6
CONTINUOUS
 62
     7
 10
210.47871
 20
88.981926
  0
POINT
  8
0
  6
CONTINUOUS
 62
     7
 10
337.47867
 20
-38.018066
  0
POINT
  8
0
  6
CONTINUOUS
 62
     7
 10
210.47871
 20
-165.01808
  0
POINT
  8
0
  6
CONTINUOUS
 62
     7
 10
599.46521
 20
-140.89857
  0
POINT
  8
0
  6
CONTINUOUS
 62
     7
 10
739.46521
 20
-0.8985821
  0
POINT
  8
0
  6
CONTINUOUS
 62
     7
 10
599.46521
 20
139.10143
  0
POINT
  8
0
  6
CONTINUOUS
 62
     7
 10
999.27655
 20
164.10143
  0
POINT
  8
0
  6
CONTINUOUS
 62
     7
 10
1164.2765
 20
-0.8985821
  0
POINT
  8
0
  6
CONTINUOUS
 62
     7
 10
999.27655
 20
-165.89857
  0
LINE
  8
0
  6
CENTER
 62
     7
 10
-327.36267
 20
-39.604618
 11
-208.17145
 21
-39.604618
  0
LINE
  8
0
  6
CONTINUOUS
 62
     7
 10
-232.36266
 20
-77.754616
 11
-232.36266
 21
-1.4546179
  0
LINE
  8
0
  6
CENTER
 62
     7
 10
-327.36267
 20
-158.25714
 11
-327.36267
 21
77.873329
  0
LINE
  8
0
  6
CONTINUOUS
 62
     7
 10
-248.26265
 20
-77.754616
 11
-248.26265
 21
-1.4546179
  0
LINE
  8
0
  6
CONTINUOUS
 62
     7
 10
-256.96265
 20
-75.704628
 11
-256.96265
 21
-3.5046058
  0
LINE
  8
0
  6
CONTINUOUS
 62
     7
 10
-260.96265
 20
-18.162306
 11
-260.96265
 21
-8.3810396
  0
LINE
  8
0
  6
CONTINUOUS
 62
     7
 10
-262.46265
 20
-24.465986
 11
-262.46265
 21
-8.0506868
  0
LINE
  8
0
  6
CONTINUOUS
 62
     7
 10
-248.26265
 20
-77.754616
 11
-232.36266
 21
-77.754616
  0
LINE
  8
0
  6
CONTINUOUS
 62
     7
 10
-256.96265
 20
-75.704628
 11
-248.26265
 21
-75.704628
  0
LINE
  8
0
  6
CONTINUOUS
 62
     7
 10
-265.36264
 20
-74.304634
 11
-256.96265
 21
-74.304634
  0
LINE
  8
0
  6
CONTINUOUS
 62
     7
 10
-248.26265
 20
-1.4546179
 11
-232.36266
 21
-1.4546179
  0
LINE
  8
0
  6
CONTINUOUS
 62
     7
 10
-256.96265
 20
-3.5046058
 11
-248.26265
 21
-3.5046058
  0
LINE
  8
0
  6
CONTINUOUS
 62
     7
 10
-265.36264
 20
-4.9046149
 11
-256.96265
 21
-4.9046149
  0
LINE
  8
0
  6
CONTINUOUS
 62
     7
 10
-260.96265
 20
-8.3810396
 11
-256.96265
 21
-8.3810396
  0
LINE
  8
0
  6
CONTINUOUS
 62
     7
 10
-262.46265
 20
-8.0506868
 11
-256.96265
 21
-8.0506868
  0
LINE
  8
0
  6
CONTINUOUS
 62
     7
 10
-260.96265
 20
-18.162306
 11
-256.96265
 21
-18.162306
  0
LINE
  8
0
  6
CONTINUOUS
 62
     7
 10
-262.46265
 20
-24.465986
 11
-256.96265
 21
-24.465986
  0
LINE
  8
0
  6
CONTINUOUS
 62
     7
 10
-260.96268
 20
-8.381072
 11
-262.46268
 21
-8.0507116
  0
LINE
  8
0
  6
CONTINUOUS
 62
     7
 10
-260.96265
 20
-18.1623
 11
-262.46265
 21
-24.46595
  0
LINE
  8
0
  6
CONTINUOUS
 62
     7
 10
-260.96265
 20
-61.046909
 11
-260.96265
 21
-70.828194
  0
LINE
  8
0
  6
CONTINUOUS
 62
     7
 10
-262.46265
 20
-54.743259
 11
-262.46265
 21
-71.158546
  0
LINE
  8
0
  6
CONTINUOUS
 62
     7
 10
-260.96265
 20
-70.828194
 11
-256.96265
 21
-70.828194
  0
LINE
  8
0
  6
CONTINUOUS
 62
     7
 10
-262.46265
 20
-71.158546
 11
-256.96265
 21
-71.158546
  0
LINE
  8
0
  6
CONTINUOUS
 62
     7
 10
-260.96265
 20
-61.046909
 11
-256.96265
 21
-61.046909
  0
LINE
  8
0
  6
CONTINUOUS
 62
     7
 10
-262.46265
 20
-54.743259
 11
-256.96265
 21
-54.743259
  0
LINE
  8
0
  6
CONTINUOUS
 62
     7
 10
-260.96265
 20
-70.828209
 11
-262.46265
 21
-71.158569
  0
LINE
  8
0
  6
CONTINUOUS
 62
     7
 10
-260.96265
 20
-61.046909
 11
-262.46268
 21
-54.743244
  0
LINE
  8
0
  6
CONTINUOUS
 62
     7
 10
-348.80496
 20
26.795403
 11
-342.50131
 21
25.295399
  0
LINE
  8
0
  6
CONTINUOUS
 62
     7
 10
-365.51266
 20
55.395393
 11
-289.21268
 21
55.395393
  0
LINE
  8
0
  6
CONTINUOUS
 62
     7
 10
-365.51266
 20
39.495399
 11
-289.21268
 21
39.495399
  0
LINE
  8
0
  6
CONTINUOUS
 62
     7
 10
-363.46268
 20
30.795382
 11
-291.26266
 21
30.795382
  0
LINE
  8
0
  6
CONTINUOUS
 62
     7
 10
-305.92038
 20
26.795382
 11
-296.1391
 21
26.795382
  0
LINE
  8
0
  6
CONTINUOUS
 62
     7
 10
-312.22403
 20
25.295382
 11
-295.80875
 21
25.295382
  0
LINE
  8
0
  6
CONTINUOUS
 62
     7
 10
-365.51266
 20
39.495399
 11
-365.51266
 21
55.395393
  0
LINE
  8
0
  6
CONTINUOUS
 62
     7
 10
-363.46268
 20
30.795382
 11
-363.46268
 21
39.495399
  0
LINE
  8
0
  6
CONTINUOUS
 62
     7
 10
-289.21268
 20
39.495399
 11
-289.21268
 21
55.395393
  0
LINE
  8
0
  6
CONTINUOUS
 62
     7
 10
-291.26266
 20
30.795382
 11
-291.26266
 21
39.495399
  0
LINE
  8
0
  6
CONTINUOUS
 62
     7
 10
-292.66269
 20
22.395388
 11
-292.66269
 21
30.795382
  0
LINE
  8
0
  6
CONTINUOUS
 62
     7
 10
-296.1391
 20
26.795382
 11
-296.1391
 21
30.795382
  0
LINE
  8
0
  6
CONTINUOUS
 62
     7
 10
-295.80875
 20
25.295382
 11
-295.80875
 21
30.795382
  0
LINE
  8
0
  6
CONTINUOUS
 62
     7
 10
-305.92038
 20
26.795382
 11
-305.92038
 21
30.795382
  0
LINE
  8
0
  6
CONTINUOUS
 62
     7
 10
-312.22403
 20
25.295382
 11
-312.22403
 21
30.795382
  0
LINE
  8
0
  6
CONTINUOUS
 62
     7
 10
-296.13907
 20
26.795412
 11
-295.80872
 21
25.29541
  0
LINE
  8
0
  6
CONTINUOUS
 62
     7
 10
-305.92035
 20
26.795391
 11
-312.224
 21
25.295395
  0
LINE
  8
0
  6
CONTINUOUS
 62
     7
 10
-348.80499
 20
26.795382
 11
-358.58624
 21
26.795382
  0
LINE
  8
0
  6
CONTINUOUS
 62
     7
 10
-342.50134
 20
25.295382
 11
-358.9166
 21
25.295382
  0
LINE
  8
0
  6
CONTINUOUS
 62
     7
 10
-358.58624
 20
26.795382
 11
-358.58624
 21
30.795382
  0
LINE
  8
0
  6
CONTINUOUS
 62
     7
 10
-358.9166
 20
25.295382
 11
-358.9166
 21
30.795382
  0
LINE
  8
0
  6
CONTINUOUS
 62
     7
 10
-348.80499
 20
26.795382
 11
-348.80499
 21
30.795382
  0
LINE
  8
0
  6
CONTINUOUS
 62
     7
 10
-342.50134
 20
25.295382
 11
-342.50134
 21
30.795382
  0
LINE
  8
0
  6
CONTINUOUS
 62
     7
 10
-358.58624
 20
26.795378
 11
-358.9166
 21
25.295378
  0
LINE
  8
0
  6
CONTINUOUS
 62
     7
 10
-348.80496
 20
-106.0046
 11
-342.50131
 21
-104.50459
  0
LINE
  8
0
  6
CONTINUOUS
 62
     7
 10
-365.51266
 20
-134.60461
 11
-289.21268
 21
-134.60461
  0
LINE
  8
0
  6
CONTINUOUS
 62
     7
 10
-365.51266
 20
-118.70463
 11
-289.21268
 21
-118.70463
  0
LINE
  8
0
  6
CONTINUOUS
 62
     7
 10
-363.46268
 20
-110.00462
 11
-291.26266
 21
-110.00462
  0
LINE
  8
0
  6
CONTINUOUS
 62
     7
 10
-305.92038
 20
-106.00462
 11
-296.1391
 21
-106.00462
  0
LINE
  8
0
  6
CONTINUOUS
 62
     7
 10
-312.22403
 20
-104.50462
 11
-295.80875
 21
-104.50462
  0
LINE
  8
0
  6
CONTINUOUS
 62
     7
 10
-365.51266
 20
-118.70463
 11
-365.51266
 21
-134.60461
  0
LINE
  8
0
  6
CONTINUOUS
 62
     7
 10
-363.46268
 20
-110.00462
 11
-363.46268
 21
-118.70463
  0
LINE
  8
0
  6
CONTINUOUS
 62
     7
 10
-362.06268
 20
30.795382
 11
-362.06268
 21
-110.00462
  0
LINE
  8
0
  6
CONTINUOUS
 62
     7
 10
-289.21268
 20
-118.70463
 11
-289.21268
 21
-134.60461
  0
LINE
  8
0
  6
CONTINUOUS
 62
     7
 10
-291.26266
 20
-110.00462
 11
-291.26266
 21
-118.70463
  0
LINE
  8
0
  6
CONTINUOUS
 62
     7
 10
-292.66269
 20
-101.60462
 11
-292.66269
 21
-110.00462
  0
LINE
  8
0
  6
CONTINUOUS
 62
     7
 10
-296.1391
 20
-106.00462
 11
-296.1391
 21
-110.00462
  0
LINE
  8
0
  6
CONTINUOUS
 62
     7
 10
-295.80875
 20
-104.50462
 11
-295.80875
 21
-110.00462
  0
LINE
  8
0
  6
CONTINUOUS
 62
     7
 10
-305.92038
 20
-106.00462
 11
-305.92038
 21
-110.00462
  0
LINE
  8
0
  6
CONTINUOUS
 62
     7
 10
-312.22403
 20
-104.50462
 11
-312.22403
 21
-110.00462
  0
LINE
  8
0
  6
CONTINUOUS
 62
     7
 10
-296.13907
 20
-106.00459
 11
-295.80872
 21
-104.50459
  0
LINE
  8
0
  6
CONTINUOUS
 62
     7
 10
-305.92035
 20
-106.00459
 11
-312.224
 21
-104.50459
  0
LINE
  8
0
  6
CONTINUOUS
 62
     7
 10
-348.80499
 20
-106.00462
 11
-358.58624
 21
-106.00462
  0
LINE
  8
0
  6
CONTINUOUS
 62
     7
 10
-342.50134
 20
-104.50462
 11
-358.9166
 21
-104.50462
  0
LINE
  8
0
  6
CONTINUOUS
 62
     7
 10
-358.58624
 20
-106.00462
 11
-358.58624
 21
-110.00462
  0
LINE
  8
0
  6
CONTINUOUS
 62
     7
 10
-358.9166
 20
-104.50462
 11
-358.9166
 21
-110.00462
  0
LINE
  8
0
  6
CONTINUOUS
 62
     7
 10
-348.80499
 20
-106.00462
 11
-348.80499
 21
-110.00462
  0
LINE
  8
0
  6
CONTINUOUS
 62
     7
 10
-342.50134
 20
-104.50462
 11
-342.50134
 21
-110.00462
  0
LINE
  8
0
  6
CONTINUOUS
 62
     7
 10
-358.58621
 20
-106.00462
 11
-358.9166
 21
-104.50462
  0
LINE
  8
0
  6
CENTER
 62
     7
 10
-83.033539
 20
-36.431515
 11
61.410843
 21
-36.431515
  0
LINE
  8
0
  6
CENTER
 62
     7
 10
-83.033539
 20
-170.06366
 11
-83.033539
 21
97.550873
  0
LINE
  8
0
  6
CONTINUOUS
 62
     7
 10
-124.03354
 20
46.968479
 11
-124.03354
 21
-119.83151
  0
LINE
  8
0
  6
CONTINUOUS
 62
     7
 10
24.966455
 20
-80.881531
 11
24.966455
 21
8.0184984
  0
LINE
  8
0
  6
CONTINUOUS
 62
     7
 10
9.0664568
 20
-80.881531
 11
9.0664568
 21
8.0184984
  0
LINE
  8
0
  6
CONTINUOUS
 62
     7
 10
0.36646014
 20
-78.881531
 11
0.36646014
 21
6.0184984
  0
LINE
  8
0
  6
CONTINUOUS
 62
     7
 10
-3.4335353
 20
-11.128901
 11
-3.4335353
 21
-0.20565328
  0
LINE
  8
0
  6
CONTINUOUS
 62
     7
 10
-5.8335366
 20
-17.230251
 11
-5.8335366
 21
0.1141099
  0
LINE
  8
0
  6
CONTINUOUS
 62
     7
 10
9.0664568
 20
-80.881531
 11
24.966455
 21
-80.881531
  0
LINE
  8
0
  6
CONTINUOUS
 62
     7
 10
0.36646014
 20
-78.881531
 11
9.0664568
 21
-78.881531
  0
LINE
  8
0
  6
CONTINUOUS
 62
     7
 10
-8.533534
 20
-77.431519
 11
0.36646014
 21
-77.431519
  0
LINE
  8
0
  6
CONTINUOUS
 62
     7
 10
9.0664568
 20
8.0184984
 11
24.966455
 21
8.0184984
  0
LINE
  8
0
  6
CONTINUOUS
 62
     7
 10
0.36646014
 20
6.0184984
 11
9.0664568
 21
6.0184984
  0
LINE
  8
0
  6
CONTINUOUS
 62
     7
 10
-8.533534
 20
4.5684862
 11
0.36646014
 21
4.5684862
  0
LINE
  8
0
  6
CONTINUOUS
 62
     7
 10
-5.8335366
 20
0.1141099
 11
0.36646014
 21
0.1141099
  0
LINE
  8
0
  6
CONTINUOUS
 62
     7
 10
-3.4335353
 20
-0.20565328
 11
0.36646014
 21
-0.20565328
  0
LINE
  8
0
  6
CONTINUOUS
 62
     7
 10
-3.4335353
 20
-11.128901
 11
0.36646014
 21
-11.128901
  0
LINE
  8
0
  6
CONTINUOUS
 62
     7
 10
-5.8335366
 20
-17.230251
 11
0.36646014
 21
-17.230251
  0
LINE
  8
0
  6
CONTINUOUS
 62
     7
 10
-5.8335466
 20
0.11407287
 11
-3.4335506
 21
-0.2056845
  0
LINE
  8
0
  6
CONTINUOUS
 62
     7
 10
-3.4335463
 20
-11.128893
 11
-5.8335466
 21
-17.230232
  0
LINE
  8
0
  6
CONTINUOUS
 62
     7
 10
-3.4335353
 20
-61.734127
 11
-3.4335353
 21
-72.657372
  0
LINE
  8
0
  6
CONTINUOUS
 62
     7
 10
-5.8335366
 20
-55.632778
 11
-5.8335366
 21
-72.977104
  0
LINE
  8
0
  6
CONTINUOUS
 62
     7
 10
-5.8335366
 20
-72.977104
 11
0.36646014
 21
-72.977104
  0
LINE
  8
0
  6
CONTINUOUS
 62
     7
 10
-3.4335353
 20
-72.657372
 11
0.36646014
 21
-72.657372
  0
LINE
  8
0
  6
CONTINUOUS
 62
     7
 10
-3.4335353
 20
-61.734127
 11
0.36646014
 21
-61.734127
  0
LINE
  8
0
  6
CONTINUOUS
 62
     7
 10
-5.8335366
 20
-55.632778
 11
0.36646014
 21
-55.632778
  0
LINE
  8
0
  6
CONTINUOUS
 62
     7
 10
-5.8335438
 20
-72.977104
 11
-3.4335477
 21
-72.657349
  0
LINE
  8
0
  6
CONTINUOUS
 62
     7
 10
-3.4335377
 20
-61.734104
 11
-5.8335376
 21
-55.632763
  0
LINE
  8
0
  6
CONTINUOUS
 62
     7
 10
-108.33616
 20
43.168495
 11
-102.23482
 21
40.768497
  0
LINE
  8
0
  6
CONTINUOUS
 62
     7
 10
-127.48354
 20
71.568459
 11
-38.583538
 21
71.568459
  0
LINE
  8
0
  6
CONTINUOUS
 62
     7
 10
-127.48354
 20
55.668491
 11
-38.583538
 21
55.668491
  0
LINE
  8
0
  6
CONTINUOUS
 62
     7
 10
-125.48354
 20
46.968479
 11
-40.583538
 21
46.968479
  0
LINE
  8
0
  6
CONTINUOUS
 62
     7
 10
-57.73093
 20
43.168491
 11
-46.80769
 21
43.168491
  0
LINE
  8
0
  6
CONTINUOUS
 62
     7
 10
-63.832279
 20
40.768497
 11
-46.487926
 21
40.768497
  0
LINE
  8
0
  6
CONTINUOUS
 62
     7
 10
-127.48354
 20
55.668491
 11
-127.48354
 21
71.568459
  0
LINE
  8
0
  6
CONTINUOUS
 62
     7
 10
-125.48354
 20
46.968479
 11
-125.48354
 21
55.668491
  0
LINE
  8
0
  6
CONTINUOUS
 62
     7
 10
-38.583538
 20
55.668491
 11
-38.583538
 21
71.568459
  0
LINE
  8
0
  6
CONTINUOUS
 62
     7
 10
-40.583538
 20
46.968479
 11
-40.583538
 21
55.668491
  0
LINE
  8
0
  6
CONTINUOUS
 62
     7
 10
-42.033535
 20
38.068485
 11
-42.033535
 21
46.968479
  0
LINE
  8
0
  6
CONTINUOUS
 62
     7
 10
-46.487926
 20
40.768497
 11
-46.487926
 21
46.968479
  0
LINE
  8
0
  6
CONTINUOUS
 62
     7
 10
-46.80769
 20
43.168491
 11
-46.80769
 21
46.968479
  0
LINE
  8
0
  6
CONTINUOUS
 62
     7
 10
-57.73093
 20
43.168491
 11
-57.73093
 21
46.968479
  0
LINE
  8
0
  6
CONTINUOUS
 62
     7
 10
-63.832279
 20
40.768497
 11
-63.832279
 21
46.968479
  0
LINE
  8
0
  6
CONTINUOUS
 62
     7
 10
-46.487938
 20
40.768501
 11
-46.807697
 21
43.168499
  0
LINE
  8
0
  6
CONTINUOUS
 62
     7
 10
-57.730919
 20
43.168472
 11
-63.83226
 21
40.768475
  0
LINE
  8
0
  6
CONTINUOUS
 62
     7
 10
-108.33615
 20
43.168491
 11
-119.25938
 21
43.168491
  0
LINE
  8
0
  6
CONTINUOUS
 62
     7
 10
-102.2348
 20
40.768497
 11
-119.57915
 21
40.768497
  0
LINE
  8
0
  6
CONTINUOUS
 62
     7
 10
-119.57915
 20
40.768497
 11
-119.57915
 21
46.968479
  0
LINE
  8
0
  6
CONTINUOUS
 62
     7
 10
-119.25938
 20
43.168491
 11
-119.25938
 21
46.968479
  0
LINE
  8
0
  6
CONTINUOUS
 62
     7
 10
-108.33615
 20
43.168491
 11
-108.33615
 21
46.968479
  0
LINE
  8
0
  6
CONTINUOUS
 62
     7
 10
-102.2348
 20
40.768497
 11
-102.2348
 21
46.968479
  0
LINE
  8
0
  6
CONTINUOUS
 62
     7
 10
-119.57913
 20
40.768486
 11
-119.25938
 21
43.168484
  0
LINE
  8
0
  6
CONTINUOUS
 62
     7
 10
-108.33619
 20
-116.03151
 11
-102.23485
 21
-113.63151
  0
LINE
  8
0
  6
CONTINUOUS
 62
     7
 10
-127.48354
 20
-144.43152
 11
-38.583538
 21
-144.43152
  0
LINE
  8
0
  6
CONTINUOUS
 62
     7
 10
-127.48354
 20
-128.53152
 11
-38.583538
 21
-128.53152
  0
LINE
  8
0
  6
CONTINUOUS
 62
     7
 10
-125.48354
 20
-119.83151
 11
-40.583538
 21
-119.83151
  0
LINE
  8
0
  6
CONTINUOUS
 62
     7
 10
-57.73093
 20
-116.03152
 11
-46.80769
 21
-116.03152
  0
LINE
  8
0
  6
CONTINUOUS
 62
     7
 10
-63.832279
 20
-113.6315
 11
-46.487926
 21
-113.6315
  0
LINE
  8
0
  6
CONTINUOUS
 62
     7
 10
-127.48354
 20
-128.53152
 11
-127.48354
 21
-144.43152
  0
LINE
  8
0
  6
CONTINUOUS
 62
     7
 10
-125.48354
 20
-119.83151
 11
-125.48354
 21
-128.53152
  0
LINE
  8
0
  6
CONTINUOUS
 62
     7
 10
-38.583538
 20
-128.53152
 11
-38.583538
 21
-144.43152
  0
LINE
  8
0
  6
CONTINUOUS
 62
     7
 10
-40.583538
 20
-119.83151
 11
-40.583538
 21
-128.53152
  0
LINE
  8
0
  6
CONTINUOUS
 62
     7
 10
-42.033535
 20
-110.93152
 11
-42.033535
 21
-119.83151
  0
LINE
  8
0
  6
CONTINUOUS
 62
     7
 10
-46.487926
 20
-113.6315
 11
-46.487926
 21
-119.83151
  0
LINE
  8
0
  6
CONTINUOUS
 62
     7
 10
-46.80769
 20
-116.03152
 11
-46.80769
 21
-119.83151
  0
LINE
  8
0
  6
CONTINUOUS
 62
     7
 10
-57.73093
 20
-116.03152
 11
-57.73093
 21
-119.83151
  0
LINE
  8
0
  6
CONTINUOUS
 62
     7
 10
-63.832279
 20
-113.6315
 11
-63.832279
 21
-119.83151
  0
LINE
  8
0
  6
CONTINUOUS
 62
     7
 10
-46.487946
 20
-113.63152
 11
-46.807705
 21
-116.03152
  0
LINE
  8
0
  6
CONTINUOUS
 62
     7
 10
-57.730915
 20
-116.03149
 11
-63.832256
 21
-113.63149
  0
LINE
  8
0
  6
CONTINUOUS
 62
     7
 10
-108.33615
 20
-116.03152
 11
-119.25938
 21
-116.03152
  0
LINE
  8
0
  6
CONTINUOUS
 62
     7
 10
-102.2348
 20
-113.6315
 11
-119.57915
 21
-113.6315
  0
LINE
  8
0
  6
CONTINUOUS
 62
     7
 10
-119.57915
 20
-113.6315
 11
-119.57915
 21
-119.83151
  0
LINE
  8
0
  6
CONTINUOUS
 62
     7
 10
-119.25938
 20
-116.03152
 11
-119.25938
 21
-119.83151
  0
LINE
  8
0
  6
CONTINUOUS
 62
     7
 10
-108.33615
 20
-116.03152
 11
-108.33615
 21
-119.83151
  0
LINE
  8
0
  6
CONTINUOUS
 62
     7
 10
-102.2348
 20
-113.6315
 11
-102.2348
 21
-119.83151
  0
LINE
  8
0
  6
CONTINUOUS
 62
     7
 10
-119.57914
 20
-113.63153
 11
-119.25938
 21
-116.03152
  0
LINE
  8
0
  6
CENTER
 62
     7
 10
599.46521
 20
-0.8985821
 11
745.35199
 21
-0.8985821
  0
LINE
  8
0
  6
CENTER
 62
     7
 10
599.46521
 20
-154.38795
 11
599.46521
 21
149.10143
  0
LINE
  8
0
  6
CONTINUOUS
 62
     7
 10
739.46521
 20
-70.798607
 11
739.46521
 21
69.00145
  0
LINE
  8
0
  6
CONTINUOUS
 62
     7
 10
723.56519
 20
-70.798607
 11
723.56519
 21
69.00145
  0
LINE
  8
0
  6
CONTINUOUS
 62
     7
 10
714.06519
 20
-68.648582
 11
714.06519
 21
66.851425
  0
LINE
  8
0
  6
CONTINUOUS
 62
     7
 10
708.56519
 20
40.052109
 11
708.56519
 21
55.366318
  0
LINE
  8
0
  6
CONTINUOUS
 62
     7
 10
707.06519
 20
32.732765
 11
707.06519
 21
55.749863
  0
LINE
  8
0
  6
CONTINUOUS
 62
     7
 10
723.56519
 20
-70.798607
 11
739.46521
 21
-70.798607
  0
LINE
  8
0
  6
CONTINUOUS
 62
     7
 10
714.06519
 20
-68.648582
 11
723.56519
 21
-68.648582
  0
LINE
  8
0
  6
CONTINUOUS
 62
     7
 10
701.46521
 20
-66.448631
 11
714.06519
 21
-66.448631
  0
LINE
  8
0
  6
CONTINUOUS
 62
     7
 10
714.06519
 20
66.851425
 11
723.56519
 21
66.851425
  0
LINE
  8
0
  6
CONTINUOUS
 62
     7
 10
701.46521
 20
64.651352
 11
714.06519
 21
64.651352
  0
LINE
  8
0
  6
CONTINUOUS
 62
     7
 10
723.56519
 20
69.00145
 11
739.46521
 21
69.00145
  0
LINE
  8
0
  6
CONTINUOUS
 62
     7
 10
707.06519
 20
55.749863
 11
714.06519
 21
55.749863
  0
LINE
  8
0
  6
CONTINUOUS
 62
     7
 10
708.56519
 20
55.366318
 11
714.06519
 21
55.366318
  0
LINE
  8
0
  6
CONTINUOUS
 62
     7
 10
708.56519
 20
40.052109
 11
714.06519
 21
40.052109
  0
LINE
  8
0
  6
CONTINUOUS
 62
     7
 10
707.06519
 20
32.732765
 11
714.06519
 21
32.732765
  0
LINE
  8
0
  6
CONTINUOUS
 62
     7
 10
707.06519
 20
32.732754
 11
708.56519
 21
40.052128
  0
LINE
  8
0
  6
CONTINUOUS
 62
     7
 10
707.06525
 20
55.749859
 11
708.56525
 21
55.366264
  0
LINE
  8
0
  6
CONTINUOUS
 62
     7
 10
708.56519
 20
-41.849266
 11
708.56519
 21
-57.163475
  0
LINE
  8
0
  6
CONTINUOUS
 62
     7
 10
707.06519
 20
-34.52993
 11
707.06519
 21
-57.54702
  0
LINE
  8
0
  6
CONTINUOUS
 62
     7
 10
707.06519
 20
-57.54702
 11
714.06519
 21
-57.54702
  0
LINE
  8
0
  6
CONTINUOUS
 62
     7
 10
708.56519
 20
-57.163475
 11
714.06519
 21
-57.163475
  0
LINE
  8
0
  6
CONTINUOUS
 62
     7
 10
708.56519
 20
-41.849266
 11
714.06519
 21
-41.849266
  0
LINE
  8
0
  6
CONTINUOUS
 62
     7
 10
707.06519
 20
-34.52993
 11
714.06519
 21
-34.52993
  0
LINE
  8
0
  6
CONTINUOUS
 62
     7
 10
707.06519
 20
-34.529865
 11
708.56519
 21
-41.8493
  0
LINE
  8
0
  6
CONTINUOUS
 62
     7
 10
707.06519
 20
-57.547115
 11
708.56519
 21
-57.163517
  0
LINE
  8
0
  6
CONTINUOUS
 62
     7
 10
542.81671
 20
106.70139
 11
543.20032
 21
108.2014
  0
LINE
  8
0
  6
CONTINUOUS
 62
     7
 10
529.56519
 20
139.10143
 11
669.36517
 21
139.10143
  0
LINE
  8
0
  6
CONTINUOUS
 62
     7
 10
529.56519
 20
123.2014
 11
669.36517
 21
123.2014
  0
LINE
  8
0
  6
CONTINUOUS
 62
     7
 10
531.71521
 20
113.7014
 11
667.21521
 21
113.7014
  0
LINE
  8
0
  6
CONTINUOUS
 62
     7
 10
640.41589
 20
108.2014
 11
655.7301
 21
108.2014
  0
LINE
  8
0
  6
CONTINUOUS
 62
     7
 10
633.0965
 20
106.7014
 11
656.11365
 21
106.7014
  0
LINE
  8
0
  6
CONTINUOUS
 62
     7
 10
529.56519
 20
123.2014
 11
529.56519
 21
139.10143
  0
LINE
  8
0
  6
CONTINUOUS
 62
     7
 10
531.71521
 20
113.7014
 11
531.71521
 21
123.2014
  0
LINE
  8
0
  6
CONTINUOUS
 62
     7
 10
533.91516
 20
-115.49856
 11
533.91516
 21
113.7014
  0
LINE
  8
0
  6
CONTINUOUS
 62
     7
 10
667.21521
 20
113.7014
 11
667.21521
 21
123.2014
  0
LINE
  8
0
  6
CONTINUOUS
 62
     7
 10
665.0152
 20
101.10143
 11
665.0152
 21
113.7014
  0
LINE
  8
0
  6
CONTINUOUS
 62
     7
 10
669.36517
 20
123.2014
 11
669.36517
 21
139.10143
  0
LINE
  8
0
  6
CONTINUOUS
 62
     7
 10
656.11365
 20
106.7014
 11
656.11365
 21
113.7014
  0
LINE
  8
0
  6
CONTINUOUS
 62
     7
 10
655.7301
 20
108.2014
 11
655.7301
 21
113.7014
  0
LINE
  8
0
  6
CONTINUOUS
 62
     7
 10
640.41589
 20
108.2014
 11
640.41589
 21
113.7014
  0
LINE
  8
0
  6
CONTINUOUS
 62
     7
 10
633.0965
 20
106.7014
 11
633.0965
 21
113.7014
  0
LINE
  8
0
  6
CONTINUOUS
 62
     7
 10
633.09656
 20
106.7014
 11
640.41589
 21
108.20139
  0
LINE
  8
0
  6
CONTINUOUS
 62
     7
 10
656.11365
 20
106.70143
 11
655.73004
 21
108.20144
  0
LINE
  8
0
  6
CONTINUOUS
 62
     7
 10
558.51447
 20
108.2014
 11
543.20032
 21
108.2014
  0
LINE
  8
0
  6
CONTINUOUS
 62
     7
 10
565.83386
 20
106.7014
 11
542.81671
 21
106.7014
  0
LINE
  8
0
  6
CONTINUOUS
 62
     7
 10
542.81671
 20
106.7014
 11
542.81671
 21
113.7014
  0
LINE
  8
0
  6
CONTINUOUS
 62
     7
 10
543.20032
 20
108.2014
 11
543.20032
 21
113.7014
  0
LINE
  8
0
  6
CONTINUOUS
 62
     7
 10
558.51447
 20
108.2014
 11
558.51447
 21
113.7014
  0
LINE
  8
0
  6
CONTINUOUS
 62
     7
 10
565.83386
 20
106.7014
 11
565.83386
 21
113.7014
  0
LINE
  8
0
  6
CONTINUOUS
 62
     7
 10
565.83386
 20
106.70145
 11
558.51453
 21
108.20144
  0
LINE
  8
0
  6
CONTINUOUS
 62
     7
 10
542.81671
 20
-108.49864
 11
543.20032
 21
-109.99859
  0
LINE
  8
0
  6
CONTINUOUS
 62
     7
 10
529.56519
 20
-140.89857
 11
669.36517
 21
-140.89857
  0
LINE
  8
0
  6
CONTINUOUS
 62
     7
 10
529.56519
 20
-124.99856
 11
669.36517
 21
-124.99856
  0
LINE
  8
0
  6
CONTINUOUS
 62
     7
 10
531.71521
 20
-115.49856
 11
667.21521
 21
-115.49856
  0
LINE
  8
0
  6
CONTINUOUS
 62
     7
 10
640.41589
 20
-109.99856
 11
655.7301
 21
-109.99856
  0
LINE
  8
0
  6
CONTINUOUS
 62
     7
 10
633.0965
 20
-108.49856
 11
656.11365
 21
-108.49856
  0
LINE
  8
0
  6
CONTINUOUS
 62
     7
 10
529.56519
 20
-124.99856
 11
529.56519
 21
-140.89857
  0
LINE
  8
0
  6
CONTINUOUS
 62
     7
 10
531.71521
 20
-115.49856
 11
531.71521
 21
-124.99856
  0
LINE
  8
0
  6
CONTINUOUS
 62
     7
 10
667.21521
 20
-115.49856
 11
667.21521
 21
-124.99856
  0
LINE
  8
0
  6
CONTINUOUS
 62
     7
 10
665.0152
 20
-102.89858
 11
665.0152
 21
-115.49856
  0
LINE
  8
0
  6
CONTINUOUS
 62
     7
 10
669.36517
 20
-124.99856
 11
669.36517
 21
-140.89857
  0
LINE
  8
0
  6
CONTINUOUS
 62
     7
 10
656.11365
 20
-108.49856
 11
656.11365
 21
-115.49856
  0
LINE
  8
0
  6
CONTINUOUS
 62
     7
 10
655.7301
 20
-109.99856
 11
655.7301
 21
-115.49856
  0
LINE
  8
0
  6
CONTINUOUS
 62
     7
 10
640.41589
 20
-109.99856
 11
640.41589
 21
-115.49856
  0
LINE
  8
0
  6
CONTINUOUS
 62
     7
 10
633.0965
 20
-108.49856
 11
633.0965
 21
-115.49856
  0
LINE
  8
0
  6
CONTINUOUS
 62
     7
 10
633.0965
 20
-108.49863
 11
640.41589
 21
-109.99863
  0
LINE
  8
0
  6
CONTINUOUS
 62
     7
 10
656.11371
 20
-108.49856
 11
655.7301
 21
-109.99862
  0
LINE
  8
0
  6
CONTINUOUS
 62
     7
 10
558.51447
 20
-109.99856
 11
543.20032
 21
-109.99856
  0
LINE
  8
0
  6
CONTINUOUS
 62
     7
 10
565.83386
 20
-108.49856
 11
542.81671
 21
-108.49856
  0
LINE
  8
0
  6
CONTINUOUS
 62
     7
 10
542.81671
 20
-108.49856
 11
542.81671
 21
-115.49856
  0
LINE
  8
0
  6
CONTINUOUS
 62
     7
 10
543.20032
 20
-109.99856
 11
543.20032
 21
-115.49856
  0
LINE
  8
0
  6
CONTINUOUS
 62
     7
 10
558.51447
 20
-109.99856
 11
558.51447
 21
-115.49856
  0
LINE
  8
0
  6
CONTINUOUS
 62
     7
 10
565.83386
 20
-108.49856
 11
565.83386
 21
-115.49856
  0
LINE
  8
0
  6
CONTINUOUS
 62
     7
 10
565.83392
 20
-108.4986
 11
558.51447
 21
-109.99861
  0
LINE
  8
0
  6
CENTER
 62
     7
 10
210.47871
 20
-38.018066
 11
347.73358
 21
-38.018066
  0
LINE
  8
0
  6
CENTER
 62
     7
 10
210.47871
 20
-184.88359
 11
210.47871
 21
111.98192
  0
LINE
  8
0
  6
CONTINUOUS
 62
     7
 10
337.47867
 20
-95.168076
 11
337.47867
 21
19.131958
  0
LINE
  8
0
  6
CONTINUOUS
 62
     7
 10
321.57867
 20
-95.168076
 11
321.57867
 21
19.131958
  0
LINE
  8
0
  6
CONTINUOUS
 62
     7
 10
312.07867
 20
-93.068069
 11
312.07867
 21
17.031952
  0
LINE
  8
0
  6
CONTINUOUS
 62
     7
 10
306.57867
 20
-4.9279785
 11
306.57867
 21
8.2511902
  0
LINE
  8
0
  6
CONTINUOUS
 62
     7
 10
305.07867
 20
-11.159058
 11
305.07867
 21
8.5777588
  0
LINE
  8
0
  6
CONTINUOUS
 62
     7
 10
321.57867
 20
-95.168076
 11
337.47867
 21
-95.168076
  0
LINE
  8
0
  6
CONTINUOUS
 62
     7
 10
312.07867
 20
-93.068069
 11
321.57867
 21
-93.068069
  0
LINE
  8
0
  6
CONTINUOUS
 62
     7
 10
302.47867
 20
-91.518082
 11
312.07867
 21
-91.518082
  0
LINE
  8
0
  6
CONTINUOUS
 62
     7
 10
321.57867
 20
19.131958
 11
337.47867
 21
19.131958
  0
LINE
  8
0
  6
CONTINUOUS
 62
     7
 10
312.07867
 20
17.031952
 11
321.57867
 21
17.031952
  0
LINE
  8
0
  6
CONTINUOUS
 62
     7
 10
302.47867
 20
15.481934
 11
312.07867
 21
15.481934
  0
LINE
  8
0
  6
CONTINUOUS
 62
     7
 10
305.07867
 20
8.5777588
 11
312.07867
 21
8.5777588
  0
LINE
  8
0
  6
CONTINUOUS
 62
     7
 10
306.57867
 20
8.2511902
 11
312.07867
 21
8.2511902
  0
LINE
  8
0
  6
CONTINUOUS
 62
     7
 10
306.57867
 20
-4.9279785
 11
312.07867
 21
-4.9279785
  0
LINE
  8
0
  6
CONTINUOUS
 62
     7
 10
305.07867
 20
-11.159058
 11
312.07867
 21
-11.159058
  0
LINE
  8
0
  6
CONTINUOUS
 62
     7
 10
305.0787
 20
-11.159063
 11
306.5787
 21
-4.9279914
  0
LINE
  8
0
  6
CONTINUOUS
 62
     7
 10
306.5787
 20
8.2511854
 11
305.07874
 21
8.5777397
  0
LINE
  8
0
  6
CONTINUOUS
 62
     7
 10
306.57867
 20
-71.108139
 11
306.57867
 21
-84.287338
  0
LINE
  8
0
  6
CONTINUOUS
 62
     7
 10
305.07867
 20
-64.87709
 11
305.07867
 21
-84.613876
  0
LINE
  8
0
  6
CONTINUOUS
 62
     7
 10
305.07867
 20
-84.613876
 11
312.07867
 21
-84.613876
  0
LINE
  8
0
  6
CONTINUOUS
 62
     7
 10
306.57867
 20
-84.287338
 11
312.07867
 21
-84.287338
  0
LINE
  8
0
  6
CONTINUOUS
 62
     7
 10
306.57867
 20
-71.108139
 11
312.07867
 21
-71.108139
  0
LINE
  8
0
  6
CONTINUOUS
 62
     7
 10
305.07867
 20
-64.87709
 11
312.07867
 21
-64.87709
  0
LINE
  8
0
  6
CONTINUOUS
 62
     7
 10
305.0787
 20
-64.877075
 11
306.5787
 21
-71.108131
  0
LINE
  8
0
  6
CONTINUOUS
 62
     7
 10
306.57874
 20
-84.287315
 11
305.07874
 21
-84.613869
  0
LINE
  8
0
  6
CONTINUOUS
 62
     7
 10
164.20946
 20
58.081913
 11
163.8829
 21
56.581921
  0
LINE
  8
0
  6
CONTINUOUS
 62
     7
 10
153.32872
 20
88.981926
 11
267.62869
 21
88.981926
  0
LINE
  8
0
  6
CONTINUOUS
 62
     7
 10
153.32872
 20
73.08194
 11
267.62869
 21
73.08194
  0
LINE
  8
0
  6
CONTINUOUS
 62
     7
 10
155.4287
 20
63.58194
 11
265.52869
 21
63.58194
  0
LINE
  8
0
  6
CONTINUOUS
 62
     7
 10
243.56877
 20
58.08194
 11
256.74796
 21
58.08194
  0
LINE
  8
0
  6
CONTINUOUS
 62
     7
 10
237.33772
 20
56.58194
 11
257.07449
 21
56.58194
  0
LINE
  8
0
  6
CONTINUOUS
 62
     7
 10
153.32872
 20
73.08194
 11
153.32872
 21
88.981926
  0
LINE
  8
0
  6
CONTINUOUS
 62
     7
 10
155.4287
 20
63.58194
 11
155.4287
 21
73.08194
  0
LINE
  8
0
  6
CONTINUOUS
 62
     7
 10
267.62869
 20
73.08194
 11
267.62869
 21
88.981926
  0
LINE
  8
0
  6
CONTINUOUS
 62
     7
 10
265.52869
 20
63.58194
 11
265.52869
 21
73.08194
  0
LINE
  8
0
  6
CONTINUOUS
 62
     7
 10
263.9787
 20
53.981934
 11
263.9787
 21
63.58194
  0
LINE
  8
0
  6
CONTINUOUS
 62
     7
 10
257.07449
 20
56.58194
 11
257.07449
 21
63.58194
  0
LINE
  8
0
  6
CONTINUOUS
 62
     7
 10
256.74796
 20
58.08194
 11
256.74796
 21
63.58194
  0
LINE
  8
0
  6
CONTINUOUS
 62
     7
 10
243.56877
 20
58.08194
 11
243.56877
 21
63.58194
  0
LINE
  8
0
  6
CONTINUOUS
 62
     7
 10
237.33772
 20
56.58194
 11
237.33772
 21
63.58194
  0
LINE
  8
0
  6
CONTINUOUS
 62
     7
 10
237.33772
 20
56.581932
 11
243.56879
 21
58.081928
  0
LINE
  8
0
  6
CONTINUOUS
 62
     7
 10
256.74799
 20
58.081905
 11
257.07452
 21
56.581917
  0
LINE
  8
0
  6
CONTINUOUS
 62
     7
 10
177.38863
 20
58.08194
 11
164.20946
 21
58.08194
  0
LINE
  8
0
  6
CONTINUOUS
 62
     7
 10
183.61971
 20
56.58194
 11
163.88289
 21
56.58194
  0
LINE
  8
0
  6
CONTINUOUS
 62
     7
 10
163.88289
 20
56.58194
 11
163.88289
 21
63.58194
  0
LINE
  8
0
  6
CONTINUOUS
 62
     7
 10
164.20946
 20
58.08194
 11
164.20946
 21
63.58194
  0
LINE
  8
0
  6
CONTINUOUS
 62
     7
 10
177.38863
 20
58.08194
 11
177.38863
 21
63.58194
  0
LINE
  8
0
  6
CONTINUOUS
 62
     7
 10
183.61971
 20
56.58194
 11
183.61971
 21
63.58194
  0
LINE
  8
0
  6
CONTINUOUS
 62
     7
 10
183.61971
 20
56.581928
 11
177.38864
 21
58.081924
  0
LINE
  8
0
  6
CONTINUOUS
 62
     7
 10
164.20944
 20
-134.11804
 11
163.88289
 21
-132.61806
  0
LINE
  8
0
  6
CONTINUOUS
 62
     7
 10
153.32872
 20
-165.01808
 11
267.62869
 21
-165.01808
  0
LINE
  8
0
  6
CONTINUOUS
 62
     7
 10
153.32872
 20
-149.11809
 11
267.62869
 21
-149.11809
  0
LINE
  8
0
  6
CONTINUOUS
 62
     7
 10
155.4287
 20
-139.61806
 11
265.52869
 21
-139.61806
  0
LINE
  8
0
  6
CONTINUOUS
 62
     7
 10
243.56877
 20
-134.11809
 11
256.74796
 21
-134.11809
  0
LINE
  8
0
  6
CONTINUOUS
 62
     7
 10
237.33772
 20
-132.61809
 11
257.07449
 21
-132.61809
  0
LINE
  8
0
  6
CONTINUOUS
 62
     7
 10
153.32872
 20
-149.11809
 11
153.32872
 21
-165.01808
  0
LINE
  8
0
  6
CONTINUOUS
 62
     7
 10
155.4287
 20
-139.61806
 11
155.4287
 21
-149.11809
  0
LINE
  8
0
  6
CONTINUOUS
 62
     7
 10
156.97871
 20
63.58194
 11
156.97871
 21
-139.61806
  0
LINE
  8
0
  6
CONTINUOUS
 62
     7
 10
267.62869
 20
-149.11809
 11
267.62869
 21
-165.01808
  0
LINE
  8
0
  6
CONTINUOUS
 62
     7
 10
265.52869
 20
-139.61806
 11
265.52869
 21
-149.11809
  0
LINE
  8
0
  6
CONTINUOUS
 62
     7
 10
263.9787
 20
-130.01808
 11
263.9787
 21
-139.61806
  0
LINE
  8
0
  6
CONTINUOUS
 62
     7
 10
257.07449
 20
-132.61809
 11
257.07449
 21
-139.61806
  0
LINE
  8
0
  6
CONTINUOUS
 62
     7
 10
256.74796
 20
-134.11809
 11
256.74796
 21
-139.61806
  0
LINE
  8
0
  6
CONTINUOUS
 62
     7
 10
243.56877
 20
-134.11809
 11
243.56877
 21
-139.61806
  0
LINE
  8
0
  6
CONTINUOUS
 62
     7
 10
237.33772
 20
-132.61809
 11
237.33772
 21
-139.61806
  0
LINE
  8
0
  6
CONTINUOUS
 62
     7
 10
237.33771
 20
-132.61807
 11
243.56877
 21
-134.11807
  0
LINE
  8
0
  6
CONTINUOUS
 62
     7
 10
256.74799
 20
-134.11804
 11
257.07455
 21
-132.61806
  0
LINE
  8
0
  6
CONTINUOUS
 62
     7
 10
177.38863
 20
-134.11809
 11
164.20946
 21
-134.11809
  0
LINE
  8
0
  6
CONTINUOUS
 62
     7
 10
183.61971
 20
-132.61809
 11
163.88289
 21
-132.61809
  0
LINE
  8
0
  6
CONTINUOUS
 62
     7
 10
163.88289
 20
-132.61809
 11
163.88289
 21
-139.61806
  0
LINE
  8
0
  6
CONTINUOUS
 62
     7
 10
164.20946
 20
-134.11809
 11
164.20946
 21
-139.61806
  0
LINE
  8
0
  6
CONTINUOUS
 62
     7
 10
177.38863
 20
-134.11809
 11
177.38863
 21
-139.61806
  0
LINE
  8
0
  6
CONTINUOUS
 62
     7
 10
183.61971
 20
-132.61809
 11
183.61971
 21
-139.61806
  0
LINE
  8
0
  6
CONTINUOUS
 62
     7
 10
183.61972
 20
-132.61807
 11
177.38864
 21
-134.11807
  0
LINE
  8
0
  6
CENTER
 62
     7
 10
999.27655
 20
-0.8985821
 11
1166.7275
 21
-0.8985821
  0
LINE
  8
0
  6
CENTER
 62
     7
 10
999.27655
 20
-186.99263
 11
999.27655
 21
182.33672
  0
LINE
  8
0
  6
CONTINUOUS
 62
     7
 10
1164.2765
 20
-83.498558
 11
1164.2765
 21
81.701393
  0
LINE
  8
0
  6
CONTINUOUS
 62
     7
 10
1148.3766
 20
-83.498558
 11
1148.3766
 21
81.701393
  0
LINE
  8
0
  6
CONTINUOUS
 62
     7
 10
1138.8766
 20
-81.298607
 11
1138.8766
 21
79.501442
  0
LINE
  8
0
  6
CONTINUOUS
 62
     7
 10
1133.3766
 20
48.484535
 11
1133.3766
 21
64.937233
  0
LINE
  8
0
  6
CONTINUOUS
 62
     7
 10
1131.8766
 20
41.301918
 11
1131.8766
 21
65.313698
  0
LINE
  8
0
  6
CONTINUOUS
 62
     7
 10
1148.3766
 20
-83.498558
 11
1164.2765
 21
-83.498558
  0
LINE
  8
0
  6
CONTINUOUS
 62
     7
 10
1138.8766
 20
-81.298607
 11
1148.3766
 21
-81.298607
  0
LINE
  8
0
  6
CONTINUOUS
 62
     7
 10
1126.2765
 20
-79.098595
 11
1138.8766
 21
-79.098595
  0
LINE
  8
0
  6
CONTINUOUS
 62
     7
 10
1133.3766
 20
64.937233
 11
1138.8766
 21
64.937233
  0
LINE
  8
0
  6
CONTINUOUS
 62
     7
 10
1131.8766
 20
65.313698
 11
1138.8766
 21
65.313698
  0
LINE
  8
0
  6
CONTINUOUS
 62
     7
 10
1133.3766
 20
48.484535
 11
1138.8766
 21
48.484535
  0
LINE
  8
0
  6
CONTINUOUS
 62
     7
 10
1131.8766
 20
41.301918
 11
1138.8766
 21
41.301918
  0
LINE
  8
0
  6
CONTINUOUS
 62
     7
 10
1148.3766
 20
81.701393
 11
1164.2765
 21
81.701393
  0
LINE
  8
0
  6
CONTINUOUS
 62
     7
 10
1138.8766
 20
79.501442
 11
1148.3766
 21
79.501442
  0
LINE
  8
0
  6
CONTINUOUS
 62
     7
 10
1126.2765
 20
77.30143
 11
1138.8766
 21
77.30143
  0
LINE
  8
0
  6
CONTINUOUS
 62
     7
 10
1131.8765
 20
41.301914
 11
1133.3765
 21
48.484604
  0
LINE
  8
0
  6
CONTINUOUS
 62
     7
 10
1133.3766
 20
64.937332
 11
1131.8766
 21
65.313759
  0
LINE
  8
0
  6
CONTINUOUS
 62
     7
 10
1133.3766
 20
-50.2817
 11
1133.3766
 21
-66.734459
  0
LINE
  8
0
  6
CONTINUOUS
 62
     7
 10
1131.8766
 20
-43.099083
 11
1131.8766
 21
-67.110863
  0
LINE
  8
0
  6
CONTINUOUS
 62
     7
 10
1133.3766
 20
-66.734459
 11
1138.8766
 21
-66.734459
  0
LINE
  8
0
  6
CONTINUOUS
 62
     7
 10
1131.8766
 20
-67.110863
 11
1138.8766
 21
-67.110863
  0
LINE
  8
0
  6
CONTINUOUS
 62
     7
 10
1133.3766
 20
-50.2817
 11
1138.8766
 21
-50.2817
  0
LINE
  8
0
  6
CONTINUOUS
 62
     7
 10
1131.8766
 20
-43.099083
 11
1138.8766
 21
-43.099083
  0
LINE
  8
0
  6
CONTINUOUS
 62
     7
 10
1131.8766
 20
-43.099068
 11
1133.3766
 21
-50.281696
  0
LINE
  8
0
  6
CONTINUOUS
 62
     7
 10
1133.3765
 20
-66.734413
 11
1131.8765
 21
-67.11084
  0
LINE
  8
0
  6
CONTINUOUS
 62
     7
 10
933.44067
 20
133.20151
 11
933.06421
 21
131.70145
  0
LINE
  8
0
  6
CONTINUOUS
 62
     7
 10
916.67651
 20
164.10143
 11
1081.8766
 21
164.10143
  0
LINE
  8
0
  6
CONTINUOUS
 62
     7
 10
916.67651
 20
148.2014
 11
1081.8766
 21
148.2014
  0
LINE
  8
0
  6
CONTINUOUS
 62
     7
 10
918.87653
 20
138.7014
 11
1079.6765
 21
138.7014
  0
LINE
  8
0
  6
CONTINUOUS
 62
     7
 10
1048.6597
 20
133.2014
 11
1065.1124
 21
133.2014
  0
LINE
  8
0
  6
CONTINUOUS
 62
     7
 10
1041.4771
 20
131.7014
 11
1065.4888
 21
131.7014
  0
LINE
  8
0
  6
CONTINUOUS
 62
     7
 10
916.67651
 20
148.2014
 11
916.67651
 21
164.10143
  0
LINE
  8
0
  6
CONTINUOUS
 62
     7
 10
918.87653
 20
138.7014
 11
918.87653
 21
148.2014
  0
LINE
  8
0
  6
CONTINUOUS
 62
     7
 10
921.07648
 20
-140.49855
 11
921.07648
 21
138.7014
  0
LINE
  8
0
  6
CONTINUOUS
 62
     7
 10
1065.1124
 20
133.2014
 11
1065.1124
 21
138.7014
  0
LINE
  8
0
  6
CONTINUOUS
 62
     7
 10
1065.4888
 20
131.7014
 11
1065.4888
 21
138.7014
  0
LINE
  8
0
  6
CONTINUOUS
 62
     7
 10
1048.6597
 20
133.2014
 11
1048.6597
 21
138.7014
  0
LINE
  8
0
  6
CONTINUOUS
 62
     7
 10
1041.4771
 20
131.7014
 11
1041.4771
 21
138.7014
  0
LINE
  8
0
  6
CONTINUOUS
 62
     7
 10
1081.8766
 20
148.2014
 11
1081.8766
 21
164.10143
  0
LINE
  8
0
  6
CONTINUOUS
 62
     7
 10
1079.6765
 20
138.7014
 11
1079.6765
 21
148.2014
  0
LINE
  8
0
  6
CONTINUOUS
 62
     7
 10
1077.4766
 20
126.10142
 11
1077.4766
 21
138.7014
  0
LINE
  8
0
  6
CONTINUOUS
 62
     7
 10
1041.4769
 20
131.70139
 11
1048.6597
 21
133.20139
  0
LINE
  8
0
  6
CONTINUOUS
 62
     7
 10
1065.1123
 20
133.20143
 11
1065.4888
 21
131.70143
  0
LINE
  8
0
  6
CONTINUOUS
 62
     7
 10
949.89337
 20
133.2014
 11
933.44067
 21
133.2014
  0
LINE
  8
0
  6
CONTINUOUS
 62
     7
 10
957.07599
 20
131.7014
 11
933.06421
 21
131.7014
  0
LINE
  8
0
  6
CONTINUOUS
 62
     7
 10
933.44067
 20
133.2014
 11
933.44067
 21
138.7014
  0
LINE
  8
0
  6
CONTINUOUS
 62
     7
 10
933.06421
 20
131.7014
 11
933.06421
 21
138.7014
  0
LINE
  8
0
  6
CONTINUOUS
 62
     7
 10
949.89337
 20
133.2014
 11
949.89337
 21
138.7014
  0
LINE
  8
0
  6
CONTINUOUS
 62
     7
 10
957.07599
 20
131.7014
 11
957.07599
 21
138.7014
  0
LINE
  8
0
  6
CONTINUOUS
 62
     7
 10
957.07599
 20
131.70143
 11
949.89337
 21
133.20142
  0
LINE
  8
0
  6
CONTINUOUS
 62
     7
 10
933.44061
 20
-134.99858
 11
933.06421
 21
-133.49858
  0
LINE
  8
0
  6
CONTINUOUS
 62
     7
 10
916.67651
 20
-165.89857
 11
1081.8766
 21
-165.89857
  0
LINE
  8
0
  6
CONTINUOUS
 62
     7
 10
916.67651
 20
-149.99855
 11
1081.8766
 21
-149.99855
  0
LINE
  8
0
  6
CONTINUOUS
 62
     7
 10
918.87653
 20
-140.49855
 11
1079.6765
 21
-140.49855
  0
LINE
  8
0
  6
CONTINUOUS
 62
     7
 10
1048.6597
 20
-134.99855
 11
1065.1124
 21
-134.99855
  0
LINE
  8
0
  6
CONTINUOUS
 62
     7
 10
1041.4771
 20
-133.49855
 11
1065.4888
 21
-133.49855
  0
LINE
  8
0
  6
CONTINUOUS
 62
     7
 10
916.67651
 20
-149.99855
 11
916.67651
 21
-165.89857
  0
LINE
  8
0
  6
CONTINUOUS
 62
     7
 10
918.87653
 20
-140.49855
 11
918.87653
 21
-149.99855
  0
LINE
  8
0
  6
CONTINUOUS
 62
     7
 10
1065.1124
 20
-134.99855
 11
1065.1124
 21
-140.49855
  0
LINE
  8
0
  6
CONTINUOUS
 62
     7
 10
1065.4888
 20
-133.49855
 11
1065.4888
 21
-140.49855
  0
LINE
  8
0
  6
CONTINUOUS
 62
     7
 10
1048.6597
 20
-134.99855
 11
1048.6597
 21
-140.49855
  0
LINE
  8
0
  6
CONTINUOUS
 62
     7
 10
1041.4771
 20
-133.49855
 11
1041.4771
 21
-140.49855
  0
LINE
  8
0
  6
CONTINUOUS
 62
     7
 10
1081.8766
 20
-149.99855
 11
1081.8766
 21
-165.89857
  0
LINE
  8
0
  6
CONTINUOUS
 62
     7
 10
1079.6765
 20
-140.49855
 11
1079.6765
 21
-149.99855
  0
LINE
  8
0
  6
CONTINUOUS
 62
     7
 10
1077.4766
 20
-127.89858
 11
1077.4766
 21
-140.49855
  0
LINE
  8
0
  6
CONTINUOUS
 62
     7
 10
1041.4771
 20
-133.49855
 11
1048.6595
 21
-134.99854
  0
LINE
  8
0
  6
CONTINUOUS
 62
     7
 10
1065.1123
 20
-134.99857
 11
1065.4888
 21
-133.49857
  0
LINE
  8
0
  6
CONTINUOUS
 62
     7
 10
949.89337
 20
-134.99855
 11
933.44067
 21
-134.99855
  0
LINE
  8
0
  6
CONTINUOUS
 62
     7
 10
957.07599
 20
-133.49855
 11
933.06421
 21
-133.49855
  0
LINE
  8
0
  6
CONTINUOUS
 62
     7
 10
933.44067
 20
-134.99855
 11
933.44067
 21
-140.49855
  0
LINE
  8
0
  6
CONTINUOUS
 62
     7
 10
933.06421
 20
-133.49855
 11
933.06421
 21
-140.49855
  0
LINE
  8
0
  6
CONTINUOUS
 62
     7
 10
949.89337
 20
-134.99855
 11
949.89337
 21
-140.49855
  0
LINE
  8
0
  6
CONTINUOUS
 62
     7
 10
957.07599
 20
-133.49855
 11
957.07599
 21
-140.49855
  0
LINE
  8
0
  6
CONTINUOUS
 62
     7
 10
957.07605
 20
-133.4986
 11
949.89331
 21
-134.9986
  0
ARC
  8
0
  6
CONTINUOUS
 62
     7
 10
-265.36264
 20
22.395388
 40
27.299999
 50
180.00001
 51
270
  0
ARC
  8
0
  6
CONTINUOUS
 62
     7
 10
-265.36264
 20
-101.60462
 40
27.299999
 50
89.999996
 51
179.99999
  0
ARC
  8
0
  6
CONTINUOUS
 62
     7
 10
-8.533534
 20
-110.93152
 40
33.5
 50
90.000003
 51
179.99999
  0
ARC
  8
0
  6
CONTINUOUS
 62
     7
 10
-8.533534
 20
38.068485
 40
33.5
 50
180.00001
 51
270
  0
ARC
  8
0
  6
CONTINUOUS
 62
     7
 10
701.46521
 20
101.10143
 40
36.450001
 50
180.00001
 51
270
  0
ARC
  8
0
  6
CONTINUOUS
 62
     7
 10
701.46521
 20
-102.89858
 40
36.450001
 50
90.000003
 51
179.99999
  0
ARC
  8
0
  6
CONTINUOUS
 62
     7
 10
302.47867
 20
53.981934
 40
38.5
 50
180.00001
 51
270
  0
ARC
  8
0
  6
CONTINUOUS
 62
     7
 10
302.47867
 20
-130.01808
 40
38.5
 50
90.000003
 51
179.99999
  0
ARC
  8
0
  6
CONTINUOUS
 62
     7
 10
1126.2765
 20
126.10142
 40
48.799999
 50
180.00001
 51
270
  0
ARC
  8
0
  6
CONTINUOUS
 62
     7
 10
1126.2765
 20
-127.89858
 40
48.799999
 50
90.000003
 51
179.99999
  0
TEXT
  8
0
  6
CONTINUOUS
 62
     7
 10
-364.09372
 20
102.53134
 40
14
 41
1.0129871
  1
21/2
  0
TEXT
  8
0
  6
CONTINUOUS
 62
     7
 10
-91.206652
 20
118.39687
 40
14
 41
1.0714291
  1
3
  0
TEXT
  8
0
  6
CONTINUOUS
 62
     7
 10
594.46521
 20
195.18018
 40
14
 41
1.0714291
  1
5
  0
TEXT
  8
0
  6
CONTINUOUS
 62
     7
 10
200.71905
 20
140.60861
 40
14
 41
1.0714291
  1
4
  0
TEXT
  8
0
  6
CONTINUOUS
 62
     7
 10
991.10333
 20
223.73813
 40
14
 41
1.0714291
  1
6
  0
TEXT
  8
0
  6
CONTINUOUS
 62
     7
 10
-386.6626
 20
251.1673
 40
15
 41
1.0026954
  1
TOP-J F-3(T) 5ｻｲｽﾞ
  0
TEXT
  8
0
  6
CONTINUOUS
 62
     7
 10
-328.16135
 20
-57.531832
 40
4
 41
1.071429
  1
1
 50
90.000003
  0
TEXT
  8
0
  6
CONTINUOUS
 62
     7
 10
-339.47287
 20
-47.277221
 40
5.5
 41
1.0178573
  1
F-3
 50
90.000003
  0
TEXT
  8
0
  6
CONTINUOUS
 62
     7
 10
-322.2439
 20
-65.827217
 40
9
 41
1.0178573
  1
2/E
 50
90.000003
  0
TEXT
  8
0
  6
CONTINUOUS
 62
     7
 10
-322.48532
 20
-52.801829
 40
4
 41
1.071429
  1
2
 50
90.000003
  0
TEXT
  8
0
  6
CONTINUOUS
 62
     7
 10
-78.83667
 20
-51.648529
 40
9
 41
1.0714291
  1
3
 50
90.000003
  0
TEXT
  8
0
  6
CONTINUOUS
 62
     7
 10
-95.743011
 20
-44.22372
 40
5.5
 41
1.0178573
  1
F-3
 50
90.000003
  0
TEXT
  8
0
  6
CONTINUOUS
 62
     7
 10
218.40533
 20
-62.721661
 40
18
 41
1.071429
  1
4
 50
90.000003
  0
TEXT
  8
0
  6
CONTINUOUS
 62
     7
 10
193.13553
 20
-51.087181
 40
9
 41
1.0178573
  1
F-3
 50
90.000003
  0
TEXT
  8
0
  6
CONTINUOUS
 62
     7
 10
609.18512
 20
-37.857521
 40
18
 41
1.0285716
  1
5E
 50
90.000003
  0
TEXT
  8
0
  6
CONTINUOUS
 62
     7
 10
582.7926
 20
-13.312082
 40
9
 41
1.0178573
  1
F-3
 50
90.000003
  0
TEXT
  8
0
  6
CONTINUOUS
 62
     7
 10
1007.7408
 20
-37.296175
 40
18
 41
1.0285716
  1
6J
 50
90.000003
  0
TEXT
  8
0
  6
CONTINUOUS
 62
     7
 10
979.66431
 20
-11.628043
 40
9
 41
1.0178573
  1
F-3
 50
90.000003
  0
LINE
  8
0
  6
CONTINUOUS
 62
     7
 10
-333.65445
 20
-26.047152
 11
-332.01098
 21
-26.047152
  0
LINE
  8
0
  6
CONTINUOUS
 62
     7
 10
-333.65445
 20
-27.247152
 11
-332.01098
 21
-27.247152
  0
LINE
  8
0
  6
CONTINUOUS
 62
     7
 10
-323.29792
 20
-27.247152
 11
-321.65445
 21
-27.247152
  0
LINE
  8
0
  6
CONTINUOUS
 62
     7
 10
-323.29792
 20
-26.047152
 11
-321.65445
 21
-26.047152
  0
LINE
  8
0
  6
CONTINUOUS
 62
     7
 10
-330.80662
 20
-27.247152
 11
-327.65445
 21
-27.247152
  0
LINE
  8
0
  6
CONTINUOUS
 62
     7
 10
-330.80662
 20
-26.047152
 11
-327.65445
 21
-26.047152
  0
ARC
  8
0
  6
CONTINUOUS
 62
     7
 10
-327.65445
 20
-24.247152
 40
2.4000001
 50
36.008327
 51
143.99168
  0
ARC
  8
0
  6
CONTINUOUS
 62
     7
 10
-327.65445
 20
-24.247152
 40
3.5999999
 50
36.008327
 51
143.99168
  0
ARC
  8
0
  6
CONTINUOUS
 62
     7
 10
-327.65445
 20
-29.047152
 40
2.4000001
 50
216.00833
 51
323.99168
  0
ARC
  8
0
  6
CONTINUOUS
 62
     7
 10
-327.65445
 20
-29.047152
 40
3.5999999
 50
216.00833
 51
323.99168
  0
ARC
  8
0
  6
CONTINUOUS
 62
     7
 10
-324.35214
 20
-26.647152
 40
7.6823077
 50
143.99168
 51
175.52056
  0
ARC
  8
0
  6
CONTINUOUS
 62
     7
 10
-324.35214
 20
-26.647152
 40
6.4823079
 50
143.99168
 51
174.68912
  0
ARC
  8
0
  6
CONTINUOUS
 62
     7
 10
-330.95676
 20
-26.647152
 40
6.4823079
 50
323.99167
 51
36.008327
  0
ARC
  8
0
  6
CONTINUOUS
 62
     7
 10
-330.95676
 20
-26.647152
 40
7.6823077
 50
323.99167
 51
355.52055
  0
ARC
  8
0
  6
CONTINUOUS
 62
     7
 10
-333.20445
 20
-26.647152
 40
0.75
 50
126.8699
 51
233.1301
  0
ARC
  8
0
  6
CONTINUOUS
 62
     7
 10
-328.10445
 20
-26.647152
 40
0.75
 50
306.86991
 51
53.130105
  0
ARC
  8
0
  6
CONTINUOUS
 62
     7
 10
-322.10445
 20
-26.647152
 40
0.75
 50
306.86991
 51
53.130105
  0
ARC
  8
0
  6
CONTINUOUS
 62
     7
 10
-324.35214
 20
-26.647152
 40
6.4823079
 50
185.31088
 51
216.00833
  0
ARC
  8
0
  6
CONTINUOUS
 62
     7
 10
-324.35214
 20
-26.647152
 40
7.6823077
 50
184.47945
 51
216.00833
  0
ARC
  8
0
  6
CONTINUOUS
 62
     7
 10
-330.95676
 20
-26.647152
 40
7.6823077
 50
4.4794498
 51
36.008327
  0
LINE
  8
0
  6
CONTINUOUS
 62
     7
 10
-90.83667
 20
-19.616936
 11
-88.782337
 21
-19.616936
  0
LINE
  8
0
  6
CONTINUOUS
 62
     7
 10
-90.83667
 20
-21.116936
 11
-88.782337
 21
-21.116936
  0
LINE
  8
0
  6
CONTINUOUS
 62
     7
 10
-77.891003
 20
-21.116935
 11
-75.83667
 21
-21.116935
  0
LINE
  8
0
  6
CONTINUOUS
 62
     7
 10
-77.891003
 20
-19.616935
 11
-75.83667
 21
-19.616935
  0
LINE
  8
0
  6
CONTINUOUS
 62
     7
 10
-87.276885
 20
-21.116936
 11
-83.33667
 21
-21.116936
  0
LINE
  8
0
  6
CONTINUOUS
 62
     7
 10
-87.276886
 20
-19.616936
 11
-83.33667
 21
-19.616936
  0
ARC
  8
0
  6
CONTINUOUS
 62
     7
 10
-83.33667
 20
-17.366936
 40
3
 50
36.008327
 51
143.99168
  0
ARC
  8
0
  6
CONTINUOUS
 62
     7
 10
-83.33667
 20
-17.366936
 40
4.5
 50
36.008327
 51
143.99168
  0
ARC
  8
0
  6
CONTINUOUS
 62
     7
 10
-83.33667
 20
-23.366936
 40
3
 50
216.00833
 51
323.99168
  0
ARC
  8
0
  6
CONTINUOUS
 62
     7
 10
-83.33667
 20
-23.366936
 40
4.5
 50
216.00833
 51
323.99168
  0
ARC
  8
0
  6
CONTINUOUS
 62
     7
 10
-79.208786
 20
-20.366936
 40
9.6028843
 50
143.99168
 51
175.52056
  0
ARC
  8
0
  6
CONTINUOUS
 62
     7
 10
-79.208786
 20
-20.366936
 40
8.1028843
 50
143.99168
 51
174.68912
  0
ARC
  8
0
  6
CONTINUOUS
 62
     7
 10
-87.464554
 20
-20.366936
 40
8.1028843
 50
323.99167
 51
36.008327
  0
ARC
  8
0
  6
CONTINUOUS
 62
     7
 10
-87.464554
 20
-20.366936
 40
9.6028843
 50
323.99167
 51
355.52055
  0
ARC
  8
0
  6
CONTINUOUS
 62
     7
 10
-90.27417
 20
-20.366936
 40
0.9375
 50
126.8699
 51
233.1301
  0
ARC
  8
0
  6
CONTINUOUS
 62
     7
 10
-83.89917
 20
-20.366936
 40
0.9375
 50
306.86991
 51
53.130105
  0
ARC
  8
0
  6
CONTINUOUS
 62
     7
 10
-76.39917
 20
-20.366935
 40
0.9375
 50
306.86991
 51
53.130105
  0
ARC
  8
0
  6
CONTINUOUS
 62
     7
 10
-79.208786
 20
-20.366936
 40
9.6028843
 50
184.47945
 51
216.00833
  0
ARC
  8
0
  6
CONTINUOUS
 62
     7
 10
-79.208786
 20
-20.366936
 40
8.1028843
 50
185.31088
 51
216.00833
  0
ARC
  8
0
  6
CONTINUOUS
 62
     7
 10
-87.464554
 20
-20.366936
 40
9.6028843
 50
4.4794498
 51
36.008327
  0
LINE
  8
0
  6
CONTINUOUS
 62
     7
 10
199.84399
 20
-20.589628
 11
202.30919
 21
-20.589628
  0
LINE
  8
0
  6
CONTINUOUS
 62
     7
 10
199.84399
 20
-22.389628
 11
202.30919
 21
-22.389628
  0
LINE
  8
0
  6
CONTINUOUS
 62
     7
 10
215.37879
 20
-22.389628
 11
217.84399
 21
-22.389627
  0
LINE
  8
0
  6
CONTINUOUS
 62
     7
 10
215.37879
 20
-20.589628
 11
217.84399
 21
-20.589627
  0
LINE
  8
0
  6
CONTINUOUS
 62
     7
 10
204.11574
 20
-22.389628
 11
208.84399
 21
-22.389628
  0
LINE
  8
0
  6
CONTINUOUS
 62
     7
 10
204.11574
 20
-20.589628
 11
208.84399
 21
-20.589628
  0
ARC
  8
0
  6
CONTINUOUS
 62
     7
 10
208.84399
 20
-17.889628
 40
3.5999999
 50
36.008327
 51
143.99168
  0
ARC
  8
0
  6
CONTINUOUS
 62
     7
 10
208.84399
 20
-17.889628
 40
5.4000001
 50
36.008327
 51
143.99168
  0
ARC
  8
0
  6
CONTINUOUS
 62
     7
 10
208.84399
 20
-25.089628
 40
3.5999999
 50
216.00833
 51
323.99168
  0
ARC
  8
0
  6
CONTINUOUS
 62
     7
 10
208.84399
 20
-25.089628
 40
5.4000001
 50
216.00833
 51
323.99168
  0
ARC
  8
0
  6
CONTINUOUS
 62
     7
 10
213.79746
 20
-21.489628
 40
11.523461
 50
143.99168
 51
175.52056
  0
ARC
  8
0
  6
CONTINUOUS
 62
     7
 10
213.79746
 20
-21.489628
 40
9.7234612
 50
143.99168
 51
174.68912
  0
ARC
  8
0
  6
CONTINUOUS
 62
     7
 10
203.89053
 20
-21.489628
 40
9.7234612
 50
323.99167
 51
36.008327
  0
ARC
  8
0
  6
CONTINUOUS
 62
     7
 10
203.89053
 20
-21.489628
 40
11.523461
 50
323.99167
 51
355.52055
  0
ARC
  8
0
  6
CONTINUOUS
 62
     7
 10
200.51899
 20
-21.489628
 40
1.125
 50
126.8699
 51
233.1301
  0
ARC
  8
0
  6
CONTINUOUS
 62
     7
 10
208.16899
 20
-21.489628
 40
1.125
 50
306.86991
 51
53.130105
  0
ARC
  8
0
  6
CONTINUOUS
 62
     7
 10
217.16899
 20
-21.489627
 40
1.125
 50
306.86991
 51
53.130105
  0
ARC
  8
0
  6
CONTINUOUS
 62
     7
 10
213.79746
 20
-21.489628
 40
11.523461
 50
184.47945
 51
216.00833
  0
ARC
  8
0
  6
CONTINUOUS
 62
     7
 10
213.79746
 20
-21.489628
 40
9.7234612
 50
185.31088
 51
216.00833
  0
ARC
  8
0
  6
CONTINUOUS
 62
     7
 10
203.89053
 20
-21.489628
 40
11.523461
 50
4.4794498
 51
36.008327
  0
LINE
  8
0
  6
CONTINUOUS
 62
     7
 10
591.18512
 20
23.360279
 11
593.65032
 21
23.360279
  0
LINE
  8
0
  6
CONTINUOUS
 62
     7
 10
591.18512
 20
21.560279
 11
593.65032
 21
21.560279
  0
LINE
  8
0
  6
CONTINUOUS
 62
     7
 10
606.71992
 20
21.56028
 11
609.18512
 21
21.56028
  0
LINE
  8
0
  6
CONTINUOUS
 62
     7
 10
606.71992
 20
23.36028
 11
609.18512
 21
23.36028
  0
LINE
  8
0
  6
CONTINUOUS
 62
     7
 10
595.45686
 20
21.560279
 11
600.18512
 21
21.560279
  0
LINE
  8
0
  6
CONTINUOUS
 62
     7
 10
595.45686
 20
23.360279
 11
600.18512
 21
23.360279
  0
ARC
  8
0
  6
CONTINUOUS
 62
     7
 10
600.18512
 20
26.060279
 40
3.5999999
 50
36.008327
 51
143.99168
  0
ARC
  8
0
  6
CONTINUOUS
 62
     7
 10
600.18512
 20
26.060279
 40
5.4000001
 50
36.008327
 51
143.99168
  0
ARC
  8
0
  6
CONTINUOUS
 62
     7
 10
600.18512
 20
18.86028
 40
3.5999999
 50
216.00833
 51
323.99168
  0
ARC
  8
0
  6
CONTINUOUS
 62
     7
 10
600.18512
 20
18.86028
 40
5.4000001
 50
216.00833
 51
323.99168
  0
ARC
  8
0
  6
CONTINUOUS
 62
     7
 10
605.13858
 20
22.46028
 40
11.523461
 50
143.99168
 51
175.52056
  0
ARC
  8
0
  6
CONTINUOUS
 62
     7
 10
605.13858
 20
22.46028
 40
9.7234612
 50
143.99168
 51
174.68912
  0
ARC
  8
0
  6
CONTINUOUS
 62
     7
 10
595.23166
 20
22.460279
 40
9.7234612
 50
323.99167
 51
36.008327
  0
ARC
  8
0
  6
CONTINUOUS
 62
     7
 10
595.23166
 20
22.460279
 40
11.523461
 50
323.99167
 51
355.52055
  0
ARC
  8
0
  6
CONTINUOUS
 62
     7
 10
591.86012
 20
22.460279
 40
1.125
 50
126.8699
 51
233.1301
  0
ARC
  8
0
  6
CONTINUOUS
 62
     7
 10
599.51012
 20
22.460279
 40
1.125
 50
306.86991
 51
53.130105
  0
ARC
  8
0
  6
CONTINUOUS
 62
     7
 10
608.51012
 20
22.46028
 40
1.125
 50
306.86991
 51
53.130105
  0
ARC
  8
0
  6
CONTINUOUS
 62
     7
 10
605.13858
 20
22.46028
 40
11.523461
 50
184.47945
 51
216.00833
  0
ARC
  8
0
  6
CONTINUOUS
 62
     7
 10
605.13858
 20
22.46028
 40
9.7234612
 50
185.31088
 51
216.00833
  0
ARC
  8
0
  6
CONTINUOUS
 62
     7
 10
595.23166
 20
22.460279
 40
11.523461
 50
4.4794498
 51
36.008327
  0
LINE
  8
0
  6
CONTINUOUS
 62
     7
 10
989.74078
 20
28.412394
 11
992.20598
 21
28.412394
  0
LINE
  8
0
  6
CONTINUOUS
 62
     7
 10
989.74078
 20
26.612394
 11
992.20598
 21
26.612394
  0
LINE
  8
0
  6
CONTINUOUS
 62
     7
 10
1005.2756
 20
26.612394
 11
1007.7408
 21
26.612394
  0
LINE
  8
0
  6
CONTINUOUS
 62
     7
 10
1005.2756
 20
28.412394
 11
1007.7408
 21
28.412394
  0
LINE
  8
0
  6
CONTINUOUS
 62
     7
 10
994.01253
 20
26.612394
 11
998.74078
 21
26.612394
  0
LINE
  8
0
  6
CONTINUOUS
 62
     7
 10
994.01253
 20
28.412394
 11
998.74078
 21
28.412394
  0
ARC
  8
0
  6
CONTINUOUS
 62
     7
 10
998.74078
 20
31.112394
 40
3.5999999
 50
36.008327
 51
143.99168
  0
ARC
  8
0
  6
CONTINUOUS
 62
     7
 10
998.74078
 20
31.112394
 40
5.4000001
 50
36.008327
 51
143.99168
  0
ARC
  8
0
  6
CONTINUOUS
 62
     7
 10
998.74078
 20
23.912394
 40
3.5999999
 50
216.00833
 51
323.99168
  0
ARC
  8
0
  6
CONTINUOUS
 62
     7
 10
998.74078
 20
23.912394
 40
5.4000001
 50
216.00833
 51
323.99168
  0
ARC
  8
0
  6
CONTINUOUS
 62
     7
 10
1003.6942
 20
27.512394
 40
11.523461
 50
143.99168
 51
175.52056
  0
ARC
  8
0
  6
CONTINUOUS
 62
     7
 10
1003.6942
 20
27.512394
 40
9.7234612
 50
143.99168
 51
174.68912
  0
ARC
  8
0
  6
CONTINUOUS
 62
     7
 10
993.78732
 20
27.512394
 40
9.7234612
 50
323.99167
 51
36.008327
  0
ARC
  8
0
  6
CONTINUOUS
 62
     7
 10
993.78732
 20
27.512394
 40
11.523461
 50
323.99167
 51
355.52055
  0
ARC
  8
0
  6
CONTINUOUS
 62
     7
 10
990.41578
 20
27.512394
 40
1.125
 50
126.8699
 51
233.1301
  0
ARC
  8
0
  6
CONTINUOUS
 62
     7
 10
998.06578
 20
27.512394
 40
1.125
 50
306.86991
 51
53.130105
  0
ARC
  8
0
  6
CONTINUOUS
 62
     7
 10
1007.0658
 20
27.512394
 40
1.125
 50
306.86991
 51
53.130105
  0
ARC
  8
0
  6
CONTINUOUS
 62
     7
 10
1003.6942
 20
27.512394
 40
11.523461
 50
184.47945
 51
216.00833
  0
ARC
  8
0
  6
CONTINUOUS
 62
     7
 10
1003.6942
 20
27.512394
 40
9.7234612
 50
185.31088
 51
216.00833
  0
ARC
  8
0
  6
CONTINUOUS
 62
     7
 10
993.78732
 20
27.512394
 40
11.523461
 50
4.4794498
 51
36.008327
  0
LINE
  8
1
  6
CONTINUOUS
 62
     7
 10
-429
 20
297.5
 11
-429
 21
-297.5
  0
LINE
  8
1
  6
CONTINUOUS
 62
     7
 10
-429
 20
-297.5
 11
410
 21
-297.5
  0
LINE
  8
1
  6
CONTINUOUS
 62
     7
 10
-429
 20
297.5
 11
410
 21
297.5
  0
LINE
  8
1
  6
CONTINUOUS
 62
     7
 10
410
 20
297.5
 11
410
 21
-297.5
  0
LINE
  8
1
  6
CONTINUOUS
 62
     7
 10
420
 20
297.5
 11
420
 21
-297.5
  0
LINE
  8
1
  6
CONTINUOUS
 62
     7
 10
420
 20
297.5
 11
1259
 21
297.5
  0
LINE
  8
1
  6
CONTINUOUS
 62
     7
 10
1259
 20
297.5
 11
1259
 21
-297.5
  0
LINE
  8
1
  6
CONTINUOUS
 62
     7
 10
420
 20
-297.5
 11
1259
 21
-297.5
  0
ENDSEC
  0
EOF
