  0
SECTION
  2
HEADER
  9
$EXTMAX
 10
1264
 20
302.5
  9
$EXTMIN
 10
-434
 20
-907.5
  0
ENDSEC
  0
SECTION
  2
TABLES
  0
TABLE
  2
LTYPE
 70
    22
  0
LTYPE
  2
CONTINUOUS
 70
    64
  3
Solid line
 72
    65
 73
     0
 40
0.000000
  0
LTYPE
  2
DASHED
 70
    64
  3
__ __ __ __ __ __ __ __ __ __ __ __ __ __ __
 72
    65
 73
     2
 40
3.500000
 49
2.000000
 49
-1.500000
  0
LTYPE
  2
CENTER
 70
    64
  3
____ _ ____ _ ____ _ ____ _ ____ _ ____ _ ____
 72
    65
 73
     4
 40
17.500000
 49
13.000000
 49
-1.500000
 49
1.500000
 49
-1.500000
  0
LTYPE
  2
PHANTOM
 70
    64
  3
_____ _ _ _____ _ _ _____ _ _ _____ _ _ ____  
 72
    65
 73
     6
 40
15.500000
 49
8.000000
 49
-1.500000
 49
1.500000
 49
-1.500000
 49
1.500000
 49
-1.500000
  0
LTYPE
  2
DOT
 70
    64
  3
. . . . . . . . . . . . . . . . . . . . . . . .
 72
    65
 73
     2
 40
0.25
 49
0.0
 49
-0.25
  0
ENDTAB
  0
TABLE
  2
LAYER
 70
     2
  0
LAYER
  2
0
 70
     0
 62
     7
  6
CONTINUOUS
  0
LAYER
  2
1
 70
     0
 62
     7
  6
CONTINUOUS
  0
ENDTAB
  0
TABLE
  2
STYLE
 70
     1
  0
STYLE
  2
STANDARD
 70
     0
 40
0.000000
 41
1.000000
 50
0.000000
 71
     0
 42
0.200000
  3
txt
  0
ENDTAB
  0
TABLE
  2
VIEW
 70
     0
  0
ENDTAB
  0
ENDSEC
  0
SECTION
  2
BLOCKS
  0
ENDSEC
  0
SECTION
  2
ENTITIES
  0
POINT
  8
0
  6
CONTINUOUS
 62
     7
 10
-331.66455
 20
100.80534
  0
POINT
  8
0
  6
CONTINUOUS
 62
     7
 10
-141.31206
 20
105.34863
  0
POINT
  8
0
  6
CONTINUOUS
 62
     7
 10
29.88188
 20
102.98623
  0
POINT
  8
0
  6
CONTINUOUS
 62
     7
 10
216.80731
 20
90.892769
  0
POINT
  8
0
  6
CONTINUOUS
 62
     7
 10
-249.84106
 20
-165.55579
  0
POINT
  8
0
  6
CONTINUOUS
 62
     7
 10
45.366756
 20
-165.55579
  0
POINT
  8
0
  6
CONTINUOUS
 62
     7
 10
-249.84106
 20
-248.55579
  0
POINT
  8
0
  6
CONTINUOUS
 62
     7
 10
-191.15118
 20
-106.86593
  0
POINT
  8
0
  6
CONTINUOUS
 62
     7
 10
45.366756
 20
-254.55579
  0
POINT
  8
0
  6
CONTINUOUS
 62
     7
 10
108.29926
 20
-102.62328
  0
POINT
  8
0
  6
CONTINUOUS
 62
     7
 10
216.80731
 20
14.892772
  0
POINT
  8
0
  6
CONTINUOUS
 62
     7
 10
270.54745
 20
144.6329
  0
POINT
  8
0
  6
CONTINUOUS
 62
     7
 10
74.78318
 20
147.88753
  0
POINT
  8
0
  6
CONTINUOUS
 62
     7
 10
29.88188
 20
39.486233
  0
POINT
  8
0
  6
CONTINUOUS
 62
     7
 10
-141.31206
 20
48.348629
  0
POINT
  8
0
  6
CONTINUOUS
 62
     7
 10
-101.00697
 20
145.65372
  0
POINT
  8
0
  6
CONTINUOUS
 62
     7
 10
-295.74356
 20
136.72638
  0
POINT
  8
0
  6
CONTINUOUS
 62
     7
 10
-331.66455
 20
50.005325
  0
LINE
  8
0
  6
CENTER
 62
     7
 10
-331.66455
 20
100.80542
 11
-331.66455
 21
45.275711
  0
LINE
  8
0
  6
CONTINUOUS
 62
     7
 10
-274.42429
 20
115.4071
 11
-317.06281
 21
158.04562
  0
LINE
  8
0
  6
CONTINUOUS
 62
     7
 10
-285.66727
 20
104.1641
 11
-328.30579
 21
146.80263
  0
LINE
  8
0
  6
CONTINUOUS
 62
     7
 10
-292.34943
 20
99.673973
 11
-332.79593
 21
140.12048
  0
LINE
  8
0
  6
CONTINUOUS
 62
     7
 10
-324.63223
 20
123.04724
 11
-334.9393
 21
133.35432
  0
LINE
  8
0
  6
CONTINUOUS
 62
     7
 10
-327.52869
 20
128.065
 11
-333.67126
 21
134.20761
  0
LINE
  8
0
  6
CONTINUOUS
 62
     7
 10
-285.66727
 20
104.1641
 11
-274.42429
 21
115.4071
  0
LINE
  8
0
  6
CONTINUOUS
 62
     7
 10
-292.34943
 20
99.673973
 11
-286.76328
 21
105.26011
  0
LINE
  8
0
  6
CONTINUOUS
 62
     7
 10
-300.3873
 20
93.545319
 11
-293.30405
 21
100.62859
  0
LINE
  8
0
  6
CONTINUOUS
 62
     7
 10
-328.30579
 20
146.80263
 11
-317.06281
 21
158.04562
  0
LINE
  8
0
  6
CONTINUOUS
 62
     7
 10
-332.79593
 20
140.12048
 11
-327.20978
 21
145.70662
  0
LINE
  8
0
  6
CONTINUOUS
 62
     7
 10
-338.92462
 20
132.08264
 11
-331.84134
 21
139.16591
  0
LINE
  8
0
  6
CONTINUOUS
 62
     7
 10
-334.9393
 20
133.35432
 11
-330.48453
 21
137.8091
  0
LINE
  8
0
  6
CONTINUOUS
 62
     7
 10
-333.67126
 20
134.20761
 11
-330.27716
 21
137.60172
  0
LINE
  8
0
  6
CONTINUOUS
 62
     7
 10
-327.52869
 20
128.065
 11
-324.13455
 21
131.45912
  0
LINE
  8
0
  6
CONTINUOUS
 62
     7
 10
-324.63223
 20
123.04724
 11
-320.17746
 21
127.50201
  0
LINE
  8
0
  6
CONTINUOUS
 62
     7
 10
-324.6322
 20
123.0472
 11
-327.52863
 21
128.06494
  0
LINE
  8
0
  6
CONTINUOUS
 62
     7
 10
-333.6712
 20
134.2076
 11
-334.93927
 21
133.35431
  0
LINE
  8
0
  6
CONTINUOUS
 62
     7
 10
-309.42267
 20
107.83767
 11
-299.11557
 21
97.530586
  0
LINE
  8
0
  6
CONTINUOUS
 62
     7
 10
-304.40494
 20
104.94127
 11
-298.26233
 21
98.798668
  0
LINE
  8
0
  6
CONTINUOUS
 62
     7
 10
-299.11557
 20
97.530586
 11
-294.6608
 21
101.98536
  0
LINE
  8
0
  6
CONTINUOUS
 62
     7
 10
-298.26233
 20
98.798668
 11
-294.86823
 21
102.19278
  0
LINE
  8
0
  6
CONTINUOUS
 62
     7
 10
-304.40494
 20
104.94127
 11
-301.01083
 21
108.33538
  0
LINE
  8
0
  6
CONTINUOUS
 62
     7
 10
-309.42267
 20
107.83767
 11
-304.9679
 21
112.29244
  0
LINE
  8
0
  6
CONTINUOUS
 62
     7
 10
-309.42267
 20
107.83768
 11
-304.40494
 21
104.94126
  0
LINE
  8
0
  6
CONTINUOUS
 62
     7
 10
-298.26227
 20
98.798599
 11
-299.11554
 21
97.530563
  0
LINE
  8
0
  6
CENTER
 62
     7
 10
-331.66452
 20
100.80541
 11
-282.63583
 21
149.83411
  0
LINE
  8
0
  6
CONTINUOUS
 62
     7
 10
-356.70248
 20
78.605324
 11
-356.99576
 21
80.105331
  0
LINE
  8
0
  6
CONTINUOUS
 62
     7
 10
-361.81458
 20
50.005325
 11
-301.51456
 21
50.005325
  0
LINE
  8
0
  6
CONTINUOUS
 62
     7
 10
-361.81458
 20
65.905319
 11
-301.51456
 21
65.905319
  0
LINE
  8
0
  6
CONTINUOUS
 62
     7
 10
-360.26459
 20
73.805313
 11
-303.06454
 21
73.805313
  0
LINE
  8
0
  6
CONTINUOUS
 62
     7
 10
-320.90976
 20
80.105331
 11
-306.33337
 21
80.105331
  0
LINE
  8
0
  6
CONTINUOUS
 62
     7
 10
-315.3136
 20
78.605331
 11
-306.62665
 21
78.605331
  0
LINE
  8
0
  6
CONTINUOUS
 62
     7
 10
-361.81458
 20
65.905319
 11
-361.81458
 21
50.005325
  0
LINE
  8
0
  6
CONTINUOUS
 62
     7
 10
-360.26459
 20
73.805313
 11
-360.26459
 21
65.905319
  0
LINE
  8
0
  6
CONTINUOUS
 62
     7
 10
-358.91455
 20
83.822586
 11
-358.91455
 21
73.805313
  0
LINE
  8
0
  6
CONTINUOUS
 62
     7
 10
-301.51456
 20
65.905319
 11
-301.51456
 21
50.005325
  0
LINE
  8
0
  6
CONTINUOUS
 62
     7
 10
-303.06454
 20
73.805313
 11
-303.06454
 21
65.905319
  0
LINE
  8
0
  6
CONTINUOUS
 62
     7
 10
-304.41455
 20
83.822586
 11
-304.41455
 21
73.805313
  0
LINE
  8
0
  6
CONTINUOUS
 62
     7
 10
-306.33337
 20
80.105331
 11
-306.33337
 21
73.805313
  0
LINE
  8
0
  6
CONTINUOUS
 62
     7
 10
-306.62665
 20
78.605331
 11
-306.62665
 21
73.805313
  0
LINE
  8
0
  6
CONTINUOUS
 62
     7
 10
-315.3136
 20
78.605331
 11
-315.3136
 21
73.805313
  0
LINE
  8
0
  6
CONTINUOUS
 62
     7
 10
-320.90976
 20
80.105331
 11
-320.90976
 21
73.805313
  0
LINE
  8
0
  6
CONTINUOUS
 62
     7
 10
-320.90979
 20
80.105339
 11
-315.31363
 21
78.605339
  0
LINE
  8
0
  6
CONTINUOUS
 62
     7
 10
-306.62668
 20
78.605324
 11
-306.33337
 21
80.105331
  0
LINE
  8
0
  6
CONTINUOUS
 62
     7
 10
-342.41937
 20
80.105331
 11
-356.99579
 21
80.105331
  0
LINE
  8
0
  6
CONTINUOUS
 62
     7
 10
-348.0155
 20
78.605331
 11
-356.70245
 21
78.605331
  0
LINE
  8
0
  6
CONTINUOUS
 62
     7
 10
-356.99579
 20
80.105331
 11
-356.99579
 21
73.805313
  0
LINE
  8
0
  6
CONTINUOUS
 62
     7
 10
-356.70245
 20
78.605331
 11
-356.70245
 21
73.805313
  0
LINE
  8
0
  6
CONTINUOUS
 62
     7
 10
-348.0155
 20
78.605331
 11
-348.0155
 21
73.805313
  0
LINE
  8
0
  6
CONTINUOUS
 62
     7
 10
-342.41937
 20
80.105331
 11
-342.41937
 21
73.805313
  0
LINE
  8
0
  6
CONTINUOUS
 62
     7
 10
-342.41934
 20
80.105309
 11
-348.0155
 21
78.605309
  0
LINE
  8
0
  6
CENTER
 62
     7
 10
-141.31206
 20
105.34864
 11
-141.31206
 21
42.959347
  0
LINE
  8
0
  6
CONTINUOUS
 62
     7
 10
-74.030853
 20
118.6776
 11
-127.98312
 21
172.62988
  0
LINE
  8
0
  6
CONTINUOUS
 62
     7
 10
-85.273849
 20
107.43461
 11
-139.22612
 21
161.38689
  0
LINE
  8
0
  6
CONTINUOUS
 62
     7
 10
-92.875244
 20
102.73233
 11
-143.92839
 21
153.78548
  0
LINE
  8
0
  6
CONTINUOUS
 62
     7
 10
-136.39223
 20
140.59245
 11
-143.30862
 21
147.50887
  0
LINE
  8
0
  6
CONTINUOUS
 62
     7
 10
-132.99553
 20
135.07443
 11
-144.60289
 21
146.68179
  0
LINE
  8
0
  6
CONTINUOUS
 62
     7
 10
-85.273849
 20
107.43461
 11
-74.030853
 21
118.6776
  0
LINE
  8
0
  6
CONTINUOUS
 62
     7
 10
-92.875244
 20
102.73233
 11
-86.723412
 21
108.88417
  0
LINE
  8
0
  6
CONTINUOUS
 62
     7
 10
-100.08054
 20
97.506935
 11
-93.865196
 21
103.72227
  0
LINE
  8
0
  6
CONTINUOUS
 62
     7
 10
-139.22612
 20
161.38689
 11
-127.98312
 21
172.62988
  0
LINE
  8
0
  6
CONTINUOUS
 62
     7
 10
-143.92839
 20
153.78548
 11
-137.77657
 21
159.93732
  0
LINE
  8
0
  6
CONTINUOUS
 62
     7
 10
-149.15375
 20
146.58015
 11
-142.93842
 21
152.79549
  0
LINE
  8
0
  6
CONTINUOUS
 62
     7
 10
-143.30862
 20
147.50887
 11
-140.48021
 21
150.3373
  0
LINE
  8
0
  6
CONTINUOUS
 62
     7
 10
-144.60289
 20
146.68179
 11
-140.71381
 21
150.57088
  0
LINE
  8
0
  6
CONTINUOUS
 62
     7
 10
-136.39223
 20
140.59245
 11
-133.5638
 21
143.42088
  0
LINE
  8
0
  6
CONTINUOUS
 62
     7
 10
-132.99553
 20
135.07443
 11
-129.10645
 21
138.96353
  0
LINE
  8
0
  6
CONTINUOUS
 62
     7
 10
-143.30862
 20
147.50887
 11
-144.60287
 21
146.68181
  0
LINE
  8
0
  6
CONTINUOUS
 62
     7
 10
-136.39221
 20
140.59245
 11
-132.99551
 21
135.07443
  0
LINE
  8
0
  6
CONTINUOUS
 62
     7
 10
-106.06824
 20
110.26847
 11
-99.151833
 21
103.35207
  0
LINE
  8
0
  6
CONTINUOUS
 62
     7
 10
-111.58626
 20
113.66517
 11
-99.978897
 21
102.05781
  0
LINE
  8
0
  6
CONTINUOUS
 62
     7
 10
-99.151833
 20
103.35207
 11
-96.32341
 21
106.18049
  0
LINE
  8
0
  6
CONTINUOUS
 62
     7
 10
-99.978897
 20
102.05781
 11
-96.089813
 21
105.9469
  0
LINE
  8
0
  6
CONTINUOUS
 62
     7
 10
-106.06824
 20
110.26847
 11
-103.23981
 21
113.0969
  0
LINE
  8
0
  6
CONTINUOUS
 62
     7
 10
-111.58626
 20
113.66517
 11
-107.69717
 21
117.55425
  0
LINE
  8
0
  6
CONTINUOUS
 62
     7
 10
-99.151817
 20
103.35205
 11
-99.978874
 21
102.05779
  0
LINE
  8
0
  6
CONTINUOUS
 62
     7
 10
-106.06824
 20
110.26847
 11
-111.58624
 21
113.66515
  0
LINE
  8
0
  6
CENTER
 62
     7
 10
-141.31206
 20
105.34864
 11
-92.599106
 21
154.06158
  0
LINE
  8
0
  6
CONTINUOUS
 62
     7
 10
-172.5356
 20
76.948601
 11
-172.86595
 21
78.448601
  0
LINE
  8
0
  6
CONTINUOUS
 62
     7
 10
-156.4507
 20
78.448631
 11
-156.4507
 21
72.948631
  0
LINE
  8
0
  6
CONTINUOUS
 62
     7
 10
-179.46205
 20
48.348629
 11
-103.16206
 21
48.348629
  0
LINE
  8
0
  6
CONTINUOUS
 62
     7
 10
-162.75433
 20
76.948624
 11
-156.4507
 21
78.448624
  0
LINE
  8
0
  6
CONTINUOUS
 62
     7
 10
-179.46205
 20
64.248619
 11
-103.16206
 21
64.248619
  0
LINE
  8
0
  6
CONTINUOUS
 62
     7
 10
-177.41206
 20
72.948631
 11
-105.21205
 21
72.948631
  0
LINE
  8
0
  6
CONTINUOUS
 62
     7
 10
-119.86977
 20
76.948631
 11
-110.08849
 21
76.948631
  0
LINE
  8
0
  6
CONTINUOUS
 62
     7
 10
-126.17342
 20
78.448631
 11
-109.75813
 21
78.448631
  0
LINE
  8
0
  6
CONTINUOUS
 62
     7
 10
-179.46205
 20
64.248619
 11
-179.46205
 21
48.348629
  0
LINE
  8
0
  6
CONTINUOUS
 62
     7
 10
-177.41206
 20
72.948631
 11
-177.41206
 21
64.248619
  0
LINE
  8
0
  6
CONTINUOUS
 62
     7
 10
-176.01207
 20
81.738457
 11
-176.01207
 21
72.948631
  0
LINE
  8
0
  6
CONTINUOUS
 62
     7
 10
-103.16206
 20
64.248619
 11
-103.16206
 21
48.348629
  0
LINE
  8
0
  6
CONTINUOUS
 62
     7
 10
-105.21205
 20
72.948631
 11
-105.21205
 21
64.248619
  0
LINE
  8
0
  6
CONTINUOUS
 62
     7
 10
-106.61208
 20
81.738457
 11
-106.61208
 21
72.948631
  0
LINE
  8
0
  6
CONTINUOUS
 62
     7
 10
-110.08849
 20
76.948631
 11
-110.08849
 21
72.948631
  0
LINE
  8
0
  6
CONTINUOUS
 62
     7
 10
-109.75813
 20
78.448631
 11
-109.75813
 21
72.948631
  0
LINE
  8
0
  6
CONTINUOUS
 62
     7
 10
-119.86977
 20
76.948631
 11
-119.86977
 21
72.948631
  0
LINE
  8
0
  6
CONTINUOUS
 62
     7
 10
-126.17342
 20
78.448631
 11
-126.17342
 21
72.948631
  0
LINE
  8
0
  6
CONTINUOUS
 62
     7
 10
-110.08849
 20
76.948631
 11
-109.75813
 21
78.448631
  0
LINE
  8
0
  6
CONTINUOUS
 62
     7
 10
-119.86976
 20
76.948631
 11
-126.17342
 21
78.448639
  0
LINE
  8
0
  6
CONTINUOUS
 62
     7
 10
-162.75435
 20
76.948631
 11
-172.53563
 21
76.948631
  0
LINE
  8
0
  6
CONTINUOUS
 62
     7
 10
-156.4507
 20
78.448631
 11
-172.86598
 21
78.448631
  0
LINE
  8
0
  6
CONTINUOUS
 62
     7
 10
-172.53563
 20
76.948631
 11
-172.53563
 21
72.948631
  0
LINE
  8
0
  6
CONTINUOUS
 62
     7
 10
-172.86598
 20
78.448631
 11
-172.86598
 21
72.948631
  0
LINE
  8
0
  6
CONTINUOUS
 62
     7
 10
-162.75435
 20
76.948631
 11
-162.75435
 21
72.948631
  0
LINE
  8
0
  6
CENTER
 62
     7
 10
29.88188
 20
102.98621
 11
29.88188
 21
34.501354
  0
LINE
  8
0
  6
CONTINUOUS
 62
     7
 10
106.21408
 20
116.45662
 11
43.352299
 21
179.31841
  0
LINE
  8
0
  6
CONTINUOUS
 62
     7
 10
94.971077
 20
105.21362
 11
32.109295
 21
168.07539
  0
LINE
  8
0
  6
CONTINUOUS
 62
     7
 10
87.405045
 20
100.476
 11
27.371681
 21
160.50935
  0
LINE
  8
0
  6
CONTINUOUS
 62
     7
 10
94.971077
 20
105.21362
 11
106.21408
 21
116.45662
  0
LINE
  8
0
  6
CONTINUOUS
 62
     7
 10
87.405045
 20
100.476
 11
93.55687
 21
106.62783
  0
LINE
  8
0
  6
CONTINUOUS
 62
     7
 10
80.254478
 20
95.376068
 11
86.37973
 21
101.50131
  0
LINE
  8
0
  6
CONTINUOUS
 62
     7
 10
32.109295
 20
168.07539
 11
43.352299
 21
179.31841
  0
LINE
  8
0
  6
CONTINUOUS
 62
     7
 10
27.371681
 20
160.50935
 11
33.52351
 21
166.66119
  0
LINE
  8
0
  6
CONTINUOUS
 62
     7
 10
22.271727
 20
153.35883
 11
28.396975
 21
159.48407
  0
LINE
  8
0
  6
CONTINUOUS
 62
     7
 10
66.581627
 20
112.53129
 11
78.845924
 21
100.26699
  0
LINE
  8
0
  6
CONTINUOUS
 62
     7
 10
78.845924
 20
100.26699
 11
83.229988
 21
104.65105
  0
LINE
  8
0
  6
CONTINUOUS
 62
     7
 10
80.175476
 20
102.04871
 11
83.003899
 21
104.87714
  0
LINE
  8
0
  6
CONTINUOUS
 62
     7
 10
72.451569
 20
109.77262
 11
75.279999
 21
112.60104
  0
LINE
  8
0
  6
CONTINUOUS
 62
     7
 10
66.581627
 20
112.53129
 11
70.965691
 21
116.91535
  0
LINE
  8
0
  6
CONTINUOUS
 62
     7
 10
80.175476
 20
102.04871
 11
72.451569
 21
109.77262
  0
LINE
  8
0
  6
CONTINUOUS
 62
     7
 10
72.451576
 20
109.77259
 11
66.581635
 21
112.53126
  0
LINE
  8
0
  6
CONTINUOUS
 62
     7
 10
80.175453
 20
102.04871
 11
78.845886
 21
100.26698
  0
LINE
  8
0
  6
CONTINUOUS
 62
     7
 10
39.426945
 20
139.68597
 11
27.162649
 21
151.95026
  0
LINE
  8
0
  6
CONTINUOUS
 62
     7
 10
27.162649
 20
151.95026
 11
31.546715
 21
156.33432
  0
LINE
  8
0
  6
CONTINUOUS
 62
     7
 10
28.944374
 20
153.27982
 11
31.7728
 21
156.10825
  0
LINE
  8
0
  6
CONTINUOUS
 62
     7
 10
36.668278
 20
145.55591
 11
39.496704
 21
148.38434
  0
LINE
  8
0
  6
CONTINUOUS
 62
     7
 10
39.426945
 20
139.68597
 11
43.811008
 21
144.07004
  0
LINE
  8
0
  6
CONTINUOUS
 62
     7
 10
28.944374
 20
153.27982
 11
36.668278
 21
145.55591
  0
LINE
  8
0
  6
CONTINUOUS
 62
     7
 10
36.668255
 20
145.55592
 11
39.426922
 21
139.68599
  0
LINE
  8
0
  6
CONTINUOUS
 62
     7
 10
28.944347
 20
153.27983
 11
27.162626
 21
151.95029
  0
LINE
  8
0
  6
CENTER
 62
     7
 10
29.881878
 20
102.98622
 11
85.659264
 21
158.76361
  0
LINE
  8
0
  6
CONTINUOUS
 62
     7
 10
74.331871
 20
55.386227
 11
74.331871
 21
39.486233
  0
LINE
  8
0
  6
CONTINUOUS
 62
     7
 10
-14.568118
 20
39.486233
 11
74.331871
 21
39.486233
  0
LINE
  8
0
  6
CONTINUOUS
 62
     7
 10
-14.568118
 20
55.386227
 11
74.331871
 21
55.386227
  0
LINE
  8
0
  6
CONTINUOUS
 62
     7
 10
-12.568118
 20
64.086235
 11
72.331871
 21
64.086235
  0
LINE
  8
0
  6
CONTINUOUS
 62
     7
 10
-14.568118
 20
55.386227
 11
-14.568118
 21
39.486233
  0
LINE
  8
0
  6
CONTINUOUS
 62
     7
 10
-12.568118
 20
64.086235
 11
-12.568118
 21
55.386227
  0
LINE
  8
0
  6
CONTINUOUS
 62
     7
 10
-11.118106
 20
72.748619
 11
-11.118106
 21
64.086235
  0
LINE
  8
0
  6
CONTINUOUS
 62
     7
 10
72.331871
 20
64.086235
 11
72.331871
 21
55.386227
  0
LINE
  8
0
  6
CONTINUOUS
 62
     7
 10
70.881882
 20
72.748619
 11
70.881882
 21
64.086235
  0
LINE
  8
0
  6
CONTINUOUS
 62
     7
 10
10.680614
 20
70.286217
 11
-6.6637135
 21
70.286217
  0
LINE
  8
0
  6
CONTINUOUS
 62
     7
 10
-6.6637135
 20
70.286217
 11
-6.6637135
 21
64.086235
  0
LINE
  8
0
  6
CONTINUOUS
 62
     7
 10
-6.3439808
 20
68.086235
 11
-6.3439808
 21
64.086235
  0
LINE
  8
0
  6
CONTINUOUS
 62
     7
 10
4.5792656
 20
68.086235
 11
4.5792656
 21
64.086235
  0
LINE
  8
0
  6
CONTINUOUS
 62
     7
 10
10.680614
 20
70.286217
 11
10.680614
 21
64.086235
  0
LINE
  8
0
  6
CONTINUOUS
 62
     7
 10
-6.3439808
 20
68.086235
 11
4.5792656
 21
68.086235
  0
LINE
  8
0
  6
CONTINUOUS
 62
     7
 10
4.5792718
 20
68.086235
 11
10.680614
 21
70.28624
  0
LINE
  8
0
  6
CONTINUOUS
 62
     7
 10
-6.3439937
 20
68.08622
 11
-6.6637306
 21
70.286247
  0
LINE
  8
0
  6
CONTINUOUS
 62
     7
 10
49.083141
 20
70.286217
 11
66.427475
 21
70.286217
  0
LINE
  8
0
  6
CONTINUOUS
 62
     7
 10
66.427475
 20
70.286217
 11
66.427475
 21
64.086235
  0
LINE
  8
0
  6
CONTINUOUS
 62
     7
 10
66.107742
 20
68.086235
 11
66.107742
 21
64.086235
  0
LINE
  8
0
  6
CONTINUOUS
 62
     7
 10
55.18449
 20
68.086235
 11
55.18449
 21
64.086235
  0
LINE
  8
0
  6
CONTINUOUS
 62
     7
 10
49.083141
 20
70.286217
 11
49.083141
 21
64.086235
  0
LINE
  8
0
  6
CONTINUOUS
 62
     7
 10
66.107742
 20
68.086235
 11
55.18449
 21
68.086235
  0
LINE
  8
0
  6
CONTINUOUS
 62
     7
 10
55.184509
 20
68.086227
 11
49.083157
 21
70.286232
  0
LINE
  8
0
  6
CONTINUOUS
 62
     7
 10
66.107758
 20
68.08625
 11
66.427483
 21
70.286232
  0
LINE
  8
0
  6
CENTER
 62
     7
 10
216.80731
 20
90.892769
 11
216.80731
 21
4.637877
  0
LINE
  8
0
  6
CONTINUOUS
 62
     7
 10
310.95859
 20
104.22176
 11
230.13631
 21
185.04405
  0
LINE
  8
0
  6
CONTINUOUS
 62
     7
 10
299.71561
 20
92.978767
 11
218.89331
 21
173.80106
  0
LINE
  8
0
  6
CONTINUOUS
 62
     7
 10
291.51315
 20
87.746185
 11
213.66072
 21
165.59862
  0
LINE
  8
0
  6
CONTINUOUS
 62
     7
 10
225.29965
 20
146.18152
 11
215.98055
 21
155.50061
  0
LINE
  8
0
  6
CONTINUOUS
 62
     7
 10
228.645
 20
140.71484
 11
214.689
 21
154.67085
  0
LINE
  8
0
  6
CONTINUOUS
 62
     7
 10
299.71561
 20
92.978767
 11
310.95859
 21
104.22176
  0
LINE
  8
0
  6
CONTINUOUS
 62
     7
 10
291.51315
 20
87.746185
 11
298.23068
 21
94.463699
  0
LINE
  8
0
  6
CONTINUOUS
 62
     7
 10
282.4624
 20
80.887436
 11
290.41714
 21
88.842194
  0
LINE
  8
0
  6
CONTINUOUS
 62
     7
 10
218.89331
 20
173.80106
 11
230.13631
 21
185.04405
  0
LINE
  8
0
  6
CONTINUOUS
 62
     7
 10
213.66072
 20
165.59862
 11
220.37823
 21
172.31613
  0
LINE
  8
0
  6
CONTINUOUS
 62
     7
 10
206.80197
 20
156.54785
 11
214.75673
 21
164.50261
  0
LINE
  8
0
  6
CONTINUOUS
 62
     7
 10
214.689
 20
154.67085
 11
219.63873
 21
159.62061
  0
LINE
  8
0
  6
CONTINUOUS
 62
     7
 10
215.98055
 20
155.50061
 11
219.86963
 21
159.38971
  0
LINE
  8
0
  6
CONTINUOUS
 62
     7
 10
225.29965
 20
146.18152
 11
229.18874
 21
150.0706
  0
LINE
  8
0
  6
CONTINUOUS
 62
     7
 10
228.645
 20
140.71484
 11
233.59476
 21
145.66458
  0
LINE
  8
0
  6
CONTINUOUS
 62
     7
 10
228.64496
 20
140.7148
 11
225.29959
 21
146.18147
  0
LINE
  8
0
  6
CONTINUOUS
 62
     7
 10
215.98051
 20
155.5006
 11
214.68895
 21
154.67084
  0
LINE
  8
0
  6
CONTINUOUS
 62
     7
 10
272.09607
 20
99.385086
 11
281.41516
 21
90.06601
  0
LINE
  8
0
  6
CONTINUOUS
 62
     7
 10
266.62939
 20
102.73046
 11
280.58539
 21
88.774452
  0
LINE
  8
0
  6
CONTINUOUS
 62
     7
 10
280.58539
 20
88.774452
 11
285.53513
 21
93.724197
  0
LINE
  8
0
  6
CONTINUOUS
 62
     7
 10
281.41516
 20
90.06601
 11
285.30423
 21
93.955101
  0
LINE
  8
0
  6
CONTINUOUS
 62
     7
 10
272.09607
 20
99.385086
 11
275.98517
 21
103.27417
  0
LINE
  8
0
  6
CONTINUOUS
 62
     7
 10
266.62939
 20
102.73046
 11
271.57913
 21
107.68021
  0
LINE
  8
0
  6
CONTINUOUS
 62
     7
 10
266.62936
 20
102.73045
 11
272.09607
 21
99.385078
  0
LINE
  8
0
  6
CONTINUOUS
 62
     7
 10
281.41513
 20
90.06601
 11
280.58536
 21
88.774422
  0
LINE
  8
0
  6
CENTER
 62
     7
 10
216.80733
 20
90.892776
 11
287.95407
 21
162.03952
  0
LINE
  8
0
  6
CONTINUOUS
 62
     7
 10
273.95731
 20
30.79278
 11
273.95731
 21
14.892772
  0
LINE
  8
0
  6
CONTINUOUS
 62
     7
 10
159.65732
 20
14.892772
 11
273.95731
 21
14.892772
  0
LINE
  8
0
  6
CONTINUOUS
 62
     7
 10
159.65732
 20
30.79278
 11
273.95731
 21
30.79278
  0
LINE
  8
0
  6
CONTINUOUS
 62
     7
 10
161.75732
 20
40.292782
 11
271.8573
 21
40.292782
  0
LINE
  8
0
  6
CONTINUOUS
 62
     7
 10
249.8974
 20
45.792782
 11
263.07657
 21
45.792782
  0
LINE
  8
0
  6
CONTINUOUS
 62
     7
 10
243.66632
 20
47.292782
 11
263.40314
 21
47.292782
  0
LINE
  8
0
  6
CONTINUOUS
 62
     7
 10
159.65732
 20
30.79278
 11
159.65732
 21
14.892772
  0
LINE
  8
0
  6
CONTINUOUS
 62
     7
 10
161.75732
 20
40.292782
 11
161.75732
 21
30.79278
  0
LINE
  8
0
  6
CONTINUOUS
 62
     7
 10
163.30731
 20
51.542492
 11
163.30731
 21
40.292782
  0
LINE
  8
0
  6
CONTINUOUS
 62
     7
 10
271.8573
 20
40.292782
 11
271.8573
 21
30.79278
  0
LINE
  8
0
  6
CONTINUOUS
 62
     7
 10
270.30731
 20
51.542492
 11
270.30731
 21
40.292782
  0
LINE
  8
0
  6
CONTINUOUS
 62
     7
 10
263.40314
 20
47.292782
 11
263.40314
 21
40.292782
  0
LINE
  8
0
  6
CONTINUOUS
 62
     7
 10
263.07657
 20
45.792782
 11
263.07657
 21
40.292782
  0
LINE
  8
0
  6
CONTINUOUS
 62
     7
 10
249.8974
 20
45.792782
 11
249.8974
 21
40.292782
  0
LINE
  8
0
  6
CONTINUOUS
 62
     7
 10
243.66632
 20
47.292782
 11
243.66632
 21
40.292782
  0
LINE
  8
0
  6
CONTINUOUS
 62
     7
 10
243.66632
 20
47.292778
 11
249.89737
 21
45.792782
  0
LINE
  8
0
  6
CONTINUOUS
 62
     7
 10
263.07657
 20
45.792786
 11
263.40314
 21
47.292789
  0
LINE
  8
0
  6
CONTINUOUS
 62
     7
 10
183.71722
 20
45.792782
 11
170.53806
 21
45.792782
  0
LINE
  8
0
  6
CONTINUOUS
 62
     7
 10
189.9483
 20
47.292782
 11
170.21152
 21
47.292782
  0
LINE
  8
0
  6
CONTINUOUS
 62
     7
 10
170.21152
 20
47.292782
 11
170.21152
 21
40.292782
  0
LINE
  8
0
  6
CONTINUOUS
 62
     7
 10
170.53806
 20
45.792782
 11
170.53806
 21
40.292782
  0
LINE
  8
0
  6
CONTINUOUS
 62
     7
 10
183.71722
 20
45.792782
 11
183.71722
 21
40.292782
  0
LINE
  8
0
  6
CONTINUOUS
 62
     7
 10
189.9483
 20
47.292782
 11
189.9483
 21
40.292782
  0
LINE
  8
0
  6
CONTINUOUS
 62
     7
 10
189.94832
 20
47.292782
 11
183.71724
 21
45.792778
  0
LINE
  8
0
  6
CONTINUOUS
 62
     7
 10
170.53806
 20
45.792774
 11
170.2115
 21
47.292767
  0
LINE
  8
0
  6
CENTER
 62
     7
 10
-249.84106
 20
-165.5558
 11
-249.84106
 21
-254.44258
  0
LINE
  8
0
  6
CONTINUOUS
 62
     7
 10
-141.72443
 20
-156.29269
 11
-240.57793
 21
-57.439186
  0
LINE
  8
0
  6
CONTINUOUS
 62
     7
 10
-152.96742
 20
-167.53568
 11
-251.82092
 21
-68.682182
  0
LINE
  8
0
  6
CONTINUOUS
 62
     7
 10
-161.2052
 20
-172.73293
 11
-257.01816
 21
-76.919952
  0
LINE
  8
0
  6
CONTINUOUS
 62
     7
 10
-241.95728
 20
-99.759018
 11
-252.78606
 21
-88.930237
  0
LINE
  8
0
  6
CONTINUOUS
 62
     7
 10
-237.84235
 20
-105.99528
 11
-254.11794
 21
-89.719688
  0
LINE
  8
0
  6
CONTINUOUS
 62
     7
 10
-152.96742
 20
-167.53568
 11
-141.72443
 21
-156.29269
  0
LINE
  8
0
  6
CONTINUOUS
 62
     7
 10
-161.2052
 20
-172.73293
 11
-154.48769
 21
-166.01541
  0
LINE
  8
0
  6
CONTINUOUS
 62
     7
 10
-171.85774
 20
-180.27417
 11
-162.76085
 21
-171.17728
  0
LINE
  8
0
  6
CONTINUOUS
 62
     7
 10
-257.01816
 20
-76.919952
 11
-250.30066
 21
-70.202438
  0
LINE
  8
0
  6
CONTINUOUS
 62
     7
 10
-264.55942
 20
-87.572487
 11
-255.46252
 21
-78.475601
  0
LINE
  8
0
  6
CONTINUOUS
 62
     7
 10
-251.82092
 20
-68.682182
 11
-240.57793
 21
-57.439186
  0
LINE
  8
0
  6
CONTINUOUS
 62
     7
 10
-254.11794
 20
-89.719688
 11
-249.16818
 21
-84.769943
  0
LINE
  8
0
  6
CONTINUOUS
 62
     7
 10
-252.78606
 20
-88.930237
 11
-248.89697
 21
-85.041153
  0
LINE
  8
0
  6
CONTINUOUS
 62
     7
 10
-241.95728
 20
-99.759018
 11
-238.06819
 21
-95.869934
  0
LINE
  8
0
  6
CONTINUOUS
 62
     7
 10
-237.84235
 20
-105.99528
 11
-232.89259
 21
-101.04552
  0
LINE
  8
0
  6
CONTINUOUS
 62
     7
 10
-237.84239
 20
-105.99525
 11
-241.95731
 21
-99.759003
  0
LINE
  8
0
  6
CONTINUOUS
 62
     7
 10
-254.11797
 20
-89.719696
 11
-252.78606
 21
-88.930275
  0
LINE
  8
0
  6
CONTINUOUS
 62
     7
 10
-184.04425
 20
-157.67206
 11
-173.21548
 21
-168.50081
  0
LINE
  8
0
  6
CONTINUOUS
 62
     7
 10
-190.2805
 20
-153.55711
 11
-174.00493
 21
-169.8327
  0
LINE
  8
0
  6
CONTINUOUS
 62
     7
 10
-174.00493
 20
-169.8327
 11
-169.05518
 21
-164.88295
  0
LINE
  8
0
  6
CONTINUOUS
 62
     7
 10
-173.21548
 20
-168.50081
 11
-169.3264
 21
-164.61172
  0
LINE
  8
0
  6
CONTINUOUS
 62
     7
 10
-184.04425
 20
-157.67206
 11
-180.15517
 21
-153.78296
  0
LINE
  8
0
  6
CONTINUOUS
 62
     7
 10
-190.2805
 20
-153.55711
 11
-185.33076
 21
-148.60736
  0
LINE
  8
0
  6
CONTINUOUS
 62
     7
 10
-190.28052
 20
-153.55713
 11
-184.04428
 21
-157.67206
  0
LINE
  8
0
  6
CONTINUOUS
 62
     7
 10
-174.00493
 20
-169.8327
 11
-173.2155
 21
-168.50081
  0
LINE
  8
0
  6
CENTER
 62
     7
 10
-249.84106
 20
-165.55582
 11
-174.36465
 21
-90.079407
  0
LINE
  8
0
  6
CONTINUOUS
 62
     7
 10
-179.94106
 20
-232.65578
 11
-179.94106
 21
-248.55579
  0
LINE
  8
0
  6
CONTINUOUS
 62
     7
 10
-319.74106
 20
-248.55579
 11
-179.94106
 21
-248.55579
  0
LINE
  8
0
  6
CONTINUOUS
 62
     7
 10
-319.74106
 20
-232.65578
 11
-179.94106
 21
-232.65578
  0
LINE
  8
0
  6
CONTINUOUS
 62
     7
 10
-317.59103
 20
-223.15578
 11
-182.09105
 21
-223.15578
  0
LINE
  8
0
  6
CONTINUOUS
 62
     7
 10
-208.89037
 20
-217.65578
 11
-193.57619
 21
-217.65578
  0
LINE
  8
0
  6
CONTINUOUS
 62
     7
 10
-216.20973
 20
-216.15578
 11
-193.19258
 21
-216.15578
  0
LINE
  8
0
  6
CONTINUOUS
 62
     7
 10
-319.74106
 20
-232.65578
 11
-319.74106
 21
-248.55579
  0
LINE
  8
0
  6
CONTINUOUS
 62
     7
 10
-317.59103
 20
-223.15578
 11
-317.59103
 21
-232.65578
  0
LINE
  8
0
  6
CONTINUOUS
 62
     7
 10
-315.39102
 20
-210.29085
 11
-315.39102
 21
-223.15578
  0
LINE
  8
0
  6
CONTINUOUS
 62
     7
 10
-182.09105
 20
-223.15578
 11
-182.09105
 21
-232.65578
  0
LINE
  8
0
  6
CONTINUOUS
 62
     7
 10
-184.29106
 20
-210.29085
 11
-184.29106
 21
-223.15578
  0
LINE
  8
0
  6
CONTINUOUS
 62
     7
 10
-193.19258
 20
-216.15578
 11
-193.19258
 21
-223.15578
  0
LINE
  8
0
  6
CONTINUOUS
 62
     7
 10
-193.57619
 20
-217.65578
 11
-193.57619
 21
-223.15578
  0
LINE
  8
0
  6
CONTINUOUS
 62
     7
 10
-208.89037
 20
-217.65578
 11
-208.89037
 21
-223.15578
  0
LINE
  8
0
  6
CONTINUOUS
 62
     7
 10
-216.20973
 20
-216.15578
 11
-216.20973
 21
-223.15578
  0
LINE
  8
0
  6
CONTINUOUS
 62
     7
 10
-216.20973
 20
-216.15578
 11
-208.89035
 21
-217.65578
  0
LINE
  8
0
  6
CONTINUOUS
 62
     7
 10
-193.19258
 20
-216.15576
 11
-193.57617
 21
-217.65578
  0
LINE
  8
0
  6
CONTINUOUS
 62
     7
 10
-290.79181
 20
-217.65578
 11
-306.10593
 21
-217.65578
  0
LINE
  8
0
  6
CONTINUOUS
 62
     7
 10
-283.47241
 20
-216.15578
 11
-306.48953
 21
-216.15578
  0
LINE
  8
0
  6
CONTINUOUS
 62
     7
 10
-306.48953
 20
-216.15578
 11
-306.48953
 21
-223.15578
  0
LINE
  8
0
  6
CONTINUOUS
 62
     7
 10
-306.10593
 20
-217.65578
 11
-306.10593
 21
-223.15578
  0
LINE
  8
0
  6
CONTINUOUS
 62
     7
 10
-290.79181
 20
-217.65578
 11
-290.79181
 21
-223.15578
  0
LINE
  8
0
  6
CONTINUOUS
 62
     7
 10
-283.47241
 20
-216.15578
 11
-283.47241
 21
-223.15578
  0
LINE
  8
0
  6
CONTINUOUS
 62
     7
 10
-283.47235
 20
-216.15578
 11
-290.79172
 21
-217.65578
  0
LINE
  8
0
  6
CONTINUOUS
 62
     7
 10
-306.48953
 20
-216.15576
 11
-306.10593
 21
-217.65578
  0
LINE
  8
0
  6
CENTER
 62
     7
 10
45.366756
 20
-165.55579
 11
45.366756
 21
-262.58966
  0
LINE
  8
0
  6
CONTINUOUS
 62
     7
 10
166.70627
 20
-161.0303
 11
49.892235
 21
-44.216259
  0
LINE
  8
0
  6
CONTINUOUS
 62
     7
 10
155.46327
 20
-172.2733
 11
38.649231
 21
-55.459263
  0
LINE
  8
0
  6
CONTINUOUS
 62
     7
 10
147.19012
 20
-177.43518
 11
33.48737
 21
-63.732422
  0
LINE
  8
0
  6
CONTINUOUS
 62
     7
 10
51.530506
 20
-89.553734
 11
39.89669
 21
-77.919914
  0
LINE
  8
0
  6
CONTINUOUS
 62
     7
 10
55.548744
 20
-95.693291
 11
38.569851
 21
-78.714394
  0
LINE
  8
0
  6
CONTINUOUS
 62
     7
 10
155.46327
 20
-172.2733
 11
166.70627
 21
-161.0303
  0
LINE
  8
0
  6
CONTINUOUS
 62
     7
 10
147.19012
 20
-177.43518
 11
153.90764
 21
-170.71767
  0
LINE
  8
0
  6
CONTINUOUS
 62
     7
 10
136.39548
 20
-185.11856
 11
145.63449
 21
-175.87955
  0
LINE
  8
0
  6
CONTINUOUS
 62
     7
 10
39.89669
 20
-77.919914
 11
43.785778
 21
-74.03083
  0
LINE
  8
0
  6
CONTINUOUS
 62
     7
 10
38.569851
 20
-78.714394
 11
43.5196
 21
-73.764648
  0
LINE
  8
0
  6
CONTINUOUS
 62
     7
 10
51.530506
 20
-89.553734
 11
55.419594
 21
-85.664642
  0
LINE
  8
0
  6
CONTINUOUS
 62
     7
 10
55.548744
 20
-95.693291
 11
60.498493
 21
-90.743546
  0
LINE
  8
0
  6
CONTINUOUS
 62
     7
 10
38.649231
 20
-55.459263
 11
49.892235
 21
-44.216259
  0
LINE
  8
0
  6
CONTINUOUS
 62
     7
 10
33.48737
 20
-63.732422
 11
40.20488
 21
-57.014912
  0
LINE
  8
0
  6
CONTINUOUS
 62
     7
 10
25.80397
 20
-74.527061
 11
35.042992
 21
-65.28804
  0
LINE
  8
0
  6
CONTINUOUS
 62
     7
 10
55.548748
 20
-95.693306
 11
51.530495
 21
-89.553726
  0
LINE
  8
0
  6
CONTINUOUS
 62
     7
 10
39.896671
 20
-77.919891
 11
38.569839
 21
-78.714378
  0
LINE
  8
0
  6
CONTINUOUS
 62
     7
 10
121.3688
 20
-159.39203
 11
133.00262
 21
-171.02586
  0
LINE
  8
0
  6
CONTINUOUS
 62
     7
 10
115.22924
 20
-155.37378
 11
132.20815
 21
-172.35269
  0
LINE
  8
0
  6
CONTINUOUS
 62
     7
 10
133.00262
 20
-171.02586
 11
136.89172
 21
-167.13676
  0
LINE
  8
0
  6
CONTINUOUS
 62
     7
 10
132.20815
 20
-172.35269
 11
137.15788
 21
-167.40294
  0
LINE
  8
0
  6
CONTINUOUS
 62
     7
 10
121.3688
 20
-159.39203
 11
125.2579
 21
-155.50294
  0
LINE
  8
0
  6
CONTINUOUS
 62
     7
 10
115.22924
 20
-155.37378
 11
120.17899
 21
-150.42404
  0
LINE
  8
0
  6
CONTINUOUS
 62
     7
 10
115.22924
 20
-155.37379
 11
121.36881
 21
-159.39204
  0
LINE
  8
0
  6
CONTINUOUS
 62
     7
 10
133.00262
 20
-171.02585
 11
132.20815
 21
-172.35269
  0
LINE
  8
0
  6
CENTER
 62
     7
 10
45.366753
 20
-165.55579
 11
125.67362
 21
-85.248917
  0
LINE
  8
0
  6
CONTINUOUS
 62
     7
 10
-20.469105
 20
-223.65579
 11
-20.845531
 21
-222.15579
  0
LINE
  8
0
  6
CONTINUOUS
 62
     7
 10
-37.23325
 20
-254.55579
 11
127.96674
 21
-254.55579
  0
LINE
  8
0
  6
CONTINUOUS
 62
     7
 10
-37.23325
 20
-238.65578
 11
127.96674
 21
-238.65578
  0
LINE
  8
0
  6
CONTINUOUS
 62
     7
 10
-35.033253
 20
-229.15578
 11
125.76675
 21
-229.15578
  0
LINE
  8
0
  6
CONTINUOUS
 62
     7
 10
94.749886
 20
-223.65578
 11
111.20259
 21
-223.65578
  0
LINE
  8
0
  6
CONTINUOUS
 62
     7
 10
87.56723
 20
-222.15578
 11
111.57903
 21
-222.15578
  0
LINE
  8
0
  6
CONTINUOUS
 62
     7
 10
-37.23325
 20
-238.65578
 11
-37.23325
 21
-254.55579
  0
LINE
  8
0
  6
CONTINUOUS
 62
     7
 10
-35.033253
 20
-229.15578
 11
-35.033253
 21
-238.65578
  0
LINE
  8
0
  6
CONTINUOUS
 62
     7
 10
-32.833256
 20
-216.08983
 11
-32.833256
 21
-229.15578
  0
LINE
  8
0
  6
CONTINUOUS
 62
     7
 10
111.20259
 20
-223.65578
 11
111.20259
 21
-229.15578
  0
LINE
  8
0
  6
CONTINUOUS
 62
     7
 10
111.57903
 20
-222.15578
 11
111.57903
 21
-229.15578
  0
LINE
  8
0
  6
CONTINUOUS
 62
     7
 10
94.749886
 20
-223.65578
 11
94.749886
 21
-229.15578
  0
LINE
  8
0
  6
CONTINUOUS
 62
     7
 10
87.56723
 20
-222.15578
 11
87.56723
 21
-229.15578
  0
LINE
  8
0
  6
CONTINUOUS
 62
     7
 10
127.96674
 20
-238.65578
 11
127.96674
 21
-254.55579
  0
LINE
  8
0
  6
CONTINUOUS
 62
     7
 10
125.76675
 20
-229.15578
 11
125.76675
 21
-238.65578
  0
LINE
  8
0
  6
CONTINUOUS
 62
     7
 10
123.56674
 20
-216.08983
 11
123.56674
 21
-229.15578
  0
LINE
  8
0
  6
CONTINUOUS
 62
     7
 10
87.567223
 20
-222.15578
 11
94.749886
 21
-223.65578
  0
LINE
  8
0
  6
CONTINUOUS
 62
     7
 10
111.2026
 20
-223.65578
 11
111.57903
 21
-222.15578
  0
LINE
  8
0
  6
CONTINUOUS
 62
     7
 10
-4.0163918
 20
-223.65578
 11
-20.469103
 21
-223.65578
  0
LINE
  8
0
  6
CONTINUOUS
 62
     7
 10
3.1662714
 20
-222.15578
 11
-20.845522
 21
-222.15578
  0
LINE
  8
0
  6
CONTINUOUS
 62
     7
 10
-20.469103
 20
-223.65578
 11
-20.469103
 21
-229.15578
  0
LINE
  8
0
  6
CONTINUOUS
 62
     7
 10
-20.845522
 20
-222.15578
 11
-20.845522
 21
-229.15578
  0
LINE
  8
0
  6
CONTINUOUS
 62
     7
 10
-4.0163918
 20
-223.65578
 11
-4.0163918
 21
-229.15578
  0
LINE
  8
0
  6
CONTINUOUS
 62
     7
 10
3.1662714
 20
-222.15578
 11
3.1662714
 21
-229.15578
  0
LINE
  8
0
  6
CONTINUOUS
 62
     7
 10
3.166271
 20
-222.15578
 11
-4.0163889
 21
-223.65578
  0
ARC
  8
0
  6
CONTINUOUS
 62
     7
 10
-290.66455
 20
83.822586
 40
13.75
 50
135
 51
180.00001
  0
ARC
  8
0
  6
CONTINUOUS
 62
     7
 10
-290.66455
 20
83.822586
 40
68.25
 50
135
 51
180.00001
  0
ARC
  8
0
  6
CONTINUOUS
 62
     7
 10
-84.312065
 20
81.738457
 40
22.299999
 50
135
 51
180.00001
  0
ARC
  8
0
  6
CONTINUOUS
 62
     7
 10
-84.312065
 20
81.738457
 40
91.699997
 50
135
 51
180.00001
  0
ARC
  8
0
  6
CONTINUOUS
 62
     7
 10
102.88187
 20
72.748619
 40
32
 50
135
 51
180.00001
  0
ARC
  8
0
  6
CONTINUOUS
 62
     7
 10
102.88187
 20
72.748619
 40
114
 50
135
 51
180.00001
  0
ARC
  8
0
  6
CONTINUOUS
 62
     7
 10
311.80734
 20
51.542492
 40
41.5
 50
135
 51
180.00001
  0
ARC
  8
0
  6
CONTINUOUS
 62
     7
 10
311.80734
 20
51.542492
 40
148.5
 50
135
 51
180.00001
  0
ARC
  8
0
  6
CONTINUOUS
 62
     7
 10
-141.84105
 20
-210.29085
 40
42.450001
 50
135
 51
180.00001
  0
ARC
  8
0
  6
CONTINUOUS
 62
     7
 10
-141.84105
 20
-210.29085
 40
173.55
 50
135
 51
180.00001
  0
ARC
  8
0
  6
CONTINUOUS
 62
     7
 10
167.36674
 20
-216.08983
 40
43.799999
 50
135
 51
180.00001
  0
ARC
  8
0
  6
CONTINUOUS
 62
     7
 10
167.36674
 20
-216.08983
 40
200.2
 50
135
 51
180.00001
  0
TEXT
  8
0
  6
CONTINUOUS
 62
     7
 10
-386.94458
 20
151.91026
 40
14
 41
1.0714291
  1
2
  0
TEXT
  8
0
  6
CONTINUOUS
 62
     7
 10
-196.73416
 20
182.72556
 40
14
 41
1.0129871
  1
21/2
  0
TEXT
  8
0
  6
CONTINUOUS
 62
     7
 10
-18.445889
 20
170.94926
 40
14
 41
1.0714291
  1
3
  0
TEXT
  8
0
  6
CONTINUOUS
 62
     7
 10
171.19957
 20
174.16359
 40
14
 41
1.0714291
  1
4
  0
TEXT
  8
0
  6
CONTINUOUS
 62
     7
 10
-333.45023
 20
-89.411461
 40
14
 41
1.0714291
  1
5
  0
TEXT
  8
0
  6
CONTINUOUS
 62
     7
 10
-28.088879
 20
-70.125481
 40
14
 41
1.0714291
  1
6
  0
TEXT
  8
0
  6
CONTINUOUS
 62
     7
 10
-381.76953
 20
242.60182
 40
15
 41
1.0024213
  1
TOP-J F-2(45L) 6ｻｲｽﾞ
  0
TEXT
  8
0
  6
CONTINUOUS
 62
     7
 10
-329.12836
 20
87.292953
 40
9
 41
1.071429
  1
2
 50
60.000002
  0
TEXT
  8
0
  6
CONTINUOUS
 62
     7
 10
-340.43117
 20
98.479542
 40
5.5
 41
1.0178573
  1
F-2
 50
60.000002
  0
TEXT
  8
0
  6
CONTINUOUS
 62
     7
 10
-143.45303
 20
91.50928
 40
4
 41
1.071429
  1
1
 50
60.000002
  0
TEXT
  8
0
  6
CONTINUOUS
 62
     7
 10
-148.7508
 20
101.79254
 40
5.5
 41
1.0178573
  1
F-2
 50
60.000002
  0
TEXT
  8
0
  6
CONTINUOUS
 62
     7
 10
-142.2774
 20
81.026008
 40
9
 41
1.0178573
  1
2/E
 50
60.000002
  0
TEXT
  8
0
  6
CONTINUOUS
 62
     7
 10
-136.11712
 20
91.98257
 40
4
 41
1.071429
  1
2
 50
60.000002
  0
TEXT
  8
0
  6
CONTINUOUS
 62
     7
 10
34.216237
 20
78.337931
 40
14
 41
1.0714291
  1
3
 50
60.000002
  0
TEXT
  8
0
  6
CONTINUOUS
 62
     7
 10
19.39518
 20
98.61688
 40
7
 41
1.0178573
  1
F-2
 50
60.000002
  0
TEXT
  8
0
  6
CONTINUOUS
 62
     7
 10
221.5949
 20
60.076452
 40
18
 41
1.071429
  1
4
 50
60.000002
  0
TEXT
  8
0
  6
CONTINUOUS
 62
     7
 10
202.09408
 20
85.189422
 40
9
 41
1.0178573
  1
F-2
 50
60.000002
  0
TEXT
  8
0
  6
CONTINUOUS
 62
     7
 10
-247.18271
 20
-199.68244
 40
18
 41
1.0285716
  1
5E
 50
60.000002
  0
TEXT
  8
0
  6
CONTINUOUS
 62
     7
 10
-261.3664
 20
-169.82708
 40
9
 41
1.0178573
  1
F-2
 50
60.000002
  0
TEXT
  8
0
  6
CONTINUOUS
 62
     7
 10
51.194821
 20
-200.19956
 40
18
 41
1.0285716
  1
6J
 50
60.000002
  0
TEXT
  8
0
  6
CONTINUOUS
 62
     7
 10
32.874169
 20
-174.48115
 40
9
 41
1.0178573
  1
F-2
 50
60.000002
  0
LINE
  8
0
  6
CONTINUOUS
 62
     7
 10
-327.79535
 20
112.88448
 11
-326.37207
 21
112.06274
  0
LINE
  8
0
  6
CONTINUOUS
 62
     7
 10
-328.39535
 20
111.84525
 11
-326.97207
 21
111.02351
  0
LINE
  8
0
  6
CONTINUOUS
 62
     7
 10
-319.42633
 20
106.66698
 11
-318.00305
 21
105.84525
  0
LINE
  8
0
  6
CONTINUOUS
 62
     7
 10
-318.82633
 20
107.70621
 11
-317.40305
 21
106.88448
  0
LINE
  8
0
  6
CONTINUOUS
 62
     7
 10
-325.92906
 20
110.42133
 11
-323.1992
 21
108.84525
  0
LINE
  8
0
  6
CONTINUOUS
 62
     7
 10
-325.32906
 20
111.46056
 11
-322.5992
 21
109.88448
  0
ARC
  8
0
  6
CONTINUOUS
 62
     7
 10
-321.6992
 20
111.44332
 40
2.4000001
 50
6.0083262
 51
113.99168
  0
ARC
  8
0
  6
CONTINUOUS
 62
     7
 10
-321.6992
 20
111.44332
 40
3.5999999
 50
6.0083262
 51
113.99168
  0
ARC
  8
0
  6
CONTINUOUS
 62
     7
 10
-324.0992
 20
107.2864
 40
2.4000001
 50
186.00833
 51
293.99168
  0
ARC
  8
0
  6
CONTINUOUS
 62
     7
 10
-324.0992
 20
107.2864
 40
3.5999999
 50
186.00833
 51
293.99168
  0
ARC
  8
0
  6
CONTINUOUS
 62
     7
 10
-320.03932
 20
107.71371
 40
7.6823077
 50
113.99168
 51
145.52055
  0
ARC
  8
0
  6
CONTINUOUS
 62
     7
 10
-320.03932
 20
107.71371
 40
6.4823079
 50
113.99168
 51
144.68912
  0
ARC
  8
0
  6
CONTINUOUS
 62
     7
 10
-325.75908
 20
111.01601
 40
6.4823079
 50
293.99167
 51
6.0083262
  0
ARC
  8
0
  6
CONTINUOUS
 62
     7
 10
-325.75908
 20
111.01601
 40
7.6823077
 50
293.99167
 51
325.52055
  0
ARC
  8
0
  6
CONTINUOUS
 62
     7
 10
-327.70564
 20
112.13986
 40
0.75
 50
96.869899
 51
203.1301
  0
ARC
  8
0
  6
CONTINUOUS
 62
     7
 10
-323.28891
 20
109.58986
 40
0.75
 50
276.8699
 51
23.130104
  0
ARC
  8
0
  6
CONTINUOUS
 62
     7
 10
-318.09276
 20
106.58986
 40
0.75
 50
276.8699
 51
23.130104
  0
ARC
  8
0
  6
CONTINUOUS
 62
     7
 10
-320.03932
 20
107.71371
 40
6.4823079
 50
155.31088
 51
186.00833
  0
ARC
  8
0
  6
CONTINUOUS
 62
     7
 10
-320.03932
 20
107.71371
 40
7.6823077
 50
154.47945
 51
186.00833
  0
ARC
  8
0
  6
CONTINUOUS
 62
     7
 10
-325.75908
 20
111.01601
 40
7.6823077
 50
334.47945
 51
6.0083262
  0
LINE
  8
0
  6
CONTINUOUS
 62
     7
 10
-133.51191
 20
120.93032
 11
-132.08862
 21
120.10859
  0
LINE
  8
0
  6
CONTINUOUS
 62
     7
 10
-134.11191
 20
119.89109
 11
-132.68862
 21
119.06936
  0
LINE
  8
0
  6
CONTINUOUS
 62
     7
 10
-125.14288
 20
114.71282
 11
-123.7196
 21
113.89109
  0
LINE
  8
0
  6
CONTINUOUS
 62
     7
 10
-124.54288
 20
115.75205
 11
-123.1196
 21
114.93032
  0
LINE
  8
0
  6
CONTINUOUS
 62
     7
 10
-131.64561
 20
118.46718
 11
-128.91575
 21
116.89109
  0
LINE
  8
0
  6
CONTINUOUS
 62
     7
 10
-131.04561
 20
119.50641
 11
-128.31575
 21
117.93032
  0
ARC
  8
0
  6
CONTINUOUS
 62
     7
 10
-127.41575
 20
119.48917
 40
2.4000001
 50
6.0083262
 51
113.99168
  0
ARC
  8
0
  6
CONTINUOUS
 62
     7
 10
-127.41575
 20
119.48917
 40
3.5999999
 50
6.0083262
 51
113.99168
  0
ARC
  8
0
  6
CONTINUOUS
 62
     7
 10
-129.81575
 20
115.33224
 40
2.4000001
 50
186.00833
 51
293.99168
  0
ARC
  8
0
  6
CONTINUOUS
 62
     7
 10
-129.81575
 20
115.33224
 40
3.5999999
 50
186.00833
 51
293.99168
  0
ARC
  8
0
  6
CONTINUOUS
 62
     7
 10
-125.75587
 20
115.75955
 40
7.6823077
 50
113.99168
 51
145.52055
  0
ARC
  8
0
  6
CONTINUOUS
 62
     7
 10
-125.75587
 20
115.75955
 40
6.4823079
 50
113.99168
 51
144.68912
  0
ARC
  8
0
  6
CONTINUOUS
 62
     7
 10
-131.47564
 20
119.06186
 40
6.4823079
 50
293.99167
 51
6.0083262
  0
ARC
  8
0
  6
CONTINUOUS
 62
     7
 10
-131.47564
 20
119.06186
 40
7.6823077
 50
293.99167
 51
325.52055
  0
ARC
  8
0
  6
CONTINUOUS
 62
     7
 10
-133.42219
 20
120.18571
 40
0.75
 50
96.869899
 51
203.1301
  0
ARC
  8
0
  6
CONTINUOUS
 62
     7
 10
-129.00546
 20
117.63571
 40
0.75
 50
276.8699
 51
23.130104
  0
ARC
  8
0
  6
CONTINUOUS
 62
     7
 10
-123.80931
 20
114.63571
 40
0.75
 50
276.8699
 51
23.130104
  0
ARC
  8
0
  6
CONTINUOUS
 62
     7
 10
-125.75587
 20
115.75955
 40
6.4823079
 50
155.31088
 51
186.00833
  0
ARC
  8
0
  6
CONTINUOUS
 62
     7
 10
-125.75587
 20
115.75955
 40
7.6823077
 50
154.47945
 51
186.00833
  0
ARC
  8
0
  6
CONTINUOUS
 62
     7
 10
-131.47564
 20
119.06186
 40
7.6823077
 50
334.47945
 51
6.0083262
  0
LINE
  8
0
  6
CONTINUOUS
 62
     7
 10
34.761294
 20
116.13615
 11
36.540399
 21
115.10899
  0
LINE
  8
0
  6
CONTINUOUS
 62
     7
 10
34.011294
 20
114.83711
 11
35.790399
 21
113.80995
  0
LINE
  8
0
  6
CONTINUOUS
 62
     7
 10
45.222571
 20
108.36428
 11
47.001676
 21
107.33711
  0
LINE
  8
0
  6
CONTINUOUS
 62
     7
 10
45.972571
 20
109.66332
 11
47.751676
 21
108.63615
  0
LINE
  8
0
  6
CONTINUOUS
 62
     7
 10
37.094158
 20
113.05722
 11
40.506485
 21
111.08711
  0
LINE
  8
0
  6
CONTINUOUS
 62
     7
 10
37.844158
 20
114.35626
 11
41.256485
 21
112.38615
  0
ARC
  8
0
  6
CONTINUOUS
 62
     7
 10
42.381485
 20
114.33471
 40
3
 50
6.0083262
 51
113.99168
  0
ARC
  8
0
  6
CONTINUOUS
 62
     7
 10
42.381485
 20
114.33471
 40
4.5
 50
6.0083262
 51
113.99168
  0
ARC
  8
0
  6
CONTINUOUS
 62
     7
 10
39.381485
 20
109.13856
 40
3
 50
186.00833
 51
293.99168
  0
ARC
  8
0
  6
CONTINUOUS
 62
     7
 10
39.381485
 20
109.13856
 40
4.5
 50
186.00833
 51
293.99168
  0
ARC
  8
0
  6
CONTINUOUS
 62
     7
 10
44.456338
 20
109.67269
 40
9.6028843
 50
113.99168
 51
145.52055
  0
ARC
  8
0
  6
CONTINUOUS
 62
     7
 10
44.456338
 20
109.67269
 40
8.1028843
 50
113.99168
 51
144.68912
  0
ARC
  8
0
  6
CONTINUOUS
 62
     7
 10
37.306632
 20
113.80058
 40
8.1028843
 50
293.99167
 51
6.0083262
  0
ARC
  8
0
  6
CONTINUOUS
 62
     7
 10
37.306632
 20
113.80058
 40
9.6028843
 50
293.99167
 51
325.52055
  0
ARC
  8
0
  6
CONTINUOUS
 62
     7
 10
34.873434
 20
115.20538
 40
0.9375
 50
96.869899
 51
203.1301
  0
ARC
  8
0
  6
CONTINUOUS
 62
     7
 10
40.394346
 20
112.01788
 40
0.9375
 50
276.8699
 51
23.130104
  0
ARC
  8
0
  6
CONTINUOUS
 62
     7
 10
46.889536
 20
108.26788
 40
0.9375
 50
276.8699
 51
23.130104
  0
ARC
  8
0
  6
CONTINUOUS
 62
     7
 10
44.456338
 20
109.67269
 40
9.6028843
 50
154.47945
 51
186.00833
  0
ARC
  8
0
  6
CONTINUOUS
 62
     7
 10
44.456338
 20
109.67269
 40
8.1028843
 50
155.31088
 51
186.00833
  0
ARC
  8
0
  6
CONTINUOUS
 62
     7
 10
37.306632
 20
113.80058
 40
9.6028843
 50
334.47945
 51
6.0083262
  0
LINE
  8
0
  6
CONTINUOUS
 62
     7
 10
224.0131
 20
108.88871
 11
226.14803
 21
107.65611
  0
LINE
  8
0
  6
CONTINUOUS
 62
     7
 10
223.1131
 20
107.32987
 11
225.24803
 21
106.09727
  0
LINE
  8
0
  6
CONTINUOUS
 62
     7
 10
236.56663
 20
99.562468
 11
238.70156
 21
98.329868
  0
LINE
  8
0
  6
CONTINUOUS
 62
     7
 10
237.46663
 20
101.12131
 11
239.60156
 21
99.888714
  0
LINE
  8
0
  6
CONTINUOUS
 62
     7
 10
226.81254
 20
105.194
 11
230.90733
 21
102.82987
  0
LINE
  8
0
  6
CONTINUOUS
 62
     7
 10
227.71254
 20
106.75284
 11
231.80733
 21
104.38871
  0
ARC
  8
0
  6
CONTINUOUS
 62
     7
 10
233.15733
 20
106.72698
 40
3.5999999
 50
6.0083262
 51
113.99168
  0
ARC
  8
0
  6
CONTINUOUS
 62
     7
 10
233.15733
 20
106.72698
 40
5.4000001
 50
6.0083262
 51
113.99168
  0
ARC
  8
0
  6
CONTINUOUS
 62
     7
 10
229.55733
 20
100.4916
 40
3.5999999
 50
186.00833
 51
293.99168
  0
ARC
  8
0
  6
CONTINUOUS
 62
     7
 10
229.55733
 20
100.4916
 40
5.4000001
 50
186.00833
 51
293.99168
  0
ARC
  8
0
  6
CONTINUOUS
 62
     7
 10
235.64715
 20
101.13256
 40
11.523461
 50
113.99168
 51
145.52055
  0
ARC
  8
0
  6
CONTINUOUS
 62
     7
 10
235.64715
 20
101.13256
 40
9.7234612
 50
113.99168
 51
144.68912
  0
ARC
  8
0
  6
CONTINUOUS
 62
     7
 10
227.06751
 20
106.08602
 40
9.7234612
 50
293.99167
 51
6.0083262
  0
ARC
  8
0
  6
CONTINUOUS
 62
     7
 10
227.06751
 20
106.08602
 40
11.523461
 50
293.99167
 51
325.52055
  0
ARC
  8
0
  6
CONTINUOUS
 62
     7
 10
224.14767
 20
107.77179
 40
1.125
 50
96.869899
 51
203.1301
  0
ARC
  8
0
  6
CONTINUOUS
 62
     7
 10
230.77276
 20
103.94679
 40
1.125
 50
276.8699
 51
23.130104
  0
ARC
  8
0
  6
CONTINUOUS
 62
     7
 10
238.56699
 20
99.446791
 40
1.125
 50
276.8699
 51
23.130104
  0
ARC
  8
0
  6
CONTINUOUS
 62
     7
 10
235.64715
 20
101.13256
 40
11.523461
 50
154.47945
 51
186.00833
  0
ARC
  8
0
  6
CONTINUOUS
 62
     7
 10
235.64715
 20
101.13256
 40
9.7234612
 50
155.31088
 51
186.00833
  0
ARC
  8
0
  6
CONTINUOUS
 62
     7
 10
227.06751
 20
106.08602
 40
11.523461
 50
334.47945
 51
6.0083262
  0
LINE
  8
0
  6
CONTINUOUS
 62
     7
 10
-236.35364
 20
-140.38061
 11
-234.21872
 21
-141.61321
  0
LINE
  8
0
  6
CONTINUOUS
 62
     7
 10
-237.25364
 20
-141.93946
 11
-235.11872
 21
-143.17206
  0
LINE
  8
0
  6
CONTINUOUS
 62
     7
 10
-223.80011
 20
-149.70686
 11
-221.66519
 21
-150.93946
  0
LINE
  8
0
  6
CONTINUOUS
 62
     7
 10
-222.90011
 20
-148.14801
 11
-220.76519
 21
-149.38061
  0
LINE
  8
0
  6
CONTINUOUS
 62
     7
 10
-233.55421
 20
-144.07533
 11
-229.45941
 21
-146.43946
  0
LINE
  8
0
  6
CONTINUOUS
 62
     7
 10
-232.65421
 20
-142.51648
 11
-228.55941
 21
-144.88061
  0
ARC
  8
0
  6
CONTINUOUS
 62
     7
 10
-227.20941
 20
-142.54234
 40
3.5999999
 50
6.0083262
 51
113.99168
  0
ARC
  8
0
  6
CONTINUOUS
 62
     7
 10
-227.20941
 20
-142.54234
 40
5.4000001
 50
6.0083262
 51
113.99168
  0
ARC
  8
0
  6
CONTINUOUS
 62
     7
 10
-230.80941
 20
-148.77773
 40
3.5999999
 50
186.00833
 51
293.99168
  0
ARC
  8
0
  6
CONTINUOUS
 62
     7
 10
-230.80941
 20
-148.77773
 40
5.4000001
 50
186.00833
 51
293.99168
  0
ARC
  8
0
  6
CONTINUOUS
 62
     7
 10
-224.71959
 20
-148.13676
 40
11.523461
 50
113.99168
 51
145.52055
  0
ARC
  8
0
  6
CONTINUOUS
 62
     7
 10
-224.71959
 20
-148.13676
 40
9.7234612
 50
113.99168
 51
144.68912
  0
ARC
  8
0
  6
CONTINUOUS
 62
     7
 10
-233.29924
 20
-143.1833
 40
9.7234612
 50
293.99167
 51
6.0083262
  0
ARC
  8
0
  6
CONTINUOUS
 62
     7
 10
-233.29924
 20
-143.1833
 40
11.523461
 50
293.99167
 51
325.52055
  0
ARC
  8
0
  6
CONTINUOUS
 62
     7
 10
-236.21908
 20
-141.49753
 40
1.125
 50
96.869899
 51
203.1301
  0
ARC
  8
0
  6
CONTINUOUS
 62
     7
 10
-229.59398
 20
-145.32253
 40
1.125
 50
276.8699
 51
23.130104
  0
ARC
  8
0
  6
CONTINUOUS
 62
     7
 10
-221.79975
 20
-149.82253
 40
1.125
 50
276.8699
 51
23.130104
  0
ARC
  8
0
  6
CONTINUOUS
 62
     7
 10
-224.71959
 20
-148.13676
 40
11.523461
 50
154.47945
 51
186.00833
  0
ARC
  8
0
  6
CONTINUOUS
 62
     7
 10
-224.71959
 20
-148.13676
 40
9.7234612
 50
155.31088
 51
186.00833
  0
ARC
  8
0
  6
CONTINUOUS
 62
     7
 10
-233.29924
 20
-143.1833
 40
11.523461
 50
334.47945
 51
6.0083262
  0
LINE
  8
0
  6
CONTINUOUS
 62
     7
 10
59.9554
 20
-140.89773
 11
62.090326
 21
-142.13033
  0
LINE
  8
0
  6
CONTINUOUS
 62
     7
 10
59.0554
 20
-142.45658
 11
61.190326
 21
-143.68918
  0
LINE
  8
0
  6
CONTINUOUS
 62
     7
 10
72.508932
 20
-150.22398
 11
74.643858
 21
-151.45658
  0
LINE
  8
0
  6
CONTINUOUS
 62
     7
 10
73.408932
 20
-148.66513
 11
75.543858
 21
-149.89773
  0
LINE
  8
0
  6
CONTINUOUS
 62
     7
 10
62.754838
 20
-144.59245
 11
66.849629
 21
-146.95658
  0
LINE
  8
0
  6
CONTINUOUS
 62
     7
 10
63.654837
 20
-143.0336
 11
67.749629
 21
-145.39773
  0
ARC
  8
0
  6
CONTINUOUS
 62
     7
 10
69.099629
 20
-143.05946
 40
3.5999999
 50
6.0083262
 51
113.99168
  0
ARC
  8
0
  6
CONTINUOUS
 62
     7
 10
69.099629
 20
-143.05946
 40
5.4000001
 50
6.0083262
 51
113.99168
  0
ARC
  8
0
  6
CONTINUOUS
 62
     7
 10
65.499629
 20
-149.29485
 40
3.5999999
 50
186.00833
 51
293.99168
  0
ARC
  8
0
  6
CONTINUOUS
 62
     7
 10
65.499629
 20
-149.29485
 40
5.4000001
 50
186.00833
 51
293.99168
  0
ARC
  8
0
  6
CONTINUOUS
 62
     7
 10
71.589453
 20
-148.65389
 40
11.523461
 50
113.99168
 51
145.52055
  0
ARC
  8
0
  6
CONTINUOUS
 62
     7
 10
71.589453
 20
-148.65389
 40
9.7234612
 50
113.99168
 51
144.68912
  0
ARC
  8
0
  6
CONTINUOUS
 62
     7
 10
63.009806
 20
-143.70042
 40
9.7234612
 50
293.99167
 51
6.0083262
  0
ARC
  8
0
  6
CONTINUOUS
 62
     7
 10
63.009806
 20
-143.70042
 40
11.523461
 50
293.99167
 51
325.52055
  0
ARC
  8
0
  6
CONTINUOUS
 62
     7
 10
60.089968
 20
-142.01465
 40
1.125
 50
96.869899
 51
203.1301
  0
ARC
  8
0
  6
CONTINUOUS
 62
     7
 10
66.715062
 20
-145.83965
 40
1.125
 50
276.8699
 51
23.130104
  0
ARC
  8
0
  6
CONTINUOUS
 62
     7
 10
74.509291
 20
-150.33965
 40
1.125
 50
276.8699
 51
23.130104
  0
ARC
  8
0
  6
CONTINUOUS
 62
     7
 10
71.589453
 20
-148.65389
 40
11.523461
 50
154.47945
 51
186.00833
  0
ARC
  8
0
  6
CONTINUOUS
 62
     7
 10
71.589453
 20
-148.65389
 40
9.7234612
 50
155.31088
 51
186.00833
  0
ARC
  8
0
  6
CONTINUOUS
 62
     7
 10
63.009806
 20
-143.70042
 40
11.523461
 50
334.47945
 51
6.0083262
  0
LINE
  8
1
  6
CONTINUOUS
 62
     7
 10
-429
 20
297.5
 11
-429
 21
-297.5
  0
LINE
  8
1
  6
CONTINUOUS
 62
     7
 10
-429
 20
-297.5
 11
410
 21
-297.5
  0
LINE
  8
1
  6
CONTINUOUS
 62
     7
 10
410
 20
297.5
 11
410
 21
-297.5
  0
LINE
  8
1
  6
CONTINUOUS
 62
     7
 10
-429
 20
297.5
 11
410
 21
297.5
  0
ENDSEC
  0
EOF
