  0
SECTION
  2
HEADER
  9
$EXTMAX
 10
208.5
 20
148.5
  9
$EXTMIN
 10
-208.5
 20
-148.5
  0
ENDSEC
  0
SECTION
  2
TABLES
  0
TABLE
  2
LTYPE
 70
    22
  0
LTYPE
  2
CONTINUOUS
 70
    64
  3
Solid line
 72
    65
 73
     0
 40
0.000000
  0
LTYPE
  2
DASHED
 70
    64
  3
__ __ __ __ __ __ __ __ __ __ __ __ __ __ __
 72
    65
 73
     2
 40
3.500000
 49
2.000000
 49
-1.500000
  0
LTYPE
  2
CENTER
 70
    64
  3
____ _ ____ _ ____ _ ____ _ ____ _ ____ _ ____
 72
    65
 73
     4
 40
17.500000
 49
13.000000
 49
-1.500000
 49
1.500000
 49
-1.500000
  0
LTYPE
  2
PHANTOM
 70
    64
  3
_____ _ _ _____ _ _ _____ _ _ _____ _ _ ____  
 72
    65
 73
     6
 40
15.500000
 49
8.000000
 49
-1.500000
 49
1.500000
 49
-1.500000
 49
1.500000
 49
-1.500000
  0
LTYPE
  2
DOT
 70
    64
  3
. . . . . . . . . . . . . . . . . . . . . . . .
 72
    65
 73
     2
 40
0.25
 49
0.0
 49
-0.25
  0
ENDTAB
  0
TABLE
  2
LAYER
 70
     2
  0
LAYER
  2
0
 70
     0
 62
     7
  6
CONTINUOUS
  0
LAYER
  2
1
 70
     0
 62
     7
  6
CONTINUOUS
  0
ENDTAB
  0
TABLE
  2
STYLE
 70
     1
  0
STYLE
  2
STANDARD
 70
     0
 40
0.000000
 41
1.000000
 50
0.000000
 71
     0
 42
0.200000
  3
txt
  4
BIGFONT
  0
ENDTAB
  0
TABLE
  2
VIEW
 70
     0
  0
ENDTAB
  0
ENDSEC
  0
SECTION
  2
BLOCKS
  0
ENDSEC
  0
SECTION
  2
ENTITIES
  0
POINT
  8
0
  6
CONTINUOUS
 62
     7
 10
-59.83972549438477
 20
62.59408187866211
  0
POINT
  8
0
  6
CONTINUOUS
 62
     7
 10
141.90380859375
 20
58.07536697387695
  0
POINT
  8
0
  6
CONTINUOUS
 62
     7
 10
372.0209655761719
 20
45.52600479125977
  0
POINT
  8
0
  6
CONTINUOUS
 62
     7
 10
-59.83972549438477
 20
62.59408187866211
  0
POINT
  8
0
  6
CONTINUOUS
 62
     7
 10
141.90380859375
 20
58.07536697387695
  0
POINT
  8
0
  6
CONTINUOUS
 62
     7
 10
372.0209655761719
 20
45.52600479125977
  0
LINE
  8
0
  6
CENTER
 62
     7
 10
-59.83972549438477
 20
105.6250686645508
 11
-59.83972549438477
 21
76.18367004394531
  0
LINE
  8
0
  6
CONTINUOUS
 62
     7
 10
-135.8397216796875
 20
100.7440795898438
 11
-135.8397216796875
 21
24.4440803527832
  0
LINE
  8
0
  6
CENTER
 62
     7
 10
-142.339111328125
 20
62.59408187866211
 11
-73.98754119873047
 21
62.59408187866211
  0
LINE
  8
0
  6
CONTINUOUS
 62
     7
 10
-119.8397216796875
 20
100.7440795898438
 11
-119.8397216796875
 21
24.4440803527832
  0
LINE
  8
0
  6
CONTINUOUS
 62
     7
 10
-111.1397247314453
 20
100.7440795898438
 11
-111.1397247314453
 21
24.4440803527832
  0
LINE
  8
0
  6
CONTINUOUS
 62
     7
 10
-119.8397216796875
 20
98.69407653808594
 11
-111.1397247314453
 21
98.69407653808594
  0
LINE
  8
0
  6
CONTINUOUS
 62
     7
 10
-135.8397216796875
 20
100.7440795898438
 11
-119.8397216796875
 21
100.7440795898438
  0
LINE
  8
0
  6
CONTINUOUS
 62
     7
 10
-135.8397216796875
 20
24.4440803527832
 11
-119.8397216796875
 21
24.4440803527832
  0
LINE
  8
0
  6
CONTINUOUS
 62
     7
 10
-119.8397216796875
 20
26.49407958984375
 11
-111.1397247314453
 21
26.49407958984375
  0
LINE
  8
0
  6
CONTINUOUS
 62
     7
 10
-97.98972320556641
 20
-13.40592002868652
 11
-21.68972396850586
 21
-13.40592002868652
  0
LINE
  8
0
  6
CONTINUOUS
 62
     7
 10
-97.98972320556641
 20
2.594080209732056
 11
-21.68972396850586
 21
2.594080209732056
  0
LINE
  8
0
  6
CONTINUOUS
 62
     7
 10
-97.98972320556641
 20
11.29408073425293
 11
-21.68972396850586
 21
11.29408073425293
  0
LINE
  8
0
  6
CONTINUOUS
 62
     7
 10
-23.73972320556641
 20
17.59407997131348
 11
-23.73972320556641
 21
16.59407997131348
  0
LINE
  8
0
  6
CONTINUOUS
 62
     7
 10
-97.98972320556641
 20
-13.40592002868652
 11
-97.98972320556641
 21
2.594080209732056
  0
LINE
  8
0
  6
CONTINUOUS
 62
     7
 10
-95.93972778320313
 20
2.594080209732056
 11
-95.93972778320313
 21
11.29408073425293
  0
LINE
  8
0
  6
CONTINUOUS
 62
     7
 10
-23.73972320556641
 20
2.594080209732056
 11
-23.73972320556641
 21
11.29408073425293
  0
LINE
  8
0
  6
CONTINUOUS
 62
     7
 10
-21.68972396850586
 20
-13.40592002868652
 11
-21.68972396850586
 21
2.594080209732056
  0
LINE
  8
0
  6
CONTINUOUS
 62
     7
 10
-8.539724349975586
 20
24.4440803527832
 11
-8.539724349975586
 21
100.7440795898438
  0
LINE
  8
0
  6
CONTINUOUS
 62
     7
 10
0.1602759510278702
 20
24.4440803527832
 11
0.1602759510278702
 21
100.7440795898438
  0
LINE
  8
0
  6
CONTINUOUS
 62
     7
 10
16.16027641296387
 20
24.4440803527832
 11
16.16027641296387
 21
100.7440795898438
  0
LINE
  8
0
  6
CONTINUOUS
 62
     7
 10
16.16027641296387
 20
24.4440803527832
 11
0.1602759510278702
 21
24.4440803527832
  0
LINE
  8
0
  6
CONTINUOUS
 62
     7
 10
0.1602759510278702
 20
26.49407958984375
 11
-8.539724349975586
 21
26.49407958984375
  0
LINE
  8
0
  6
CONTINUOUS
 62
     7
 10
0.1602759510278702
 20
98.69407653808594
 11
-8.539724349975586
 21
98.69407653808594
  0
LINE
  8
0
  6
CONTINUOUS
 62
     7
 10
16.16027641296387
 20
100.7440795898438
 11
0.1602759510278702
 21
100.7440795898438
  0
LINE
  8
0
  6
CONTINUOUS
 62
     7
 10
-14.83972358703613
 20
26.49407958984375
 11
-13.83972358703613
 21
26.49407958984375
  0
LINE
  8
0
  6
CONTINUOUS
 62
     7
 10
-111.1397247314453
 20
100.7440795898438
 11
-105.8397216796875
 21
100.7440795898438
  0
LINE
  8
0
  6
CONTINUOUS
 62
     7
 10
-8.539724349975586
 20
100.7440795898438
 11
-13.83972358703613
 21
100.7440795898438
  0
LINE
  8
0
  6
CONTINUOUS
 62
     7
 10
-21.68972396850586
 20
11.29408073425293
 11
-21.68972396850586
 21
16.59407997131348
  0
LINE
  8
0
  6
CONTINUOUS
 62
     7
 10
-111.1397247314453
 20
24.4440803527832
 11
-105.8397216796875
 21
24.4440803527832
  0
LINE
  8
0
  6
CONTINUOUS
 62
     7
 10
-8.539724349975586
 20
24.4440803527832
 11
-13.83972358703613
 21
24.4440803527832
  0
LINE
  8
0
  6
CONTINUOUS
 62
     7
 10
-95.93972778320313
 20
17.59407997131348
 11
-95.93972778320313
 21
16.59407997131348
  0
LINE
  8
0
  6
CONTINUOUS
 62
     7
 10
-97.98972320556641
 20
11.29408073425293
 11
-97.98972320556641
 21
16.59407997131348
  0
LINE
  8
0
  6
CONTINUOUS
 62
     7
 10
-105.8397216796875
 20
98.69407653808594
 11
-13.83972358703613
 21
98.69407653808594
  0
LINE
  8
0
  6
CONTINUOUS
 62
     7
 10
-105.8397216796875
 20
26.49407958984375
 11
-104.8397216796875
 21
26.49407958984375
  0
LINE
  8
0
  6
CONTINUOUS
 62
     7
 10
-105.8397216796875
 20
100.7440795898438
 11
-105.8397216796875
 21
24.4440803527832
  0
LINE
  8
0
  6
CONTINUOUS
 62
     7
 10
-13.83972358703613
 20
24.4440803527832
 11
-13.83972358703613
 21
100.7440795898438
  0
LINE
  8
0
  6
CONTINUOUS
 62
     7
 10
-97.98972320556641
 20
16.59407997131348
 11
-21.68972396850586
 21
16.59407997131348
  0
LINE
  8
0
  6
CONTINUOUS
 62
     7
 10
99.45381164550781
 20
-3.224631309509277
 11
99.45381164550781
 21
-11.92463111877441
  0
LINE
  8
0
  6
CONTINUOUS
 62
     7
 10
97.35381317138672
 20
-11.92463111877441
 11
186.4538116455078
 21
-11.92463111877441
  0
LINE
  8
0
  6
CONTINUOUS
 62
     7
 10
97.35381317138672
 20
-3.224631309509277
 11
186.4538116455078
 21
-3.224631309509277
  0
LINE
  8
0
  6
CONTINUOUS
 62
     7
 10
184.3538055419922
 20
4.075368404388428
 11
184.3538055419922
 21
2.075368642807007
  0
LINE
  8
0
  6
CENTER
 62
     7
 10
50.35408020019531
 20
58.07536697387695
 11
127.3189544677734
 21
58.07536697387695
  0
LINE
  8
0
  6
CENTER
 62
     7
 10
141.90380859375
 20
109.1385879516602
 11
141.90380859375
 21
72.85629272460938
  0
LINE
  8
0
  6
CONTINUOUS
 62
     7
 10
97.35381317138672
 20
-27.92463111877441
 11
186.4538116455078
 21
-27.92463111877441
  0
LINE
  8
0
  6
CONTINUOUS
 62
     7
 10
184.3538055419922
 20
-3.224631309509277
 11
184.3538055419922
 21
-11.92463111877441
  0
LINE
  8
0
  6
CONTINUOUS
 62
     7
 10
80.60381317138672
 20
100.5253677368164
 11
71.90381622314453
 21
100.5253677368164
  0
LINE
  8
0
  6
CONTINUOUS
 62
     7
 10
55.90381240844727
 20
102.6253662109375
 11
55.90381240844727
 21
13.52536869049072
  0
LINE
  8
0
  6
CONTINUOUS
 62
     7
 10
71.90381622314453
 20
102.6253662109375
 11
71.90381622314453
 21
13.52536869049072
  0
LINE
  8
0
  6
CONTINUOUS
 62
     7
 10
80.60381317138672
 20
102.6253662109375
 11
80.60381317138672
 21
13.52536869049072
  0
LINE
  8
0
  6
CONTINUOUS
 62
     7
 10
99.45381164550781
 20
4.075368404388428
 11
99.45381164550781
 21
2.075368642807007
  0
LINE
  8
0
  6
CONTINUOUS
 62
     7
 10
80.60381317138672
 20
15.62536811828613
 11
71.90381622314453
 21
15.62536811828613
  0
LINE
  8
0
  6
CONTINUOUS
 62
     7
 10
203.2038116455078
 20
15.62536811828613
 11
211.90380859375
 21
15.62536811828613
  0
LINE
  8
0
  6
CONTINUOUS
 62
     7
 10
227.90380859375
 20
13.52536869049072
 11
227.90380859375
 21
102.6253662109375
  0
LINE
  8
0
  6
CONTINUOUS
 62
     7
 10
211.90380859375
 20
13.52536869049072
 11
211.90380859375
 21
102.6253662109375
  0
LINE
  8
0
  6
CONTINUOUS
 62
     7
 10
203.2038116455078
 20
100.5253677368164
 11
211.90380859375
 21
100.5253677368164
  0
LINE
  8
0
  6
CONTINUOUS
 62
     7
 10
85.90381622314453
 20
15.62536811828613
 11
87.90381622314453
 21
15.62536811828613
  0
LINE
  8
0
  6
CONTINUOUS
 62
     7
 10
85.90381622314453
 20
100.5253677368164
 11
197.90380859375
 21
100.5253677368164
  0
LINE
  8
0
  6
CONTINUOUS
 62
     7
 10
85.90381622314453
 20
13.52536869049072
 11
80.60381317138672
 21
13.52536869049072
  0
LINE
  8
0
  6
CONTINUOUS
 62
     7
 10
203.2038116455078
 20
13.52536869049072
 11
203.2038116455078
 21
102.6253662109375
  0
LINE
  8
0
  6
CONTINUOUS
 62
     7
 10
85.90381622314453
 20
102.6253662109375
 11
85.90381622314453
 21
13.52536869049072
  0
LINE
  8
0
  6
CONTINUOUS
 62
     7
 10
197.90380859375
 20
13.52536869049072
 11
203.2038116455078
 21
13.52536869049072
  0
LINE
  8
0
  6
CONTINUOUS
 62
     7
 10
186.4538116455078
 20
-11.92463111877441
 11
186.4538116455078
 21
-27.92463111877441
  0
LINE
  8
0
  6
CONTINUOUS
 62
     7
 10
186.4538116455078
 20
2.075368642807007
 11
186.4538116455078
 21
-3.224631309509277
  0
LINE
  8
0
  6
CONTINUOUS
 62
     7
 10
97.35381317138672
 20
-11.92463111877441
 11
97.35381317138672
 21
-27.92463111877441
  0
LINE
  8
0
  6
CONTINUOUS
 62
     7
 10
211.90380859375
 20
13.52536869049072
 11
227.90380859375
 21
13.52536869049072
  0
LINE
  8
0
  6
CONTINUOUS
 62
     7
 10
97.35381317138672
 20
2.075368642807007
 11
97.35381317138672
 21
-3.224631309509277
  0
LINE
  8
0
  6
CONTINUOUS
 62
     7
 10
195.90380859375
 20
15.62536811828613
 11
197.90380859375
 21
15.62536811828613
  0
LINE
  8
0
  6
CONTINUOUS
 62
     7
 10
197.90380859375
 20
13.52536869049072
 11
197.90380859375
 21
102.6253662109375
  0
LINE
  8
0
  6
CONTINUOUS
 62
     7
 10
71.90381622314453
 20
102.6253662109375
 11
55.90381240844727
 21
102.6253662109375
  0
LINE
  8
0
  6
CONTINUOUS
 62
     7
 10
85.90381622314453
 20
102.6253662109375
 11
80.60381317138672
 21
102.6253662109375
  0
LINE
  8
0
  6
CONTINUOUS
 62
     7
 10
197.90380859375
 20
102.6253662109375
 11
203.2038116455078
 21
102.6253662109375
  0
LINE
  8
0
  6
CONTINUOUS
 62
     7
 10
211.90380859375
 20
102.6253662109375
 11
227.90380859375
 21
102.6253662109375
  0
LINE
  8
0
  6
CONTINUOUS
 62
     7
 10
97.35381317138672
 20
2.075368642807007
 11
186.4538116455078
 21
2.075368642807007
  0
LINE
  8
0
  6
CONTINUOUS
 62
     7
 10
71.90381622314453
 20
13.52536869049072
 11
55.90381240844727
 21
13.52536869049072
  0
LINE
  8
0
  6
CENTER
 62
     7
 10
255.4105682373047
 20
45.52600479125977
 11
355.7990417480469
 21
45.52600479125977
  0
LINE
  8
0
  6
CENTER
 62
     7
 10
372.0209655761719
 20
116.4814605712891
 11
372.0209655761719
 21
58.99220657348633
  0
LINE
  8
0
  6
CONTINUOUS
 62
     7
 10
458.0209655761719
 20
-9.523996353149414
 11
449.3209533691406
 21
-9.523996353149414
  0
LINE
  8
0
  6
CONTINUOUS
 62
     7
 10
458.0209655761719
 20
100.5760040283203
 11
449.3209533691406
 21
100.5760040283203
  0
LINE
  8
0
  6
CONTINUOUS
 62
     7
 10
474.0209655761719
 20
102.6760025024414
 11
458.0209655761719
 21
102.6760025024414
  0
LINE
  8
0
  6
CONTINUOUS
 62
     7
 10
474.0209655761719
 20
-11.62399578094482
 11
458.0209655761719
 21
-11.62399578094482
  0
LINE
  8
0
  6
CONTINUOUS
 62
     7
 10
458.0209655761719
 20
-11.62399578094482
 11
458.0209655761719
 21
102.6760025024414
  0
LINE
  8
0
  6
CONTINUOUS
 62
     7
 10
474.0209655761719
 20
-11.62399578094482
 11
474.0209655761719
 21
102.6760025024414
  0
LINE
  8
0
  6
CONTINUOUS
 62
     7
 10
449.3209533691406
 20
-11.62399578094482
 11
449.3209533691406
 21
102.6760025024414
  0
LINE
  8
0
  6
CONTINUOUS
 62
     7
 10
314.8709716796875
 20
-31.77399635314941
 11
429.1709594726563
 21
-31.77399635314941
  0
LINE
  8
0
  6
CONTINUOUS
 62
     7
 10
314.8709716796875
 20
-56.47399520874023
 11
429.1709594726563
 21
-56.47399520874023
  0
LINE
  8
0
  6
CONTINUOUS
 62
     7
 10
314.8709716796875
 20
-40.47399520874023
 11
429.1709594726563
 21
-40.47399520874023
  0
LINE
  8
0
  6
CONTINUOUS
 62
     7
 10
314.8709716796875
 20
-56.47399520874023
 11
314.8709716796875
 21
-40.47399520874023
  0
LINE
  8
0
  6
CONTINUOUS
 62
     7
 10
286.0209655761719
 20
-9.523996353149414
 11
294.720947265625
 21
-9.523996353149414
  0
LINE
  8
0
  6
CONTINUOUS
 62
     7
 10
270.0209655761719
 20
-11.62399578094482
 11
286.0209655761719
 21
-11.62399578094482
  0
LINE
  8
0
  6
CONTINUOUS
 62
     7
 10
316.970947265625
 20
-24.47399520874023
 11
316.970947265625
 21
-26.47399711608887
  0
LINE
  8
0
  6
CONTINUOUS
 62
     7
 10
286.0209655761719
 20
100.5760040283203
 11
294.720947265625
 21
100.5760040283203
  0
LINE
  8
0
  6
CONTINUOUS
 62
     7
 10
270.0209655761719
 20
102.6760025024414
 11
286.0209655761719
 21
102.6760025024414
  0
LINE
  8
0
  6
CONTINUOUS
 62
     7
 10
429.1709594726563
 20
-56.47399520874023
 11
429.1709594726563
 21
-40.47399520874023
  0
LINE
  8
0
  6
CONTINUOUS
 62
     7
 10
427.0709533691406
 20
-40.47399520874023
 11
427.0709533691406
 21
-31.77399635314941
  0
LINE
  8
0
  6
CONTINUOUS
 62
     7
 10
316.970947265625
 20
-40.47399520874023
 11
316.970947265625
 21
-31.77399635314941
  0
LINE
  8
0
  6
CONTINUOUS
 62
     7
 10
286.0209655761719
 20
102.6760025024414
 11
286.0209655761719
 21
-11.62399578094482
  0
LINE
  8
0
  6
CONTINUOUS
 62
     7
 10
270.0209655761719
 20
102.6760025024414
 11
270.0209655761719
 21
-11.62399578094482
  0
LINE
  8
0
  6
CONTINUOUS
 62
     7
 10
294.720947265625
 20
102.6760025024414
 11
294.720947265625
 21
-11.62399578094482
  0
LINE
  8
0
  6
CONTINUOUS
 62
     7
 10
427.0709533691406
 20
-24.47399711608887
 11
427.0709533691406
 21
-26.47399711608887
  0
LINE
  8
0
  6
CONTINUOUS
 62
     7
 10
300.0209655761719
 20
102.6760025024414
 11
300.0209655761719
 21
-11.62399578094482
  0
LINE
  8
0
  6
CONTINUOUS
 62
     7
 10
300.0209655761719
 20
-9.523996353149414
 11
302.0209655761719
 21
-9.523996353149414
  0
LINE
  8
0
  6
CONTINUOUS
 62
     7
 10
442.0209655761719
 20
-9.523996353149414
 11
444.0209655761719
 21
-9.523996353149414
  0
LINE
  8
0
  6
CONTINUOUS
 62
     7
 10
300.0209655761719
 20
100.5760040283203
 11
444.0209655761719
 21
100.5760040283203
  0
LINE
  8
0
  6
CONTINUOUS
 62
     7
 10
294.720947265625
 20
102.6760025024414
 11
300.0209655761719
 21
102.6760025024414
  0
LINE
  8
0
  6
CONTINUOUS
 62
     7
 10
294.720947265625
 20
-11.62399578094482
 11
300.0209655761719
 21
-11.62399578094482
  0
LINE
  8
0
  6
CONTINUOUS
 62
     7
 10
444.0209655761719
 20
102.6760025024414
 11
444.0209655761719
 21
-11.62399578094482
  0
LINE
  8
0
  6
CONTINUOUS
 62
     7
 10
429.1709594726563
 20
-31.77399635314941
 11
429.1709594726563
 21
-26.47399711608887
  0
LINE
  8
0
  6
CONTINUOUS
 62
     7
 10
449.3209533691406
 20
102.6760025024414
 11
444.0209655761719
 21
102.6760025024414
  0
LINE
  8
0
  6
CONTINUOUS
 62
     7
 10
449.3209533691406
 20
-11.62399578094482
 11
444.0209655761719
 21
-11.62399578094482
  0
LINE
  8
0
  6
CONTINUOUS
 62
     7
 10
314.8709716796875
 20
-31.77399635314941
 11
314.8709716796875
 21
-26.47399711608887
  0
LINE
  8
0
  6
CONTINUOUS
 62
     7
 10
314.8709716796875
 20
-26.47399711608887
 11
429.1709594726563
 21
-26.47399711608887
  0
LINE
  8
0
  6
CONTINUOUS
 62
     7
 10
-59.83972549438477
 20
57.11907958984375
 11
-59.83972549438477
 21
55.09408187866211
  0
LINE
  8
0
  6
CONTINUOUS
 62
     7
 10
-59.83972549438477
 20
70.09407806396484
 11
-59.83972549438477
 21
62.59408187866211
  0
LINE
  8
0
  6
CONTINUOUS
 62
     7
 10
141.90380859375
 20
52.60036849975586
 11
141.90380859375
 21
50.57536697387695
  0
LINE
  8
0
  6
CONTINUOUS
 62
     7
 10
141.90380859375
 20
65.57537078857422
 11
141.90380859375
 21
58.07536697387695
  0
LINE
  8
0
  6
CONTINUOUS
 62
     7
 10
372.0209655761719
 20
40.05100250244141
 11
372.0209655761719
 21
38.02600479125977
  0
LINE
  8
0
  6
CONTINUOUS
 62
     7
 10
372.0209655761719
 20
53.02600479125977
 11
372.0209655761719
 21
45.52600479125977
  0
LINE
  8
0
  6
CENTER
 62
     7
 10
-44.59568786621094
 20
62.59408187866211
 11
22.53784370422363
 21
62.59408187866211
  0
LINE
  8
0
  6
CENTER
 62
     7
 10
156.15625
 20
58.07536697387695
 11
234.3818054199219
 21
58.07536697387695
  0
LINE
  8
0
  6
CENTER
 62
     7
 10
386.300048828125
 20
45.52600479125977
 11
489.5696411132813
 21
45.52600479125977
  0
LINE
  8
0
  6
CENTER
 62
     7
 10
-59.83972549438477
 20
50.67375564575195
 11
-59.83972549438477
 21
-18.78146171569824
  0
LINE
  8
0
  6
CENTER
 62
     7
 10
141.90380859375
 20
44.57355880737305
 11
141.90380859375
 21
-32.20540618896484
  0
LINE
  8
0
  6
CENTER
 62
     7
 10
372.0209655761719
 20
32.92772674560547
 11
372.0209655761719
 21
-67.39324188232422
  0
ARC
  8
0
  6
CONTINUOUS
 62
     7
 10
-14.83972358703613
 20
17.59407997131348
 40
8.899999618530275
 50
90.00000250447816
 51
180.0000050089563
  0
ARC
  8
0
  6
CONTINUOUS
 62
     7
 10
-104.8397216796875
 20
17.59407997131348
 40
8.899999618530273
 50
4.574281086256491E-014
 51
90.00000250447819
  0
ARC
  8
0
  6
CONTINUOUS
 62
     7
 10
195.90380859375
 20
4.075368404388428
 40
11.55000019073486
 50
90.00000250447816
 51
180.0000050089563
  0
ARC
  8
0
  6
CONTINUOUS
 62
     7
 10
87.90381622314453
 20
4.075368404388428
 40
11.55000019073486
 50
0
 51
90.00000250447816
  0
ARC
  8
0
  6
CONTINUOUS
 62
     7
 10
442.0209655761719
 20
-24.47399711608887
 40
14.94999980926514
 50
90.00000250447805
 51
180.0000050089563
  0
ARC
  8
0
  6
CONTINUOUS
 62
     7
 10
302.0209655761719
 20
-24.47399711608887
 40
14.94999980926514
 50
5.446301062492676E-014
 51
90.00000250447805
  0
POLYLINE
  8
0
  6
CONTINUOUS
 62
     7
 66
     1
 10
0
 20
0
 70
     1
  0
VERTEX
  8
0
  6
CONTINUOUS
 62
     7
 10
-52.33972405380237
 20
62.59408030049946
 42
0.1497887561354068
  0
VERTEX
  8
0
  6
CONTINUOUS
 62
     7
 10
-53.1031377147678
 20
65.00069052160072
 42
0.1049344985809035
  0
VERTEX
  8
0
  6
CONTINUOUS
 62
     7
 10
-54.95210374864787
 20
66.74682232178887
 42
0.07564923979808244
  0
VERTEX
  8
0
  6
CONTINUOUS
 62
     7
 10
-57.30183730449513
 20
67.7460979468915
 42
0.06403560301978192
  0
VERTEX
  8
0
  6
CONTINUOUS
 62
     7
 10
-59.83972405380236
 20
68.06908030049951
 42
0.06397774454076963
  0
VERTEX
  8
0
  6
CONTINUOUS
 62
     7
 10
-62.37549585348454
 20
67.7466528744055
 42
0.07566801199677473
  0
VERTEX
  8
0
  6
CONTINUOUS
 62
     7
 10
-64.72635128544702
 20
66.7474450706479
 42
0.1050050298385804
  0
VERTEX
  8
0
  6
CONTINUOUS
 62
     7
 10
-66.57665500924475
 20
65.00017639118745
 42
0.1497616476411736
  0
VERTEX
  8
0
  6
CONTINUOUS
 62
     7
 10
-67.33972405380239
 20
62.59408030049949
 42
0.1497887561354044
  0
VERTEX
  8
0
  6
CONTINUOUS
 62
     7
 10
-66.57631039283693
 20
60.18747007939823
 42
0.1049344985809134
  0
VERTEX
  8
0
  6
CONTINUOUS
 62
     7
 10
-64.72734435895686
 20
58.44133827921009
 42
0.07564923979813419
  0
VERTEX
  8
0
  6
CONTINUOUS
 62
     7
 10
-62.37761080310958
 20
57.4420626541075
 42
0.06403560301975968
  0
VERTEX
  8
0
  6
CONTINUOUS
 62
     7
 10
-59.83972405380236
 20
57.11908030049949
 42
0.0639777445407165
  0
VERTEX
  8
0
  6
CONTINUOUS
 62
     7
 10
-57.30395225412019
 20
57.44150772659349
 42
0.07566801199679912
  0
VERTEX
  8
0
  6
CONTINUOUS
 62
     7
 10
-54.95309682215769
 20
58.44071553035108
 42
0.1050050298385606
  0
VERTEX
  8
0
  6
CONTINUOUS
 62
     7
 10
-53.10279309835998
 20
60.18798420981153
 42
0.1497616476411552
  0
SEQEND
  8
0
  0
POLYLINE
  8
0
  6
CONTINUOUS
 62
     7
 66
     1
 10
0
 20
0
 70
     1
  0
VERTEX
  8
0
  6
CONTINUOUS
 62
     7
 10
149.4038131045457
 20
58.07536857457899
 42
0.1497887561350947
  0
VERTEX
  8
0
  6
CONTINUOUS
 62
     7
 10
148.6403994435802
 20
60.48197879568025
 42
0.1049344985808871
  0
VERTEX
  8
0
  6
CONTINUOUS
 62
     7
 10
146.7914334097002
 20
62.2281105958684
 42
0.07564923979805587
  0
VERTEX
  8
0
  6
CONTINUOUS
 62
     7
 10
144.4416998538529
 20
63.22738622097101
 42
0.0640356030198118
  0
VERTEX
  8
0
  6
CONTINUOUS
 62
     7
 10
141.9038131045457
 20
63.55036857457903
 42
0.06397774454061317
  0
VERTEX
  8
0
  6
CONTINUOUS
 62
     7
 10
139.3680413048635
 20
63.22794114848503
 42
0.07566801199683369
  0
VERTEX
  8
0
  6
CONTINUOUS
 62
     7
 10
137.017185872901
 20
62.22873334472743
 42
0.1050050298385886
  0
VERTEX
  8
0
  6
CONTINUOUS
 62
     7
 10
135.1668821491033
 20
60.48146466526698
 42
0.149761647641034
  0
VERTEX
  8
0
  6
CONTINUOUS
 62
     7
 10
134.4038131045457
 20
58.07536857457902
 42
0.1497887561353551
  0
VERTEX
  8
0
  6
CONTINUOUS
 62
     7
 10
135.1672267655111
 20
55.66875835347776
 42
0.1049344985809012
  0
VERTEX
  8
0
  6
CONTINUOUS
 62
     7
 10
137.0161927993912
 20
53.92262655328962
 42
0.07564923979806408
  0
VERTEX
  8
0
  6
CONTINUOUS
 62
     7
 10
139.3659263552385
 20
52.92335092818703
 42
0.06403560301976993
  0
VERTEX
  8
0
  6
CONTINUOUS
 62
     7
 10
141.9038131045457
 20
52.60036857457902
 42
0.06397774454080145
  0
VERTEX
  8
0
  6
CONTINUOUS
 62
     7
 10
144.4395849042278
 20
52.92279600067302
 42
0.07566801199673415
  0
VERTEX
  8
0
  6
CONTINUOUS
 62
     7
 10
146.7904403361903
 20
53.92200380443062
 42
0.105005029838782
  0
VERTEX
  8
0
  6
CONTINUOUS
 62
     7
 10
148.640744059988
 20
55.66927248389105
 42
0.1497616476410603
  0
SEQEND
  8
0
  0
POLYLINE
  8
0
  6
CONTINUOUS
 62
     7
 66
     1
 10
0
 20
0
 70
     1
  0
VERTEX
  8
0
  6
CONTINUOUS
 62
     7
 10
379.5209615522191
 20
45.52600376767427
 42
0.1497887561336602
  0
VERTEX
  8
0
  6
CONTINUOUS
 62
     7
 10
378.7575478912536
 20
47.93261398877553
 42
0.104934498581262
  0
VERTEX
  8
0
  6
CONTINUOUS
 62
     7
 10
376.9085818573736
 20
49.67874578896368
 42
0.07564923979771096
  0
VERTEX
  8
0
  6
CONTINUOUS
 62
     7
 10
374.5588483015263
 20
50.6780214140663
 42
0.06403560301916149
  0
VERTEX
  8
0
  6
CONTINUOUS
 62
     7
 10
372.0209615522191
 20
51.00100376767432
 42
0.06397774454135154
  0
VERTEX
  8
0
  6
CONTINUOUS
 62
     7
 10
369.4851897525369
 20
50.67857634158032
 42
0.07566801199659323
  0
VERTEX
  8
0
  6
CONTINUOUS
 62
     7
 10
367.1343343205744
 20
49.67936853782272
 42
0.1050050298382264
  0
VERTEX
  8
0
  6
CONTINUOUS
 62
     7
 10
365.2840305967767
 20
47.93209985836226
 42
0.1497616476404789
  0
VERTEX
  8
0
  6
CONTINUOUS
 62
     7
 10
364.5209615522191
 20
45.5260037676743
 42
0.1497887561346963
  0
VERTEX
  8
0
  6
CONTINUOUS
 62
     7
 10
365.2843752131846
 20
43.11939354657304
 42
0.1049344985801376
  0
VERTEX
  8
0
  6
CONTINUOUS
 62
     7
 10
367.1333412470646
 20
41.37326174638491
 42
0.07564923979803682
  0
VERTEX
  8
0
  6
CONTINUOUS
 62
     7
 10
369.4830748029119
 20
40.37398612128231
 42
0.06403560301935703
  0
VERTEX
  8
0
  6
CONTINUOUS
 62
     7
 10
372.0209615522191
 20
40.0510037676743
 42
0.06397774454026391
  0
VERTEX
  8
0
  6
CONTINUOUS
 62
     7
 10
374.5567333519013
 20
40.37343119376831
 42
0.07566801199594406
  0
VERTEX
  8
0
  6
CONTINUOUS
 62
     7
 10
376.9075887838638
 20
41.37263899752589
 42
0.1050050298391488
  0
VERTEX
  8
0
  6
CONTINUOUS
 62
     7
 10
378.7578925076615
 20
43.11990767698633
 42
0.1497616476405688
  0
SEQEND
  8
0
  0
TEXT
  8
0
  6
CONTINUOUS
 62
     7
 10
-133.3776335716248
 20
152.7119445800781
 40
15
 41
0.843772508087708
  1
Ｆ－３（ショートチーズ）
  0
TEXT
  8
0
  6
CONTINUOUS
 62
     7
 10
-106.6481153964996
 20
-46.17672348022461
 40
10
 41
0.8444834805612669
  1
２１／２ｓ（６５Ａ）
  0
TEXT
  8
0
  6
CONTINUOUS
 62
     7
 10
111.5023210048676
 20
-59.56018447875977
 40
10
 41
0.8463497863096351
  1
３ｓ（８０Ａ）
  0
TEXT
  8
0
  6
CONTINUOUS
 62
     7
 10
337.0136659145355
 20
-93.01884460449219
 40
10
 41
0.8455653969371324
  1
４ｓ（１００Ａ）
  0
POINT
  8
1
  6
CONTINUOUS
 62
     7
 10
0
 20
0
  0
ENDSEC
  0
EOF
