  0
SECTION
  2
HEADER
  9
$ACADVER
  1
AC1015
  9
$ACADMAINTVER
 70
     6
  9
$DWGCODEPAGE
  3
ANSI_932
  9
$INSBASE
 10
-449.0
 20
-317.5
 30
0.0
  9
$EXTMIN
 10
-449.0
 20
-317.5
 30
0.0
  9
$EXTMAX
 10
1279.0
 20
317.5
 30
0.0
  9
$LIMMIN
 10
-449.0
 20
-317.5
  9
$LIMMAX
 10
1279.0
 20
317.5
  9
$ORTHOMODE
 70
     0
  9
$REGENMODE
 70
     1
  9
$FILLMODE
 70
     1
  9
$QTEXTMODE
 70
     0
  9
$MIRRTEXT
 70
     1
  9
$LTSCALE
 40
1.0
  9
$ATTMODE
 70
     1
  9
$TEXTSIZE
 40
0.2
  9
$TRACEWID
 40
1.0
  9
$TEXTSTYLE
  7
FX_VECTOR
  9
$CLAYER
  8
0
  9
$CELTYPE
  6
ByLayer
  9
$CECOLOR
 62
   256
  9
$CELTSCALE
 40
1.0
  9
$DISPSILH
 70
     0
  9
$DIMSCALE
 40
1.0
  9
$DIMASZ
 40
2.0
  9
$DIMEXO
 40
1.0
  9
$DIMDLI
 40
10.0
  9
$DIMRND
 40
0.0
  9
$DIMDLE
 40
6.0
  9
$DIMEXE
 40
1.0
  9
$DIMTP
 40
0.0
  9
$DIMTM
 40
0.0
  9
$DIMTXT
 40
4.0
  9
$DIMCEN
 40
2.5
  9
$DIMTSZ
 40
0.0
  9
$DIMTOL
 70
     0
  9
$DIMLIM
 70
     0
  9
$DIMTIH
 70
     0
  9
$DIMTOH
 70
     0
  9
$DIMSE1
 70
     0
  9
$DIMSE2
 70
     0
  9
$DIMTAD
 70
     1
  9
$DIMZIN
 70
     8
  9
$DIMBLK
  1

  9
$DIMASO
 70
     1
  9
$DIMSHO
 70
     1
  9
$DIMPOST
  1

  9
$DIMAPOST
  1

  9
$DIMALT
 70
     0
  9
$DIMALTD
 70
     3
  9
$DIMALTF
 40
0.03937
  9
$DIMLFAC
 40
1.0
  9
$DIMTOFL
 70
     1
  9
$DIMTVP
 40
0.0
  9
$DIMTIX
 70
     0
  9
$DIMSOXD
 70
     0
  9
$DIMSAH
 70
     1
  9
$DIMBLK1
  1
FXTIP_ARROW_S
  9
$DIMBLK2
  1
FXTIP_ARROW_E
  9
$DIMSTYLE
  2
FXDIMINFO
  9
$DIMCLRD
 70
     7
  9
$DIMCLRE
 70
     7
  9
$DIMCLRT
 70
     7
  9
$DIMTFAC
 40
1.0
  9
$DIMGAP
 40
1.0
  9
$DIMJUST
 70
     0
  9
$DIMSD1
 70
     0
  9
$DIMSD2
 70
     0
  9
$DIMTOLJ
 70
     1
  9
$DIMTZIN
 70
     8
  9
$DIMALTZ
 70
     0
  9
$DIMALTTZ
 70
     0
  9
$DIMUPT
 70
     0
  9
$DIMDEC
 70
     2
  9
$DIMTDEC
 70
     2
  9
$DIMALTU
 70
     2
  9
$DIMALTTD
 70
     3
  9
$DIMTXSTY
  7
FX_VECTOR
  9
$DIMAUNIT
 70
     0
  9
$DIMADEC
 70
     2
  9
$DIMALTRND
 40
0.0
  9
$DIMAZIN
 70
     2
  9
$DIMDSEP
 70
    46
  9
$DIMATFIT
 70
     3
  9
$DIMFRAC
 70
     0
  9
$DIMLDRBLK
  1
FXTIP_ARROW_S
  9
$DIMLUNIT
 70
     2
  9
$DIMLWD
 70
    -2
  9
$DIMLWE
 70
    -2
  9
$DIMTMOVE
 70
     0
  9
$LUNITS
 70
     2
  9
$LUPREC
 70
     4
  9
$SKETCHINC
 40
1.0
  9
$FILLETRAD
 40
10.0
  9
$AUNITS
 70
     0
  9
$AUPREC
 70
     0
  9
$MENU
  1
.
  9
$ELEVATION
 40
0.0
  9
$PELEVATION
 40
0.0
  9
$THICKNESS
 40
0.0
  9
$LIMCHECK
 70
     0
  9
$CHAMFERA
 40
10.0
  9
$CHAMFERB
 40
10.0
  9
$CHAMFERC
 40
20.0
  9
$CHAMFERD
 40
0.0
  9
$SKPOLY
 70
     0
  9
$TDCREATE
 40
2458990.335401701
  9
$TDUCREATE
 40
2458989.960401701
  9
$TDUPDATE
 40
2458990.335406586
  9
$TDUUPDATE
 40
2458989.960406586
  9
$TDINDWG
 40
0.0000000116
  9
$TDUSRTIMER
 40
0.0000000116
  9
$USRTIMER
 70
     1
  9
$ANGBASE
 50
0.0
  9
$ANGDIR
 70
     0
  9
$PDMODE
 70
     0
  9
$PDSIZE
 40
0.0
  9
$PLINEWID
 40
0.0
  9
$SPLFRAME
 70
     0
  9
$SPLINETYPE
 70
     6
  9
$SPLINESEGS
 70
     8
  9
$HANDSEED
  5
234
  9
$SURFTAB1
 70
     6
  9
$SURFTAB2
 70
     6
  9
$SURFTYPE
 70
     6
  9
$SURFU
 70
     6
  9
$SURFV
 70
     6
  9
$UCSBASE
  2

  9
$UCSNAME
  2

  9
$UCSORG
 10
0.0
 20
0.0
 30
0.0
  9
$UCSXDIR
 10
1.0
 20
0.0
 30
0.0
  9
$UCSYDIR
 10
0.0
 20
1.0
 30
0.0
  9
$UCSORTHOREF
  2

  9
$UCSORTHOVIEW
 70
     0
  9
$UCSORGTOP
 10
0.0
 20
0.0
 30
0.0
  9
$UCSORGBOTTOM
 10
0.0
 20
0.0
 30
0.0
  9
$UCSORGLEFT
 10
0.0
 20
0.0
 30
0.0
  9
$UCSORGRIGHT
 10
0.0
 20
0.0
 30
0.0
  9
$UCSORGFRONT
 10
0.0
 20
0.0
 30
0.0
  9
$UCSORGBACK
 10
0.0
 20
0.0
 30
0.0
  9
$PUCSBASE
  2

  9
$PUCSNAME
  2

  9
$PUCSORG
 10
0.0
 20
0.0
 30
0.0
  9
$PUCSXDIR
 10
1.0
 20
0.0
 30
0.0
  9
$PUCSYDIR
 10
0.0
 20
1.0
 30
0.0
  9
$PUCSORTHOREF
  2

  9
$PUCSORTHOVIEW
 70
     0
  9
$PUCSORGTOP
 10
0.0
 20
0.0
 30
0.0
  9
$PUCSORGBOTTOM
 10
0.0
 20
0.0
 30
0.0
  9
$PUCSORGLEFT
 10
0.0
 20
0.0
 30
0.0
  9
$PUCSORGRIGHT
 10
0.0
 20
0.0
 30
0.0
  9
$PUCSORGFRONT
 10
0.0
 20
0.0
 30
0.0
  9
$PUCSORGBACK
 10
0.0
 20
0.0
 30
0.0
  9
$USERI1
 70
     0
  9
$USERI2
 70
     0
  9
$USERI3
 70
     0
  9
$USERI4
 70
     0
  9
$USERI5
 70
     0
  9
$USERR1
 40
0.0
  9
$USERR2
 40
0.0
  9
$USERR3
 40
0.0
  9
$USERR4
 40
0.0
  9
$USERR5
 40
0.0
  9
$WORLDVIEW
 70
     1
  9
$SHADEDGE
 70
     3
  9
$SHADEDIF
 70
    70
  9
$TILEMODE
 70
     1
  9
$MAXACTVP
 70
    64
  9
$PINSBASE
 10
0.0
 20
0.0
 30
0.0
  9
$PLIMCHECK
 70
     0
  9
$PEXTMIN
 10
1.000000000000000E+20
 20
1.000000000000000E+20
 30
1.000000000000000E+20
  9
$PEXTMAX
 10
-1.000000000000000E+20
 20
-1.000000000000000E+20
 30
-1.000000000000000E+20
  9
$PLIMMIN
 10
0.0
 20
0.0
  9
$PLIMMAX
 10
420.0
 20
297.0
  9
$UNITMODE
 70
     0
  9
$VISRETAIN
 70
     1
  9
$PLINEGEN
 70
     0
  9
$PSLTSCALE
 70
     1
  9
$TREEDEPTH
 70
  3020
  9
$CMLSTYLE
  2
Standard
  9
$CMLJUST
 70
     0
  9
$CMLSCALE
 40
20.0
  9
$PROXYGRAPHICS
 70
     1
  9
$MEASUREMENT
 70
     1
  9
$CELWEIGHT
370
    -1
  9
$ENDCAPS
280
     0
  9
$JOINSTYLE
280
     0
  9
$LWDISPLAY
290
     0
  9
$INSUNITS
 70
     4
  9
$HYPERLINKBASE
  1

  9
$STYLESHEET
  1

  9
$XEDIT
290
     1
  9
$CEPSNTYPE
380
     0
  9
$PSTYLEMODE
290
     1
  9
$FINGERPRINTGUID
  2
{A9B21A27-F983-49A4-9434-3461C0E29606}
  9
$VERSIONGUID
  2
{FAEB1C32-E019-11D5-929B-00C0DF256EC4}
  9
$EXTNAMES
290
     1
  9
$PSVPSCALE
 40
0.0
  9
$OLESTARTUP
290
     0
  0
ENDSEC
  0
SECTION
  2
CLASSES
  0
CLASS
  1
ACDBDICTIONARYWDFLT
  2
AcDbDictionaryWithDefault
  3
ObjectDBX Classes
 90
        0
280
     0
281
     0
  0
CLASS
  1
VISUALSTYLE
  2
AcDbVisualStyle
  3
ObjectDBX Classes
 90
     4095
280
     0
281
     0
  0
CLASS
  1
MATERIAL
  2
AcDbMaterial
  3
ObjectDBX Classes
 90
     1153
280
     0
281
     0
  0
CLASS
  1
DICTIONARYVAR
  2
AcDbDictionaryVar
  3
ObjectDBX Classes
 90
        0
280
     0
281
     0
  0
CLASS
  1
ACDBPLACEHOLDER
  2
AcDbPlaceHolder
  3
ObjectDBX Classes
 90
        0
280
     0
281
     0
  0
CLASS
  1
LAYOUT
  2
AcDbLayout
  3
ObjectDBX Classes
 90
        0
280
     0
281
     0
  0
ENDSEC
  0
SECTION
  2
TABLES
  0
TABLE
  2
VPORT
  5
8
330
0
100
AcDbSymbolTable
 70
     1
  0
VPORT
  5
29
330
8
100
AcDbSymbolTableRecord
100
AcDbViewportTableRecord
  2
*Active
 70
     0
 10
0.0
 20
0.0
 11
1.0
 21
1.0
 12
415.0
 22
0.0
 13
0.0
 23
0.0
 14
10.0
 24
10.0
 15
10.0
 25
10.0
 16
0.0
 26
0.0
 36
1.0
 17
0.0
 27
0.0
 37
0.0
 40
635.0
 41
2.721259842519685
 42
50.0
 43
0.0
 44
0.0
 50
0.0
 51
0.0
 71
     0
 72
   100
 73
     1
 74
     3
 75
     0
 76
     0
 77
     0
 78
     0
281
     0
 65
     1
110
0.0
120
0.0
130
0.0
111
1.0
121
0.0
131
0.0
112
0.0
122
1.0
132
0.0
 79
     0
146
0.0
  0
ENDTAB
  0
TABLE
  2
LTYPE
  5
5
330
0
100
AcDbSymbolTable
 70
     3
  0
LTYPE
  5
14
330
5
100
AcDbSymbolTableRecord
100
AcDbLinetypeTableRecord
  2
ByBlock
 70
     0
  3

 72
    65
 73
     0
 40
0.0
  0
LTYPE
  5
15
330
5
100
AcDbSymbolTableRecord
100
AcDbLinetypeTableRecord
  2
ByLayer
 70
     0
  3

 72
    65
 73
     0
 40
0.0
  0
LTYPE
  5
16
330
5
100
AcDbSymbolTableRecord
100
AcDbLinetypeTableRecord
  2
Continuous
 70
     0
  3
Solid line
 72
    65
 73
     0
 40
0.0
  0
LTYPE
  5
A9
330
5
100
AcDbSymbolTableRecord
100
AcDbLinetypeTableRecord
  2
実線
 70
     0
  3

 72
    65
 73
     0
 40
0.0
  0
LTYPE
  5
AA
330
5
100
AcDbSymbolTableRecord
100
AcDbLinetypeTableRecord
  2
一点鎖線
 70
     0
  3

 72
    65
 73
     4
 40
13.0
 49
10.0
 74
     0
 49
-1.0
 74
     0
 49
1.0
 74
     0
 49
-1.0
 74
     0
  0
ENDTAB
  0
TABLE
  2
LAYER
  5
2
330
0
100
AcDbSymbolTable
 70
     3
  0
LAYER
  5
10
330
2
100
AcDbSymbolTableRecord
100
AcDbLayerTableRecord
  2
0
 70
     0
 62
     7
  6
Continuous
370
    -3
390
F
  0
LAYER
  5
A8
330
2
100
AcDbSymbolTableRecord
100
AcDbLayerTableRecord
  2
PV
 70
     0
 62
     5
  6
実線
370
    13
390
F
  0
LAYER
  5
1FE
330
2
100
AcDbSymbolTableRecord
100
AcDbLayerTableRecord
  2
99
 70
     0
 62
     5
  6
実線
370
    13
390
F
  0
ENDTAB
  0
TABLE
  2
STYLE
  5
3
330
0
100
AcDbSymbolTable
 70
     3
  0
STYLE
  5
11
330
3
100
AcDbSymbolTableRecord
100
AcDbTextStyleTableRecord
  2
Standard
 70
     0
 40
0.0
 41
1.0
 50
0.0
 71
     0
 42
2.5
  3
txt
  4

  0
STYLE
  5
3F
330
3
100
AcDbSymbolTableRecord
100
AcDbTextStyleTableRecord
  2
FX_VECTOR
 70
     0
 40
0.0
 41
1.0
 50
0.0
 71
     0
 42
0.2
  3
MONOTXT.SHX
  4
BigFont.shx
  0
STYLE
  5
A7
330
3
100
AcDbSymbolTableRecord
100
AcDbTextStyleTableRecord
  2
DEFAULT
 70
     0
 40
0.0
 41
1.0
 50
0.0
 71
     0
 42
0.2
  3

  4

1001
ACAD
1000
ＭＳ ゴシック
1071
    32817
  0
ENDTAB
  0
TABLE
  2
VIEW
  5
6
330
0
100
AcDbSymbolTable
 70
     0
  0
ENDTAB
  0
TABLE
  2
UCS
  5
7
330
0
100
AcDbSymbolTable
 70
     0
  0
ENDTAB
  0
TABLE
  2
APPID
  5
9
330
0
100
AcDbSymbolTable
 70
     1
  0
APPID
  5
12
330
9
100
AcDbSymbolTableRecord
100
AcDbRegAppTableRecord
  2
ACAD
 70
     0
  0
ENDTAB
  0
TABLE
  2
DIMSTYLE
  5
A
330
0
100
AcDbSymbolTable
 70
     2
100
AcDbDimStyleTable
  0
DIMSTYLE
105
27
330
A
100
AcDbSymbolTableRecord
100
AcDbDimStyleTableRecord
  2
ISO-25
 70
     0
 41
2.5
 42
0.625
 43
3.75
 44
1.25
 73
     0
 74
     0
 77
     1
 78
     8
140
2.5
141
2.5
143
0.03937007874016
147
0.625
171
     3
172
     1
178
     0
271
     2
272
     2
274
     3
278
    44
283
     0
284
     8
340
11
  0
DIMSTYLE
105
A6
330
A
100
AcDbSymbolTableRecord
100
AcDbDimStyleTableRecord
  2
FXDIMINFO
 70
     0
 41
2.0
 42
1.0
 43
10.0
 44
1.0
 46
6.0
 73
     0
 74
     0
 77
     1
 78
     8
 79
     2
140
4.0
141
2.5
143
0.03937
147
1.0
171
     3
172
     1
173
     1
176
     7
177
     7
271
     2
178
     7
179
     2
271
     2
272
     2
274
     3
284
     8
340
3F
341
40
343
40
344
46
  0
ENDTAB
  0
TABLE
  2
BLOCK_RECORD
  5
1
330
0
100
AcDbSymbolTable
 70
    25
  0
BLOCK_RECORD
  5
1F
330
1
100
AcDbSymbolTableRecord
100
AcDbBlockTableRecord
  2
*Model_Space
340
22
  0
BLOCK_RECORD
  5
1B
330
1
100
AcDbSymbolTableRecord
100
AcDbBlockTableRecord
  2
*Paper_Space
340
1E
  0
BLOCK_RECORD
  5
23
330
1
100
AcDbSymbolTableRecord
100
AcDbBlockTableRecord
  2
*Paper_Space0
340
26
  0
BLOCK_RECORD
  5
40
330
1
100
AcDbSymbolTableRecord
100
AcDbBlockTableRecord
  2
FXTIP_ARROW_S
340
0
  0
BLOCK_RECORD
  5
46
330
1
100
AcDbSymbolTableRecord
100
AcDbBlockTableRecord
  2
FXTIP_ARROW_E
340
0
  0
BLOCK_RECORD
  5
4C
330
1
100
AcDbSymbolTableRecord
100
AcDbBlockTableRecord
  2
FXTIP_BLACKDOT_S
340
0
  0
BLOCK_RECORD
  5
52
330
1
100
AcDbSymbolTableRecord
100
AcDbBlockTableRecord
  2
FXTIP_BLACKDOT_E
340
0
  0
BLOCK_RECORD
  5
58
330
1
100
AcDbSymbolTableRecord
100
AcDbBlockTableRecord
  2
FXTIP_TRIANGLE_S
340
0
  0
BLOCK_RECORD
  5
5F
330
1
100
AcDbSymbolTableRecord
100
AcDbBlockTableRecord
  2
FXTIP_TRIANGLE_E
340
0
  0
BLOCK_RECORD
  5
66
330
1
100
AcDbSymbolTableRecord
100
AcDbBlockTableRecord
  2
FXTIP_ARCHITECT_S
340
0
  0
BLOCK_RECORD
  5
6C
330
1
100
AcDbSymbolTableRecord
100
AcDbBlockTableRecord
  2
FXTIP_ARCHITECT_E
340
0
  0
BLOCK_RECORD
  5
72
330
1
100
AcDbSymbolTableRecord
100
AcDbBlockTableRecord
  2
FXTIP_CIVIL_S
340
0
  0
BLOCK_RECORD
  5
78
330
1
100
AcDbSymbolTableRecord
100
AcDbBlockTableRecord
  2
FXTIP_CIVIL_E
340
0
  0
BLOCK_RECORD
  5
7E
330
1
100
AcDbSymbolTableRecord
100
AcDbBlockTableRecord
  2
FXTIP_WHITEDOT_S
340
0
  0
BLOCK_RECORD
  5
83
330
1
100
AcDbSymbolTableRecord
100
AcDbBlockTableRecord
  2
FXTIP_WHITEDOT_E
340
0
  0
BLOCK_RECORD
  5
88
330
1
100
AcDbSymbolTableRecord
100
AcDbBlockTableRecord
  2
FXTIP_UPARROW_S
340
0
  0
BLOCK_RECORD
  5
8D
330
1
100
AcDbSymbolTableRecord
100
AcDbBlockTableRecord
  2
FXTIP_UPARROW_E
340
0
  0
BLOCK_RECORD
  5
92
330
1
100
AcDbSymbolTableRecord
100
AcDbBlockTableRecord
  2
FXTIP_DOWNARROW_S
340
0
  0
BLOCK_RECORD
  5
97
330
1
100
AcDbSymbolTableRecord
100
AcDbBlockTableRecord
  2
FXTIP_DOWNARROW_E
340
0
  0
BLOCK_RECORD
  5
9C
330
1
100
AcDbSymbolTableRecord
100
AcDbBlockTableRecord
  2
FXTIP_BLACKTRIANGLE_S
340
0
  0
BLOCK_RECORD
  5
A1
330
1
100
AcDbSymbolTableRecord
100
AcDbBlockTableRecord
  2
FXTIP_BLACKTRIANGLE_E
340
0
  0
BLOCK_RECORD
  5
16E
330
1
100
AcDbSymbolTableRecord
100
AcDbBlockTableRecord
  2
BLKF022
340
0
102
{BLKREFS
331
171
102
}
  0
BLOCK_RECORD
  5
186
330
1
100
AcDbSymbolTableRecord
100
AcDbBlockTableRecord
  2
BLKF023
340
0
102
{BLKREFS
331
189
102
}
  0
BLOCK_RECORD
  5
19E
330
1
100
AcDbSymbolTableRecord
100
AcDbBlockTableRecord
  2
BLKF024
340
0
102
{BLKREFS
331
1A1
102
}
  0
BLOCK_RECORD
  5
1B6
330
1
100
AcDbSymbolTableRecord
100
AcDbBlockTableRecord
  2
BLKF025
340
0
102
{BLKREFS
331
1B9
102
}
  0
BLOCK_RECORD
  5
1CE
330
1
100
AcDbSymbolTableRecord
100
AcDbBlockTableRecord
  2
BLKF026
340
0
102
{BLKREFS
331
1D1
102
}
  0
BLOCK_RECORD
  5
1E6
330
1
100
AcDbSymbolTableRecord
100
AcDbBlockTableRecord
  2
BLKF027
340
0
102
{BLKREFS
331
1E9
102
}
  0
ENDTAB
  0
ENDSEC
  0
SECTION
  2
BLOCKS
  0
BLOCK
  5
20
330
1F
100
AcDbEntity
  8
0
100
AcDbBlockBegin
  2
*Model_Space
 70
     0
 10
0.0
 20
0.0
 30
0.0
  3
*Model_Space
  1

  0
ENDBLK
  5
21
330
1F
100
AcDbEntity
  8
0
100
AcDbBlockEnd
  0
BLOCK
  5
1C
330
1B
100
AcDbEntity
 67
     1
  8
0
100
AcDbBlockBegin
  2
*Paper_Space
 70
     0
 10
0.0
 20
0.0
 30
0.0
  3
*Paper_Space
  1

  0
ENDBLK
  5
1D
330
1B
100
AcDbEntity
 67
     1
  8
0
100
AcDbBlockEnd
  0
BLOCK
  5
24
330
23
100
AcDbEntity
  8
0
100
AcDbBlockBegin
  2
*Paper_Space0
 70
     0
 10
0.0
 20
0.0
 30
0.0
  3
*Paper_Space0
  1

  0
ENDBLK
  5
25
330
23
100
AcDbEntity
  8
0
100
AcDbBlockEnd
  0
BLOCK
  5
41
330
40
100
AcDbEntity
  8
0
100
AcDbBlockBegin
  2
FXTIP_ARROW_S
 70
     0
 10
0.0
 20
0.0
 30
0.0
  3
FXTIP_ARROW_S
  1

  0
LINE
  5
43
330
40
100
AcDbEntity
  8
0
  6
Continuous
 62
     0
370
    -2
100
AcDbLine
 10
0.0
 20
0.0
 30
0.0
 11
-1.0
 21
0.0000000000000001
 31
0.0
  0
LINE
  5
44
330
40
100
AcDbEntity
  8
0
  6
Continuous
 62
     0
370
    -2
100
AcDbLine
 10
0.0
 20
0.0
 30
0.0
 11
-0.9659258262890683
 21
-0.2588190451025206
 31
0.0
  0
LINE
  5
45
330
40
100
AcDbEntity
  8
0
  6
Continuous
 62
     0
370
    -2
100
AcDbLine
 10
0.0
 20
0.0
 30
0.0
 11
-0.9659258262890683
 21
0.2588190451025209
 31
0.0
  0
ENDBLK
  5
42
330
40
100
AcDbEntity
  8
0
100
AcDbBlockEnd
  0
BLOCK
  5
47
330
46
100
AcDbEntity
  8
0
100
AcDbBlockBegin
  2
FXTIP_ARROW_E
 70
     0
 10
0.0
 20
0.0
 30
0.0
  3
FXTIP_ARROW_E
  1

  0
LINE
  5
49
330
46
100
AcDbEntity
  8
0
  6
Continuous
 62
     0
370
    -2
100
AcDbLine
 10
0.0
 20
0.0
 30
0.0
 11
-1.0
 21
0.0
 31
0.0
  0
LINE
  5
4A
330
46
100
AcDbEntity
  8
0
  6
Continuous
 62
     0
370
    -2
100
AcDbLine
 10
0.0
 20
0.0
 30
0.0
 11
-0.9659258262890683
 21
0.2588190451025207
 31
0.0
  0
LINE
  5
4B
330
46
100
AcDbEntity
  8
0
  6
Continuous
 62
     0
370
    -2
100
AcDbLine
 10
0.0
 20
0.0
 30
0.0
 11
-0.9659258262890683
 21
-0.2588190451025207
 31
0.0
  0
ENDBLK
  5
48
330
46
100
AcDbEntity
  8
0
100
AcDbBlockEnd
  0
BLOCK
  5
4D
330
4C
100
AcDbEntity
  8
0
100
AcDbBlockBegin
  2
FXTIP_BLACKDOT_S
 70
     0
 10
0.0
 20
0.0
 30
0.0
  3
FXTIP_BLACKDOT_S
  1

  0
LINE
  5
4F
330
4C
100
AcDbEntity
  8
0
  6
Continuous
 62
     0
370
    -2
100
AcDbLine
 10
0.0
 20
0.0
 30
0.0
 11
-1.0
 21
0.0000000000000001
 31
0.0
  0
LWPOLYLINE
  5
50
330
4C
100
AcDbEntity
  8
0
  6
Continuous
 62
     0
370
    -2
100
AcDbPolyline
 90
        2
 70
     1
 10
-0.25
 20
0.0
 40
0.5
 41
0.5
 42
1.0
 10
0.25
 20
0.0
 40
0.5
 41
0.5
 42
1.0
  0
CIRCLE
  5
51
330
4C
100
AcDbEntity
  8
0
  6
Continuous
 62
     0
370
    -2
100
AcDbCircle
 10
0.0
 20
0.0
 30
0.0
 40
0.5
  0
ENDBLK
  5
4E
330
4C
100
AcDbEntity
  8
0
100
AcDbBlockEnd
  0
BLOCK
  5
53
330
52
100
AcDbEntity
  8
0
100
AcDbBlockBegin
  2
FXTIP_BLACKDOT_E
 70
     0
 10
0.0
 20
0.0
 30
0.0
  3
FXTIP_BLACKDOT_E
  1

  0
LINE
  5
55
330
52
100
AcDbEntity
  8
0
  6
Continuous
 62
     0
370
    -2
100
AcDbLine
 10
0.0
 20
0.0
 30
0.0
 11
-1.0
 21
0.0
 31
0.0
  0
LWPOLYLINE
  5
56
330
52
100
AcDbEntity
  8
0
  6
Continuous
 62
     0
370
    -2
100
AcDbPolyline
 90
        2
 70
     1
 10
-0.25
 20
0.0
 40
0.5
 41
0.5
 42
1.0
 10
0.25
 20
0.0
 40
0.5
 41
0.5
 42
1.0
  0
CIRCLE
  5
57
330
52
100
AcDbEntity
  8
0
  6
Continuous
 62
     0
370
    -2
100
AcDbCircle
 10
0.0
 20
0.0
 30
0.0
 40
0.5
  0
ENDBLK
  5
54
330
52
100
AcDbEntity
  8
0
100
AcDbBlockEnd
  0
BLOCK
  5
59
330
58
100
AcDbEntity
  8
0
100
AcDbBlockBegin
  2
FXTIP_TRIANGLE_S
 70
     0
 10
0.0
 20
0.0
 30
0.0
  3
FXTIP_TRIANGLE_S
  1

  0
LINE
  5
5B
330
58
100
AcDbEntity
  8
0
  6
Continuous
 62
     0
370
    -2
100
AcDbLine
 10
0.0
 20
0.0
 30
0.0
 11
-1.0
 21
0.0000000000000001
 31
0.0
  0
LINE
  5
5C
330
58
100
AcDbEntity
  8
0
  6
Continuous
 62
     0
370
    -2
100
AcDbLine
 10
0.0
 20
0.0
 30
0.0
 11
-0.9659258262890683
 21
-0.2588190451025206
 31
0.0
  0
LINE
  5
5D
330
58
100
AcDbEntity
  8
0
  6
Continuous
 62
     0
370
    -2
100
AcDbLine
 10
0.0
 20
0.0
 30
0.0
 11
-0.9659258262890683
 21
0.2588190451025209
 31
0.0
  0
LINE
  5
5E
330
58
100
AcDbEntity
  8
0
  6
Continuous
 62
     0
370
    -2
100
AcDbLine
 10
-0.9659258262890683
 20
-0.2588190451025206
 30
0.0
 11
-0.9659258262890683
 21
0.2588190451025209
 31
0.0
  0
ENDBLK
  5
5A
330
58
100
AcDbEntity
  8
0
100
AcDbBlockEnd
  0
BLOCK
  5
60
330
5F
100
AcDbEntity
  8
0
100
AcDbBlockBegin
  2
FXTIP_TRIANGLE_E
 70
     0
 10
0.0
 20
0.0
 30
0.0
  3
FXTIP_TRIANGLE_E
  1

  0
LINE
  5
62
330
5F
100
AcDbEntity
  8
0
  6
Continuous
 62
     0
370
    -2
100
AcDbLine
 10
0.0
 20
0.0
 30
0.0
 11
-1.0
 21
0.0
 31
0.0
  0
LINE
  5
63
330
5F
100
AcDbEntity
  8
0
  6
Continuous
 62
     0
370
    -2
100
AcDbLine
 10
0.0
 20
0.0
 30
0.0
 11
-0.9659258262890683
 21
0.2588190451025207
 31
0.0
  0
LINE
  5
64
330
5F
100
AcDbEntity
  8
0
  6
Continuous
 62
     0
370
    -2
100
AcDbLine
 10
0.0
 20
0.0
 30
0.0
 11
-0.9659258262890683
 21
-0.2588190451025207
 31
0.0
  0
LINE
  5
65
330
5F
100
AcDbEntity
  8
0
  6
Continuous
 62
     0
370
    -2
100
AcDbLine
 10
-0.9659258262890683
 20
0.2588190451025207
 30
0.0
 11
-0.9659258262890683
 21
-0.2588190451025207
 31
0.0
  0
ENDBLK
  5
61
330
5F
100
AcDbEntity
  8
0
100
AcDbBlockEnd
  0
BLOCK
  5
67
330
66
100
AcDbEntity
  8
0
100
AcDbBlockBegin
  2
FXTIP_ARCHITECT_S
 70
     0
 10
0.0
 20
0.0
 30
0.0
  3
FXTIP_ARCHITECT_S
  1

  0
LINE
  5
69
330
66
100
AcDbEntity
  8
0
  6
Continuous
 62
     0
370
    -2
100
AcDbLine
 10
0.0
 20
0.0
 30
0.0
 11
-1.0
 21
0.0000000000000001
 31
0.0
  0
LINE
  5
6A
330
66
100
AcDbEntity
  8
0
  6
Continuous
 62
     0
370
    -2
100
AcDbLine
 10
0.0
 20
0.0
 30
0.0
 11
-0.7071067811865476
 21
-0.7071067811865474
 31
0.0
  0
LINE
  5
6B
330
66
100
AcDbEntity
  8
0
  6
Continuous
 62
     0
370
    -2
100
AcDbLine
 10
0.0
 20
0.0
 30
0.0
 11
0.7071067811865476
 21
0.7071067811865474
 31
0.0
  0
ENDBLK
  5
68
330
66
100
AcDbEntity
  8
0
100
AcDbBlockEnd
  0
BLOCK
  5
6D
330
6C
100
AcDbEntity
  8
0
100
AcDbBlockBegin
  2
FXTIP_ARCHITECT_E
 70
     0
 10
0.0
 20
0.0
 30
0.0
  3
FXTIP_ARCHITECT_E
  1

  0
LINE
  5
6F
330
6C
100
AcDbEntity
  8
0
  6
Continuous
 62
     0
370
    -2
100
AcDbLine
 10
0.0
 20
0.0
 30
0.0
 11
-1.0
 21
0.0
 31
0.0
  0
LINE
  5
70
330
6C
100
AcDbEntity
  8
0
  6
Continuous
 62
     0
370
    -2
100
AcDbLine
 10
0.0
 20
0.0
 30
0.0
 11
0.7071067811865475
 21
0.7071067811865475
 31
0.0
  0
LINE
  5
71
330
6C
100
AcDbEntity
  8
0
  6
Continuous
 62
     0
370
    -2
100
AcDbLine
 10
0.0
 20
0.0
 30
0.0
 11
-0.7071067811865475
 21
-0.7071067811865475
 31
0.0
  0
ENDBLK
  5
6E
330
6C
100
AcDbEntity
  8
0
100
AcDbBlockEnd
  0
BLOCK
  5
73
330
72
100
AcDbEntity
  8
0
100
AcDbBlockBegin
  2
FXTIP_CIVIL_S
 70
     0
 10
0.0
 20
0.0
 30
0.0
  3
FXTIP_CIVIL_S
  1

  0
LINE
  5
75
330
72
100
AcDbEntity
  8
0
  6
Continuous
 62
     0
370
    -2
100
AcDbLine
 10
0.0
 20
0.0
 30
0.0
 11
-1.0
 21
0.0000000000000002
 31
0.0
  0
LINE
  5
76
330
72
100
AcDbEntity
  8
0
  6
Continuous
 62
     0
370
    -2
100
AcDbLine
 10
0.0
 20
-0.125
 30
0.0
 11
-1.0
 21
-0.1249999999999998
 31
0.0
  0
LINE
  5
77
330
72
100
AcDbEntity
  8
0
  6
Continuous
 62
     0
370
    -2
100
AcDbLine
 10
0.0
 20
-0.25
 30
0.0
 11
-1.0
 21
-0.2499999999999999
 31
0.0
  0
ENDBLK
  5
74
330
72
100
AcDbEntity
  8
0
100
AcDbBlockEnd
  0
BLOCK
  5
79
330
78
100
AcDbEntity
  8
0
100
AcDbBlockBegin
  2
FXTIP_CIVIL_E
 70
     0
 10
0.0
 20
0.0
 30
0.0
  3
FXTIP_CIVIL_E
  1

  0
LINE
  5
7B
330
78
100
AcDbEntity
  8
0
  6
Continuous
 62
     0
370
    -2
100
AcDbLine
 10
0.0
 20
0.0
 30
0.0
 11
-1.0
 21
0.0
 31
0.0
  0
LINE
  5
7C
330
78
100
AcDbEntity
  8
0
  6
Continuous
 62
     0
370
    -2
100
AcDbLine
 10
0.0
 20
0.125
 30
0.0
 11
-1.0
 21
0.125
 31
0.0
  0
LINE
  5
7D
330
78
100
AcDbEntity
  8
0
  6
Continuous
 62
     0
370
    -2
100
AcDbLine
 10
0.0
 20
0.25
 30
0.0
 11
-1.0
 21
0.25
 31
0.0
  0
ENDBLK
  5
7A
330
78
100
AcDbEntity
  8
0
100
AcDbBlockEnd
  0
BLOCK
  5
7F
330
7E
100
AcDbEntity
  8
0
100
AcDbBlockBegin
  2
FXTIP_WHITEDOT_S
 70
     0
 10
0.0
 20
0.0
 30
0.0
  3
FXTIP_WHITEDOT_S
  1

  0
LINE
  5
81
330
7E
100
AcDbEntity
  8
0
  6
Continuous
 62
     0
370
    -2
100
AcDbLine
 10
0.0
 20
0.0
 30
0.0
 11
-1.0
 21
0.0000000000000001
 31
0.0
  0
CIRCLE
  5
82
330
7E
100
AcDbEntity
  8
0
  6
Continuous
 62
     0
370
    -2
100
AcDbCircle
 10
0.0
 20
0.0
 30
0.0
 40
0.5
  0
ENDBLK
  5
80
330
7E
100
AcDbEntity
  8
0
100
AcDbBlockEnd
  0
BLOCK
  5
84
330
83
100
AcDbEntity
  8
0
100
AcDbBlockBegin
  2
FXTIP_WHITEDOT_E
 70
     0
 10
0.0
 20
0.0
 30
0.0
  3
FXTIP_WHITEDOT_E
  1

  0
LINE
  5
86
330
83
100
AcDbEntity
  8
0
  6
Continuous
 62
     0
370
    -2
100
AcDbLine
 10
0.0
 20
0.0
 30
0.0
 11
-1.0
 21
0.0
 31
0.0
  0
CIRCLE
  5
87
330
83
100
AcDbEntity
  8
0
  6
Continuous
 62
     0
370
    -2
100
AcDbCircle
 10
0.0
 20
0.0
 30
0.0
 40
0.5
  0
ENDBLK
  5
85
330
83
100
AcDbEntity
  8
0
100
AcDbBlockEnd
  0
BLOCK
  5
89
330
88
100
AcDbEntity
  8
0
100
AcDbBlockBegin
  2
FXTIP_UPARROW_S
 70
     0
 10
0.0
 20
0.0
 30
0.0
  3
FXTIP_UPARROW_S
  1

  0
LINE
  5
8B
330
88
100
AcDbEntity
  8
0
  6
Continuous
 62
     0
370
    -2
100
AcDbLine
 10
0.0
 20
0.0
 30
0.0
 11
-1.0
 21
0.0000000000000001
 31
0.0
  0
LINE
  5
8C
330
88
100
AcDbEntity
  8
0
  6
Continuous
 62
     0
370
    -2
100
AcDbLine
 10
0.0
 20
0.0
 30
0.0
 11
-0.9659258262890683
 21
-0.2588190451025206
 31
0.0
  0
ENDBLK
  5
8A
330
88
100
AcDbEntity
  8
0
100
AcDbBlockEnd
  0
BLOCK
  5
8E
330
8D
100
AcDbEntity
  8
0
100
AcDbBlockBegin
  2
FXTIP_UPARROW_E
 70
     0
 10
0.0
 20
0.0
 30
0.0
  3
FXTIP_UPARROW_E
  1

  0
LINE
  5
90
330
8D
100
AcDbEntity
  8
0
  6
Continuous
 62
     0
370
    -2
100
AcDbLine
 10
0.0
 20
0.0
 30
0.0
 11
-1.0
 21
0.0
 31
0.0
  0
LINE
  5
91
330
8D
100
AcDbEntity
  8
0
  6
Continuous
 62
     0
370
    -2
100
AcDbLine
 10
0.0
 20
0.0
 30
0.0
 11
-0.9659258262890683
 21
0.2588190451025207
 31
0.0
  0
ENDBLK
  5
8F
330
8D
100
AcDbEntity
  8
0
100
AcDbBlockEnd
  0
BLOCK
  5
93
330
92
100
AcDbEntity
  8
0
100
AcDbBlockBegin
  2
FXTIP_DOWNARROW_S
 70
     0
 10
0.0
 20
0.0
 30
0.0
  3
FXTIP_DOWNARROW_S
  1

  0
LINE
  5
95
330
92
100
AcDbEntity
  8
0
  6
Continuous
 62
     0
370
    -2
100
AcDbLine
 10
0.0
 20
0.0
 30
0.0
 11
-1.0
 21
0.0000000000000001
 31
0.0
  0
LINE
  5
96
330
92
100
AcDbEntity
  8
0
  6
Continuous
 62
     0
370
    -2
100
AcDbLine
 10
0.0
 20
0.0
 30
0.0
 11
-0.9659258262890683
 21
0.2588190451025209
 31
0.0
  0
ENDBLK
  5
94
330
92
100
AcDbEntity
  8
0
100
AcDbBlockEnd
  0
BLOCK
  5
98
330
97
100
AcDbEntity
  8
0
100
AcDbBlockBegin
  2
FXTIP_DOWNARROW_E
 70
     0
 10
0.0
 20
0.0
 30
0.0
  3
FXTIP_DOWNARROW_E
  1

  0
LINE
  5
9A
330
97
100
AcDbEntity
  8
0
  6
Continuous
 62
     0
370
    -2
100
AcDbLine
 10
0.0
 20
0.0
 30
0.0
 11
-1.0
 21
0.0
 31
0.0
  0
LINE
  5
9B
330
97
100
AcDbEntity
  8
0
  6
Continuous
 62
     0
370
    -2
100
AcDbLine
 10
0.0
 20
0.0
 30
0.0
 11
-0.9659258262890683
 21
-0.2588190451025207
 31
0.0
  0
ENDBLK
  5
99
330
97
100
AcDbEntity
  8
0
100
AcDbBlockEnd
  0
BLOCK
  5
9D
330
9C
100
AcDbEntity
  8
0
100
AcDbBlockBegin
  2
FXTIP_BLACKTRIANGLE_S
 70
     0
 10
0.0
 20
0.0
 30
0.0
  3
FXTIP_BLACKTRIANGLE_S
  1

  0
LINE
  5
9F
330
9C
100
AcDbEntity
  8
0
  6
Continuous
 62
     0
370
    -2
100
AcDbLine
 10
0.0
 20
0.0
 30
0.0
 11
-1.0
 21
0.0000000000000001
 31
0.0
  0
SOLID
  5
A0
330
9C
100
AcDbEntity
  8
0
  6
Continuous
 62
     0
370
    -2
100
AcDbTrace
 10
0.0
 20
0.0
 30
0.0
 11
-0.9659258262890683
 21
-0.2588190451025206
 31
0.0
 12
-0.9659258262890683
 22
0.2588190451025209
 32
0.0
 13
-0.9659258262890683
 23
0.2588190451025209
 33
0.0
  0
ENDBLK
  5
9E
330
9C
100
AcDbEntity
  8
0
100
AcDbBlockEnd
  0
BLOCK
  5
A2
330
A1
100
AcDbEntity
  8
0
100
AcDbBlockBegin
  2
FXTIP_BLACKTRIANGLE_E
 70
     0
 10
0.0
 20
0.0
 30
0.0
  3
FXTIP_BLACKTRIANGLE_E
  1

  0
LINE
  5
A4
330
A1
100
AcDbEntity
  8
0
  6
Continuous
 62
     0
370
    -2
100
AcDbLine
 10
0.0
 20
0.0
 30
0.0
 11
-1.0
 21
0.0
 31
0.0
  0
SOLID
  5
A5
330
A1
100
AcDbEntity
  8
0
  6
Continuous
 62
     0
370
    -2
100
AcDbTrace
 10
0.0
 20
0.0
 30
0.0
 11
-0.9659258262890683
 21
0.2588190451025207
 31
0.0
 12
-0.9659258262890683
 22
-0.2588190451025207
 32
0.0
 13
-0.9659258262890683
 23
-0.2588190451025207
 33
0.0
  0
ENDBLK
  5
A3
330
A1
100
AcDbEntity
  8
0
100
AcDbBlockEnd
  0
BLOCK
  5
16F
330
16E
100
AcDbEntity
  8
0
100
AcDbBlockBegin
  2
BLKF022
 70
     0
 10
0.0
 20
0.0
 30
0.0
  3
BLKF022
  1

  0
LINE
  5
172
330
16E
100
AcDbEntity
  8
0
  6
ByBlock
 62
     0
370
    -2
100
AcDbLine
 10
-305.5510232058209
 20
123.8777491228157
 30
0.0
 11
-304.3889169183745
 21
122.7156428353693
 31
0.0
  0
LINE
  5
173
330
16E
100
AcDbEntity
  8
0
  6
ByBlock
 62
     0
370
    -2
100
AcDbLine
 10
-306.3995513769623
 20
123.0292209516744
 30
0.0
 11
-305.2374450895159
 21
121.867114664228
 31
0.0
  0
LINE
  5
174
330
16E
100
AcDbEntity
  8
0
  6
ByBlock
 62
     0
370
    -2
100
AcDbLine
 10
-299.0763762901701
 20
115.7060458648822
 30
0.0
 11
-297.9142700027237
 21
114.5439395774358
 31
0.0
  0
LINE
  5
175
330
16E
100
AcDbEntity
  8
0
  6
ByBlock
 62
     0
370
    -2
100
AcDbLine
 10
-298.2278481190287
 20
116.5545740360235
 30
0.0
 11
-297.0657418315823
 21
115.3924677485771
 31
0.0
  0
LINE
  5
176
330
16E
100
AcDbEntity
  8
0
  6
ByBlock
 62
     0
370
    -2
100
AcDbLine
 10
-304.3858331177627
 20
121.0155026924748
 30
0.0
 11
-302.156910689843
 21
118.7865802645551
 31
0.0
  0
LINE
  5
177
330
16E
100
AcDbEntity
  8
0
  6
ByBlock
 62
     0
370
    -2
100
AcDbLine
 10
-303.5373049466214
 20
121.8640308636161
 30
0.0
 11
-301.3083825187016
 21
119.6351084356964
 31
0.0
  0
ARC
  5
178
330
16E
100
AcDbEntity
  8
0
  6
ByBlock
 62
     0
370
    -2
100
AcDbCircle
 10
-300.0355902619896
 20
120.9079006924084
 30
0.0
 40
2.400000095367432
100
AcDbArc
 50
351.0083244979106
 51
98.99167550208891
  0
ARC
  5
179
330
16E
100
AcDbEntity
  8
0
  6
ByBlock
 62
     0
370
    -2
100
AcDbCircle
 10
-300.0355902619896
 20
120.9079006924084
 30
0.0
 40
3.599999904632568
100
AcDbArc
 50
351.0083244979111
 51
98.99167550208871
  0
ARC
  5
17A
330
16E
100
AcDbEntity
  8
0
  6
ByBlock
 62
     0
370
    -2
100
AcDbCircle
 10
-303.429702946555
 20
117.5137880078431
 30
0.0
 40
2.400000095367432
100
AcDbArc
 50
171.0083295068679
 51
278.9916805110449
  0
ARC
  5
17B
330
16E
100
AcDbEntity
  8
0
  6
ByBlock
 62
     0
370
    -2
100
AcDbCircle
 10
-303.429702946555
 20
117.5137880078431
 30
0.0
 40
3.599999904632568
100
AcDbArc
 50
171.0083295068673
 51
278.9916805110446
  0
ARC
  5
17C
330
16E
100
AcDbEntity
  8
0
  6
ByBlock
 62
     0
370
    -2
100
AcDbCircle
 10
-299.3975625026872
 20
116.8757602485407
 30
0.0
 40
7.682307720184326
100
AcDbArc
 50
98.99167550208851
 51
130.5205527109195
  0
ARC
  5
17D
330
16E
100
AcDbEntity
  8
0
  6
ByBlock
 62
     0
370
    -2
100
AcDbCircle
 10
-299.3975625026872
 20
116.8757602485407
 30
0.0
 40
6.482307910919189
100
AcDbArc
 50
98.99167550208857
 51
129.6891206134428
  0
ARC
  5
17E
330
16E
100
AcDbEntity
  8
0
  6
ByBlock
 62
     0
370
    -2
100
AcDbCircle
 10
-304.0677307058574
 20
121.5459284517108
 30
0.0
 40
6.482307910919189
100
AcDbArc
 50
278.9916704931323
 51
351.0083244979115
  0
ARC
  5
17F
330
16E
100
AcDbEntity
  8
0
  6
ByBlock
 62
     0
370
    -2
100
AcDbCircle
 10
-304.0677307058574
 20
121.5459284517108
 30
0.0
 40
7.682307720184326
100
AcDbArc
 50
278.9916704931321
 51
310.5205477019632
  0
ARC
  5
180
330
16E
100
AcDbEntity
  8
0
  6
ByBlock
 62
     0
370
    -2
100
AcDbCircle
 10
-305.6570893747275
 20
123.135287120581
 30
0.0
 40
0.75
100
AcDbArc
 50
81.86989730957698
 51
188.130097454091
  0
ARC
  5
181
330
16E
100
AcDbEntity
  8
0
  6
ByBlock
 62
     0
370
    -2
100
AcDbCircle
 10
-302.0508446473769
 20
119.5290423932303
 30
0.0
 40
0.75
100
AcDbArc
 50
261.8699025459067
 51
8.130102690420866
  0
ARC
  5
182
330
16E
100
AcDbEntity
  8
0
  6
ByBlock
 62
     0
370
    -2
100
AcDbCircle
 10
-297.8082038338171
 20
115.2864015796705
 30
0.0
 40
0.75
100
AcDbArc
 50
261.8699025459067
 51
8.130102690420866
  0
ARC
  5
183
330
16E
100
AcDbEntity
  8
0
  6
ByBlock
 62
     0
370
    -2
100
AcDbCircle
 10
-299.3975625026872
 20
116.8757602485407
 30
0.0
 40
6.482307910919189
100
AcDbArc
 50
140.3108775653244
 51
171.0083295068676
  0
ARC
  5
184
330
16E
100
AcDbEntity
  8
0
  6
ByBlock
 62
     0
370
    -2
100
AcDbCircle
 10
-299.3975625026872
 20
116.8757602485407
 30
0.0
 40
7.682307720184326
100
AcDbArc
 50
139.479452298037
 51
171.0083295068678
  0
ARC
  5
185
330
16E
100
AcDbEntity
  8
0
  6
ByBlock
 62
     0
370
    -2
100
AcDbCircle
 10
-304.0677307058574
 20
121.5459284517108
 30
0.0
 40
7.682307720184326
100
AcDbArc
 50
319.4794472890806
 51
351.0083244979115
  0
ENDBLK
  5
170
330
16E
100
AcDbEntity
  8
0
100
AcDbBlockEnd
  0
BLOCK
  5
187
330
186
100
AcDbEntity
  8
0
100
AcDbBlockBegin
  2
BLKF023
 70
     0
 10
0.0
 20
0.0
 30
0.0
  3
BLKF023
  1

  0
LINE
  5
18A
330
186
100
AcDbEntity
  8
0
  6
ByBlock
 62
     0
370
    -2
100
AcDbLine
 10
-127.5524290978136
 20
123.0213343278938
 30
0.0
 11
-126.3903228103672
 21
121.8592280404474
 31
0.0
  0
LINE
  5
18B
330
186
100
AcDbEntity
  8
0
  6
ByBlock
 62
     0
370
    -2
100
AcDbLine
 10
-128.400957268955
 20
122.1728061567525
 30
0.0
 11
-127.2388509815086
 21
121.0106998693061
 31
0.0
  0
LINE
  5
18C
330
186
100
AcDbEntity
  8
0
  6
ByBlock
 62
     0
370
    -2
100
AcDbLine
 10
-121.0777821821628
 20
114.8496310699603
 30
0.0
 11
-119.9156758947164
 21
113.6875247825139
 31
0.0
  0
LINE
  5
18D
330
186
100
AcDbEntity
  8
0
  6
ByBlock
 62
     0
370
    -2
100
AcDbLine
 10
-120.2292540110215
 20
115.6981592411016
 30
0.0
 11
-119.0671477235751
 21
114.5360529536553
 31
0.0
  0
LINE
  5
18E
330
186
100
AcDbEntity
  8
0
  6
ByBlock
 62
     0
370
    -2
100
AcDbLine
 10
-126.3872390097554
 20
120.1590878975529
 30
0.0
 11
-124.1583165818357
 21
117.9301654696332
 31
0.0
  0
LINE
  5
18F
330
186
100
AcDbEntity
  8
0
  6
ByBlock
 62
     0
370
    -2
100
AcDbLine
 10
-125.5387108386141
 20
121.0076160686943
 30
0.0
 11
-123.3097884106943
 21
118.7786936407745
 31
0.0
  0
ARC
  5
190
330
186
100
AcDbEntity
  8
0
  6
ByBlock
 62
     0
370
    -2
100
AcDbCircle
 10
-122.0369961539823
 20
120.0514858974865
 30
0.0
 40
2.400000095367432
100
AcDbArc
 50
351.0083244979115
 51
98.9916755020885
  0
ARC
  5
191
330
186
100
AcDbEntity
  8
0
  6
ByBlock
 62
     0
370
    -2
100
AcDbCircle
 10
-122.0369961539823
 20
120.0514858974865
 30
0.0
 40
3.599999904632568
100
AcDbArc
 50
351.0083244979111
 51
98.99167550208871
  0
ARC
  5
192
330
186
100
AcDbEntity
  8
0
  6
ByBlock
 62
     0
370
    -2
100
AcDbCircle
 10
-125.4311088385477
 20
116.6573732129212
 30
0.0
 40
2.400000095367432
100
AcDbArc
 50
171.0083295068676
 51
278.9916805110453
  0
ARC
  5
193
330
186
100
AcDbEntity
  8
0
  6
ByBlock
 62
     0
370
    -2
100
AcDbCircle
 10
-125.4311088385477
 20
116.6573732129212
 30
0.0
 40
3.599999904632568
100
AcDbArc
 50
171.0083295068677
 51
278.9916805110451
  0
ARC
  5
194
330
186
100
AcDbEntity
  8
0
  6
ByBlock
 62
     0
370
    -2
100
AcDbCircle
 10
-121.3989683946799
 20
116.0193454536188
 30
0.0
 40
7.682307720184326
100
AcDbArc
 50
98.99167550208864
 51
130.5205527109195
  0
ARC
  5
195
330
186
100
AcDbEntity
  8
0
  6
ByBlock
 62
     0
370
    -2
100
AcDbCircle
 10
-121.3989683946799
 20
116.0193454536188
 30
0.0
 40
6.482307910919189
100
AcDbArc
 50
98.99167550208857
 51
129.6891206134431
  0
ARC
  5
196
330
186
100
AcDbEntity
  8
0
  6
ByBlock
 62
     0
370
    -2
100
AcDbCircle
 10
-126.0691365978501
 20
120.689513656789
 30
0.0
 40
6.482307910919189
100
AcDbArc
 50
278.9916704931323
 51
351.0083244979115
  0
ARC
  5
197
330
186
100
AcDbEntity
  8
0
  6
ByBlock
 62
     0
370
    -2
100
AcDbCircle
 10
-126.0691365978501
 20
120.689513656789
 30
0.0
 40
7.682307720184326
100
AcDbArc
 50
278.9916704931323
 51
310.5205477019632
  0
ARC
  5
198
330
186
100
AcDbEntity
  8
0
  6
ByBlock
 62
     0
370
    -2
100
AcDbCircle
 10
-127.6584952667203
 20
122.2788723256591
 30
0.0
 40
0.75
100
AcDbArc
 50
81.86989730957805
 51
188.1300974540933
  0
ARC
  5
199
330
186
100
AcDbEntity
  8
0
  6
ByBlock
 62
     0
370
    -2
100
AcDbCircle
 10
-124.0522505393696
 20
118.6726275983085
 30
0.0
 40
0.75
100
AcDbArc
 50
261.8699025459067
 51
8.130102690420866
  0
ARC
  5
19A
330
186
100
AcDbEntity
  8
0
  6
ByBlock
 62
     0
370
    -2
100
AcDbCircle
 10
-119.8096097258098
 20
114.4299867847486
 30
0.0
 40
0.75
100
AcDbArc
 50
261.8699025459067
 51
8.130102690420866
  0
ARC
  5
19B
330
186
100
AcDbEntity
  8
0
  6
ByBlock
 62
     0
370
    -2
100
AcDbCircle
 10
-121.3989683946799
 20
116.0193454536188
 30
0.0
 40
6.482307910919189
100
AcDbArc
 50
140.3108775653241
 51
171.0083295068677
  0
ARC
  5
19C
330
186
100
AcDbEntity
  8
0
  6
ByBlock
 62
     0
370
    -2
100
AcDbCircle
 10
-121.3989683946799
 20
116.0193454536188
 30
0.0
 40
7.682307720184326
100
AcDbArc
 50
139.4794522980368
 51
171.0083295068677
  0
ARC
  5
19D
330
186
100
AcDbEntity
  8
0
  6
ByBlock
 62
     0
370
    -2
100
AcDbCircle
 10
-126.0691365978501
 20
120.689513656789
 30
0.0
 40
7.682307720184326
100
AcDbArc
 50
319.4794472890804
 51
351.0083244979113
  0
ENDBLK
  5
188
330
186
100
AcDbEntity
  8
0
100
AcDbBlockEnd
  0
BLOCK
  5
19F
330
19E
100
AcDbEntity
  8
0
100
AcDbBlockBegin
  2
BLKF024
 70
     0
 10
0.0
 20
0.0
 30
0.0
  3
BLKF024
  1

  0
LINE
  5
1A2
330
19E
100
AcDbEntity
  8
0
  6
ByBlock
 62
     0
370
    -2
100
AcDbLine
 10
87.85493257421241
 20
119.5389973896413
 30
0.0
 11
89.3075651806393
 21
118.0863647832144
 31
0.0
  0
LINE
  5
1A3
330
19E
100
AcDbEntity
  8
0
  6
ByBlock
 62
     0
370
    -2
100
AcDbLine
 10
86.79427240243258
 20
118.4783372178615
 30
0.0
 11
88.24690500885949
 21
117.0257046114346
 31
0.0
  0
LINE
  5
1A4
330
19E
100
AcDbEntity
  8
0
  6
ByBlock
 62
     0
370
    -2
100
AcDbLine
 10
95.94824151380391
 20
109.3243681064902
 30
0.0
 11
97.4008741202308
 21
107.8717355000633
 31
0.0
  0
LINE
  5
1A5
330
19E
100
AcDbEntity
  8
0
  6
ByBlock
 62
     0
370
    -2
100
AcDbLine
 10
97.00890168558372
 20
110.38502827827
 30
0.0
 11
98.46153429201063
 21
108.9323956718431
 31
0.0
  0
LINE
  5
1A6
330
19E
100
AcDbEntity
  8
0
  6
ByBlock
 62
     0
370
    -2
100
AcDbLine
 10
89.31142009999151
 20
115.9611895203026
 30
0.0
 11
92.09757326133169
 21
113.1750363589624
 31
0.0
  0
LINE
  5
1A7
330
19E
100
AcDbEntity
  8
0
  6
ByBlock
 62
     0
370
    -2
100
AcDbLine
 10
90.37208027177132
 20
117.0218496920824
 30
0.0
 11
93.15823343311152
 21
114.2356965307422
 31
0.0
  0
ARC
  5
1A8
330
19E
100
AcDbEntity
  8
0
  6
ByBlock
 62
     0
370
    -2
100
AcDbCircle
 10
94.74922369078125
 20
115.8266867884119
 30
0.0
 40
3.0
100
AcDbArc
 50
351.0083244979112
 51
98.99167550208871
  0
ARC
  5
1A9
330
19E
100
AcDbEntity
  8
0
  6
ByBlock
 62
     0
370
    -2
100
AcDbCircle
 10
94.74922369078125
 20
115.8266867884119
 30
0.0
 40
4.5
100
AcDbArc
 50
351.0083244979114
 51
98.9916755020886
  0
ARC
  5
1AA
330
19E
100
AcDbEntity
  8
0
  6
ByBlock
 62
     0
370
    -2
100
AcDbCircle
 10
90.50658300366196
 20
111.5840461012927
 30
0.0
 40
3.0
100
AcDbArc
 50
171.0083295068678
 51
278.9916805110448
  0
ARC
  5
1AB
330
19E
100
AcDbEntity
  8
0
  6
ByBlock
 62
     0
370
    -2
100
AcDbCircle
 10
90.50658300366196
 20
111.5840461012927
 30
0.0
 40
4.5
100
AcDbArc
 50
171.0083295068678
 51
278.9916805110451
  0
ARC
  5
1AC
330
19E
100
AcDbEntity
  8
0
  6
ByBlock
 62
     0
370
    -2
100
AcDbCircle
 10
95.54675838990926
 20
110.7865114021646
 30
0.0
 40
9.602884292602539
100
AcDbArc
 50
98.99167550208861
 51
130.5205527109195
  0
ARC
  5
1AD
330
19E
100
AcDbEntity
  8
0
  6
ByBlock
 62
     0
370
    -2
100
AcDbCircle
 10
95.54675838990926
 20
110.7865114021646
 30
0.0
 40
8.102884292602539
100
AcDbArc
 50
98.99167550208857
 51
129.6891206134431
  0
ARC
  5
1AE
330
19E
100
AcDbEntity
  8
0
  6
ByBlock
 62
     0
370
    -2
100
AcDbCircle
 10
89.70904830453395
 20
116.62422148754
 30
0.0
 40
8.102884292602539
100
AcDbArc
 50
278.9916704931323
 51
351.0083244979112
  0
ARC
  5
1AF
330
19E
100
AcDbEntity
  8
0
  6
ByBlock
 62
     0
370
    -2
100
AcDbCircle
 10
89.70904830453395
 20
116.62422148754
 30
0.0
 40
9.602884292602539
100
AcDbArc
 50
278.9916704931323
 51
310.5205477019632
  0
ARC
  5
1B0
330
19E
100
AcDbEntity
  8
0
  6
ByBlock
 62
     0
370
    -2
100
AcDbCircle
 10
87.72235005273993
 20
118.610919739334
 30
0.0
 40
0.9375
100
AcDbArc
 50
81.86989730957772
 51
188.1300974540941
  0
ARC
  5
1B1
330
19E
100
AcDbEntity
  8
0
  6
ByBlock
 62
     0
370
    -2
100
AcDbCircle
 10
92.23015578280418
 20
114.1031140092697
 30
0.0
 40
0.9375
100
AcDbArc
 50
261.8699025459059
 51
8.13010269042229
  0
ARC
  5
1B2
330
19E
100
AcDbEntity
  8
0
  6
ByBlock
 62
     0
370
    -2
100
AcDbCircle
 10
97.53345664170328
 20
108.7998131503706
 30
0.0
 40
0.9375
100
AcDbArc
 50
261.8699025459059
 51
8.13010269042229
  0
ARC
  5
1B3
330
19E
100
AcDbEntity
  8
0
  6
ByBlock
 62
     0
370
    -2
100
AcDbCircle
 10
95.54675838990926
 20
110.7865114021646
 30
0.0
 40
9.602884292602539
100
AcDbArc
 50
139.4794522980368
 51
171.0083295068677
  0
ARC
  5
1B4
330
19E
100
AcDbEntity
  8
0
  6
ByBlock
 62
     0
370
    -2
100
AcDbCircle
 10
95.54675838990926
 20
110.7865114021646
 30
0.0
 40
8.102884292602539
100
AcDbArc
 50
140.3108775653241
 51
171.0083295068678
  0
ARC
  5
1B5
330
19E
100
AcDbEntity
  8
0
  6
ByBlock
 62
     0
370
    -2
100
AcDbCircle
 10
89.70904830453395
 20
116.62422148754
 30
0.0
 40
9.602884292602539
100
AcDbArc
 50
319.4794472890804
 51
351.0083244979113
  0
ENDBLK
  5
1A0
330
19E
100
AcDbEntity
  8
0
100
AcDbBlockEnd
  0
BLOCK
  5
1B7
330
1B6
100
AcDbEntity
  8
0
100
AcDbBlockBegin
  2
BLKF025
 70
     0
 10
0.0
 20
0.0
 30
0.0
  3
BLKF025
  1

  0
LINE
  5
1BA
330
1B6
100
AcDbEntity
  8
0
  6
ByBlock
 62
     0
370
    -2
100
AcDbLine
 10
286.6968648192566
 20
117.6640975851779
 30
0.0
 11
288.4400244190136
 21
115.9209379854209
 31
0.0
  0
LINE
  5
1BB
330
1B6
100
AcDbEntity
  8
0
  6
ByBlock
 62
     0
370
    -2
100
AcDbLine
 10
285.4240726468383
 20
116.3913054127596
 30
0.0
 11
287.1672322465953
 21
114.6481458130026
 31
0.0
  0
LINE
  5
1BC
330
1B6
100
AcDbEntity
  8
0
  6
ByBlock
 62
     0
370
    -2
100
AcDbLine
 10
296.4088351084392
 20
105.4065429511587
 30
0.0
 11
298.1519947081961
 21
103.6633833514017
 31
0.0
  0
LINE
  5
1BD
330
1B6
100
AcDbEntity
  8
0
  6
ByBlock
 62
     0
370
    -2
100
AcDbLine
 10
297.6816272808575
 20
106.679335123577
 30
0.0
 11
299.4247868806145
 21
104.93617552382
 31
0.0
  0
LINE
  5
1BE
330
1B6
100
AcDbEntity
  8
0
  6
ByBlock
 62
     0
370
    -2
100
AcDbLine
 10
288.4446502885187
 20
113.3707277710791
 30
0.0
 11
291.7880336775172
 21
110.0273443820807
 31
0.0
  0
LINE
  5
1BF
330
1B6
100
AcDbEntity
  8
0
  6
ByBlock
 62
     0
370
    -2
100
AcDbLine
 10
289.717442460937
 20
114.6435199434975
 30
0.0
 11
293.0608258499356
 21
111.300136554499
 31
0.0
  0
ARC
  5
1C0
330
1B6
100
AcDbEntity
  8
0
  6
ByBlock
 62
     0
370
    -2
100
AcDbCircle
 10
294.970014108563
 20
113.2093248131264
 30
0.0
 40
3.599999904632568
100
AcDbArc
 50
351.0083244979111
 51
98.99167550208871
  0
ARC
  5
1C1
330
1B6
100
AcDbEntity
  8
0
  6
ByBlock
 62
     0
370
    -2
100
AcDbCircle
 10
294.970014108563
 20
113.2093248131264
 30
0.0
 40
5.400000095367432
100
AcDbArc
 50
351.0083244979115
 51
98.9916755020885
  0
ARC
  5
1C2
330
1B6
100
AcDbEntity
  8
0
  6
ByBlock
 62
     0
370
    -2
100
AcDbCircle
 10
289.8788454188897
 20
108.1181561234532
 30
0.0
 40
3.599999904632568
100
AcDbArc
 50
171.0083295068673
 51
278.9916805110446
  0
ARC
  5
1C3
330
1B6
100
AcDbEntity
  8
0
  6
ByBlock
 62
     0
370
    -2
100
AcDbCircle
 10
289.8788454188897
 20
108.1181561234532
 30
0.0
 40
5.400000095367432
100
AcDbArc
 50
171.0083295068677
 51
278.9916805110448
  0
ARC
  5
1C4
330
1B6
100
AcDbEntity
  8
0
  6
ByBlock
 62
     0
370
    -2
100
AcDbCircle
 10
295.9270560846914
 20
107.1611141473248
 30
0.0
 40
11.52346134185791
100
AcDbArc
 50
98.99167550208877
 51
130.5205527109195
  0
ARC
  5
1C5
330
1B6
100
AcDbEntity
  8
0
  6
ByBlock
 62
     0
370
    -2
100
AcDbCircle
 10
295.9270560846914
 20
107.1611141473248
 30
0.0
 40
9.723461151123047
100
AcDbArc
 50
98.99167550208887
 51
129.6891206134432
  0
ARC
  5
1C6
330
1B6
100
AcDbEntity
  8
0
  6
ByBlock
 62
     0
370
    -2
100
AcDbCircle
 10
288.9218034427614
 20
114.1663667892548
 30
0.0
 40
9.723461151123047
100
AcDbArc
 50
278.9916704931322
 51
351.0083244979111
  0
ARC
  5
1C7
330
1B6
100
AcDbEntity
  8
0
  6
ByBlock
 62
     0
370
    -2
100
AcDbCircle
 10
288.9218034427614
 20
114.1663667892548
 30
0.0
 40
11.52346134185791
100
AcDbArc
 50
278.9916704931323
 51
310.5205477019631
  0
ARC
  5
1C8
330
1B6
100
AcDbEntity
  8
0
  6
ByBlock
 62
     0
370
    -2
100
AcDbCircle
 10
286.5377659452183
 20
116.5504042867979
 30
0.0
 40
1.125
100
AcDbArc
 50
81.8698973095813
 51
188.130097454091
  0
ARC
  5
1C9
330
1B6
100
AcDbEntity
  8
0
  6
ByBlock
 62
     0
370
    -2
100
AcDbCircle
 10
291.9471326779961
 20
111.1410375540201
 30
0.0
 40
1.125
100
AcDbArc
 50
261.8699025459096
 51
8.130102690419442
  0
ARC
  5
1CA
330
1B6
100
AcDbEntity
  8
0
  6
ByBlock
 62
     0
370
    -2
100
AcDbCircle
 10
298.3110935822345
 20
104.7770766497817
 30
0.0
 40
1.125
100
AcDbArc
 50
261.8699025459096
 51
8.130102690419442
  0
ARC
  5
1CB
330
1B6
100
AcDbEntity
  8
0
  6
ByBlock
 62
     0
370
    -2
100
AcDbCircle
 10
295.9270560846914
 20
107.1611141473248
 30
0.0
 40
11.52346134185791
100
AcDbArc
 50
139.4794522980369
 51
171.0083295068676
  0
ARC
  5
1CC
330
1B6
100
AcDbEntity
  8
0
  6
ByBlock
 62
     0
370
    -2
100
AcDbCircle
 10
295.9270560846914
 20
107.1611141473248
 30
0.0
 40
9.723461151123047
100
AcDbArc
 50
140.3108775653241
 51
171.0083295068678
  0
ARC
  5
1CD
330
1B6
100
AcDbEntity
  8
0
  6
ByBlock
 62
     0
370
    -2
100
AcDbCircle
 10
288.9218034427614
 20
114.1663667892548
 30
0.0
 40
11.52346134185791
100
AcDbArc
 50
319.4794472890805
 51
351.0083244979113
  0
ENDBLK
  5
1B8
330
1B6
100
AcDbEntity
  8
0
100
AcDbBlockEnd
  0
BLOCK
  5
1CF
330
1CE
100
AcDbEntity
  8
0
100
AcDbBlockBegin
  2
BLKF026
 70
     0
 10
0.0
 20
0.0
 30
0.0
  3
BLKF026
  1

  0
LINE
  5
1D2
330
1CE
100
AcDbEntity
  8
0
  6
ByBlock
 62
     0
370
    -2
100
AcDbLine
 10
-253.510056303682
 20
-138.3722230130051
 30
0.0
 11
-251.7668967039251
 21
-140.1153826127621
 31
0.0
  0
LINE
  5
1D3
330
1CE
100
AcDbEntity
  8
0
  6
ByBlock
 62
     0
370
    -2
100
AcDbLine
 10
-254.7828484761003
 20
-139.6450151854234
 30
0.0
 11
-253.0396888763433
 21
-141.3881747851804
 31
0.0
  0
LINE
  5
1D4
330
1CE
100
AcDbEntity
  8
0
  6
ByBlock
 62
     0
370
    -2
100
AcDbLine
 10
-243.7980860144995
 20
-150.6297776470242
 30
0.0
 11
-242.0549264147425
 21
-152.3729372467812
 31
0.0
  0
LINE
  5
1D5
330
1CE
100
AcDbEntity
  8
0
  6
ByBlock
 62
     0
370
    -2
100
AcDbLine
 10
-242.5252938420812
 20
-149.3569854746059
 30
0.0
 11
-240.7821342423242
 21
-151.1001450743629
 31
0.0
  0
LINE
  5
1D6
330
1CE
100
AcDbEntity
  8
0
  6
ByBlock
 62
     0
370
    -2
100
AcDbLine
 10
-251.7622708344199
 20
-142.6655928271038
 30
0.0
 11
-248.4188874454214
 21
-146.0089762161023
 31
0.0
  0
LINE
  5
1D7
330
1CE
100
AcDbEntity
  8
0
  6
ByBlock
 62
     0
370
    -2
100
AcDbLine
 10
-250.4894786620016
 20
-141.3928006546855
 30
0.0
 11
-247.1460952730031
 21
-144.736184043684
 31
0.0
  0
ARC
  5
1D8
330
1CE
100
AcDbEntity
  8
0
  6
ByBlock
 62
     0
370
    -2
100
AcDbCircle
 10
-245.2369070143756
 20
-142.8269957850565
 30
0.0
 40
3.599999904632568
100
AcDbArc
 50
351.0083244979113
 51
98.99167550208871
  0
ARC
  5
1D9
330
1CE
100
AcDbEntity
  8
0
  6
ByBlock
 62
     0
370
    -2
100
AcDbCircle
 10
-245.2369070143756
 20
-142.8269957850565
 30
0.0
 40
5.400000095367432
100
AcDbArc
 50
351.0083244979112
 51
98.99167550208881
  0
ARC
  5
1DA
330
1CE
100
AcDbEntity
  8
0
  6
ByBlock
 62
     0
370
    -2
100
AcDbCircle
 10
-250.3280757040489
 20
-147.9181644747298
 30
0.0
 40
3.599999904632568
100
AcDbArc
 50
171.0083295068677
 51
278.9916805110451
  0
ARC
  5
1DB
330
1CE
100
AcDbEntity
  8
0
  6
ByBlock
 62
     0
370
    -2
100
AcDbCircle
 10
-250.3280757040489
 20
-147.9181644747298
 30
0.0
 40
5.400000095367432
100
AcDbArc
 50
171.0083295068678
 51
278.9916805110448
  0
ARC
  5
1DC
330
1CE
100
AcDbEntity
  8
0
  6
ByBlock
 62
     0
370
    -2
100
AcDbCircle
 10
-244.2798650382472
 20
-148.8752064508582
 30
0.0
 40
11.52346134185791
100
AcDbArc
 50
98.99167550208864
 51
130.5205527109196
  0
ARC
  5
1DD
330
1CE
100
AcDbEntity
  8
0
  6
ByBlock
 62
     0
370
    -2
100
AcDbCircle
 10
-244.2798650382472
 20
-148.8752064508582
 30
0.0
 40
9.723461151123047
100
AcDbArc
 50
98.99167550208854
 51
129.6891206134429
  0
ARC
  5
1DE
330
1CE
100
AcDbEntity
  8
0
  6
ByBlock
 62
     0
370
    -2
100
AcDbCircle
 10
-251.2851176801773
 20
-141.8699538089281
 30
0.0
 40
9.723461151123047
100
AcDbArc
 50
278.9916704931322
 51
351.0083244979115
  0
ARC
  5
1DF
330
1CE
100
AcDbEntity
  8
0
  6
ByBlock
 62
     0
370
    -2
100
AcDbCircle
 10
-251.2851176801773
 20
-141.8699538089281
 30
0.0
 40
11.52346134185791
100
AcDbArc
 50
278.9916704931323
 51
310.5205477019632
  0
ARC
  5
1E0
330
1CE
100
AcDbEntity
  8
0
  6
ByBlock
 62
     0
370
    -2
100
AcDbCircle
 10
-253.6691551777203
 20
-139.4859163113851
 30
0.0
 40
1.125
100
AcDbArc
 50
81.8698973095784
 51
188.1300974540948
  0
ARC
  5
1E1
330
1CE
100
AcDbEntity
  8
0
  6
ByBlock
 62
     0
370
    -2
100
AcDbCircle
 10
-248.2597884449426
 20
-144.8952830441629
 30
0.0
 40
1.125
100
AcDbArc
 50
261.8699025459052
 51
8.13010269042163
  0
ARC
  5
1E2
330
1CE
100
AcDbEntity
  8
0
  6
ByBlock
 62
     0
370
    -2
100
AcDbCircle
 10
-241.8958275407042
 20
-151.2592439484012
 30
0.0
 40
1.125
100
AcDbArc
 50
261.8699025459052
 51
8.13010269042163
  0
ARC
  5
1E3
330
1CE
100
AcDbEntity
  8
0
  6
ByBlock
 62
     0
370
    -2
100
AcDbCircle
 10
-244.2798650382472
 20
-148.8752064508582
 30
0.0
 40
11.52346134185791
100
AcDbArc
 50
139.4794522980368
 51
171.0083295068677
  0
ARC
  5
1E4
330
1CE
100
AcDbEntity
  8
0
  6
ByBlock
 62
     0
370
    -2
100
AcDbCircle
 10
-244.2798650382472
 20
-148.8752064508582
 30
0.0
 40
9.723461151123047
100
AcDbArc
 50
140.3108775653241
 51
171.0083295068678
  0
ARC
  5
1E5
330
1CE
100
AcDbEntity
  8
0
  6
ByBlock
 62
     0
370
    -2
100
AcDbCircle
 10
-251.2851176801773
 20
-141.8699538089281
 30
0.0
 40
11.52346134185791
100
AcDbArc
 50
319.4794472890804
 51
351.0083244979113
  0
ENDBLK
  5
1D0
330
1CE
100
AcDbEntity
  8
0
100
AcDbBlockEnd
  0
BLOCK
  5
1E7
330
1E6
100
AcDbEntity
  8
0
100
AcDbBlockBegin
  2
BLKF027
 70
     0
 10
0.0
 20
0.0
 30
0.0
  3
BLKF027
  1

  0
LINE
  5
1EA
330
1E6
100
AcDbEntity
  8
0
  6
ByBlock
 62
     0
370
    -2
100
AcDbLine
 10
77.50361868171447
 20
-138.3641436406964
 30
0.0
 11
79.24677828147145
 21
-140.1073032404533
 31
0.0
  0
LINE
  5
1EB
330
1E6
100
AcDbEntity
  8
0
  6
ByBlock
 62
     0
370
    -2
100
AcDbLine
 10
76.23082650929616
 20
-139.6369358131147
 30
0.0
 11
77.97398610905314
 21
-141.3800954128716
 31
0.0
  0
LINE
  5
1EC
330
1E6
100
AcDbEntity
  8
0
  6
ByBlock
 62
     0
370
    -2
100
AcDbLine
 10
87.21558897089704
 20
-150.6216982747155
 30
0.0
 11
88.95874857065402
 21
-152.3648578744725
 31
0.0
  0
LINE
  5
1ED
330
1E6
100
AcDbEntity
  8
0
  6
ByBlock
 62
     0
370
    -2
100
AcDbLine
 10
88.48838114331535
 20
-149.3489061022972
 30
0.0
 11
90.23154074307233
 21
-151.0920657020542
 31
0.0
  0
LINE
  5
1EE
330
1E6
100
AcDbEntity
  8
0
  6
ByBlock
 62
     0
370
    -2
100
AcDbLine
 10
79.25140415097661
 20
-142.6575134547951
 30
0.0
 11
82.59478753997509
 21
-146.0008968437936
 31
0.0
  0
LINE
  5
1EF
330
1E6
100
AcDbEntity
  8
0
  6
ByBlock
 62
     0
370
    -2
100
AcDbLine
 10
80.52419632339492
 20
-141.3847212823768
 30
0.0
 11
83.86757971239341
 21
-144.7281046713753
 31
0.0
  0
ARC
  5
1F0
330
1E6
100
AcDbEntity
  8
0
  6
ByBlock
 62
     0
370
    -2
100
AcDbCircle
 10
85.77676797102086
 20
-142.8189164127478
 30
0.0
 40
3.599999904632568
100
AcDbArc
 50
351.0083244979113
 51
98.99167550208871
  0
ARC
  5
1F1
330
1E6
100
AcDbEntity
  8
0
  6
ByBlock
 62
     0
370
    -2
100
AcDbCircle
 10
85.77676797102086
 20
-142.8189164127478
 30
0.0
 40
5.400000095367432
100
AcDbArc
 50
351.0083244979115
 51
98.9916755020886
  0
ARC
  5
1F2
330
1E6
100
AcDbEntity
  8
0
  6
ByBlock
 62
     0
370
    -2
100
AcDbCircle
 10
80.68559928134763
 20
-147.910085102421
 30
0.0
 40
3.599999904632568
100
AcDbArc
 50
171.0083295068677
 51
278.9916805110451
  0
ARC
  5
1F3
330
1E6
100
AcDbEntity
  8
0
  6
ByBlock
 62
     0
370
    -2
100
AcDbCircle
 10
80.68559928134763
 20
-147.910085102421
 30
0.0
 40
5.400000095367432
100
AcDbArc
 50
171.0083295068678
 51
278.9916805110448
  0
ARC
  5
1F4
330
1E6
100
AcDbEntity
  8
0
  6
ByBlock
 62
     0
370
    -2
100
AcDbCircle
 10
86.73380994714925
 20
-148.8671270785495
 30
0.0
 40
11.52346134185791
100
AcDbArc
 50
98.99167550208864
 51
130.5205527109196
  0
ARC
  5
1F5
330
1E6
100
AcDbEntity
  8
0
  6
ByBlock
 62
     0
370
    -2
100
AcDbCircle
 10
86.73380994714925
 20
-148.8671270785495
 30
0.0
 40
9.723461151123047
100
AcDbArc
 50
98.99167550208864
 51
129.6891206134431
  0
ARC
  5
1F6
330
1E6
100
AcDbEntity
  8
0
  6
ByBlock
 62
     0
370
    -2
100
AcDbCircle
 10
79.72855730521924
 20
-141.8618744366194
 30
0.0
 40
9.723461151123047
100
AcDbArc
 50
278.9916704931323
 51
351.0083244979113
  0
ARC
  5
1F7
330
1E6
100
AcDbEntity
  8
0
  6
ByBlock
 62
     0
370
    -2
100
AcDbCircle
 10
79.72855730521924
 20
-141.8618744366194
 30
0.0
 40
11.52346134185791
100
AcDbArc
 50
278.9916704931323
 51
310.5205477019632
  0
ARC
  5
1F8
330
1E6
100
AcDbEntity
  8
0
  6
ByBlock
 62
     0
370
    -2
100
AcDbCircle
 10
77.34451980767615
 20
-139.4778369390764
 30
0.0
 40
1.125
100
AcDbArc
 50
81.8698973095784
 51
188.1300974540949
  0
ARC
  5
1F9
330
1E6
100
AcDbEntity
  8
0
  6
ByBlock
 62
     0
370
    -2
100
AcDbCircle
 10
82.75388654045396
 20
-144.8872036718541
 30
0.0
 40
1.125
100
AcDbArc
 50
261.869902545906
 51
8.13010269042163
  0
ARC
  5
1FA
330
1E6
100
AcDbEntity
  8
0
  6
ByBlock
 62
     0
370
    -2
100
AcDbCircle
 10
89.11784744469234
 20
-151.2511645760925
 30
0.0
 40
1.125
100
AcDbArc
 50
261.869902545906
 51
8.13010269042163
  0
ARC
  5
1FB
330
1E6
100
AcDbEntity
  8
0
  6
ByBlock
 62
     0
370
    -2
100
AcDbCircle
 10
86.73380994714925
 20
-148.8671270785495
 30
0.0
 40
11.52346134185791
100
AcDbArc
 50
139.4794522980368
 51
171.0083295068676
  0
ARC
  5
1FC
330
1E6
100
AcDbEntity
  8
0
  6
ByBlock
 62
     0
370
    -2
100
AcDbCircle
 10
86.73380994714925
 20
-148.8671270785495
 30
0.0
 40
9.723461151123047
100
AcDbArc
 50
140.3108775653241
 51
171.0083295068677
  0
ARC
  5
1FD
330
1E6
100
AcDbEntity
  8
0
  6
ByBlock
 62
     0
370
    -2
100
AcDbCircle
 10
79.72855730521924
 20
-141.8618744366194
 30
0.0
 40
11.52346134185791
100
AcDbArc
 50
319.4794472890804
 51
351.0083244979114
  0
ENDBLK
  5
1E8
330
1E6
100
AcDbEntity
  8
0
100
AcDbBlockEnd
  0
ENDSEC
  0
SECTION
  2
ENTITIES
  0
LINE
  5
AB
330
1F
100
AcDbEntity
  8
PV
  6
一点鎖線
 62
     7
100
AcDbLine
 10
-327.0667530495847
 20
125.7949050190711
 30
0.0
 11
-242.5424164939157
 21
125.7949050190711
 31
0.0
  0
LINE
  5
AC
330
1F
100
AcDbEntity
  8
PV
  6
一点鎖線
 62
     7
100
AcDbLine
 10
-327.0667530495847
 20
125.7949050190711
 30
0.0
 11
-327.0667530495847
 21
49.94020725648259
 31
0.0
  0
LINE
  5
AD
330
1F
100
AcDbEntity
  8
PV
 62
     7
370
    25
100
AcDbLine
 10
-257.0667530495847
 20
156.0449050190711
 30
0.0
 11
-257.0667530495847
 21
95.54490501907107
 31
0.0
  0
LINE
  5
AE
330
1F
100
AcDbEntity
  8
PV
 62
     7
370
    25
100
AcDbLine
 10
-357.3167530495847
 20
55.79490501907107
 30
0.0
 11
-296.8167530495847
 21
55.79490501907107
 31
0.0
  0
LINE
  5
AF
330
1F
100
AcDbEntity
  8
PV
 62
     7
370
    25
100
AcDbLine
 10
-287.0667530495847
 20
156.0449050190711
 30
0.0
 11
-281.7667530495847
 21
156.0449050190711
 31
0.0
  0
LINE
  5
B0
330
1F
100
AcDbEntity
  8
PV
 62
     7
370
    25
100
AcDbLine
 10
-287.0667530495847
 20
95.54490501907107
 30
0.0
 11
-281.7667530495847
 21
95.54490501907107
 31
0.0
  0
LINE
  5
B1
330
1F
100
AcDbEntity
  8
PV
 62
     7
370
    25
100
AcDbLine
 10
-357.3167530495847
 20
85.79490501907107
 30
0.0
 11
-357.3167530495847
 21
80.49490501907107
 31
0.0
  0
LINE
  5
B2
330
1F
100
AcDbEntity
  8
PV
 62
     7
370
    25
100
AcDbLine
 10
-296.8167530495847
 20
85.79490501907107
 30
0.0
 11
-296.8167530495847
 21
80.49490501907107
 31
0.0
  0
LINE
  5
B3
330
1F
100
AcDbEntity
  8
PV
 62
     7
370
    25
100
AcDbLine
 10
-289.0667530495847
 20
154.2449050190711
 30
0.0
 11
-287.0667530495847
 21
154.2449050190711
 31
0.0
  0
LINE
  5
B4
330
1F
100
AcDbEntity
  8
PV
 62
     7
370
    25
100
AcDbLine
 10
-289.0667530495847
 20
97.34490501907106
 30
0.0
 11
-287.0667530495847
 21
97.34490501907106
 31
0.0
  0
LINE
  5
B5
330
1F
100
AcDbEntity
  8
PV
 62
     7
370
    25
100
AcDbLine
 10
-298.6167530495848
 20
87.79490501907107
 30
0.0
 11
-298.6167530495848
 21
85.79490501907107
 31
0.0
  0
LINE
  5
B6
330
1F
100
AcDbEntity
  8
PV
 62
     7
370
    25
100
AcDbLine
 10
-355.5167530495847
 20
87.79490501907107
 30
0.0
 11
-355.5167530495847
 21
85.79490501907107
 31
0.0
  0
LINE
  5
B7
330
1F
100
AcDbEntity
  8
PV
 62
     7
370
    25
100
AcDbLine
 10
-273.0667530495847
 20
156.0449050190711
 30
0.0
 11
-273.0667530495847
 21
95.54490501907107
 31
0.0
  0
LINE
  5
B8
330
1F
100
AcDbEntity
  8
PV
 62
     7
370
    25
100
AcDbLine
 10
-281.7667530495847
 20
156.0449050190711
 30
0.0
 11
-281.7667530495847
 21
95.54490501907107
 31
0.0
  0
LINE
  5
B9
330
1F
100
AcDbEntity
  8
PV
 62
     7
370
    25
100
AcDbLine
 10
-357.3167530495847
 20
71.79490501907107
 30
0.0
 11
-296.8167530495847
 21
71.79490501907107
 31
0.0
  0
LINE
  5
BA
330
1F
100
AcDbEntity
  8
PV
 62
     7
370
    25
100
AcDbLine
 10
-357.3167530495847
 20
80.49490501907107
 30
0.0
 11
-296.8167530495847
 21
80.49490501907107
 31
0.0
  0
LINE
  5
BB
330
1F
100
AcDbEntity
  8
PV
 62
     7
370
    25
100
AcDbLine
 10
-281.7667530495847
 20
97.34490501907106
 30
0.0
 11
-273.0667530495847
 21
97.34490501907106
 31
0.0
  0
LINE
  5
BC
330
1F
100
AcDbEntity
  8
PV
 62
     7
370
    25
100
AcDbLine
 10
-287.0667530495847
 20
156.0449050190711
 30
0.0
 11
-287.0667530495847
 21
95.54490501907107
 31
0.0
  0
LINE
  5
BD
330
1F
100
AcDbEntity
  8
PV
 62
     7
370
    25
100
AcDbLine
 10
-357.3167530495847
 20
85.79490501907107
 30
0.0
 11
-296.8167530495847
 21
85.79490501907107
 31
0.0
  0
LINE
  5
BE
330
1F
100
AcDbEntity
  8
PV
 62
     7
370
    25
100
AcDbLine
 10
-273.0667530495847
 20
156.0449050190711
 30
0.0
 11
-257.0667530495847
 21
156.0449050190711
 31
0.0
  0
LINE
  5
BF
330
1F
100
AcDbEntity
  8
PV
 62
     7
370
    25
100
AcDbLine
 10
-273.0667530495847
 20
95.54490501907107
 30
0.0
 11
-257.0667530495847
 21
95.54490501907107
 31
0.0
  0
LINE
  5
C0
330
1F
100
AcDbEntity
  8
PV
 62
     7
370
    25
100
AcDbLine
 10
-296.8167530495847
 20
71.79490501907107
 30
0.0
 11
-296.8167530495847
 21
55.79490501907107
 31
0.0
  0
LINE
  5
C1
330
1F
100
AcDbEntity
  8
PV
 62
     7
370
    25
100
AcDbLine
 10
-357.3167530495847
 20
71.79490501907107
 30
0.0
 11
-357.3167530495847
 21
55.79490501907107
 31
0.0
  0
LINE
  5
C2
330
1F
100
AcDbEntity
  8
PV
 62
     7
370
    25
100
AcDbLine
 10
-281.7667530495847
 20
154.2449050190711
 30
0.0
 11
-273.0667530495847
 21
154.2449050190711
 31
0.0
  0
LINE
  5
C3
330
1F
100
AcDbEntity
  8
PV
 62
     7
370
    25
100
AcDbLine
 10
-298.6167530495848
 20
80.49490501907107
 30
0.0
 11
-298.6167530495848
 21
71.79490501907107
 31
0.0
  0
LINE
  5
C4
330
1F
100
AcDbEntity
  8
PV
 62
     7
370
    25
100
AcDbLine
 10
-355.5167530495847
 20
80.49490501907107
 30
0.0
 11
-355.5167530495847
 21
71.79490501907107
 31
0.0
  0
LINE
  5
C5
330
1F
100
AcDbEntity
  8
PV
  6
一点鎖線
 62
     7
100
AcDbLine
 10
-155.9321573546634
 20
125.7949050190711
 30
0.0
 11
-155.9321573546634
 21
40.09164908860523
 31
0.0
  0
LINE
  5
C6
330
1F
100
AcDbEntity
  8
PV
  6
一点鎖線
 62
     7
100
AcDbLine
 10
252.4735020293514
 20
125.7949050190711
 30
0.0
 11
368.1244228174547
 21
125.7949050190711
 31
0.0
  0
LINE
  5
C7
330
1F
100
AcDbEntity
  8
PV
 62
     7
370
    25
100
AcDbLine
 10
-79.93215735466345
 20
163.9449050190711
 30
0.0
 11
-79.93215735466345
 21
87.64490501907108
 31
0.0
  0
LINE
  5
C8
330
1F
100
AcDbEntity
  8
PV
 62
     7
370
    25
100
AcDbLine
 10
-194.0821573546634
 20
49.79490501907107
 30
0.0
 11
-117.7821573546635
 21
49.79490501907107
 31
0.0
  0
LINE
  5
C9
330
1F
100
AcDbEntity
  8
PV
 62
     7
370
    25
100
AcDbLine
 10
-109.9321573546634
 20
87.64490501907108
 30
0.0
 11
-104.6321573546635
 21
87.64490501907108
 31
0.0
  0
LINE
  5
CA
330
1F
100
AcDbEntity
  8
PV
 62
     7
370
    25
100
AcDbLine
 10
-109.9321573546634
 20
163.9449050190711
 30
0.0
 11
-104.6321573546635
 21
163.9449050190711
 31
0.0
  0
LINE
  5
CB
330
1F
100
AcDbEntity
  8
PV
 62
     7
370
    25
100
AcDbLine
 10
-194.0821573546634
 20
79.79490501907107
 30
0.0
 11
-194.0821573546634
 21
74.49490501907107
 31
0.0
  0
LINE
  5
CC
330
1F
100
AcDbEntity
  8
PV
 62
     7
370
    25
100
AcDbLine
 10
-117.7821573546635
 20
79.79490501907107
 30
0.0
 11
-117.7821573546635
 21
74.49490501907107
 31
0.0
  0
LINE
  5
CD
330
1F
100
AcDbEntity
  8
PV
 62
     7
370
    25
100
AcDbLine
 10
-95.93215735466345
 20
163.9449050190711
 30
0.0
 11
-95.93215735466345
 21
87.64490501907108
 31
0.0
  0
LINE
  5
CE
330
1F
100
AcDbEntity
  8
PV
 62
     7
370
    25
100
AcDbLine
 10
-194.0821573546634
 20
65.79490501907107
 30
0.0
 11
-117.7821573546635
 21
65.79490501907107
 31
0.0
  0
LINE
  5
CF
330
1F
100
AcDbEntity
  8
PV
 62
     7
370
    25
100
AcDbLine
 10
-194.0821573546634
 20
74.49490501907107
 30
0.0
 11
-117.7821573546635
 21
74.49490501907107
 31
0.0
  0
LINE
  5
D0
330
1F
100
AcDbEntity
  8
PV
 62
     7
370
    25
100
AcDbLine
 10
-104.6321573546635
 20
163.9449050190711
 30
0.0
 11
-104.6321573546635
 21
87.64490501907108
 31
0.0
  0
LINE
  5
D1
330
1F
100
AcDbEntity
  8
PV
 62
     7
370
    25
100
AcDbLine
 10
-110.9321573546634
 20
89.69490501907106
 30
0.0
 11
-109.9321573546634
 21
89.69490501907106
 31
0.0
  0
LINE
  5
D2
330
1F
100
AcDbEntity
  8
PV
 62
     7
370
    25
100
AcDbLine
 10
-110.9321573546634
 20
161.8949050190711
 30
0.0
 11
-109.9321573546634
 21
161.8949050190711
 31
0.0
  0
LINE
  5
D3
330
1F
100
AcDbEntity
  8
PV
 62
     7
370
    25
100
AcDbLine
 10
-192.0321573546635
 20
80.79490501907107
 30
0.0
 11
-192.0321573546635
 21
79.79490501907107
 31
0.0
  0
LINE
  5
D4
330
1F
100
AcDbEntity
  8
PV
 62
     7
370
    25
100
AcDbLine
 10
-119.8321573546634
 20
80.79490552483325
 30
0.0
 11
-119.8321573546634
 21
79.79490501907107
 31
0.0
  0
LINE
  5
D5
330
1F
100
AcDbEntity
  8
PV
 62
     7
370
    25
100
AcDbLine
 10
-95.93215735466345
 20
163.9449050190711
 30
0.0
 11
-79.93215735466345
 21
163.9449050190711
 31
0.0
  0
LINE
  5
D6
330
1F
100
AcDbEntity
  8
PV
 62
     7
370
    25
100
AcDbLine
 10
-95.93215735466345
 20
87.64490501907108
 30
0.0
 11
-79.93215735466345
 21
87.64490501907108
 31
0.0
  0
LINE
  5
D7
330
1F
100
AcDbEntity
  8
PV
 62
     7
370
    25
100
AcDbLine
 10
-117.7821573546635
 20
65.79490501907107
 30
0.0
 11
-117.7821573546635
 21
49.79490501907107
 31
0.0
  0
LINE
  5
D8
330
1F
100
AcDbEntity
  8
PV
 62
     7
370
    25
100
AcDbLine
 10
-194.0821573546634
 20
65.79490501907107
 30
0.0
 11
-194.0821573546634
 21
49.79490501907107
 31
0.0
  0
LINE
  5
D9
330
1F
100
AcDbEntity
  8
PV
 62
     7
370
    25
100
AcDbLine
 10
-109.9321573546634
 20
163.9449050190711
 30
0.0
 11
-109.9321573546634
 21
87.64490501907108
 31
0.0
  0
LINE
  5
DA
330
1F
100
AcDbEntity
  8
PV
 62
     7
370
    25
100
AcDbLine
 10
-194.0821573546634
 20
79.79490501907107
 30
0.0
 11
-117.7821573546635
 21
79.79490501907107
 31
0.0
  0
LINE
  5
DB
330
1F
100
AcDbEntity
  8
PV
 62
     7
370
    25
100
AcDbLine
 10
-104.6321573546635
 20
161.8949050190711
 30
0.0
 11
-95.93215735466345
 21
161.8949050190711
 31
0.0
  0
LINE
  5
DC
330
1F
100
AcDbEntity
  8
PV
 62
     7
370
    25
100
AcDbLine
 10
-104.6321573546635
 20
89.69490501907106
 30
0.0
 11
-95.93215735466345
 21
89.69490501907106
 31
0.0
  0
LINE
  5
DD
330
1F
100
AcDbEntity
  8
PV
 62
     7
370
    25
100
AcDbLine
 10
-119.8321573546634
 20
74.49490501907107
 30
0.0
 11
-119.8321573546634
 21
65.79490501907107
 31
0.0
  0
LINE
  5
DE
330
1F
100
AcDbEntity
  8
PV
 62
     7
370
    25
100
AcDbLine
 10
-192.0321573546635
 20
74.49490501907107
 30
0.0
 11
-192.0321573546635
 21
65.79490501907107
 31
0.0
  0
LINE
  5
DF
330
1F
100
AcDbEntity
  8
PV
  6
一点鎖線
 62
     7
100
AcDbLine
 10
58.94210851689934
 20
125.7949050190711
 30
0.0
 11
58.94210851689934
 21
33.97213179528489
 31
0.0
  0
LINE
  5
E0
330
1F
100
AcDbEntity
  8
PV
 62
     7
370
    25
100
AcDbLine
 10
14.39210851689938
 20
39.79490501907107
 30
0.0
 11
103.4921085168993
 21
39.79490501907107
 31
0.0
  0
LINE
  5
E1
330
1F
100
AcDbEntity
  8
PV
 62
     7
370
    25
100
AcDbLine
 10
144.9421085168993
 20
170.3449050190711
 30
0.0
 11
144.9421085168993
 21
81.24490501907107
 31
0.0
  0
LINE
  5
E2
330
1F
100
AcDbEntity
  8
PV
 62
     7
370
    25
100
AcDbLine
 10
14.39210851689938
 20
55.79490501907107
 30
0.0
 11
103.4921085168993
 21
55.79490501907107
 31
0.0
  0
LINE
  5
E3
330
1F
100
AcDbEntity
  8
PV
 62
     7
370
    25
100
AcDbLine
 10
128.9421085168993
 20
170.3449050190711
 30
0.0
 11
128.9421085168993
 21
81.24490501907107
 31
0.0
  0
LINE
  5
E4
330
1F
100
AcDbEntity
  8
PV
 62
     7
370
    25
100
AcDbLine
 10
120.2421085168993
 20
170.3449050190711
 30
0.0
 11
120.2421085168993
 21
81.24490501907107
 31
0.0
  0
LINE
  5
E5
330
1F
100
AcDbEntity
  8
PV
 62
     7
370
    25
100
AcDbLine
 10
14.39210851689938
 20
64.49490501907107
 30
0.0
 11
103.4921085168993
 21
64.49490501907107
 31
0.0
  0
LINE
  5
E6
330
1F
100
AcDbEntity
  8
PV
 62
     7
370
    25
100
AcDbLine
 10
14.39210851689938
 20
69.79490501907107
 30
0.0
 11
103.4921085168993
 21
69.79490501907107
 31
0.0
  0
LINE
  5
E7
330
1F
100
AcDbEntity
  8
PV
 62
     7
370
    25
100
AcDbLine
 10
114.9421085168993
 20
170.3449050190711
 30
0.0
 11
114.9421085168993
 21
81.24490501907107
 31
0.0
  0
LINE
  5
E8
330
1F
100
AcDbEntity
  8
PV
 62
     7
370
    25
100
AcDbLine
 10
14.39210851689938
 20
69.79490501907107
 30
0.0
 11
14.39210851689938
 21
64.49490501907107
 31
0.0
  0
LINE
  5
E9
330
1F
100
AcDbEntity
  8
PV
 62
     7
370
    25
100
AcDbLine
 10
103.4921085168993
 20
69.79490501907107
 30
0.0
 11
103.4921085168993
 21
64.49490501907107
 31
0.0
  0
LINE
  5
EA
330
1F
100
AcDbEntity
  8
PV
 62
     7
370
    25
100
AcDbLine
 10
114.9421085168993
 20
170.3449050190711
 30
0.0
 11
120.2421085168993
 21
170.3449050190711
 31
0.0
  0
LINE
  5
EB
330
1F
100
AcDbEntity
  8
PV
 62
     7
370
    25
100
AcDbLine
 10
114.9421085168993
 20
81.24490501907107
 30
0.0
 11
120.2421085168993
 21
81.24490501907107
 31
0.0
  0
LINE
  5
EC
330
1F
100
AcDbEntity
  8
PV
 62
     7
370
    25
100
AcDbLine
 10
112.9421085168993
 20
168.2449050190711
 30
0.0
 11
114.9421085168993
 21
168.2449050190711
 31
0.0
  0
LINE
  5
ED
330
1F
100
AcDbEntity
  8
PV
 62
     7
370
    25
100
AcDbLine
 10
112.9421085168993
 20
83.34490501907106
 30
0.0
 11
114.9421085168993
 21
83.34490501907106
 31
0.0
  0
LINE
  5
EE
330
1F
100
AcDbEntity
  8
PV
 62
     7
370
    25
100
AcDbLine
 10
16.49210851689929
 20
71.79490501907107
 30
0.0
 11
16.49210851689929
 21
69.79490501907107
 31
0.0
  0
LINE
  5
EF
330
1F
100
AcDbEntity
  8
PV
 62
     7
370
    25
100
AcDbLine
 10
101.3921085168994
 20
71.79490601644754
 30
0.0
 11
101.3921085168994
 21
69.79490501907107
 31
0.0
  0
LINE
  5
F0
330
1F
100
AcDbEntity
  8
PV
 62
     7
370
    25
100
AcDbLine
 10
128.9421085168993
 20
170.3449050190711
 30
0.0
 11
144.9421085168993
 21
170.3449050190711
 31
0.0
  0
LINE
  5
F1
330
1F
100
AcDbEntity
  8
PV
 62
     7
370
    25
100
AcDbLine
 10
120.2421085168993
 20
168.2449050190711
 30
0.0
 11
128.9421085168993
 21
168.2449050190711
 31
0.0
  0
LINE
  5
F2
330
1F
100
AcDbEntity
  8
PV
 62
     7
370
    25
100
AcDbLine
 10
128.9421085168993
 20
81.24490501907107
 30
0.0
 11
144.9421085168993
 21
81.24490501907107
 31
0.0
  0
LINE
  5
F3
330
1F
100
AcDbEntity
  8
PV
 62
     7
370
    25
100
AcDbLine
 10
120.2421085168993
 20
83.34490501907106
 30
0.0
 11
128.9421085168993
 21
83.34490501907106
 31
0.0
  0
LINE
  5
F4
330
1F
100
AcDbEntity
  8
PV
 62
     7
370
    25
100
AcDbLine
 10
103.4921085168993
 20
55.79490501907107
 30
0.0
 11
103.4921085168993
 21
39.79490501907107
 31
0.0
  0
LINE
  5
F5
330
1F
100
AcDbEntity
  8
PV
 62
     7
370
    25
100
AcDbLine
 10
101.3921085168994
 20
64.49490501907107
 30
0.0
 11
101.3921085168994
 21
55.79490501907107
 31
0.0
  0
LINE
  5
F6
330
1F
100
AcDbEntity
  8
PV
 62
     7
370
    25
100
AcDbLine
 10
14.39210851689938
 20
55.79490501907107
 30
0.0
 11
14.39210851689938
 21
39.79490501907107
 31
0.0
  0
LINE
  5
F7
330
1F
100
AcDbEntity
  8
PV
 62
     7
370
    25
100
AcDbLine
 10
16.49210851689929
 20
64.49490501907107
 30
0.0
 11
16.49210851689929
 21
55.79490501907107
 31
0.0
  0
LINE
  5
F8
330
1F
100
AcDbEntity
  8
PV
  6
一点鎖線
 62
     7
100
AcDbLine
 10
252.4735020293514
 20
125.7949050190711
 30
0.0
 11
252.4735020293514
 21
13.17945015754141
 31
0.0
  0
LINE
  5
F9
330
1F
100
AcDbEntity
  8
PV
 62
     7
370
    25
100
AcDbLine
 10
354.4735020293514
 20
182.9449050190711
 30
0.0
 11
354.4735020293514
 21
68.64490501907108
 31
0.0
  0
LINE
  5
FA
330
1F
100
AcDbEntity
  8
PV
 62
     7
370
    25
100
AcDbLine
 10
195.3235020293513
 20
23.79490501907107
 30
0.0
 11
309.6235020293515
 21
23.79490501907107
 31
0.0
  0
LINE
  5
FB
330
1F
100
AcDbEntity
  8
PV
 62
     7
370
    25
100
AcDbLine
 10
324.4735020293514
 20
68.64490501907108
 30
0.0
 11
329.7735020293513
 21
68.64490501907108
 31
0.0
  0
LINE
  5
FC
330
1F
100
AcDbEntity
  8
PV
 62
     7
370
    25
100
AcDbLine
 10
324.4735020293514
 20
182.9449050190711
 30
0.0
 11
329.7735020293513
 21
182.9449050190711
 31
0.0
  0
LINE
  5
FD
330
1F
100
AcDbEntity
  8
PV
 62
     7
370
    25
100
AcDbLine
 10
195.3235020293513
 20
53.79490501907107
 30
0.0
 11
195.3235020293513
 21
48.49490501907107
 31
0.0
  0
LINE
  5
FE
330
1F
100
AcDbEntity
  8
PV
 62
     7
370
    25
100
AcDbLine
 10
309.6235020293515
 20
53.79490501907107
 30
0.0
 11
309.6235020293515
 21
48.49490501907107
 31
0.0
  0
LINE
  5
FF
330
1F
100
AcDbEntity
  8
PV
 62
     7
370
    25
100
AcDbLine
 10
322.4735020293514
 20
180.8449050190711
 30
0.0
 11
324.4735020293514
 21
180.8449050190711
 31
0.0
  0
LINE
  5
100
330
1F
100
AcDbEntity
  8
PV
 62
     7
370
    25
100
AcDbLine
 10
322.4735020293514
 20
70.74490501907107
 30
0.0
 11
324.4735020293514
 21
70.74490501907107
 31
0.0
  0
LINE
  5
101
330
1F
100
AcDbEntity
  8
PV
 62
     7
370
    25
100
AcDbLine
 10
197.4235020293514
 20
55.7949083226958
 30
0.0
 11
197.4235020293514
 21
53.79490501907107
 31
0.0
  0
LINE
  5
102
330
1F
100
AcDbEntity
  8
PV
 62
     7
370
    25
100
AcDbLine
 10
307.5235020293513
 20
55.79490501907107
 30
0.0
 11
307.5235020293513
 21
53.79490501907107
 31
0.0
  0
LINE
  5
103
330
1F
100
AcDbEntity
  8
PV
 62
     7
370
    25
100
AcDbLine
 10
195.3235020293513
 20
39.79490501907107
 30
0.0
 11
309.6235020293515
 21
39.79490501907107
 31
0.0
  0
LINE
  5
104
330
1F
100
AcDbEntity
  8
PV
 62
     7
370
    25
100
AcDbLine
 10
338.4735020293514
 20
182.9449050190711
 30
0.0
 11
338.4735020293514
 21
68.64490501907108
 31
0.0
  0
LINE
  5
105
330
1F
100
AcDbEntity
  8
PV
 62
     7
370
    25
100
AcDbLine
 10
329.7735020293513
 20
182.9449050190711
 30
0.0
 11
329.7735020293513
 21
68.64490501907108
 31
0.0
  0
LINE
  5
106
330
1F
100
AcDbEntity
  8
PV
 62
     7
370
    25
100
AcDbLine
 10
195.3235020293513
 20
48.49490501907107
 30
0.0
 11
309.6235020293515
 21
48.49490501907107
 31
0.0
  0
LINE
  5
107
330
1F
100
AcDbEntity
  8
PV
 62
     7
370
    25
100
AcDbLine
 10
324.4735020293514
 20
182.9449050190711
 30
0.0
 11
324.4735020293514
 21
68.64490501907108
 31
0.0
  0
LINE
  5
108
330
1F
100
AcDbEntity
  8
PV
 62
     7
370
    25
100
AcDbLine
 10
195.3235020293513
 20
53.79490501907107
 30
0.0
 11
309.6235020293515
 21
53.79490501907107
 31
0.0
  0
LINE
  5
109
330
1F
100
AcDbEntity
  8
PV
 62
     7
370
    25
100
AcDbLine
 10
329.7735020293513
 20
180.8449050190711
 30
0.0
 11
338.4735020293514
 21
180.8449050190711
 31
0.0
  0
LINE
  5
10A
330
1F
100
AcDbEntity
  8
PV
 62
     7
370
    25
100
AcDbLine
 10
329.7735020293513
 20
70.74490501907107
 30
0.0
 11
338.4735020293514
 21
70.74490501907107
 31
0.0
  0
LINE
  5
10B
330
1F
100
AcDbEntity
  8
PV
 62
     7
370
    25
100
AcDbLine
 10
307.5235020293513
 20
48.49490501907107
 30
0.0
 11
307.5235020293513
 21
39.79490501907107
 31
0.0
  0
LINE
  5
10C
330
1F
100
AcDbEntity
  8
PV
 62
     7
370
    25
100
AcDbLine
 10
197.4235020293514
 20
48.49490501907107
 30
0.0
 11
197.4235020293514
 21
39.79490501907107
 31
0.0
  0
LINE
  5
10D
330
1F
100
AcDbEntity
  8
PV
 62
     7
370
    25
100
AcDbLine
 10
338.4735020293514
 20
68.64490501907108
 30
0.0
 11
354.4735020293514
 21
68.64490501907108
 31
0.0
  0
LINE
  5
10E
330
1F
100
AcDbEntity
  8
PV
 62
     7
370
    25
100
AcDbLine
 10
338.4735020293514
 20
182.9449050190711
 30
0.0
 11
354.4735020293514
 21
182.9449050190711
 31
0.0
  0
LINE
  5
10F
330
1F
100
AcDbEntity
  8
PV
 62
     7
370
    25
100
AcDbLine
 10
195.3235020293513
 20
39.79490501907107
 30
0.0
 11
195.3235020293513
 21
23.79490501907107
 31
0.0
  0
LINE
  5
110
330
1F
100
AcDbEntity
  8
PV
 62
     7
370
    25
100
AcDbLine
 10
309.6235020293515
 20
39.79490501907107
 30
0.0
 11
309.6235020293515
 21
23.79490501907107
 31
0.0
  0
LINE
  5
111
330
1F
100
AcDbEntity
  8
PV
  6
一点鎖線
 62
     7
100
AcDbLine
 10
-307.2209374041341
 20
-125.848623831065
 30
0.0
 11
-151.2945183162336
 21
-125.848623831065
 31
0.0
  0
LINE
  5
112
330
1F
100
AcDbEntity
  8
PV
  6
一点鎖線
 62
     7
100
AcDbLine
 10
37.84659729195573
 20
-129.5590274299477
 30
0.0
 11
37.84659729195573
 21
-266.2340267115711
 31
0.0
  0
LINE
  5
113
330
1F
100
AcDbEntity
  8
PV
 62
     7
370
    25
100
AcDbLine
 10
161.8465972919557
 20
-59.65902742994774
 30
0.0
 11
161.8465972919557
 21
-199.4590274299477
 31
0.0
  0
LINE
  5
114
330
1F
100
AcDbEntity
  8
PV
 62
     7
370
    25
100
AcDbLine
 10
-32.05340270804425
 20
-253.5590274299477
 30
0.0
 11
107.7465972919557
 21
-253.5590274299477
 31
0.0
  0
LINE
  5
115
330
1F
100
AcDbEntity
  8
PV
 62
     7
370
    25
100
AcDbLine
 10
-32.05340270804425
 20
-223.5590274299477
 30
0.0
 11
-32.05340270804425
 21
-228.8590274299477
 31
0.0
  0
LINE
  5
116
330
1F
100
AcDbEntity
  8
PV
 62
     7
370
    25
100
AcDbLine
 10
107.7465972919557
 20
-223.5590274299477
 30
0.0
 11
107.7465972919557
 21
-228.8590274299477
 31
0.0
  0
LINE
  5
117
330
1F
100
AcDbEntity
  8
PV
 62
     7
370
    25
100
AcDbLine
 10
131.8465972919557
 20
-199.4590274299477
 30
0.0
 11
137.1465972919557
 21
-199.4590274299477
 31
0.0
  0
LINE
  5
118
330
1F
100
AcDbEntity
  8
PV
 62
     7
370
    25
100
AcDbLine
 10
131.8465972919557
 20
-59.65902742994773
 30
0.0
 11
137.1465972919557
 21
-59.65902742994773
 31
0.0
  0
LINE
  5
119
330
1F
100
AcDbEntity
  8
PV
 62
     7
370
    25
100
AcDbLine
 10
105.5965972919557
 20
-221.5590274299477
 30
0.0
 11
105.5965972919557
 21
-223.5590274299477
 31
0.0
  0
LINE
  5
11A
330
1F
100
AcDbEntity
  8
PV
 62
     7
370
    25
100
AcDbLine
 10
-29.90340270804427
 20
-221.5590274299477
 30
0.0
 11
-29.90340270804427
 21
-223.5590274299477
 31
0.0
  0
LINE
  5
11B
330
1F
100
AcDbEntity
  8
PV
 62
     7
370
    25
100
AcDbLine
 10
129.8465972919557
 20
-61.8090274299477
 30
0.0
 11
131.8465972919557
 21
-61.8090274299477
 31
0.0
  0
LINE
  5
11C
330
1F
100
AcDbEntity
  8
PV
 62
     7
370
    25
100
AcDbLine
 10
129.8465972919557
 20
-197.3090274299477
 30
0.0
 11
131.8465972919557
 21
-197.3090274299477
 31
0.0
  0
LINE
  5
11D
330
1F
100
AcDbEntity
  8
PV
 62
     7
370
    25
100
AcDbLine
 10
145.8465972919557
 20
-59.65902742994774
 30
0.0
 11
145.8465972919557
 21
-199.4590274299477
 31
0.0
  0
LINE
  5
11E
330
1F
100
AcDbEntity
  8
PV
 62
     7
370
    25
100
AcDbLine
 10
-32.05340270804425
 20
-237.5590274299477
 30
0.0
 11
107.7465972919557
 21
-237.5590274299477
 31
0.0
  0
LINE
  5
11F
330
1F
100
AcDbEntity
  8
PV
 62
     7
370
    25
100
AcDbLine
 10
-32.05340270804425
 20
-228.8590274299477
 30
0.0
 11
107.7465972919557
 21
-228.8590274299477
 31
0.0
  0
LINE
  5
120
330
1F
100
AcDbEntity
  8
PV
 62
     7
370
    25
100
AcDbLine
 10
137.1465972919557
 20
-59.65902742994774
 30
0.0
 11
137.1465972919557
 21
-199.4590274299477
 31
0.0
  0
LINE
  5
121
330
1F
100
AcDbEntity
  8
PV
 62
     7
370
    25
100
AcDbLine
 10
-32.05340270804425
 20
-223.5590274299477
 30
0.0
 11
107.7465972919557
 21
-223.5590274299477
 31
0.0
  0
LINE
  5
122
330
1F
100
AcDbEntity
  8
PV
 62
     7
370
    25
100
AcDbLine
 10
131.8465972919557
 20
-59.65902742994774
 30
0.0
 11
131.8465972919557
 21
-199.4590274299477
 31
0.0
  0
LINE
  5
123
330
1F
100
AcDbEntity
  8
PV
 62
     7
370
    25
100
AcDbLine
 10
145.8465972919557
 20
-59.65902742994773
 30
0.0
 11
161.8465972919557
 21
-59.65902742994773
 31
0.0
  0
LINE
  5
124
330
1F
100
AcDbEntity
  8
PV
 62
     7
370
    25
100
AcDbLine
 10
137.1465972919557
 20
-61.8090274299477
 30
0.0
 11
145.8465972919557
 21
-61.8090274299477
 31
0.0
  0
LINE
  5
125
330
1F
100
AcDbEntity
  8
PV
 62
     7
370
    25
100
AcDbLine
 10
145.8465972919557
 20
-199.4590274299477
 30
0.0
 11
161.8465972919557
 21
-199.4590274299477
 31
0.0
  0
LINE
  5
126
330
1F
100
AcDbEntity
  8
PV
 62
     7
370
    25
100
AcDbLine
 10
137.1465972919557
 20
-197.3090274299477
 30
0.0
 11
145.8465972919557
 21
-197.3090274299477
 31
0.0
  0
LINE
  5
127
330
1F
100
AcDbEntity
  8
PV
 62
     7
370
    25
100
AcDbLine
 10
107.7465972919557
 20
-237.5590274299477
 30
0.0
 11
107.7465972919557
 21
-253.5590274299477
 31
0.0
  0
LINE
  5
128
330
1F
100
AcDbEntity
  8
PV
 62
     7
370
    25
100
AcDbLine
 10
105.5965972919557
 20
-228.8590274299477
 30
0.0
 11
105.5965972919557
 21
-237.5590274299477
 31
0.0
  0
LINE
  5
129
330
1F
100
AcDbEntity
  8
PV
 62
     7
370
    25
100
AcDbLine
 10
-32.05340270804425
 20
-237.5590274299477
 30
0.0
 11
-32.05340270804425
 21
-253.5590274299477
 31
0.0
  0
LINE
  5
12A
330
1F
100
AcDbEntity
  8
PV
 62
     7
370
    25
100
AcDbLine
 10
-29.90340270804427
 20
-228.8590274299477
 30
0.0
 11
-29.90340270804427
 21
-237.5590274299477
 31
0.0
  0
LINE
  5
12B
330
1F
100
AcDbEntity
  8
PV
  6
一点鎖線
 62
     7
100
AcDbLine
 10
-307.2209374041341
 20
-125.848623831065
 30
0.0
 11
-307.2209374041341
 21
-280.3617742305035
 31
0.0
  0
LINE
  5
12C
330
1F
100
AcDbEntity
  8
PV
 62
     7
370
    25
100
AcDbLine
 10
-389.8209374041342
 20
-265.848623831065
 30
0.0
 11
-224.6209374041341
 21
-265.848623831065
 31
0.0
  0
LINE
  5
12D
330
1F
100
AcDbEntity
  8
PV
 62
     7
370
    25
100
AcDbLine
 10
-167.2209374041341
 20
-43.248623831065
 30
0.0
 11
-167.2209374041341
 21
-208.448623831065
 31
0.0
  0
LINE
  5
12E
330
1F
100
AcDbEntity
  8
PV
 62
     7
370
    25
100
AcDbLine
 10
-197.2209374041341
 20
-208.448623831065
 30
0.0
 11
-191.9209374041342
 21
-208.448623831065
 31
0.0
  0
LINE
  5
12F
330
1F
100
AcDbEntity
  8
PV
 62
     7
370
    25
100
AcDbLine
 10
-197.2209374041341
 20
-43.24862383106499
 30
0.0
 11
-191.9209374041342
 21
-43.24862383106499
 31
0.0
  0
LINE
  5
130
330
1F
100
AcDbEntity
  8
PV
 62
     7
370
    25
100
AcDbLine
 10
-389.8209374041342
 20
-235.848623831065
 30
0.0
 11
-389.8209374041342
 21
-241.148623831065
 31
0.0
  0
LINE
  5
131
330
1F
100
AcDbEntity
  8
PV
 62
     7
370
    25
100
AcDbLine
 10
-224.6209374041341
 20
-235.848623831065
 30
0.0
 11
-224.6209374041341
 21
-241.148623831065
 31
0.0
  0
LINE
  5
132
330
1F
100
AcDbEntity
  8
PV
 62
     7
370
    25
100
AcDbLine
 10
-202.2209374041341
 20
-45.44862383106504
 30
0.0
 11
-197.2209374041341
 21
-45.44862383106504
 31
0.0
  0
LINE
  5
133
330
1F
100
AcDbEntity
  8
PV
 62
     7
370
    25
100
AcDbLine
 10
-202.2209374041341
 20
-206.248623831065
 30
0.0
 11
-197.2209374041341
 21
-206.248623831065
 31
0.0
  0
LINE
  5
134
330
1F
100
AcDbEntity
  8
PV
 62
     7
370
    25
100
AcDbLine
 10
-387.6209374041341
 20
-230.848623831065
 30
0.0
 11
-387.6209374041341
 21
-235.848623831065
 31
0.0
  0
LINE
  5
135
330
1F
100
AcDbEntity
  8
PV
 62
     7
370
    25
100
AcDbLine
 10
-226.8209374041342
 20
-230.848623831065
 30
0.0
 11
-226.8209374041342
 21
-235.848623831065
 31
0.0
  0
LINE
  5
136
330
1F
100
AcDbEntity
  8
PV
 62
     7
370
    25
100
AcDbLine
 10
-389.8209374041342
 20
-249.848623831065
 30
0.0
 11
-224.6209374041341
 21
-249.848623831065
 31
0.0
  0
LINE
  5
137
330
1F
100
AcDbEntity
  8
PV
 62
     7
370
    25
100
AcDbLine
 10
-183.2209374041341
 20
-43.248623831065
 30
0.0
 11
-183.2209374041341
 21
-208.448623831065
 31
0.0
  0
LINE
  5
138
330
1F
100
AcDbEntity
  8
PV
 62
     7
370
    25
100
AcDbLine
 10
-191.9209374041342
 20
-43.248623831065
 30
0.0
 11
-191.9209374041342
 21
-208.448623831065
 31
0.0
  0
LINE
  5
139
330
1F
100
AcDbEntity
  8
PV
 62
     7
370
    25
100
AcDbLine
 10
-389.8209374041342
 20
-241.148623831065
 30
0.0
 11
-224.6209374041341
 21
-241.148623831065
 31
0.0
  0
LINE
  5
13A
330
1F
100
AcDbEntity
  8
PV
 62
     7
370
    25
100
AcDbLine
 10
-389.8209374041342
 20
-235.848623831065
 30
0.0
 11
-224.6209374041341
 21
-235.848623831065
 31
0.0
  0
LINE
  5
13B
330
1F
100
AcDbEntity
  8
PV
 62
     7
370
    25
100
AcDbLine
 10
-197.2209374041341
 20
-43.248623831065
 30
0.0
 11
-197.2209374041341
 21
-208.448623831065
 31
0.0
  0
LINE
  5
13C
330
1F
100
AcDbEntity
  8
PV
 62
     7
370
    25
100
AcDbLine
 10
-183.2209374041341
 20
-43.24862383106499
 30
0.0
 11
-167.2209374041341
 21
-43.24862383106499
 31
0.0
  0
LINE
  5
13D
330
1F
100
AcDbEntity
  8
PV
 62
     7
370
    25
100
AcDbLine
 10
-191.9209374041342
 20
-45.44862383106504
 30
0.0
 11
-183.2209374041341
 21
-45.44862383106504
 31
0.0
  0
LINE
  5
13E
330
1F
100
AcDbEntity
  8
PV
 62
     7
370
    25
100
AcDbLine
 10
-183.2209374041341
 20
-208.448623831065
 30
0.0
 11
-167.2209374041341
 21
-208.448623831065
 31
0.0
  0
LINE
  5
13F
330
1F
100
AcDbEntity
  8
PV
 62
     7
370
    25
100
AcDbLine
 10
-191.9209374041342
 20
-206.248623831065
 30
0.0
 11
-183.2209374041341
 21
-206.248623831065
 31
0.0
  0
LINE
  5
140
330
1F
100
AcDbEntity
  8
PV
 62
     7
370
    25
100
AcDbLine
 10
-224.6209374041341
 20
-249.848623831065
 30
0.0
 11
-224.6209374041341
 21
-265.848623831065
 31
0.0
  0
LINE
  5
141
330
1F
100
AcDbEntity
  8
PV
 62
     7
370
    25
100
AcDbLine
 10
-226.8209374041342
 20
-241.148623831065
 30
0.0
 11
-226.8209374041342
 21
-249.848623831065
 31
0.0
  0
LINE
  5
142
330
1F
100
AcDbEntity
  8
PV
 62
     7
370
    25
100
AcDbLine
 10
-389.8209374041342
 20
-249.848623831065
 30
0.0
 11
-389.8209374041342
 21
-265.848623831065
 31
0.0
  0
LINE
  5
143
330
1F
100
AcDbEntity
  8
PV
 62
     7
370
    25
100
AcDbLine
 10
-387.6209374041341
 20
-241.148623831065
 30
0.0
 11
-387.6209374041341
 21
-249.848623831065
 31
0.0
  0
LINE
  5
144
330
1F
100
AcDbEntity
  8
PV
  6
一点鎖線
 62
     7
100
AcDbLine
 10
-155.9321573546634
 20
125.7949050190711
 30
0.0
 11
-64.98363485793936
 21
125.7949050190711
 31
0.0
  0
LINE
  5
145
330
1F
100
AcDbEntity
  8
PV
  6
一点鎖線
 62
     7
100
AcDbLine
 10
58.94210851689934
 20
125.7949050190711
 30
0.0
 11
166.5419197176645
 21
125.7949050190711
 31
0.0
  0
LINE
  5
146
330
1F
100
AcDbEntity
  8
PV
  6
一点鎖線
 62
     7
100
AcDbLine
 10
37.84659729195573
 20
-129.5590274299477
 30
0.0
 11
180.6821694469087
 21
-129.5590274299477
 31
0.0
  0
ARC
  5
147
330
1F
100
AcDbEntity
  8
PV
 62
     7
370
    25
100
AcDbCircle
 10
-289.0667530495847
 20
87.79490501907107
 30
0.0
 40
66.45
100
AcDbArc
 50
90.0
 51
180.0
  0
ARC
  5
148
330
1F
100
AcDbEntity
  8
PV
 62
     7
370
    25
100
AcDbCircle
 10
-289.0667530495847
 20
87.79490501907107
 30
0.0
 40
9.550000000000011
100
AcDbArc
 50
90.0
 51
180.0
  0
ARC
  5
149
330
1F
100
AcDbEntity
  8
PV
 62
     7
370
    25
100
AcDbCircle
 10
-110.9321573546634
 20
80.79490501907107
 30
0.0
 40
81.10000000000002
100
AcDbArc
 50
90.0
 51
180.0
  0
ARC
  5
14A
330
1F
100
AcDbEntity
  8
PV
 62
     7
370
    25
100
AcDbCircle
 10
-110.9321573546634
 20
80.79490501907107
 30
0.0
 40
8.899999999999991
100
AcDbArc
 50
90.0
 51
180.0
  0
ARC
  5
14B
330
1F
100
AcDbEntity
  8
PV
 62
     7
370
    25
100
AcDbCircle
 10
112.9421085168993
 20
71.79490501907107
 30
0.0
 40
96.45
100
AcDbArc
 50
90.0
 51
180.0
  0
ARC
  5
14C
330
1F
100
AcDbEntity
  8
PV
 62
     7
370
    25
100
AcDbCircle
 10
112.9421085168993
 20
71.79490501907107
 30
0.0
 40
11.55
100
AcDbArc
 50
90.0
 51
180.0
  0
ARC
  5
14D
330
1F
100
AcDbEntity
  8
PV
 62
     7
370
    25
100
AcDbCircle
 10
322.4735020293514
 20
55.79490501907107
 30
0.0
 40
125.05
100
AcDbArc
 50
90.0
 51
180.0
  0
ARC
  5
14E
330
1F
100
AcDbEntity
  8
PV
 62
     7
370
    25
100
AcDbCircle
 10
322.4735020293514
 20
55.79490501907107
 30
0.0
 40
14.95
100
AcDbArc
 50
90.0
 51
180.0
  0
ARC
  5
14F
330
1F
100
AcDbEntity
  8
PV
 62
     7
370
    25
100
AcDbCircle
 10
129.8465972919557
 20
-221.5590274299477
 30
0.0
 40
159.75
100
AcDbArc
 50
90.0
 51
180.0
  0
ARC
  5
150
330
1F
100
AcDbEntity
  8
PV
 62
     7
370
    25
100
AcDbCircle
 10
129.8465972919557
 20
-221.5590274299477
 30
0.0
 40
24.25
100
AcDbArc
 50
90.0
 51
180.0
  0
ARC
  5
151
330
1F
100
AcDbEntity
  8
PV
 62
     7
370
    25
100
AcDbCircle
 10
-202.2209374041341
 20
-230.848623831065
 30
0.0
 40
185.4
100
AcDbArc
 50
90.0
 51
180.0
  0
ARC
  5
152
330
1F
100
AcDbEntity
  8
PV
 62
     7
370
    25
100
AcDbCircle
 10
-202.2209374041341
 20
-230.848623831065
 30
0.0
 40
24.60000000000002
100
AcDbArc
 50
90.0
 51
180.0
  0
TEXT
  5
153
330
1F
100
AcDbEntity
  8
PV
 62
     7
370
    25
100
AcDbText
 10
-338.8711547851562
 20
190.0377807617188
 30
0.0
 40
20.0
  1
２
 41
1.000124959945679
  7
FX_VECTOR
 72
     5
 11
-324.5836553573608
 21
190.0377807617188
 31
0.0
100
AcDbText
  0
TEXT
  5
154
330
1F
100
AcDbEntity
  8
PV
 62
     7
370
    25
100
AcDbText
 10
-153.8223266601562
 20
198.0755157470703
 30
0.0
 40
20.0
  1
２１／２
 41
1.130461904276972
  7
FX_VECTOR
 72
     5
 11
-79.53483009338379
 21
198.0755157470703
 31
0.0
100
AcDbText
  0
TEXT
  5
155
330
1F
100
AcDbEntity
  8
PV
 62
     7
370
    25
100
AcDbText
 10
62.72183227539062
 20
202.2802581787109
 30
0.0
 40
20.0
  1
３
 41
1.000124959945679
  7
FX_VECTOR
 72
     5
 11
77.00933170318604
 21
202.2802581787109
 31
0.0
100
AcDbText
  0
TEXT
  5
156
330
1F
100
AcDbEntity
  8
PV
 62
     7
370
    25
100
AcDbText
 10
251.9351654052734
 20
195.97314453125
 30
0.0
 40
20.0
  1
４
 41
1.000124959945679
  7
FX_VECTOR
 72
     5
 11
266.2226648330688
 21
195.97314453125
 31
0.0
100
AcDbText
  0
TEXT
  5
157
330
1F
100
AcDbEntity
  8
PV
 62
     7
370
    25
100
AcDbText
 10
-347.5576477050781
 20
-60.42238235473633
 30
0.0
 40
20.0
  1
６
 41
1.000124959945679
  7
FX_VECTOR
 72
     5
 11
-333.2701482772827
 21
-60.42238235473633
 31
0.0
100
AcDbText
  0
TEXT
  5
158
330
1F
100
AcDbEntity
  8
PV
 62
     7
370
    25
100
AcDbText
 10
-11.68043231964111
 20
-90.82505798339844
 30
0.0
 40
20.0
  1
５
 41
1.000124959945679
  7
FX_VECTOR
 72
     5
 11
2.607067108154297
 21
-90.82505798339844
 31
0.0
100
AcDbText
  0
TEXT
  5
159
330
1F
100
AcDbEntity
  8
PV
 62
     7
370
    25
100
AcDbText
 10
-321.5931514730053
 20
111.794132613142
 30
0.0
 40
5.5
  1
Ｆ－１
 50
44.99999999999997
 41
1.117647186320097
  7
FX_VECTOR
 72
     5
 11
-311.037056178239
 21
122.3502279079082
 31
0.0
100
AcDbText
  0
TEXT
  5
15A
330
1F
100
AcDbEntity
  8
PV
 62
     7
370
    25
100
AcDbText
 10
-316.4439323405417
 20
97.23179702560032
 30
0.0
 40
11.0
  1
２
 50
45.00000000000015
 41
1.000000433488323
  7
FX_VECTOR
 72
     5
 11
-310.8880909371132
 21
102.7876384290288
 31
0.0
100
AcDbText
  0
TEXT
  5
15B
330
1F
100
AcDbEntity
  8
PV
 62
     7
370
    25
100
AcDbText
 10
-147.5277856102356
 20
98.00987942127072
 30
0.0
 40
3.200000047683716
  1
１
 50
44.9999999999995
 41
1.000000447034834
  7
FX_VECTOR
 72
     5
 11
-145.9115407923507
 21
99.62612423915557
 31
0.0
100
AcDbText
  0
TEXT
  5
15C
330
1F
100
AcDbEntity
  8
PV
 62
     7
370
    25
100
AcDbText
 10
-149.5167659749584
 20
109.3090099324779
 30
0.0
 40
5.5
  1
Ｆ－１
 50
45.00000000000004
 41
1.117647186320096
  7
FX_VECTOR
 72
     5
 11
-138.9606706801921
 21
119.8651052272442
 31
0.0
100
AcDbText
  0
TEXT
  5
15D
330
1F
100
AcDbEntity
  8
PV
 62
     7
370
    25
100
AcDbText
 10
-148.514271544326
 20
90.28356628309555
 30
0.0
 40
6.0
  1
２／
 50
45.00000000000011
 41
1.090909266110622
  7
FX_VECTOR
 72
     5
 11
-141.2411720554803
 21
97.55666577194128
 31
0.0
100
AcDbText
  0
TEXT
  5
15E
330
1F
100
AcDbEntity
  8
PV
 62
     7
370
    25
100
AcDbText
 10
-141.4985497703918
 20
95.78856594470822
 30
0.0
 40
3.200000047683716
  1
２
 50
44.9999999999995
 41
1.000000447034834
  7
FX_VECTOR
 72
     5
 11
-139.882304952507
 21
97.40481076259307
 31
0.0
100
AcDbText
  0
TEXT
  5
15F
330
1F
100
AcDbEntity
  8
PV
 62
     7
370
    25
100
AcDbText
 10
65.09274521000505
 20
106.6067710863817
 30
0.0
 40
7.0
  1
Ｆ－１
 50
44.99999999999998
 41
1.117647213094374
  7
FX_VECTOR
 72
     5
 11
78.52777590701079
 21
120.0418017833874
 31
0.0
100
AcDbText
  0
TEXT
  5
160
330
1F
100
AcDbEntity
  8
PV
 62
     7
370
    25
100
AcDbText
 10
71.82909851327182
 20
84.27637786612271
 30
0.0
 40
14.0
  1
３
 50
45.00000000000001
 41
1.000000476837158
  7
FX_VECTOR
 72
     5
 11
78.90016969688517
 21
91.34744904973607
 31
0.0
100
AcDbText
  0
TEXT
  5
161
330
1F
100
AcDbEntity
  8
PV
 62
     7
370
    25
100
AcDbText
 10
269.9395614656547
 20
75.95724334391558
 30
0.0
 40
18.0
  1
４
 50
44.99999999999991
 41
1.000000413258873
  7
FX_VECTOR
 72
     5
 11
279.0309381237151
 21
85.04862000197598
 31
0.0
100
AcDbText
  0
TEXT
  5
162
330
1F
100
AcDbEntity
  8
PV
 62
     7
370
    25
100
AcDbText
 10
258.9040916459133
 20
101.1583854659031
 30
0.0
 40
9.0
  1
Ｆ－１
 50
45.0
 41
1.117647158554176
  7
FX_VECTOR
 72
     5
 11
276.1777016991265
 21
118.4319955191164
 31
0.0
100
AcDbText
  0
TEXT
  5
163
330
1F
100
AcDbEntity
  8
PV
 62
     7
370
    25
100
AcDbText
 10
-295.3004371626805
 20
-154.8077018754055
 30
0.0
 40
9.0
  1
Ｆ－１
 50
45.0
 41
1.117647158554176
  7
FX_VECTOR
 72
     5
 11
-278.0268271094672
 21
-137.5340918221922
 31
0.0
100
AcDbText
  0
TEXT
  5
164
330
1F
100
AcDbEntity
  8
PV
 62
     7
370
    25
100
AcDbText
 10
-285.7672866788765
 20
-194.095140078936
 30
0.0
 40
18.0
  1
６
 50
44.99999999999982
 41
1.000000413258871
  7
FX_VECTOR
 72
     5
 11
-276.6759100208161
 21
-185.0037634208756
 31
0.0
100
AcDbText
  0
TEXT
  5
165
330
1F
100
AcDbEntity
  8
PV
 62
     7
370
    25
100
AcDbText
 10
46.9907844559719
 20
-152.8094718949367
 30
0.0
 40
9.0
  1
Ｆ－１
 50
44.99999999999996
 41
1.117647158554177
  7
FX_VECTOR
 72
     5
 11
64.26439450918517
 21
-135.5358618417235
 31
0.0
100
AcDbText
  0
TEXT
  5
166
330
1F
100
AcDbEntity
  8
PV
 62
     7
370
    25
100
AcDbText
 10
55.19714889851606
 20
-189.4433761629203
 30
0.0
 40
18.0
  1
５
 50
44.99999999999996
 41
1.000000413258869
  7
FX_VECTOR
 72
     5
 11
64.28852555657645
 21
-180.35199950486
 31
0.0
100
AcDbText
  0
TEXT
  5
167
330
1F
100
AcDbEntity
  8
PV
 62
     7
370
    25
100
AcDbText
 10
-309.5328509791673
 20
103.7574761385906
 30
0.0
 40
8.0
  1
ｓ
 50
46.49999999999976
 41
1.000124943256381
  7
FX_VECTOR
 72
     5
 11
-305.598904802276
 21
107.9029904337237
 31
0.0
100
AcDbText
  0
TEXT
  5
168
330
1F
100
AcDbEntity
  8
PV
 62
     7
370
    25
100
AcDbText
 10
-138.67366887136
 20
98.17901765668582
 30
0.0
 40
5.0
  1
ｓ
 50
46.79999923706065
 41
1.000124959945679
  7
FX_VECTOR
 72
     5
 11
-136.2285522406248
 21
100.7828023359182
 31
0.0
100
AcDbText
  0
TEXT
  5
169
330
1F
100
AcDbEntity
  8
PV
 62
     7
370
    25
100
AcDbText
 10
80.5169464450142
 20
94.38814782308178
 30
0.0
 40
8.0
  1
Ｓ
 50
40.59999847412116
 41
1.000125026702883
  7
FX_VECTOR
 72
     5
 11
84.85618218133627
 21
98.10732245849556
 31
0.0
100
AcDbText
  0
TEXT
  5
16A
330
1F
100
AcDbEntity
  8
PV
 62
     7
370
    25
100
AcDbText
 10
280.2949057636897
 20
88.43513810536757
 30
0.0
 40
10.0
  1
Ｓ
 50
43.79999923706066
 41
1.000124959945677
  7
FX_VECTOR
 72
     5
 11
285.45098025251
 21
93.37963563702326
 31
0.0
100
AcDbText
  0
TEXT
  5
16B
330
1F
100
AcDbEntity
  8
PV
 62
     7
370
    25
100
AcDbText
 10
66.56091953981361
 20
-175.5646413170164
 30
0.0
 40
10.0
  1
Ｓ
 50
38.40000152587898
 41
1.000125026702882
  7
FX_VECTOR
 72
     5
 11
72.15942970688964
 21
-171.1273165940813
 31
0.0
100
AcDbText
  0
TEXT
  5
16C
330
1F
100
AcDbEntity
  8
PV
 62
     7
370
    25
100
AcDbText
 10
-274.6105191715599
 20
-181.2939481914987
 30
0.0
 40
10.0
  1
Ｓ
 50
36.40000152587887
 41
1.000124959945676
  7
FX_VECTOR
 72
     5
 11
-268.8605594498783
 21
-177.0547120369713
 31
0.0
100
AcDbText
  0
TEXT
  5
16D
330
1F
100
AcDbEntity
  8
PV
 62
     7
370
    25
100
AcDbText
 10
-381.9653625488281
 20
251.8953857421875
 30
0.0
 40
15.0
  1
ＴＯＰ－Ｊ　Ｆ－１（ショートＬ）　６サイス゛
 41
1.160310078152567
  7
FX_VECTOR
 72
     5
 11
-56.24974775314331
 21
251.8953857421875
 31
0.0
100
AcDbText
  0
INSERT
  5
171
330
1F
100
AcDbEntity
  8
PV
 62
     7
370
    25
100
AcDbBlockReference
  2
BLKF022
 10
0.0
 20
0.0
 30
0.0
  0
INSERT
  5
189
330
1F
100
AcDbEntity
  8
PV
 62
     7
370
    25
100
AcDbBlockReference
  2
BLKF023
 10
0.0
 20
0.0
 30
0.0
  0
INSERT
  5
1A1
330
1F
100
AcDbEntity
  8
PV
 62
     7
370
    25
100
AcDbBlockReference
  2
BLKF024
 10
0.0
 20
0.0
 30
0.0
  0
INSERT
  5
1B9
330
1F
100
AcDbEntity
  8
PV
 62
     7
370
    25
100
AcDbBlockReference
  2
BLKF025
 10
0.0
 20
0.0
 30
0.0
  0
INSERT
  5
1D1
330
1F
100
AcDbEntity
  8
PV
 62
     7
370
    25
100
AcDbBlockReference
  2
BLKF026
 10
0.0
 20
0.0
 30
0.0
  0
INSERT
  5
1E9
330
1F
100
AcDbEntity
  8
PV
 62
     7
370
    25
100
AcDbBlockReference
  2
BLKF027
 10
0.0
 20
0.0
 30
0.0
  0
LINE
  5
1FF
330
1F
100
AcDbEntity
  8
99
 62
     7
370
    25
100
AcDbLine
 10
-429.0
 20
-297.5
 30
0.0
 11
410.0
 21
-297.5
 31
0.0
  0
LINE
  5
200
330
1F
100
AcDbEntity
  8
99
 62
     7
370
    25
100
AcDbLine
 10
-429.0
 20
297.5
 30
0.0
 11
-429.0
 21
-297.5
 31
0.0
  0
LINE
  5
201
330
1F
100
AcDbEntity
  8
99
 62
     7
370
    25
100
AcDbLine
 10
410.0
 20
297.5
 30
0.0
 11
410.0
 21
-297.5
 31
0.0
  0
LINE
  5
202
330
1F
100
AcDbEntity
  8
99
 62
     7
370
    25
100
AcDbLine
 10
-429.0
 20
297.5
 30
0.0
 11
410.0
 21
297.5
 31
0.0
  0
LINE
  5
203
330
1F
100
AcDbEntity
  8
99
 62
     7
370
    25
100
AcDbLine
 10
420.0
 20
-297.5
 30
0.0
 11
1259.0
 21
-297.5
 31
0.0
  0
LINE
  5
204
330
1F
100
AcDbEntity
  8
99
 62
     7
370
    25
100
AcDbLine
 10
420.0
 20
297.5
 30
0.0
 11
420.0
 21
-297.5
 31
0.0
  0
LINE
  5
205
330
1F
100
AcDbEntity
  8
99
 62
     7
370
    25
100
AcDbLine
 10
1259.0
 20
297.5
 30
0.0
 11
1259.0
 21
-297.5
 31
0.0
  0
LINE
  5
206
330
1F
100
AcDbEntity
  8
99
 62
     7
370
    25
100
AcDbLine
 10
420.0
 20
297.5
 30
0.0
 11
1259.0
 21
297.5
 31
0.0
  0
ENDSEC
  0
SECTION
  2
OBJECTS
  0
DICTIONARY
  5
C
330
0
100
AcDbDictionary
281
     1
  3
ACAD_GROUP
350
D
  3
ACAD_LAYOUT
350
1A
  3
ACAD_MATERIAL
350
3B
  3
ACAD_MLEADERSTYLE
350
209
  3
ACAD_MLINESTYLE
350
17
  3
ACAD_PLOTSETTINGS
350
19
  3
ACAD_PLOTSTYLENAME
350
E
  3
ACAD_VISUALSTYLE
350
2A
  3
AcDbVariableDictionary
350
207
  0
DICTIONARY
  5
D
102
{ACAD_REACTORS
330
C
102
}
330
C
100
AcDbDictionary
281
     1
  0
DICTIONARY
  5
1A
102
{ACAD_REACTORS
330
C
102
}
330
C
100
AcDbDictionary
281
     1
  3
Layout1
350
1E
  3
Layout2
350
26
  3
Model
350
22
  0
DICTIONARY
  5
3B
102
{ACAD_REACTORS
330
C
102
}
330
C
100
AcDbDictionary
281
     1
  3
ByBlock
350
3D
  3
ByLayer
350
3C
  3
Global
350
3E
  0
DICTIONARY
  5
209
102
{ACAD_REACTORS
330
C
102
}
330
C
100
AcDbDictionary
281
     1
  0
DICTIONARY
  5
17
102
{ACAD_REACTORS
330
C
102
}
330
C
100
AcDbDictionary
281
     1
  3
Standard
350
18
  0
DICTIONARY
  5
19
102
{ACAD_REACTORS
330
C
102
}
330
C
100
AcDbDictionary
281
     1
  0
ACDBDICTIONARYWDFLT
  5
E
102
{ACAD_REACTORS
330
C
102
}
330
C
100
AcDbDictionary
281
     1
  3
Normal
350
F
100
AcDbDictionaryWithDefault
340
F
  0
DICTIONARY
  5
2A
102
{ACAD_REACTORS
330
C
102
}
330
C
100
AcDbDictionary
281
     1
  3
2dWireframe
350
2F
  3
3D Hidden
350
31
  3
3dWireframe
350
30
  3
Basic
350
32
  3
Brighten
350
36
  3
ColorChange
350
3A
  3
Conceptual
350
34
  3
Dim
350
35
  3
Facepattern
350
39
  3
Flat
350
2B
  3
FlatWithEdges
350
2C
  3
Gouraud
350
2D
  3
GouraudWithEdges
350
2E
  3
Linepattern
350
38
  3
Realistic
350
33
  3
Thicken
350
37
  0
DICTIONARY
  5
207
102
{ACAD_REACTORS
330
C
102
}
330
C
100
AcDbDictionary
281
     1
  3
DIMASSOC
350
20C
  3
HIDETEXT
350
20D
  3
PSOLHEIGHT
350
20B
  3
PSOLWIDTH
350
20A
  0
LAYOUT
  5
1E
102
{ACAD_REACTORS
330
1A
102
}
330
1A
100
AcDbPlotSettings
  1

  2
none_device
  4

  6

 40
0.0
 41
0.0
 42
0.0
 43
0.0
 44
0.0
 45
0.0
 46
0.0
 47
0.0
 48
0.0
 49
0.0
140
0.0
141
0.0
142
1.0
143
1.0
 70
   688
 72
     0
 73
     0
 74
     5
  7

 75
    16
147
1.0
148
0.0
149
0.0
100
AcDbLayout
  1
Layout1
 70
     1
 71
     1
 10
0.0
 20
0.0
 11
420.0
 21
297.0
 12
0.0
 22
0.0
 32
0.0
 14
1.000000000000000E+20
 24
1.000000000000000E+20
 34
1.000000000000000E+20
 15
-1.000000000000000E+20
 25
-1.000000000000000E+20
 35
-1.000000000000000E+20
146
0.0
 13
0.0
 23
0.0
 33
0.0
 16
1.0
 26
0.0
 36
0.0
 17
0.0
 27
1.0
 37
0.0
 76
     0
330
1B
  0
LAYOUT
  5
26
102
{ACAD_REACTORS
330
1A
102
}
330
1A
100
AcDbPlotSettings
  1

  2
none_device
  4

  6

 40
0.0
 41
0.0
 42
0.0
 43
0.0
 44
0.0
 45
0.0
 46
0.0
 47
0.0
 48
0.0
 49
0.0
140
0.0
141
0.0
142
1.0
143
1.0
 70
   688
 72
     0
 73
     0
 74
     5
  7

 75
    16
147
1.0
148
0.0
149
0.0
100
AcDbLayout
  1
Layout2
 70
     1
 71
     2
 10
0.0
 20
0.0
 11
0.0
 21
0.0
 12
0.0
 22
0.0
 32
0.0
 14
0.0
 24
0.0
 34
0.0
 15
0.0
 25
0.0
 35
0.0
146
0.0
 13
0.0
 23
0.0
 33
0.0
 16
1.0
 26
0.0
 36
0.0
 17
0.0
 27
1.0
 37
0.0
 76
     0
330
23
  0
LAYOUT
  5
22
102
{ACAD_REACTORS
330
1A
102
}
330
1A
100
AcDbPlotSettings
  1

  2
none_device
  4

  6

 40
0.0
 41
0.0
 42
0.0
 43
0.0
 44
0.0
 45
0.0
 46
0.0
 47
0.0
 48
0.0
 49
0.0
140
0.0
141
0.0
142
1.0
143
1.0
 70
  1712
 72
     0
 73
     0
 74
     0
  7

 75
     0
147
1.0
148
0.0
149
0.0
100
AcDbLayout
  1
Model
 70
     1
 71
     0
 10
-449.0
 20
-317.5
 11
1279.0
 21
317.5
 12
-449.0
 22
-317.5
 32
0.0
 14
-449.0
 24
-317.5
 34
0.0
 15
1279.0
 25
317.5
 35
0.0
146
0.0
 13
0.0
 23
0.0
 33
0.0
 16
1.0
 26
0.0
 36
0.0
 17
0.0
 27
1.0
 37
0.0
 76
     0
330
1F
331
29
  0
MATERIAL
  5
3D
102
{ACAD_REACTORS
330
3B
102
}
102
{ACAD_XDICTIONARY
360
230
102
}
330
3B
100
AcDbMaterial
  1
ByBlock
  0
MATERIAL
  5
3C
102
{ACAD_REACTORS
330
3B
102
}
102
{ACAD_XDICTIONARY
360
22E
102
}
330
3B
100
AcDbMaterial
  1
ByLayer
  0
MATERIAL
  5
3E
102
{ACAD_REACTORS
330
3B
102
}
102
{ACAD_XDICTIONARY
360
232
102
}
330
3B
100
AcDbMaterial
  1
Global
  0
MLINESTYLE
  5
18
102
{ACAD_REACTORS
330
17
102
}
330
17
100
AcDbMlineStyle
  2
Standard
 70
     0
  3

 62
   256
 51
90.0
 52
90.0
 71
     2
 49
0.5
 62
   256
  6
BYLAYER
 49
-0.5
 62
   256
  6
BYLAYER
  0
ACDBPLACEHOLDER
  5
F
102
{ACAD_REACTORS
330
E
102
}
330
E
  0
VISUALSTYLE
  5
2F
102
{ACAD_REACTORS
330
2A
102
}
102
{ACAD_XDICTIONARY
360
216
102
}
330
2A
100
AcDbVisualStyle
  2
2dWireframe
 70
     4
 71
     0
 72
     2
 73
     0
 90
        0
 40
-0.6
 41
-30.0
 62
     5
 63
     7
 74
     1
 91
        4
 64
     7
 65
   257
 75
     1
175
     1
 42
1.0
 92
        0
 66
   257
 43
1.0
 76
     1
 77
     6
 78
     2
 67
     7
 79
     5
170
     0
171
     0
290
     0
174
     0
 93
        1
 44
0.0
173
     0
291
     0
 45
0.0
1001
ACAD
1000
AcDbSavedByObjectVersion
1070
     0
  0
VISUALSTYLE
  5
31
102
{ACAD_REACTORS
330
2A
102
}
102
{ACAD_XDICTIONARY
360
21A
102
}
330
2A
100
AcDbVisualStyle
  2
3D Hidden
 70
     6
 71
     1
 72
     2
 73
     2
 90
        0
 40
-0.6
 41
-30.0
 62
     5
 63
     7
 74
     2
 91
        2
 64
     7
 65
   257
 75
     2
175
     1
 42
40.0
 92
        0
 66
   257
 43
1.0
 76
     1
 77
     6
 78
     2
 67
     7
 79
     3
170
     0
171
     0
290
     0
174
     0
 93
        1
 44
0.0
173
     0
291
     0
 45
0.0
1001
ACAD
1000
AcDbSavedByObjectVersion
1070
     0
  0
VISUALSTYLE
  5
30
102
{ACAD_REACTORS
330
2A
102
}
102
{ACAD_XDICTIONARY
360
218
102
}
330
2A
100
AcDbVisualStyle
  2
3dWireframe
 70
     5
 71
     0
 72
     2
 73
     0
 90
        0
 40
-0.6
 41
-30.0
 62
     5
 63
     7
 74
     1
 91
        4
 64
     7
 65
   257
 75
     1
175
     1
 42
1.0
 92
        0
 66
   257
 43
1.0
 76
     1
 77
     6
 78
     2
 67
     7
 79
     5
170
     0
171
     0
290
     0
174
     0
 93
        1
 44
0.0
173
     0
291
     0
 45
0.0
1001
ACAD
1000
AcDbSavedByObjectVersion
1070
     0
  0
VISUALSTYLE
  5
32
102
{ACAD_REACTORS
330
2A
102
}
102
{ACAD_XDICTIONARY
360
21C
102
}
330
2A
100
AcDbVisualStyle
  2
Basic
 70
     7
 71
     1
 72
     0
 73
     1
 90
        0
 40
-0.6
 41
-30.0
 62
     5
 63
     7
 74
     0
 91
        4
 64
     7
 65
   257
 75
     1
175
     1
 42
1.0
 92
        8
 66
     7
 43
1.0
 76
     1
 77
     6
 78
     2
 67
     7
 79
     5
170
     0
171
     0
290
     0
174
     0
 93
        1
 44
0.0
173
     0
291
     1
 45
0.0
1001
ACAD
1000
AcDbSavedByObjectVersion
1070
     0
  0
VISUALSTYLE
  5
36
102
{ACAD_REACTORS
330
2A
102
}
102
{ACAD_XDICTIONARY
360
224
102
}
330
2A
100
AcDbVisualStyle
  2
Brighten
 70
    12
 71
     2
 72
     2
 73
     0
 90
        0
 40
-0.6
 41
-30.0
 62
     5
 63
     7
 74
     1
 91
        4
 64
     7
 65
   257
 75
     1
175
     1
 42
1.0
 92
        8
 66
     7
 43
1.0
 76
     1
 77
     6
 78
     2
 67
     7
 79
     5
170
     0
171
     0
290
     0
174
     0
 93
        1
 44
50.0
173
     0
291
     1
 45
0.0
1001
ACAD
1000
AcDbSavedByObjectVersion
1070
     0
  0
VISUALSTYLE
  5
3A
102
{ACAD_REACTORS
330
2A
102
}
102
{ACAD_XDICTIONARY
360
22C
102
}
330
2A
100
AcDbVisualStyle
  2
ColorChange
 70
    16
 71
     2
 72
     2
 73
     3
 90
        0
 40
-0.6
 41
-30.0
 62
     5
 63
     8
 74
     1
 91
        4
 64
     7
 65
   257
 75
     1
175
     1
 42
1.0
 92
        8
 66
     8
 43
1.0
 76
     1
 77
     6
 78
     2
 67
     7
 79
     5
170
     0
171
     0
290
     0
174
     0
 93
        1
 44
0.0
173
     0
291
     1
 45
0.0
1001
ACAD
1000
AcDbSavedByObjectVersion
1070
     0
  0
VISUALSTYLE
  5
34
102
{ACAD_REACTORS
330
2A
102
}
102
{ACAD_XDICTIONARY
360
220
102
}
330
2A
100
AcDbVisualStyle
  2
Conceptual
 70
     9
 71
     3
 72
     2
 73
     0
 90
        0
 40
-0.6
 41
-30.0
 62
     5
 63
     7
 74
     2
 91
        2
 64
     7
 65
   257
 75
     1
175
     1
 42
40.0
 92
        8
 66
     7
 43
1.0
 76
     1
 77
     6
 78
     2
 67
     7
 79
     3
170
     0
171
     0
290
     0
174
     0
 93
        1
 44
0.0
173
     0
291
     0
 45
0.0
1001
ACAD
1000
AcDbSavedByObjectVersion
1070
     0
  0
VISUALSTYLE
  5
35
102
{ACAD_REACTORS
330
2A
102
}
102
{ACAD_XDICTIONARY
360
222
102
}
330
2A
100
AcDbVisualStyle
  2
Dim
 70
    11
 71
     2
 72
     2
 73
     0
 90
        0
 40
-0.6
 41
-30.0
 62
     5
 63
     7
 74
     1
 91
        4
 64
     7
 65
   257
 75
     1
175
     1
 42
1.0
 92
        8
 66
     7
 43
1.0
 76
     1
 77
     6
 78
     2
 67
     7
 79
     5
170
     0
171
     0
290
     0
174
     0
 93
        1
 44
-50.0
173
     0
291
     1
 45
0.0
1001
ACAD
1000
AcDbSavedByObjectVersion
1070
     0
  0
VISUALSTYLE
  5
39
102
{ACAD_REACTORS
330
2A
102
}
102
{ACAD_XDICTIONARY
360
22A
102
}
330
2A
100
AcDbVisualStyle
  2
Facepattern
 70
    15
 71
     2
 72
     2
 73
     0
 90
        0
 40
-0.6
 41
-30.0
 62
     5
 63
     7
 74
     1
 91
        4
 64
     7
 65
   257
 75
     1
175
     1
 42
1.0
 92
        8
 66
     7
 43
1.0
 76
     1
 77
     6
 78
     2
 67
     7
 79
     5
170
     0
171
     0
290
     0
174
     0
 93
        1
 44
0.0
173
     0
291
     1
 45
0.0
1001
ACAD
1000
AcDbSavedByObjectVersion
1070
     0
  0
VISUALSTYLE
  5
2B
102
{ACAD_REACTORS
330
2A
102
}
102
{ACAD_XDICTIONARY
360
20E
102
}
330
2A
100
AcDbVisualStyle
  2
Flat
 70
     0
 71
     2
 72
     1
 73
     1
 90
        2
 40
-0.6
 41
30.0
 62
     5
 63
     7
 74
     0
 91
        4
 64
     7
 65
   257
 75
     1
175
     1
 42
1.0
 92
        8
 66
     7
 43
1.0
 76
     1
 77
     6
 78
     2
 67
     7
 79
     5
170
     0
171
     0
290
     0
174
     0
 93
       13
 44
0.0
173
     0
291
     1
 45
0.0
1001
ACAD
1000
AcDbSavedByObjectVersion
1070
     0
  0
VISUALSTYLE
  5
2C
102
{ACAD_REACTORS
330
2A
102
}
102
{ACAD_XDICTIONARY
360
210
102
}
330
2A
100
AcDbVisualStyle
  2
FlatWithEdges
 70
     1
 71
     2
 72
     1
 73
     1
 90
        2
 40
-0.6
 41
30.0
 62
     5
 63
     7
 74
     1
 91
        4
 64
     7
 65
   257
 75
     1
175
     1
 42
1.0
 92
        0
 66
   257
 43
1.0
 76
     1
 77
     6
 78
     2
 67
     7
 79
     5
170
     0
171
     0
290
     0
174
     0
 93
       13
 44
0.0
173
     0
291
     1
 45
0.0
1001
ACAD
1000
AcDbSavedByObjectVersion
1070
     0
  0
VISUALSTYLE
  5
2D
102
{ACAD_REACTORS
330
2A
102
}
102
{ACAD_XDICTIONARY
360
212
102
}
330
2A
100
AcDbVisualStyle
  2
Gouraud
 70
     2
 71
     2
 72
     2
 73
     1
 90
        2
 40
-0.6
 41
30.0
 62
     5
 63
     7
 74
     0
 91
        4
 64
     7
 65
   257
 75
     1
175
     1
 42
1.0
 92
        0
 66
     7
 43
1.0
 76
     1
 77
     6
 78
     2
 67
     7
 79
     5
170
     0
171
     0
290
     0
174
     0
 93
       13
 44
0.0
173
     0
291
     1
 45
0.0
1001
ACAD
1000
AcDbSavedByObjectVersion
1070
     0
  0
VISUALSTYLE
  5
2E
102
{ACAD_REACTORS
330
2A
102
}
102
{ACAD_XDICTIONARY
360
214
102
}
330
2A
100
AcDbVisualStyle
  2
GouraudWithEdges
 70
     3
 71
     2
 72
     2
 73
     1
 90
        2
 40
-0.6
 41
30.0
 62
     5
 63
     7
 74
     1
 91
        4
 64
     7
 65
   257
 75
     1
175
     1
 42
1.0
 92
        0
 66
   257
 43
1.0
 76
     1
 77
     6
 78
     2
 67
     7
 79
     5
170
     0
171
     0
290
     0
174
     0
 93
       13
 44
0.0
173
     0
291
     1
 45
0.0
1001
ACAD
1000
AcDbSavedByObjectVersion
1070
     0
  0
VISUALSTYLE
  5
38
102
{ACAD_REACTORS
330
2A
102
}
102
{ACAD_XDICTIONARY
360
228
102
}
330
2A
100
AcDbVisualStyle
  2
Linepattern
 70
    14
 71
     2
 72
     2
 73
     0
 90
        0
 40
-0.6
 41
-30.0
 62
     5
 63
     7
 74
     1
 91
        4
 64
     7
 65
   257
 75
     7
175
     7
 42
1.0
 92
        8
 66
     7
 43
1.0
 76
     1
 77
     6
 78
     2
 67
     7
 79
     5
170
     0
171
     0
290
     0
174
     0
 93
        1
 44
0.0
173
     0
291
     1
 45
0.0
1001
ACAD
1000
AcDbSavedByObjectVersion
1070
     0
  0
VISUALSTYLE
  5
33
102
{ACAD_REACTORS
330
2A
102
}
102
{ACAD_XDICTIONARY
360
21E
102
}
330
2A
100
AcDbVisualStyle
  2
Realistic
 70
     8
 71
     2
 72
     2
 73
     0
 90
        0
 40
-0.6
 41
-30.0
 62
     5
 63
     7
 74
     1
 91
        0
 64
     7
 65
   257
 75
     1
175
     1
 42
1.0
 92
        8
 66
     8
 43
1.0
 76
     1
 77
     6
 78
     2
 67
     7
 79
     5
170
     0
171
     0
290
     0
174
     0
 93
       13
 44
0.0
173
     0
291
     0
 45
0.0
1001
ACAD
1000
AcDbSavedByObjectVersion
1070
     0
  0
VISUALSTYLE
  5
37
102
{ACAD_REACTORS
330
2A
102
}
102
{ACAD_XDICTIONARY
360
226
102
}
330
2A
100
AcDbVisualStyle
  2
Thicken
 70
    13
 71
     2
 72
     2
 73
     0
 90
        0
 40
-0.6
 41
-30.0
 62
     5
 63
     7
 74
     1
 91
        4
 64
     7
 65
   257
 75
     1
175
     1
 42
1.0
 92
       12
 66
     7
 43
1.0
 76
     1
 77
     6
 78
     2
 67
     7
 79
     5
170
     0
171
     0
290
     0
174
     0
 93
        1
 44
0.0
173
     0
291
     1
 45
0.0
1001
ACAD
1000
AcDbSavedByObjectVersion
1070
     0
  0
DICTIONARYVAR
  5
20C
102
{ACAD_REACTORS
330
207
102
}
330
207
100
DictionaryVariables
280
     0
  1
2
  0
DICTIONARYVAR
  5
20D
102
{ACAD_REACTORS
330
207
102
}
330
207
100
DictionaryVariables
280
     0
  1
1
  0
DICTIONARYVAR
  5
20B
102
{ACAD_REACTORS
330
207
102
}
330
207
100
DictionaryVariables
280
     0
  1
80.000000
  0
DICTIONARYVAR
  5
20A
102
{ACAD_REACTORS
330
207
102
}
330
207
100
DictionaryVariables
280
     0
  1
5.000000
  0
DICTIONARY
  5
230
330
3D
100
AcDbDictionary
280
     1
281
     1
  3
ACAD_XREC_ROUNDTRIP
360
231
  0
DICTIONARY
  5
22E
330
3C
100
AcDbDictionary
280
     1
281
     1
  3
ACAD_XREC_ROUNDTRIP
360
22F
  0
DICTIONARY
  5
232
330
3E
100
AcDbDictionary
280
     1
281
     1
  3
ACAD_XREC_ROUNDTRIP
360
233
  0
DICTIONARY
  5
216
330
2F
100
AcDbDictionary
280
     1
281
     1
  3
ACAD_XREC_ROUNDTRIP
360
217
  0
DICTIONARY
  5
21A
330
31
100
AcDbDictionary
280
     1
281
     1
  3
ACAD_XREC_ROUNDTRIP
360
21B
  0
DICTIONARY
  5
218
330
30
100
AcDbDictionary
280
     1
281
     1
  3
ACAD_XREC_ROUNDTRIP
360
219
  0
DICTIONARY
  5
21C
330
32
100
AcDbDictionary
280
     1
281
     1
  3
ACAD_XREC_ROUNDTRIP
360
21D
  0
DICTIONARY
  5
224
330
36
100
AcDbDictionary
280
     1
281
     1
  3
ACAD_XREC_ROUNDTRIP
360
225
  0
DICTIONARY
  5
22C
330
3A
100
AcDbDictionary
280
     1
281
     1
  3
ACAD_XREC_ROUNDTRIP
360
22D
  0
DICTIONARY
  5
220
330
34
100
AcDbDictionary
280
     1
281
     1
  3
ACAD_XREC_ROUNDTRIP
360
221
  0
DICTIONARY
  5
222
330
35
100
AcDbDictionary
280
     1
281
     1
  3
ACAD_XREC_ROUNDTRIP
360
223
  0
DICTIONARY
  5
22A
330
39
100
AcDbDictionary
280
     1
281
     1
  3
ACAD_XREC_ROUNDTRIP
360
22B
  0
DICTIONARY
  5
20E
330
2B
100
AcDbDictionary
280
     1
281
     1
  3
ACAD_XREC_ROUNDTRIP
360
20F
  0
DICTIONARY
  5
210
330
2C
100
AcDbDictionary
280
     1
281
     1
  3
ACAD_XREC_ROUNDTRIP
360
211
  0
DICTIONARY
  5
212
330
2D
100
AcDbDictionary
280
     1
281
     1
  3
ACAD_XREC_ROUNDTRIP
360
213
  0
DICTIONARY
  5
214
330
2E
100
AcDbDictionary
280
     1
281
     1
  3
ACAD_XREC_ROUNDTRIP
360
215
  0
DICTIONARY
  5
228
330
38
100
AcDbDictionary
280
     1
281
     1
  3
ACAD_XREC_ROUNDTRIP
360
229
  0
DICTIONARY
  5
21E
330
33
100
AcDbDictionary
280
     1
281
     1
  3
ACAD_XREC_ROUNDTRIP
360
21F
  0
DICTIONARY
  5
226
330
37
100
AcDbDictionary
280
     1
281
     1
  3
ACAD_XREC_ROUNDTRIP
360
227
  0
XRECORD
  5
231
102
{ACAD_REACTORS
330
230
102
}
330
230
100
AcDbXrecord
280
     1
102
MATERIAL
148
0.0
149
0.0
149
0.0
 93
        0
 94
      127
282
     0
 72
     1
 77
     1
171
     1
175
     1
179
     1
273
     0
  0
XRECORD
  5
22F
102
{ACAD_REACTORS
330
22E
102
}
330
22E
100
AcDbXrecord
280
     1
102
MATERIAL
148
0.0
149
0.0
149
0.0
 93
        0
 94
      127
282
     0
 72
     1
 77
     1
171
     1
175
     1
179
     1
273
     0
  0
XRECORD
  5
233
102
{ACAD_REACTORS
330
232
102
}
330
232
100
AcDbXrecord
280
     1
102
MATERIAL
148
0.0
149
0.0
149
0.0
 93
        0
 94
      127
282
     0
 72
     1
 77
     1
171
     1
175
     1
179
     1
273
     0
  0
XRECORD
  5
217
102
{ACAD_REACTORS
330
216
102
}
330
216
100
AcDbXrecord
280
     1
102
RTVSPropertyOp0
 70
     1
102
RTVSPropertyOp1
 70
     1
102
RTVSPropertyOp2
 70
     1
102
RTVSPropertyOp3
 70
     1
102
RTVSPropertyOp4
 70
     1
102
RTVSPropertyOp5
 70
     1
102
RTVSPropertyOp6
 70
     1
102
RTVSPropertyOp7
 70
     1
102
RTVSPropertyOp8
 70
     1
102
RTVSPropertyOp9
 70
     1
102
RTVSPropertyOp10
 70
     1
102
RTVSPropertyOp11
 70
     1
102
RTVSPropertyOp12
 70
     1
102
RTVSPropertyOp13
 70
     1
102
RTVSPropertyOp14
 70
     1
102
RTVSPropertyOp15
 70
     1
102
RTVSPropertyOp16
 70
     1
102
RTVSPropertyOp17
 70
     1
102
RTVSPropertyOp18
 70
     1
102
RTVSPropertyOp19
 70
     1
102
RTVSPropertyOp20
 70
     1
102
RTVSPropertyOp21
 70
     1
102
RTVSPropertyOp22
 70
     1
102
RTVSPropertyOp23
 70
     1
102
RTVSPropertyOp24
 70
     1
102
RTVSPropertyOp25
 70
     1
102
RTVSPropertyOp26
 70
     1
102
RTVSPropertyOp27
 70
     1
102
RTVSPropertyOp28
 70
     1
102
RTVSPropertyOp29
 70
     1
102
RTVSPropertyOp30
 70
     1
102
RTVSPropertyOp31
 70
     1
102
RTVSPropertyOp32
 70
     1
  0
XRECORD
  5
21B
102
{ACAD_REACTORS
330
21A
102
}
330
21A
100
AcDbXrecord
280
     1
102
RTVSPropertyOp0
 70
     1
102
RTVSPropertyOp1
 70
     1
102
RTVSPropertyOp2
 70
     1
102
RTVSPropertyOp3
 70
     1
102
RTVSPropertyOp4
 70
     1
102
RTVSPropertyOp5
 70
     1
102
RTVSPropertyOp6
 70
     1
102
RTVSPropertyOp7
 70
     1
102
RTVSPropertyOp8
 70
     1
102
RTVSPropertyOp9
 70
     1
102
RTVSPropertyOp10
 70
     1
102
RTVSPropertyOp11
 70
     1
102
RTVSPropertyOp12
 70
     1
102
RTVSPropertyOp13
 70
     1
102
RTVSPropertyOp14
 70
     1
102
RTVSPropertyOp15
 70
     1
102
RTVSPropertyOp16
 70
     1
102
RTVSPropertyOp17
 70
     1
102
RTVSPropertyOp18
 70
     1
102
RTVSPropertyOp19
 70
     1
102
RTVSPropertyOp20
 70
     1
102
RTVSPropertyOp21
 70
     1
102
RTVSPropertyOp22
 70
     1
102
RTVSPropertyOp23
 70
     1
102
RTVSPropertyOp24
 70
     1
102
RTVSPropertyOp25
 70
     1
102
RTVSPropertyOp26
 70
     1
102
RTVSPropertyOp27
 70
     1
102
RTVSPropertyOp28
 70
     1
102
RTVSPropertyOp29
 70
     1
102
RTVSPropertyOp30
 70
     1
102
RTVSPropertyOp31
 70
     1
102
RTVSPropertyOp32
 70
     1
  0
XRECORD
  5
219
102
{ACAD_REACTORS
330
218
102
}
330
218
100
AcDbXrecord
280
     1
102
RTVSPropertyOp0
 70
     1
102
RTVSPropertyOp1
 70
     1
102
RTVSPropertyOp2
 70
     1
102
RTVSPropertyOp3
 70
     1
102
RTVSPropertyOp4
 70
     1
102
RTVSPropertyOp5
 70
     1
102
RTVSPropertyOp6
 70
     1
102
RTVSPropertyOp7
 70
     1
102
RTVSPropertyOp8
 70
     1
102
RTVSPropertyOp9
 70
     1
102
RTVSPropertyOp10
 70
     1
102
RTVSPropertyOp11
 70
     1
102
RTVSPropertyOp12
 70
     1
102
RTVSPropertyOp13
 70
     1
102
RTVSPropertyOp14
 70
     1
102
RTVSPropertyOp15
 70
     1
102
RTVSPropertyOp16
 70
     1
102
RTVSPropertyOp17
 70
     1
102
RTVSPropertyOp18
 70
     1
102
RTVSPropertyOp19
 70
     1
102
RTVSPropertyOp20
 70
     1
102
RTVSPropertyOp21
 70
     1
102
RTVSPropertyOp22
 70
     1
102
RTVSPropertyOp23
 70
     1
102
RTVSPropertyOp24
 70
     1
102
RTVSPropertyOp25
 70
     1
102
RTVSPropertyOp26
 70
     1
102
RTVSPropertyOp27
 70
     1
102
RTVSPropertyOp28
 70
     1
102
RTVSPropertyOp29
 70
     1
102
RTVSPropertyOp30
 70
     1
102
RTVSPropertyOp31
 70
     1
102
RTVSPropertyOp32
 70
     1
  0
XRECORD
  5
21D
102
{ACAD_REACTORS
330
21C
102
}
330
21C
100
AcDbXrecord
280
     1
102
RTVSPropertyOp0
 70
     1
102
RTVSPropertyOp1
 70
     1
102
RTVSPropertyOp2
 70
     1
102
RTVSPropertyOp3
 70
     1
102
RTVSPropertyOp4
 70
     1
102
RTVSPropertyOp5
 70
     1
102
RTVSPropertyOp6
 70
     1
102
RTVSPropertyOp7
 70
     1
102
RTVSPropertyOp8
 70
     1
102
RTVSPropertyOp9
 70
     1
102
RTVSPropertyOp10
 70
     1
102
RTVSPropertyOp11
 70
     1
102
RTVSPropertyOp12
 70
     1
102
RTVSPropertyOp13
 70
     1
102
RTVSPropertyOp14
 70
     1
102
RTVSPropertyOp15
 70
     1
102
RTVSPropertyOp16
 70
     1
102
RTVSPropertyOp17
 70
     1
102
RTVSPropertyOp18
 70
     1
102
RTVSPropertyOp19
 70
     1
102
RTVSPropertyOp20
 70
     1
102
RTVSPropertyOp21
 70
     1
102
RTVSPropertyOp22
 70
     1
102
RTVSPropertyOp23
 70
     1
102
RTVSPropertyOp24
 70
     1
102
RTVSPropertyOp25
 70
     1
102
RTVSPropertyOp26
 70
     1
102
RTVSPropertyOp27
 70
     1
102
RTVSPropertyOp28
 70
     1
102
RTVSPropertyOp29
 70
     1
102
RTVSPropertyOp30
 70
     1
102
RTVSPropertyOp31
 70
     1
102
RTVSPropertyOp32
 70
     1
  0
XRECORD
  5
225
102
{ACAD_REACTORS
330
224
102
}
330
224
100
AcDbXrecord
280
     1
102
RTVSPropertyOp0
 70
     1
102
RTVSPropertyOp1
 70
     1
102
RTVSPropertyOp2
 70
     1
102
RTVSPropertyOp3
 70
     1
102
RTVSPropertyOp4
 70
     1
102
RTVSPropertyOp5
 70
     1
102
RTVSPropertyOp6
 70
     1
102
RTVSPropertyOp7
 70
     1
102
RTVSPropertyOp8
 70
     1
102
RTVSPropertyOp9
 70
     1
102
RTVSPropertyOp10
 70
     1
102
RTVSPropertyOp11
 70
     1
102
RTVSPropertyOp12
 70
     1
102
RTVSPropertyOp13
 70
     1
102
RTVSPropertyOp14
 70
     1
102
RTVSPropertyOp15
 70
     1
102
RTVSPropertyOp16
 70
     1
102
RTVSPropertyOp17
 70
     1
102
RTVSPropertyOp18
 70
     1
102
RTVSPropertyOp19
 70
     1
102
RTVSPropertyOp20
 70
     1
102
RTVSPropertyOp21
 70
     1
102
RTVSPropertyOp22
 70
     1
102
RTVSPropertyOp23
 70
     1
102
RTVSPropertyOp24
 70
     1
102
RTVSPropertyOp25
 70
     1
102
RTVSPropertyOp26
 70
     1
102
RTVSPropertyOp27
 70
     1
102
RTVSPropertyOp28
 70
     1
102
RTVSPropertyOp29
 70
     1
102
RTVSPropertyOp30
 70
     1
102
RTVSPropertyOp31
 70
     1
102
RTVSPropertyOp32
 70
     1
  0
XRECORD
  5
22D
102
{ACAD_REACTORS
330
22C
102
}
330
22C
100
AcDbXrecord
280
     1
102
RTVSPropertyOp0
 70
     1
102
RTVSPropertyOp1
 70
     1
102
RTVSPropertyOp2
 70
     1
102
RTVSPropertyOp3
 70
     1
102
RTVSPropertyOp4
 70
     1
102
RTVSPropertyOp5
 70
     1
102
RTVSPropertyOp6
 70
     1
102
RTVSPropertyOp7
 70
     1
102
RTVSPropertyOp8
 70
     1
102
RTVSPropertyOp9
 70
     1
102
RTVSPropertyOp10
 70
     1
102
RTVSPropertyOp11
 70
     1
102
RTVSPropertyOp12
 70
     1
102
RTVSPropertyOp13
 70
     1
102
RTVSPropertyOp14
 70
     1
102
RTVSPropertyOp15
 70
     1
102
RTVSPropertyOp16
 70
     1
102
RTVSPropertyOp17
 70
     1
102
RTVSPropertyOp18
 70
     1
102
RTVSPropertyOp19
 70
     1
102
RTVSPropertyOp20
 70
     1
102
RTVSPropertyOp21
 70
     1
102
RTVSPropertyOp22
 70
     1
102
RTVSPropertyOp23
 70
     1
102
RTVSPropertyOp24
 70
     1
102
RTVSPropertyOp25
 70
     1
102
RTVSPropertyOp26
 70
     1
102
RTVSPropertyOp27
 70
     1
102
RTVSPropertyOp28
 70
     1
102
RTVSPropertyOp29
 70
     1
102
RTVSPropertyOp30
 70
     1
102
RTVSPropertyOp31
 70
     1
102
RTVSPropertyOp32
 70
     1
  0
XRECORD
  5
221
102
{ACAD_REACTORS
330
220
102
}
330
220
100
AcDbXrecord
280
     1
102
RTVSPropertyOp0
 70
     1
102
RTVSPropertyOp1
 70
     1
102
RTVSPropertyOp2
 70
     1
102
RTVSPropertyOp3
 70
     1
102
RTVSPropertyOp4
 70
     1
102
RTVSPropertyOp5
 70
     1
102
RTVSPropertyOp6
 70
     1
102
RTVSPropertyOp7
 70
     1
102
RTVSPropertyOp8
 70
     1
102
RTVSPropertyOp9
 70
     1
102
RTVSPropertyOp10
 70
     1
102
RTVSPropertyOp11
 70
     1
102
RTVSPropertyOp12
 70
     1
102
RTVSPropertyOp13
 70
     1
102
RTVSPropertyOp14
 70
     1
102
RTVSPropertyOp15
 70
     1
102
RTVSPropertyOp16
 70
     1
102
RTVSPropertyOp17
 70
     1
102
RTVSPropertyOp18
 70
     1
102
RTVSPropertyOp19
 70
     1
102
RTVSPropertyOp20
 70
     1
102
RTVSPropertyOp21
 70
     1
102
RTVSPropertyOp22
 70
     1
102
RTVSPropertyOp23
 70
     1
102
RTVSPropertyOp24
 70
     1
102
RTVSPropertyOp25
 70
     1
102
RTVSPropertyOp26
 70
     1
102
RTVSPropertyOp27
 70
     1
102
RTVSPropertyOp28
 70
     1
102
RTVSPropertyOp29
 70
     1
102
RTVSPropertyOp30
 70
     1
102
RTVSPropertyOp31
 70
     1
102
RTVSPropertyOp32
 70
     1
  0
XRECORD
  5
223
102
{ACAD_REACTORS
330
222
102
}
330
222
100
AcDbXrecord
280
     1
102
RTVSPropertyOp0
 70
     1
102
RTVSPropertyOp1
 70
     1
102
RTVSPropertyOp2
 70
     1
102
RTVSPropertyOp3
 70
     1
102
RTVSPropertyOp4
 70
     1
102
RTVSPropertyOp5
 70
     1
102
RTVSPropertyOp6
 70
     1
102
RTVSPropertyOp7
 70
     1
102
RTVSPropertyOp8
 70
     1
102
RTVSPropertyOp9
 70
     1
102
RTVSPropertyOp10
 70
     1
102
RTVSPropertyOp11
 70
     1
102
RTVSPropertyOp12
 70
     1
102
RTVSPropertyOp13
 70
     1
102
RTVSPropertyOp14
 70
     1
102
RTVSPropertyOp15
 70
     1
102
RTVSPropertyOp16
 70
     1
102
RTVSPropertyOp17
 70
     1
102
RTVSPropertyOp18
 70
     1
102
RTVSPropertyOp19
 70
     1
102
RTVSPropertyOp20
 70
     1
102
RTVSPropertyOp21
 70
     1
102
RTVSPropertyOp22
 70
     1
102
RTVSPropertyOp23
 70
     1
102
RTVSPropertyOp24
 70
     1
102
RTVSPropertyOp25
 70
     1
102
RTVSPropertyOp26
 70
     1
102
RTVSPropertyOp27
 70
     1
102
RTVSPropertyOp28
 70
     1
102
RTVSPropertyOp29
 70
     1
102
RTVSPropertyOp30
 70
     1
102
RTVSPropertyOp31
 70
     1
102
RTVSPropertyOp32
 70
     1
  0
XRECORD
  5
22B
102
{ACAD_REACTORS
330
22A
102
}
330
22A
100
AcDbXrecord
280
     1
102
RTVSPropertyOp0
 70
     1
102
RTVSPropertyOp1
 70
     1
102
RTVSPropertyOp2
 70
     1
102
RTVSPropertyOp3
 70
     1
102
RTVSPropertyOp4
 70
     1
102
RTVSPropertyOp5
 70
     1
102
RTVSPropertyOp6
 70
     1
102
RTVSPropertyOp7
 70
     1
102
RTVSPropertyOp8
 70
     1
102
RTVSPropertyOp9
 70
     1
102
RTVSPropertyOp10
 70
     1
102
RTVSPropertyOp11
 70
     1
102
RTVSPropertyOp12
 70
     1
102
RTVSPropertyOp13
 70
     1
102
RTVSPropertyOp14
 70
     1
102
RTVSPropertyOp15
 70
     1
102
RTVSPropertyOp16
 70
     1
102
RTVSPropertyOp17
 70
     1
102
RTVSPropertyOp18
 70
     1
102
RTVSPropertyOp19
 70
     1
102
RTVSPropertyOp20
 70
     1
102
RTVSPropertyOp21
 70
     1
102
RTVSPropertyOp22
 70
     1
102
RTVSPropertyOp23
 70
     1
102
RTVSPropertyOp24
 70
     1
102
RTVSPropertyOp25
 70
     1
102
RTVSPropertyOp26
 70
     1
102
RTVSPropertyOp27
 70
     1
102
RTVSPropertyOp28
 70
     1
102
RTVSPropertyOp29
 70
     1
102
RTVSPropertyOp30
 70
     1
102
RTVSPropertyOp31
 70
     1
102
RTVSPropertyOp32
 70
     1
  0
XRECORD
  5
20F
102
{ACAD_REACTORS
330
20E
102
}
330
20E
100
AcDbXrecord
280
     1
102
RTVSPropertyOp0
 70
     1
102
RTVSPropertyOp1
 70
     1
102
RTVSPropertyOp2
 70
     1
102
RTVSPropertyOp3
 70
     1
102
RTVSPropertyOp4
 70
     1
102
RTVSPropertyOp5
 70
     1
102
RTVSPropertyOp6
 70
     1
102
RTVSPropertyOp7
 70
     1
102
RTVSPropertyOp8
 70
     1
102
RTVSPropertyOp9
 70
     1
102
RTVSPropertyOp10
 70
     1
102
RTVSPropertyOp11
 70
     1
102
RTVSPropertyOp12
 70
     1
102
RTVSPropertyOp13
 70
     1
102
RTVSPropertyOp14
 70
     1
102
RTVSPropertyOp15
 70
     1
102
RTVSPropertyOp16
 70
     1
102
RTVSPropertyOp17
 70
     1
102
RTVSPropertyOp18
 70
     1
102
RTVSPropertyOp19
 70
     1
102
RTVSPropertyOp20
 70
     1
102
RTVSPropertyOp21
 70
     1
102
RTVSPropertyOp22
 70
     1
102
RTVSPropertyOp23
 70
     1
102
RTVSPropertyOp24
 70
     1
102
RTVSPropertyOp25
 70
     1
102
RTVSPropertyOp26
 70
     1
102
RTVSPropertyOp27
 70
     1
102
RTVSPropertyOp28
 70
     1
102
RTVSPropertyOp29
 70
     1
102
RTVSPropertyOp30
 70
     1
102
RTVSPropertyOp31
 70
     1
102
RTVSPropertyOp32
 70
     1
  0
XRECORD
  5
211
102
{ACAD_REACTORS
330
210
102
}
330
210
100
AcDbXrecord
280
     1
102
RTVSPropertyOp0
 70
     1
102
RTVSPropertyOp1
 70
     1
102
RTVSPropertyOp2
 70
     1
102
RTVSPropertyOp3
 70
     1
102
RTVSPropertyOp4
 70
     1
102
RTVSPropertyOp5
 70
     1
102
RTVSPropertyOp6
 70
     1
102
RTVSPropertyOp7
 70
     1
102
RTVSPropertyOp8
 70
     1
102
RTVSPropertyOp9
 70
     1
102
RTVSPropertyOp10
 70
     1
102
RTVSPropertyOp11
 70
     1
102
RTVSPropertyOp12
 70
     1
102
RTVSPropertyOp13
 70
     1
102
RTVSPropertyOp14
 70
     1
102
RTVSPropertyOp15
 70
     1
102
RTVSPropertyOp16
 70
     1
102
RTVSPropertyOp17
 70
     1
102
RTVSPropertyOp18
 70
     1
102
RTVSPropertyOp19
 70
     1
102
RTVSPropertyOp20
 70
     1
102
RTVSPropertyOp21
 70
     1
102
RTVSPropertyOp22
 70
     1
102
RTVSPropertyOp23
 70
     1
102
RTVSPropertyOp24
 70
     1
102
RTVSPropertyOp25
 70
     1
102
RTVSPropertyOp26
 70
     1
102
RTVSPropertyOp27
 70
     1
102
RTVSPropertyOp28
 70
     1
102
RTVSPropertyOp29
 70
     1
102
RTVSPropertyOp30
 70
     1
102
RTVSPropertyOp31
 70
     1
102
RTVSPropertyOp32
 70
     1
  0
XRECORD
  5
213
102
{ACAD_REACTORS
330
212
102
}
330
212
100
AcDbXrecord
280
     1
102
RTVSPropertyOp0
 70
     1
102
RTVSPropertyOp1
 70
     1
102
RTVSPropertyOp2
 70
     1
102
RTVSPropertyOp3
 70
     1
102
RTVSPropertyOp4
 70
     1
102
RTVSPropertyOp5
 70
     1
102
RTVSPropertyOp6
 70
     1
102
RTVSPropertyOp7
 70
     1
102
RTVSPropertyOp8
 70
     1
102
RTVSPropertyOp9
 70
     1
102
RTVSPropertyOp10
 70
     1
102
RTVSPropertyOp11
 70
     1
102
RTVSPropertyOp12
 70
     1
102
RTVSPropertyOp13
 70
     1
102
RTVSPropertyOp14
 70
     1
102
RTVSPropertyOp15
 70
     1
102
RTVSPropertyOp16
 70
     1
102
RTVSPropertyOp17
 70
     1
102
RTVSPropertyOp18
 70
     1
102
RTVSPropertyOp19
 70
     1
102
RTVSPropertyOp20
 70
     1
102
RTVSPropertyOp21
 70
     1
102
RTVSPropertyOp22
 70
     1
102
RTVSPropertyOp23
 70
     1
102
RTVSPropertyOp24
 70
     1
102
RTVSPropertyOp25
 70
     1
102
RTVSPropertyOp26
 70
     1
102
RTVSPropertyOp27
 70
     1
102
RTVSPropertyOp28
 70
     1
102
RTVSPropertyOp29
 70
     1
102
RTVSPropertyOp30
 70
     1
102
RTVSPropertyOp31
 70
     1
102
RTVSPropertyOp32
 70
     1
  0
XRECORD
  5
215
102
{ACAD_REACTORS
330
214
102
}
330
214
100
AcDbXrecord
280
     1
102
RTVSPropertyOp0
 70
     1
102
RTVSPropertyOp1
 70
     1
102
RTVSPropertyOp2
 70
     1
102
RTVSPropertyOp3
 70
     1
102
RTVSPropertyOp4
 70
     1
102
RTVSPropertyOp5
 70
     1
102
RTVSPropertyOp6
 70
     1
102
RTVSPropertyOp7
 70
     1
102
RTVSPropertyOp8
 70
     1
102
RTVSPropertyOp9
 70
     1
102
RTVSPropertyOp10
 70
     1
102
RTVSPropertyOp11
 70
     1
102
RTVSPropertyOp12
 70
     1
102
RTVSPropertyOp13
 70
     1
102
RTVSPropertyOp14
 70
     1
102
RTVSPropertyOp15
 70
     1
102
RTVSPropertyOp16
 70
     1
102
RTVSPropertyOp17
 70
     1
102
RTVSPropertyOp18
 70
     1
102
RTVSPropertyOp19
 70
     1
102
RTVSPropertyOp20
 70
     1
102
RTVSPropertyOp21
 70
     1
102
RTVSPropertyOp22
 70
     1
102
RTVSPropertyOp23
 70
     1
102
RTVSPropertyOp24
 70
     1
102
RTVSPropertyOp25
 70
     1
102
RTVSPropertyOp26
 70
     1
102
RTVSPropertyOp27
 70
     1
102
RTVSPropertyOp28
 70
     1
102
RTVSPropertyOp29
 70
     1
102
RTVSPropertyOp30
 70
     1
102
RTVSPropertyOp31
 70
     1
102
RTVSPropertyOp32
 70
     1
  0
XRECORD
  5
229
102
{ACAD_REACTORS
330
228
102
}
330
228
100
AcDbXrecord
280
     1
102
RTVSPropertyOp0
 70
     1
102
RTVSPropertyOp1
 70
     1
102
RTVSPropertyOp2
 70
     1
102
RTVSPropertyOp3
 70
     1
102
RTVSPropertyOp4
 70
     1
102
RTVSPropertyOp5
 70
     1
102
RTVSPropertyOp6
 70
     1
102
RTVSPropertyOp7
 70
     1
102
RTVSPropertyOp8
 70
     1
102
RTVSPropertyOp9
 70
     1
102
RTVSPropertyOp10
 70
     1
102
RTVSPropertyOp11
 70
     1
102
RTVSPropertyOp12
 70
     1
102
RTVSPropertyOp13
 70
     1
102
RTVSPropertyOp14
 70
     1
102
RTVSPropertyOp15
 70
     1
102
RTVSPropertyOp16
 70
     1
102
RTVSPropertyOp17
 70
     1
102
RTVSPropertyOp18
 70
     1
102
RTVSPropertyOp19
 70
     1
102
RTVSPropertyOp20
 70
     1
102
RTVSPropertyOp21
 70
     1
102
RTVSPropertyOp22
 70
     1
102
RTVSPropertyOp23
 70
     1
102
RTVSPropertyOp24
 70
     1
102
RTVSPropertyOp25
 70
     1
102
RTVSPropertyOp26
 70
     1
102
RTVSPropertyOp27
 70
     1
102
RTVSPropertyOp28
 70
     1
102
RTVSPropertyOp29
 70
     1
102
RTVSPropertyOp30
 70
     1
102
RTVSPropertyOp31
 70
     1
102
RTVSPropertyOp32
 70
     1
  0
XRECORD
  5
21F
102
{ACAD_REACTORS
330
21E
102
}
330
21E
100
AcDbXrecord
280
     1
102
RTVSPropertyOp0
 70
     1
102
RTVSPropertyOp1
 70
     1
102
RTVSPropertyOp2
 70
     1
102
RTVSPropertyOp3
 70
     1
102
RTVSPropertyOp4
 70
     1
102
RTVSPropertyOp5
 70
     1
102
RTVSPropertyOp6
 70
     1
102
RTVSPropertyOp7
 70
     1
102
RTVSPropertyOp8
 70
     1
102
RTVSPropertyOp9
 70
     1
102
RTVSPropertyOp10
 70
     1
102
RTVSPropertyOp11
 70
     1
102
RTVSPropertyOp12
 70
     1
102
RTVSPropertyOp13
 70
     1
102
RTVSPropertyOp14
 70
     1
102
RTVSPropertyOp15
 70
     1
102
RTVSPropertyOp16
 70
     1
102
RTVSPropertyOp17
 70
     1
102
RTVSPropertyOp18
 70
     1
102
RTVSPropertyOp19
 70
     1
102
RTVSPropertyOp20
 70
     1
102
RTVSPropertyOp21
 70
     1
102
RTVSPropertyOp22
 70
     1
102
RTVSPropertyOp23
 70
     1
102
RTVSPropertyOp24
 70
     1
102
RTVSPropertyOp25
 70
     1
102
RTVSPropertyOp26
 70
     1
102
RTVSPropertyOp27
 70
     1
102
RTVSPropertyOp28
 70
     1
102
RTVSPropertyOp29
 70
     1
102
RTVSPropertyOp30
 70
     1
102
RTVSPropertyOp31
 70
     1
102
RTVSPropertyOp32
 70
     1
  0
XRECORD
  5
227
102
{ACAD_REACTORS
330
226
102
}
330
226
100
AcDbXrecord
280
     1
102
RTVSPropertyOp0
 70
     1
102
RTVSPropertyOp1
 70
     1
102
RTVSPropertyOp2
 70
     1
102
RTVSPropertyOp3
 70
     1
102
RTVSPropertyOp4
 70
     1
102
RTVSPropertyOp5
 70
     1
102
RTVSPropertyOp6
 70
     1
102
RTVSPropertyOp7
 70
     1
102
RTVSPropertyOp8
 70
     1
102
RTVSPropertyOp9
 70
     1
102
RTVSPropertyOp10
 70
     1
102
RTVSPropertyOp11
 70
     1
102
RTVSPropertyOp12
 70
     1
102
RTVSPropertyOp13
 70
     1
102
RTVSPropertyOp14
 70
     1
102
RTVSPropertyOp15
 70
     1
102
RTVSPropertyOp16
 70
     1
102
RTVSPropertyOp17
 70
     1
102
RTVSPropertyOp18
 70
     1
102
RTVSPropertyOp19
 70
     1
102
RTVSPropertyOp20
 70
     1
102
RTVSPropertyOp21
 70
     1
102
RTVSPropertyOp22
 70
     1
102
RTVSPropertyOp23
 70
     1
102
RTVSPropertyOp24
 70
     1
102
RTVSPropertyOp25
 70
     1
102
RTVSPropertyOp26
 70
     1
102
RTVSPropertyOp27
 70
     1
102
RTVSPropertyOp28
 70
     1
102
RTVSPropertyOp29
 70
     1
102
RTVSPropertyOp30
 70
     1
102
RTVSPropertyOp31
 70
     1
102
RTVSPropertyOp32
 70
     1
  0
ENDSEC
  0
EOF
