  0
SECTION
  2
HEADER
  9
$EXTMAX
 10
1264
 20
302.5
  9
$EXTMIN
 10
-434
 20
-907.5
  0
ENDSEC
  0
SECTION
  2
TABLES
  0
TABLE
  2
LTYPE
 70
    22
  0
LTYPE
  2
CONTINUOUS
 70
    64
  3
Solid line
 72
    65
 73
     0
 40
0.000000
  0
LTYPE
  2
DASHED
 70
    64
  3
__ __ __ __ __ __ __ __ __ __ __ __ __ __ __
 72
    65
 73
     2
 40
3.500000
 49
2.000000
 49
-1.500000
  0
LTYPE
  2
CENTER
 70
    64
  3
____ _ ____ _ ____ _ ____ _ ____ _ ____ _ ____
 72
    65
 73
     4
 40
17.500000
 49
13.000000
 49
-1.500000
 49
1.500000
 49
-1.500000
  0
LTYPE
  2
PHANTOM
 70
    64
  3
_____ _ _ _____ _ _ _____ _ _ _____ _ _ ____  
 72
    65
 73
     6
 40
15.500000
 49
8.000000
 49
-1.500000
 49
1.500000
 49
-1.500000
 49
1.500000
 49
-1.500000
  0
LTYPE
  2
DOT
 70
    64
  3
. . . . . . . . . . . . . . . . . . . . . . . .
 72
    65
 73
     2
 40
0.25
 49
0.0
 49
-0.25
  0
ENDTAB
  0
TABLE
  2
LAYER
 70
     2
  0
LAYER
  2
0
 70
     0
 62
     7
  6
CONTINUOUS
  0
LAYER
  2
1
 70
     0
 62
     7
  6
CONTINUOUS
  0
ENDTAB
  0
TABLE
  2
STYLE
 70
     1
  0
STYLE
  2
STANDARD
 70
     0
 40
0.000000
 41
1.000000
 50
0.000000
 71
     0
 42
0.200000
  3
txt
  0
ENDTAB
  0
TABLE
  2
VIEW
 70
     0
  0
ENDTAB
  0
ENDSEC
  0
SECTION
  2
BLOCKS
  0
ENDSEC
  0
SECTION
  2
ENTITIES
  0
POINT
  8
0
  6
CONTINUOUS
 62
     7
 10
47.62167
 20
-124.17518
  0
POINT
  8
0
  6
CONTINUOUS
 62
     7
 10
-266.94537
 20
-106.52562
  0
POINT
  8
0
  6
CONTINUOUS
 62
     7
 10
-189.22038
 20
158.39618
  0
POINT
  8
0
  6
CONTINUOUS
 62
     7
 10
11.113049
 20
155.11203
  0
POINT
  8
0
  6
CONTINUOUS
 62
     7
 10
226.29477
 20
145.39563
  0
POINT
  8
0
  6
CONTINUOUS
 62
     7
 10
-368.75415
 20
148.54372
  0
POINT
  8
0
  6
CONTINUOUS
 62
     7
 10
-266.94537
 20
-271.5256
  0
POINT
  8
0
  6
CONTINUOUS
 62
     7
 10
-101.94537
 20
-106.52562
  0
POINT
  8
0
  6
CONTINUOUS
 62
     7
 10
47.62167
 20
-264.17517
  0
POINT
  8
0
  6
CONTINUOUS
 62
     7
 10
187.62167
 20
-124.17518
  0
POINT
  8
0
  6
CONTINUOUS
 62
     7
 10
226.29477
 20
18.395626
  0
POINT
  8
0
  6
CONTINUOUS
 62
     7
 10
353.29477
 20
145.39563
  0
POINT
  8
0
  6
CONTINUOUS
 62
     7
 10
119.11304
 20
155.11203
  0
POINT
  8
0
  6
CONTINUOUS
 62
     7
 10
11.113049
 20
47.112015
  0
POINT
  8
0
  6
CONTINUOUS
 62
     7
 10
-94.220383
 20
158.39618
  0
POINT
  8
0
  6
CONTINUOUS
 62
     7
 10
-189.22038
 20
63.396194
  0
POINT
  8
0
  6
CONTINUOUS
 62
     7
 10
-286.25418
 20
148.54372
  0
POINT
  8
0
  6
CONTINUOUS
 62
     7
 10
-368.75415
 20
66.043724
  0
LINE
  8
0
  6
CENTER
 62
     7
 10
-368.75415
 20
148.54372
 11
-368.75415
 21
61.314075
  0
LINE
  8
0
  6
CONTINUOUS
 62
     7
 10
-398.90414
 20
66.043724
 11
-338.60419
 21
66.043724
  0
LINE
  8
0
  6
CONTINUOUS
 62
     7
 10
-398.90414
 20
81.943718
 11
-338.60419
 21
81.943718
  0
LINE
  8
0
  6
CONTINUOUS
 62
     7
 10
-397.35416
 20
89.843712
 11
-340.15417
 21
89.843712
  0
LINE
  8
0
  6
CONTINUOUS
 62
     7
 10
-357.99936
 20
96.1437
 11
-343.42297
 21
96.1437
  0
LINE
  8
0
  6
CENTER
 62
     7
 10
-368.75415
 20
148.54372
 11
-276.15735
 21
148.54372
  0
LINE
  8
0
  6
CONTINUOUS
 62
     7
 10
-352.4032
 20
94.6437
 11
-343.71625
 21
94.6437
  0
LINE
  8
0
  6
CONTINUOUS
 62
     7
 10
-398.90414
 20
81.943718
 11
-398.90414
 21
66.043724
  0
LINE
  8
0
  6
CONTINUOUS
 62
     7
 10
-397.35416
 20
89.843712
 11
-397.35416
 21
81.943718
  0
LINE
  8
0
  6
CONTINUOUS
 62
     7
 10
-396.00415
 20
98.543724
 11
-396.00415
 21
89.843712
  0
LINE
  8
0
  6
CONTINUOUS
 62
     7
 10
-338.60419
 20
81.943718
 11
-338.60419
 21
66.043724
  0
LINE
  8
0
  6
CONTINUOUS
 62
     7
 10
-340.15417
 20
89.843712
 11
-340.15417
 21
81.943718
  0
LINE
  8
0
  6
CONTINUOUS
 62
     7
 10
-341.50418
 20
98.543724
 11
-341.50418
 21
89.843712
  0
LINE
  8
0
  6
CONTINUOUS
 62
     7
 10
-343.42297
 20
96.1437
 11
-343.42297
 21
89.843712
  0
LINE
  8
0
  6
CONTINUOUS
 62
     7
 10
-343.71625
 20
94.6437
 11
-343.71625
 21
89.843712
  0
LINE
  8
0
  6
CONTINUOUS
 62
     7
 10
-352.4032
 20
94.6437
 11
-352.4032
 21
89.843712
  0
LINE
  8
0
  6
CONTINUOUS
 62
     7
 10
-357.99936
 20
96.1437
 11
-357.99936
 21
89.843712
  0
LINE
  8
0
  6
CONTINUOUS
 62
     7
 10
-357.99942
 20
96.14373
 11
-352.40326
 21
94.643723
  0
LINE
  8
0
  6
CONTINUOUS
 62
     7
 10
-343.71628
 20
94.643707
 11
-343.423
 21
96.143715
  0
LINE
  8
0
  6
CONTINUOUS
 62
     7
 10
-379.50894
 20
96.1437
 11
-394.08536
 21
96.1437
  0
LINE
  8
0
  6
CONTINUOUS
 62
     7
 10
-385.1051
 20
94.6437
 11
-393.79205
 21
94.6437
  0
LINE
  8
0
  6
CONTINUOUS
 62
     7
 10
-394.08536
 20
96.1437
 11
-394.08536
 21
89.843712
  0
LINE
  8
0
  6
CONTINUOUS
 62
     7
 10
-393.79205
 20
94.6437
 11
-393.79205
 21
89.843712
  0
LINE
  8
0
  6
CONTINUOUS
 62
     7
 10
-385.1051
 20
94.6437
 11
-385.1051
 21
89.843712
  0
LINE
  8
0
  6
CONTINUOUS
 62
     7
 10
-379.50894
 20
96.1437
 11
-379.50894
 21
89.843712
  0
LINE
  8
0
  6
CONTINUOUS
 62
     7
 10
-379.50897
 20
96.143684
 11
-385.10513
 21
94.643684
  0
LINE
  8
0
  6
CONTINUOUS
 62
     7
 10
-393.79211
 20
94.6437
 11
-394.08539
 21
96.143684
  0
LINE
  8
0
  6
CONTINUOUS
 62
     7
 10
-314.85419
 20
173.58163
 11
-316.35419
 21
173.87491
  0
LINE
  8
0
  6
CONTINUOUS
 62
     7
 10
-286.25418
 20
178.69371
 11
-286.25418
 21
118.39373
  0
LINE
  8
0
  6
CONTINUOUS
 62
     7
 10
-302.15417
 20
178.69371
 11
-302.15417
 21
118.39373
  0
LINE
  8
0
  6
CONTINUOUS
 62
     7
 10
-310.05417
 20
177.14372
 11
-310.05417
 21
119.94372
  0
LINE
  8
0
  6
CONTINUOUS
 62
     7
 10
-316.35416
 20
137.78893
 11
-316.35416
 21
123.21252
  0
LINE
  8
0
  6
CONTINUOUS
 62
     7
 10
-314.85416
 20
132.19276
 11
-314.85416
 21
123.50579
  0
LINE
  8
0
  6
CONTINUOUS
 62
     7
 10
-302.15417
 20
178.69371
 11
-286.25418
 21
178.69371
  0
LINE
  8
0
  6
CONTINUOUS
 62
     7
 10
-310.05417
 20
177.14372
 11
-302.15417
 21
177.14372
  0
LINE
  8
0
  6
CONTINUOUS
 62
     7
 10
-318.75418
 20
175.79372
 11
-310.05417
 21
175.79372
  0
LINE
  8
0
  6
CONTINUOUS
 62
     7
 10
-302.15417
 20
118.39373
 11
-286.25418
 21
118.39373
  0
LINE
  8
0
  6
CONTINUOUS
 62
     7
 10
-310.05417
 20
119.94372
 11
-302.15417
 21
119.94372
  0
LINE
  8
0
  6
CONTINUOUS
 62
     7
 10
-318.75418
 20
121.29372
 11
-310.05417
 21
121.29372
  0
LINE
  8
0
  6
CONTINUOUS
 62
     7
 10
-316.35416
 20
123.21252
 11
-310.05417
 21
123.21252
  0
LINE
  8
0
  6
CONTINUOUS
 62
     7
 10
-314.85416
 20
123.50579
 11
-310.05417
 21
123.50579
  0
LINE
  8
0
  6
CONTINUOUS
 62
     7
 10
-314.85416
 20
132.19276
 11
-310.05417
 21
132.19276
  0
LINE
  8
0
  6
CONTINUOUS
 62
     7
 10
-316.35416
 20
137.78893
 11
-310.05417
 21
137.78893
  0
LINE
  8
0
  6
CONTINUOUS
 62
     7
 10
-316.35419
 20
137.78893
 11
-314.85419
 21
132.19276
  0
LINE
  8
0
  6
CONTINUOUS
 62
     7
 10
-314.85419
 20
123.5058
 11
-316.35419
 21
123.21252
  0
LINE
  8
0
  6
CONTINUOUS
 62
     7
 10
-316.35416
 20
159.29851
 11
-316.35416
 21
173.87489
  0
LINE
  8
0
  6
CONTINUOUS
 62
     7
 10
-314.85416
 20
164.89464
 11
-314.85416
 21
173.58162
  0
LINE
  8
0
  6
CONTINUOUS
 62
     7
 10
-316.35416
 20
173.87489
 11
-310.05417
 21
173.87489
  0
LINE
  8
0
  6
CONTINUOUS
 62
     7
 10
-314.85416
 20
173.58162
 11
-310.05417
 21
173.58162
  0
LINE
  8
0
  6
CONTINUOUS
 62
     7
 10
-314.85416
 20
164.89464
 11
-310.05417
 21
164.89464
  0
LINE
  8
0
  6
CONTINUOUS
 62
     7
 10
-316.35416
 20
159.29851
 11
-310.05417
 21
159.29851
  0
LINE
  8
0
  6
CONTINUOUS
 62
     7
 10
-316.35419
 20
159.29851
 11
-314.85419
 21
164.89467
  0
LINE
  8
0
  6
CENTER
 62
     7
 10
-189.22038
 20
158.39618
 11
-189.22038
 21
59.970154
  0
LINE
  8
0
  6
CONTINUOUS
 62
     7
 10
-227.37039
 20
63.396194
 11
-151.07039
 21
63.396194
  0
LINE
  8
0
  6
CENTER
 62
     7
 10
-189.22038
 20
158.39618
 11
-82.710342
 21
158.39618
  0
LINE
  8
0
  6
CONTINUOUS
 62
     7
 10
-227.37039
 20
79.296181
 11
-151.07039
 21
79.296181
  0
LINE
  8
0
  6
CONTINUOUS
 62
     7
 10
-225.3204
 20
87.996193
 11
-153.12038
 21
87.996193
  0
LINE
  8
0
  6
CONTINUOUS
 62
     7
 10
-167.77808
 20
91.996193
 11
-157.99681
 21
91.996193
  0
LINE
  8
0
  6
CONTINUOUS
 62
     7
 10
-174.08174
 20
93.496193
 11
-157.66646
 21
93.496193
  0
LINE
  8
0
  6
CONTINUOUS
 62
     7
 10
-227.37039
 20
79.296181
 11
-227.37039
 21
63.396194
  0
LINE
  8
0
  6
CONTINUOUS
 62
     7
 10
-225.3204
 20
87.996193
 11
-225.3204
 21
79.296181
  0
LINE
  8
0
  6
CONTINUOUS
 62
     7
 10
-223.92041
 20
96.396187
 11
-223.92041
 21
87.996193
  0
LINE
  8
0
  6
CONTINUOUS
 62
     7
 10
-151.07039
 20
79.296181
 11
-151.07039
 21
63.396194
  0
LINE
  8
0
  6
CONTINUOUS
 62
     7
 10
-153.12038
 20
87.996193
 11
-153.12038
 21
79.296181
  0
LINE
  8
0
  6
CONTINUOUS
 62
     7
 10
-154.52039
 20
96.396187
 11
-154.52039
 21
87.996193
  0
LINE
  8
0
  6
CONTINUOUS
 62
     7
 10
-157.99681
 20
91.996193
 11
-157.99681
 21
87.996193
  0
LINE
  8
0
  6
CONTINUOUS
 62
     7
 10
-157.66646
 20
93.496193
 11
-157.66646
 21
87.996193
  0
LINE
  8
0
  6
CONTINUOUS
 62
     7
 10
-167.77808
 20
91.996193
 11
-167.77808
 21
87.996193
  0
LINE
  8
0
  6
CONTINUOUS
 62
     7
 10
-174.08174
 20
93.496193
 11
-174.08174
 21
87.996193
  0
LINE
  8
0
  6
CONTINUOUS
 62
     7
 10
-157.99681
 20
91.996208
 11
-157.66646
 21
93.496208
  0
LINE
  8
0
  6
CONTINUOUS
 62
     7
 10
-167.77808
 20
91.996208
 11
-174.08174
 21
93.496208
  0
LINE
  8
0
  6
CONTINUOUS
 62
     7
 10
-210.66269
 20
91.996193
 11
-220.44397
 21
91.996193
  0
LINE
  8
0
  6
CONTINUOUS
 62
     7
 10
-204.35904
 20
93.496193
 11
-220.77432
 21
93.496193
  0
LINE
  8
0
  6
CONTINUOUS
 62
     7
 10
-220.44397
 20
91.996193
 11
-220.44397
 21
87.996193
  0
LINE
  8
0
  6
CONTINUOUS
 62
     7
 10
-220.77432
 20
93.496193
 11
-220.77432
 21
87.996193
  0
LINE
  8
0
  6
CONTINUOUS
 62
     7
 10
-210.66269
 20
91.996193
 11
-210.66269
 21
87.996193
  0
LINE
  8
0
  6
CONTINUOUS
 62
     7
 10
-204.35904
 20
93.496193
 11
-204.35904
 21
87.996193
  0
LINE
  8
0
  6
CONTINUOUS
 62
     7
 10
-220.44397
 20
91.996201
 11
-220.77432
 21
93.496201
  0
LINE
  8
0
  6
CONTINUOUS
 62
     7
 10
-210.66269
 20
91.996208
 11
-204.35904
 21
93.496208
  0
LINE
  8
0
  6
CONTINUOUS
 62
     7
 10
-122.82038
 20
179.8385
 11
-124.32038
 21
173.53484
  0
LINE
  8
0
  6
CONTINUOUS
 62
     7
 10
-94.220383
 20
196.54617
 11
-94.220383
 21
120.24619
  0
LINE
  8
0
  6
CONTINUOUS
 62
     7
 10
-110.12038
 20
196.54617
 11
-110.12038
 21
120.24619
  0
LINE
  8
0
  6
CONTINUOUS
 62
     7
 10
-118.82039
 20
194.49619
 11
-118.82039
 21
122.29618
  0
LINE
  8
0
  6
CONTINUOUS
 62
     7
 10
-122.82039
 20
136.95389
 11
-122.82039
 21
127.17262
  0
LINE
  8
0
  6
CONTINUOUS
 62
     7
 10
-124.32039
 20
143.25754
 11
-124.32039
 21
126.84226
  0
LINE
  8
0
  6
CONTINUOUS
 62
     7
 10
-110.12038
 20
196.54617
 11
-94.220383
 21
196.54617
  0
LINE
  8
0
  6
CONTINUOUS
 62
     7
 10
-118.82039
 20
194.49619
 11
-110.12038
 21
194.49619
  0
LINE
  8
0
  6
CONTINUOUS
 62
     7
 10
-127.22038
 20
193.09619
 11
-118.82039
 21
193.09619
  0
LINE
  8
0
  6
CONTINUOUS
 62
     7
 10
-110.12038
 20
120.24619
 11
-94.220383
 21
120.24619
  0
LINE
  8
0
  6
CONTINUOUS
 62
     7
 10
-118.82039
 20
122.29618
 11
-110.12038
 21
122.29618
  0
LINE
  8
0
  6
CONTINUOUS
 62
     7
 10
-127.22038
 20
123.69621
 11
-118.82039
 21
123.69621
  0
LINE
  8
0
  6
CONTINUOUS
 62
     7
 10
-122.82039
 20
127.17262
 11
-118.82039
 21
127.17262
  0
LINE
  8
0
  6
CONTINUOUS
 62
     7
 10
-124.32039
 20
126.84226
 11
-118.82039
 21
126.84226
  0
LINE
  8
0
  6
CONTINUOUS
 62
     7
 10
-122.82039
 20
136.95389
 11
-118.82039
 21
136.95389
  0
LINE
  8
0
  6
CONTINUOUS
 62
     7
 10
-124.32039
 20
143.25754
 11
-118.82039
 21
143.25754
  0
LINE
  8
0
  6
CONTINUOUS
 62
     7
 10
-122.8204
 20
127.17262
 11
-124.3204
 21
126.84226
  0
LINE
  8
0
  6
CONTINUOUS
 62
     7
 10
-122.82039
 20
136.9539
 11
-124.32038
 21
143.25754
  0
LINE
  8
0
  6
CONTINUOUS
 62
     7
 10
-122.82039
 20
179.8385
 11
-122.82039
 21
189.61975
  0
LINE
  8
0
  6
CONTINUOUS
 62
     7
 10
-124.32039
 20
173.53485
 11
-124.32039
 21
189.9501
  0
LINE
  8
0
  6
CONTINUOUS
 62
     7
 10
-122.82039
 20
189.61975
 11
-118.82039
 21
189.61975
  0
LINE
  8
0
  6
CONTINUOUS
 62
     7
 10
-124.32039
 20
189.9501
 11
-118.82039
 21
189.9501
  0
LINE
  8
0
  6
CONTINUOUS
 62
     7
 10
-122.82039
 20
179.8385
 11
-118.82039
 21
179.8385
  0
LINE
  8
0
  6
CONTINUOUS
 62
     7
 10
-124.32039
 20
173.53485
 11
-118.82039
 21
173.53485
  0
LINE
  8
0
  6
CONTINUOUS
 62
     7
 10
-122.82039
 20
189.61978
 11
-124.32037
 21
189.95013
  0
LINE
  8
0
  6
CENTER
 62
     7
 10
11.113049
 20
155.11203
 11
11.113049
 21
42.127144
  0
LINE
  8
0
  6
CENTER
 62
     7
 10
11.113049
 20
155.11203
 11
127.32896
 21
155.11203
  0
LINE
  8
0
  6
CONTINUOUS
 62
     7
 10
-33.336964
 20
47.112015
 11
55.56303
 21
47.112015
  0
LINE
  8
0
  6
CONTINUOUS
 62
     7
 10
-33.336964
 20
63.012016
 11
55.56303
 21
63.012016
  0
LINE
  8
0
  6
CONTINUOUS
 62
     7
 10
-31.336964
 20
71.712021
 11
53.56303
 21
71.712021
  0
LINE
  8
0
  6
CONTINUOUS
 62
     7
 10
36.415661
 20
75.512009
 11
47.338879
 21
75.512009
  0
LINE
  8
0
  6
CONTINUOUS
 62
     7
 10
30.314312
 20
77.912018
 11
47.658642
 21
77.912018
  0
LINE
  8
0
  6
CONTINUOUS
 62
     7
 10
-33.336964
 20
63.012016
 11
-33.336964
 21
47.112015
  0
LINE
  8
0
  6
CONTINUOUS
 62
     7
 10
-31.336964
 20
71.712021
 11
-31.336964
 21
63.012016
  0
LINE
  8
0
  6
CONTINUOUS
 62
     7
 10
-29.886951
 20
80.612015
 11
-29.886951
 21
71.712021
  0
LINE
  8
0
  6
CONTINUOUS
 62
     7
 10
55.56303
 20
63.012016
 11
55.56303
 21
47.112015
  0
LINE
  8
0
  6
CONTINUOUS
 62
     7
 10
53.56303
 20
71.712021
 11
53.56303
 21
63.012016
  0
LINE
  8
0
  6
CONTINUOUS
 62
     7
 10
52.113049
 20
80.612015
 11
52.113049
 21
71.712021
  0
LINE
  8
0
  6
CONTINUOUS
 62
     7
 10
47.658642
 20
77.912018
 11
47.658642
 21
71.712021
  0
LINE
  8
0
  6
CONTINUOUS
 62
     7
 10
47.338879
 20
75.512009
 11
47.338879
 21
71.712021
  0
LINE
  8
0
  6
CONTINUOUS
 62
     7
 10
36.415661
 20
75.512009
 11
36.415661
 21
71.712021
  0
LINE
  8
0
  6
CONTINUOUS
 62
     7
 10
30.314312
 20
77.912018
 11
30.314312
 21
71.712021
  0
LINE
  8
0
  6
CONTINUOUS
 62
     7
 10
47.658623
 20
77.912018
 11
47.338867
 21
75.512024
  0
LINE
  8
0
  6
CONTINUOUS
 62
     7
 10
36.415642
 20
75.512032
 11
30.314302
 21
77.912033
  0
LINE
  8
0
  6
CONTINUOUS
 62
     7
 10
-14.189564
 20
75.512009
 11
-25.112843
 21
75.512009
  0
LINE
  8
0
  6
CONTINUOUS
 62
     7
 10
-8.0882454
 20
77.912018
 11
-25.432545
 21
77.912018
  0
LINE
  8
0
  6
CONTINUOUS
 62
     7
 10
-25.432545
 20
77.912018
 11
-25.432545
 21
71.712021
  0
LINE
  8
0
  6
CONTINUOUS
 62
     7
 10
-25.112843
 20
75.512009
 11
-25.112843
 21
71.712021
  0
LINE
  8
0
  6
CONTINUOUS
 62
     7
 10
-14.189564
 20
75.512009
 11
-14.189564
 21
71.712021
  0
LINE
  8
0
  6
CONTINUOUS
 62
     7
 10
-8.0882454
 20
77.912018
 11
-8.0882454
 21
71.712021
  0
LINE
  8
0
  6
CONTINUOUS
 62
     7
 10
-25.43256
 20
77.912025
 11
-25.112803
 21
75.512032
  0
LINE
  8
0
  6
CONTINUOUS
 62
     7
 10
-14.189596
 20
75.512016
 11
-8.0882578
 21
77.912018
  0
LINE
  8
0
  6
CONTINUOUS
 62
     7
 10
90.713028
 20
180.41464
 11
88.313034
 21
174.31331
  0
LINE
  8
0
  6
CONTINUOUS
 62
     7
 10
119.11304
 20
199.56203
 11
119.11304
 21
110.66203
  0
LINE
  8
0
  6
CONTINUOUS
 62
     7
 10
103.21305
 20
199.56203
 11
103.21305
 21
110.66203
  0
LINE
  8
0
  6
CONTINUOUS
 62
     7
 10
94.513039
 20
197.56203
 11
94.513039
 21
112.66203
  0
LINE
  8
0
  6
CONTINUOUS
 62
     7
 10
90.713051
 20
129.80942
 11
90.713051
 21
118.88618
  0
LINE
  8
0
  6
CONTINUOUS
 62
     7
 10
88.313026
 20
135.91077
 11
88.313026
 21
118.56642
  0
LINE
  8
0
  6
CONTINUOUS
 62
     7
 10
103.21305
 20
199.56203
 11
119.11304
 21
199.56203
  0
LINE
  8
0
  6
CONTINUOUS
 62
     7
 10
94.513039
 20
197.56203
 11
103.21305
 21
197.56203
  0
LINE
  8
0
  6
CONTINUOUS
 62
     7
 10
85.613045
 20
196.11203
 11
94.513039
 21
196.11203
  0
LINE
  8
0
  6
CONTINUOUS
 62
     7
 10
103.21305
 20
110.66203
 11
119.11304
 21
110.66203
  0
LINE
  8
0
  6
CONTINUOUS
 62
     7
 10
94.513039
 20
112.66203
 11
103.21305
 21
112.66203
  0
LINE
  8
0
  6
CONTINUOUS
 62
     7
 10
85.613045
 20
114.11203
 11
94.513039
 21
114.11203
  0
LINE
  8
0
  6
CONTINUOUS
 62
     7
 10
88.313026
 20
118.56642
 11
94.513039
 21
118.56642
  0
LINE
  8
0
  6
CONTINUOUS
 62
     7
 10
90.713051
 20
118.88618
 11
94.513039
 21
118.88618
  0
LINE
  8
0
  6
CONTINUOUS
 62
     7
 10
90.713051
 20
129.80942
 11
94.513039
 21
129.80942
  0
LINE
  8
0
  6
CONTINUOUS
 62
     7
 10
88.313026
 20
135.91077
 11
94.513039
 21
135.91077
  0
LINE
  8
0
  6
CONTINUOUS
 62
     7
 10
88.313042
 20
118.56643
 11
90.713036
 21
118.88618
  0
LINE
  8
0
  6
CONTINUOUS
 62
     7
 10
90.712997
 20
129.80939
 11
88.312996
 21
135.91074
  0
LINE
  8
0
  6
CONTINUOUS
 62
     7
 10
90.713051
 20
180.41464
 11
90.713051
 21
191.33788
  0
LINE
  8
0
  6
CONTINUOUS
 62
     7
 10
88.313026
 20
174.31329
 11
88.313026
 21
191.65764
  0
LINE
  8
0
  6
CONTINUOUS
 62
     7
 10
88.313026
 20
191.65764
 11
94.513039
 21
191.65764
  0
LINE
  8
0
  6
CONTINUOUS
 62
     7
 10
90.713051
 20
191.33788
 11
94.513039
 21
191.33788
  0
LINE
  8
0
  6
CONTINUOUS
 62
     7
 10
90.713051
 20
180.41464
 11
94.513039
 21
180.41464
  0
LINE
  8
0
  6
CONTINUOUS
 62
     7
 10
88.313026
 20
174.31329
 11
94.513039
 21
174.31329
  0
LINE
  8
0
  6
CONTINUOUS
 62
     7
 10
88.313042
 20
191.65761
 11
90.713036
 21
191.33786
  0
LINE
  8
0
  6
CENTER
 62
     7
 10
226.29477
 20
145.39563
 11
226.29477
 21
8.1407242
  0
LINE
  8
0
  6
CENTER
 62
     7
 10
226.29477
 20
145.39563
 11
360.21124
 21
145.39563
  0
LINE
  8
0
  6
CONTINUOUS
 62
     7
 10
169.14474
 20
18.395626
 11
283.44476
 21
18.395626
  0
LINE
  8
0
  6
CONTINUOUS
 62
     7
 10
169.14474
 20
34.295628
 11
283.44476
 21
34.295628
  0
LINE
  8
0
  6
CONTINUOUS
 62
     7
 10
171.24475
 20
43.795628
 11
281.34476
 21
43.795628
  0
LINE
  8
0
  6
CONTINUOUS
 62
     7
 10
259.38483
 20
49.29562
 11
272.56403
 21
49.29562
  0
LINE
  8
0
  6
CONTINUOUS
 62
     7
 10
253.15378
 20
50.79562
 11
272.89056
 21
50.79562
  0
LINE
  8
0
  6
CONTINUOUS
 62
     7
 10
169.14474
 20
34.295628
 11
169.14474
 21
18.395626
  0
LINE
  8
0
  6
CONTINUOUS
 62
     7
 10
171.24475
 20
43.795628
 11
171.24475
 21
34.295628
  0
LINE
  8
0
  6
CONTINUOUS
 62
     7
 10
172.79477
 20
53.395618
 11
172.79477
 21
43.795628
  0
LINE
  8
0
  6
CONTINUOUS
 62
     7
 10
283.44476
 20
34.295628
 11
283.44476
 21
18.395626
  0
LINE
  8
0
  6
CONTINUOUS
 62
     7
 10
281.34476
 20
43.795628
 11
281.34476
 21
34.295628
  0
LINE
  8
0
  6
CONTINUOUS
 62
     7
 10
279.79477
 20
53.395618
 11
279.79477
 21
43.795628
  0
LINE
  8
0
  6
CONTINUOUS
 62
     7
 10
272.89056
 20
50.79562
 11
272.89056
 21
43.795628
  0
LINE
  8
0
  6
CONTINUOUS
 62
     7
 10
272.56403
 20
49.29562
 11
272.56403
 21
43.795628
  0
LINE
  8
0
  6
CONTINUOUS
 62
     7
 10
259.38483
 20
49.29562
 11
259.38483
 21
43.795628
  0
LINE
  8
0
  6
CONTINUOUS
 62
     7
 10
253.15378
 20
50.79562
 11
253.15378
 21
43.795628
  0
LINE
  8
0
  6
CONTINUOUS
 62
     7
 10
253.15376
 20
50.795612
 11
259.38483
 21
49.295616
  0
LINE
  8
0
  6
CONTINUOUS
 62
     7
 10
272.56403
 20
49.295628
 11
272.89059
 21
50.79562
  0
LINE
  8
0
  6
CONTINUOUS
 62
     7
 10
193.20468
 20
49.29562
 11
180.02551
 21
49.29562
  0
LINE
  8
0
  6
CONTINUOUS
 62
     7
 10
199.43576
 20
50.79562
 11
179.69894
 21
50.79562
  0
LINE
  8
0
  6
CONTINUOUS
 62
     7
 10
179.69894
 20
50.79562
 11
179.69894
 21
43.795628
  0
LINE
  8
0
  6
CONTINUOUS
 62
     7
 10
180.02551
 20
49.29562
 11
180.02551
 21
43.795628
  0
LINE
  8
0
  6
CONTINUOUS
 62
     7
 10
193.20468
 20
49.29562
 11
193.20468
 21
43.795628
  0
LINE
  8
0
  6
CONTINUOUS
 62
     7
 10
199.43576
 20
50.79562
 11
199.43576
 21
43.795628
  0
LINE
  8
0
  6
CONTINUOUS
 62
     7
 10
199.43579
 20
50.795624
 11
193.2047
 21
49.29562
  0
LINE
  8
0
  6
CONTINUOUS
 62
     7
 10
180.02551
 20
49.295609
 11
179.69894
 21
50.795616
  0
LINE
  8
0
  6
CONTINUOUS
 62
     7
 10
322.39478
 20
191.66489
 11
320.89478
 21
191.99144
  0
LINE
  8
0
  6
CONTINUOUS
 62
     7
 10
353.29477
 20
202.54561
 11
353.29477
 21
88.245621
  0
LINE
  8
0
  6
CONTINUOUS
 62
     7
 10
337.39478
 20
202.54561
 11
337.39478
 21
88.245621
  0
LINE
  8
0
  6
CONTINUOUS
 62
     7
 10
327.89478
 20
200.44562
 11
327.89478
 21
90.345612
  0
LINE
  8
0
  6
CONTINUOUS
 62
     7
 10
322.39478
 20
112.30554
 11
322.39478
 21
99.126358
  0
LINE
  8
0
  6
CONTINUOUS
 62
     7
 10
320.89478
 20
118.53662
 11
320.89478
 21
98.799805
  0
LINE
  8
0
  6
CONTINUOUS
 62
     7
 10
337.39478
 20
202.54561
 11
353.29477
 21
202.54561
  0
LINE
  8
0
  6
CONTINUOUS
 62
     7
 10
327.89478
 20
200.44562
 11
337.39478
 21
200.44562
  0
LINE
  8
0
  6
CONTINUOUS
 62
     7
 10
318.29477
 20
198.89561
 11
327.89478
 21
198.89561
  0
LINE
  8
0
  6
CONTINUOUS
 62
     7
 10
337.39478
 20
88.245621
 11
353.29477
 21
88.245621
  0
LINE
  8
0
  6
CONTINUOUS
 62
     7
 10
327.89478
 20
90.345612
 11
337.39478
 21
90.345612
  0
LINE
  8
0
  6
CONTINUOUS
 62
     7
 10
318.29477
 20
91.895615
 11
327.89478
 21
91.895615
  0
LINE
  8
0
  6
CONTINUOUS
 62
     7
 10
320.89478
 20
98.799805
 11
327.89478
 21
98.799805
  0
LINE
  8
0
  6
CONTINUOUS
 62
     7
 10
322.39478
 20
99.126358
 11
327.89478
 21
99.126358
  0
LINE
  8
0
  6
CONTINUOUS
 62
     7
 10
322.39478
 20
112.30554
 11
327.89478
 21
112.30554
  0
LINE
  8
0
  6
CONTINUOUS
 62
     7
 10
320.89478
 20
118.53662
 11
327.89478
 21
118.53662
  0
LINE
  8
0
  6
CONTINUOUS
 62
     7
 10
320.89478
 20
118.53662
 11
322.39478
 21
112.30555
  0
LINE
  8
0
  6
CONTINUOUS
 62
     7
 10
322.39478
 20
99.126366
 11
320.89478
 21
98.799812
  0
LINE
  8
0
  6
CONTINUOUS
 62
     7
 10
322.39478
 20
178.4857
 11
322.39478
 21
191.66487
  0
LINE
  8
0
  6
CONTINUOUS
 62
     7
 10
320.89478
 20
172.25462
 11
320.89478
 21
191.99142
  0
LINE
  8
0
  6
CONTINUOUS
 62
     7
 10
320.89478
 20
191.99142
 11
327.89478
 21
191.99142
  0
LINE
  8
0
  6
CONTINUOUS
 62
     7
 10
322.39478
 20
191.66487
 11
327.89478
 21
191.66487
  0
LINE
  8
0
  6
CONTINUOUS
 62
     7
 10
322.39478
 20
178.4857
 11
327.89478
 21
178.4857
  0
LINE
  8
0
  6
CONTINUOUS
 62
     7
 10
320.89478
 20
172.25462
 11
327.89478
 21
172.25462
  0
LINE
  8
0
  6
CONTINUOUS
 62
     7
 10
320.89478
 20
172.25462
 11
322.39478
 21
178.48567
  0
LINE
  8
0
  6
CENTER
 62
     7
 10
47.62167
 20
-124.17518
 11
47.62167
 21
-270.06198
  0
LINE
  8
0
  6
CENTER
 62
     7
 10
47.62167
 20
-124.17518
 11
197.62167
 21
-124.17518
  0
LINE
  8
0
  6
CONTINUOUS
 62
     7
 10
-22.278294
 20
-264.17517
 11
117.52166
 21
-264.17517
  0
LINE
  8
0
  6
CONTINUOUS
 62
     7
 10
-22.278294
 20
-248.27518
 11
117.52166
 21
-248.27518
  0
LINE
  8
0
  6
CONTINUOUS
 62
     7
 10
-20.12833
 20
-238.77518
 11
115.37167
 21
-238.77518
  0
LINE
  8
0
  6
CONTINUOUS
 62
     7
 10
88.57235
 20
-233.27518
 11
103.88653
 21
-233.27518
  0
LINE
  8
0
  6
CONTINUOUS
 62
     7
 10
81.252991
 20
-231.77518
 11
104.27013
 21
-231.77518
  0
LINE
  8
0
  6
CONTINUOUS
 62
     7
 10
-22.278294
 20
-248.27518
 11
-22.278294
 21
-264.17517
  0
LINE
  8
0
  6
CONTINUOUS
 62
     7
 10
-20.12833
 20
-238.77518
 11
-20.12833
 21
-248.27518
  0
LINE
  8
0
  6
CONTINUOUS
 62
     7
 10
-17.928318
 20
-226.17519
 11
-17.928318
 21
-238.77518
  0
LINE
  8
0
  6
CONTINUOUS
 62
     7
 10
115.37167
 20
-238.77518
 11
115.37167
 21
-248.27518
  0
LINE
  8
0
  6
CONTINUOUS
 62
     7
 10
113.17165
 20
-226.17519
 11
113.17165
 21
-238.77518
  0
LINE
  8
0
  6
CONTINUOUS
 62
     7
 10
117.52166
 20
-248.27518
 11
117.52166
 21
-264.17517
  0
LINE
  8
0
  6
CONTINUOUS
 62
     7
 10
104.27013
 20
-231.77518
 11
104.27013
 21
-238.77518
  0
LINE
  8
0
  6
CONTINUOUS
 62
     7
 10
103.88653
 20
-233.27518
 11
103.88653
 21
-238.77518
  0
LINE
  8
0
  6
CONTINUOUS
 62
     7
 10
88.57235
 20
-233.27518
 11
88.57235
 21
-238.77518
  0
LINE
  8
0
  6
CONTINUOUS
 62
     7
 10
81.252991
 20
-231.77518
 11
81.252991
 21
-238.77518
  0
LINE
  8
0
  6
CONTINUOUS
 62
     7
 10
81.252998
 20
-231.77519
 11
88.57238
 21
-233.27519
  0
LINE
  8
0
  6
CONTINUOUS
 62
     7
 10
104.27013
 20
-231.77518
 11
103.88654
 21
-233.27518
  0
LINE
  8
0
  6
CONTINUOUS
 62
     7
 10
6.6709857
 20
-233.27518
 11
-8.6431608
 21
-233.27518
  0
LINE
  8
0
  6
CONTINUOUS
 62
     7
 10
13.990383
 20
-231.77518
 11
-9.0267668
 21
-231.77518
  0
LINE
  8
0
  6
CONTINUOUS
 62
     7
 10
-9.0267668
 20
-231.77518
 11
-9.0267668
 21
-238.77518
  0
LINE
  8
0
  6
CONTINUOUS
 62
     7
 10
-8.6431608
 20
-233.27518
 11
-8.6431608
 21
-238.77518
  0
LINE
  8
0
  6
CONTINUOUS
 62
     7
 10
6.6709857
 20
-233.27518
 11
6.6709857
 21
-238.77518
  0
LINE
  8
0
  6
CONTINUOUS
 62
     7
 10
13.990383
 20
-231.77518
 11
13.990383
 21
-238.77518
  0
LINE
  8
0
  6
CONTINUOUS
 62
     7
 10
13.990335
 20
-231.77519
 11
6.6709585
 21
-233.27519
  0
LINE
  8
0
  6
CONTINUOUS
 62
     7
 10
-9.0268202
 20
-231.77518
 11
-8.6432323
 21
-233.27515
  0
LINE
  8
0
  6
CONTINUOUS
 62
     7
 10
155.22166
 20
-67.526703
 11
156.72166
 21
-67.910301
  0
LINE
  8
0
  6
CONTINUOUS
 62
     7
 10
187.62167
 20
-54.2752
 11
187.62167
 21
-194.07518
  0
LINE
  8
0
  6
CONTINUOUS
 62
     7
 10
171.72165
 20
-54.2752
 11
171.72165
 21
-194.07518
  0
LINE
  8
0
  6
CONTINUOUS
 62
     7
 10
162.22168
 20
-56.425194
 11
162.22168
 21
-191.92519
  0
LINE
  8
0
  6
CONTINUOUS
 62
     7
 10
156.72168
 20
-165.12589
 11
156.72168
 21
-180.44005
  0
LINE
  8
0
  6
CONTINUOUS
 62
     7
 10
155.22168
 20
-157.80649
 11
155.22168
 21
-180.82365
  0
LINE
  8
0
  6
CONTINUOUS
 62
     7
 10
171.72165
 20
-54.2752
 11
187.62167
 21
-54.2752
  0
LINE
  8
0
  6
CONTINUOUS
 62
     7
 10
162.22168
 20
-56.425194
 11
171.72165
 21
-56.425194
  0
LINE
  8
0
  6
CONTINUOUS
 62
     7
 10
149.62167
 20
-58.625175
 11
162.22168
 21
-58.625175
  0
LINE
  8
0
  6
CONTINUOUS
 62
     7
 10
162.22168
 20
-191.92519
 11
171.72165
 21
-191.92519
  0
LINE
  8
0
  6
CONTINUOUS
 62
     7
 10
149.62167
 20
-189.72517
 11
162.22168
 21
-189.72517
  0
LINE
  8
0
  6
CONTINUOUS
 62
     7
 10
171.72165
 20
-194.07518
 11
187.62167
 21
-194.07518
  0
LINE
  8
0
  6
CONTINUOUS
 62
     7
 10
155.22168
 20
-180.82365
 11
162.22168
 21
-180.82365
  0
LINE
  8
0
  6
CONTINUOUS
 62
     7
 10
156.72168
 20
-180.44005
 11
162.22168
 21
-180.44005
  0
LINE
  8
0
  6
CONTINUOUS
 62
     7
 10
156.72168
 20
-165.12589
 11
162.22168
 21
-165.12589
  0
LINE
  8
0
  6
CONTINUOUS
 62
     7
 10
155.22168
 20
-157.80649
 11
162.22168
 21
-157.80649
  0
LINE
  8
0
  6
CONTINUOUS
 62
     7
 10
155.22165
 20
-157.8065
 11
156.72165
 21
-165.12587
  0
LINE
  8
0
  6
CONTINUOUS
 62
     7
 10
155.22165
 20
-180.82365
 11
156.72166
 21
-180.44005
  0
LINE
  8
0
  6
CONTINUOUS
 62
     7
 10
156.72168
 20
-83.22448
 11
156.72168
 21
-67.910301
  0
LINE
  8
0
  6
CONTINUOUS
 62
     7
 10
155.22168
 20
-90.543877
 11
155.22168
 21
-67.526695
  0
LINE
  8
0
  6
CONTINUOUS
 62
     7
 10
155.22168
 20
-67.526695
 11
162.22168
 21
-67.526695
  0
LINE
  8
0
  6
CONTINUOUS
 62
     7
 10
156.72168
 20
-67.910301
 11
162.22168
 21
-67.910301
  0
LINE
  8
0
  6
CONTINUOUS
 62
     7
 10
156.72168
 20
-83.22448
 11
162.22168
 21
-83.22448
  0
LINE
  8
0
  6
CONTINUOUS
 62
     7
 10
155.22168
 20
-90.543877
 11
162.22168
 21
-90.543877
  0
LINE
  8
0
  6
CONTINUOUS
 62
     7
 10
155.22166
 20
-90.543854
 11
156.72166
 21
-83.224472
  0
LINE
  8
0
  6
CENTER
 62
     7
 10
-266.94537
 20
-106.52562
 11
-266.94537
 21
-280.79721
  0
LINE
  8
0
  6
CENTER
 62
     7
 10
-266.94537
 20
-106.52562
 11
-83.710083
 21
-106.52562
  0
LINE
  8
0
  6
CONTINUOUS
 62
     7
 10
-349.54535
 20
-271.5256
 11
-184.34537
 21
-271.5256
  0
LINE
  8
0
  6
CONTINUOUS
 62
     7
 10
-349.54535
 20
-255.62561
 11
-184.34537
 21
-255.62561
  0
LINE
  8
0
  6
CONTINUOUS
 62
     7
 10
-347.34537
 20
-246.12561
 11
-186.54538
 21
-246.12561
  0
LINE
  8
0
  6
CONTINUOUS
 62
     7
 10
-217.56224
 20
-240.62561
 11
-201.10953
 21
-240.62561
  0
LINE
  8
0
  6
CONTINUOUS
 62
     7
 10
-224.74489
 20
-239.12561
 11
-200.73309
 21
-239.12561
  0
LINE
  8
0
  6
CONTINUOUS
 62
     7
 10
-349.54535
 20
-255.62561
 11
-349.54535
 21
-271.5256
  0
LINE
  8
0
  6
CONTINUOUS
 62
     7
 10
-347.34537
 20
-246.12561
 11
-347.34537
 21
-255.62561
  0
LINE
  8
0
  6
CONTINUOUS
 62
     7
 10
-345.14536
 20
-233.5256
 11
-345.14536
 21
-246.12561
  0
LINE
  8
0
  6
CONTINUOUS
 62
     7
 10
-201.10953
 20
-240.62561
 11
-201.10953
 21
-246.12561
  0
LINE
  8
0
  6
CONTINUOUS
 62
     7
 10
-200.73309
 20
-239.12561
 11
-200.73309
 21
-246.12561
  0
LINE
  8
0
  6
CONTINUOUS
 62
     7
 10
-217.56224
 20
-240.62561
 11
-217.56224
 21
-246.12561
  0
LINE
  8
0
  6
CONTINUOUS
 62
     7
 10
-224.74489
 20
-239.12561
 11
-224.74489
 21
-246.12561
  0
LINE
  8
0
  6
CONTINUOUS
 62
     7
 10
-184.34537
 20
-255.62561
 11
-184.34537
 21
-271.5256
  0
LINE
  8
0
  6
CONTINUOUS
 62
     7
 10
-186.54538
 20
-246.12561
 11
-186.54538
 21
-255.62561
  0
LINE
  8
0
  6
CONTINUOUS
 62
     7
 10
-188.74538
 20
-233.5256
 11
-188.74538
 21
-246.12561
  0
LINE
  8
0
  6
CONTINUOUS
 62
     7
 10
-224.74489
 20
-239.12561
 11
-217.56223
 21
-240.62561
  0
LINE
  8
0
  6
CONTINUOUS
 62
     7
 10
-201.10953
 20
-240.6256
 11
-200.73309
 21
-239.1256
  0
LINE
  8
0
  6
CONTINUOUS
 62
     7
 10
-316.32852
 20
-240.62561
 11
-332.78122
 21
-240.62561
  0
LINE
  8
0
  6
CONTINUOUS
 62
     7
 10
-309.14584
 20
-239.12561
 11
-333.15762
 21
-239.12561
  0
LINE
  8
0
  6
CONTINUOUS
 62
     7
 10
-332.78122
 20
-240.62561
 11
-332.78122
 21
-246.12561
  0
LINE
  8
0
  6
CONTINUOUS
 62
     7
 10
-333.15762
 20
-239.12561
 11
-333.15762
 21
-246.12561
  0
LINE
  8
0
  6
CONTINUOUS
 62
     7
 10
-316.32852
 20
-240.62561
 11
-316.32852
 21
-246.12561
  0
LINE
  8
0
  6
CONTINUOUS
 62
     7
 10
-309.14584
 20
-239.12561
 11
-309.14584
 21
-246.12561
  0
LINE
  8
0
  6
CONTINUOUS
 62
     7
 10
-309.14587
 20
-239.12561
 11
-316.32852
 21
-240.62561
  0
LINE
  8
0
  6
CONTINUOUS
 62
     7
 10
-332.78122
 20
-240.62561
 11
-333.15765
 21
-239.12561
  0
LINE
  8
0
  6
CONTINUOUS
 62
     7
 10
-132.84538
 20
-40.689754
 11
-134.34538
 21
-40.313328
  0
LINE
  8
0
  6
CONTINUOUS
 62
     7
 10
-101.94537
 20
-23.92561
 11
-101.94537
 21
-189.12561
  0
LINE
  8
0
  6
CONTINUOUS
 62
     7
 10
-117.84538
 20
-23.92561
 11
-117.84538
 21
-189.12561
  0
LINE
  8
0
  6
CONTINUOUS
 62
     7
 10
-127.34538
 20
-26.12562
 11
-127.34538
 21
-186.92561
  0
LINE
  8
0
  6
CONTINUOUS
 62
     7
 10
-132.84538
 20
-155.90875
 11
-132.84538
 21
-172.36147
  0
LINE
  8
0
  6
CONTINUOUS
 62
     7
 10
-134.34538
 20
-148.72609
 11
-134.34538
 21
-172.73788
  0
LINE
  8
0
  6
CONTINUOUS
 62
     7
 10
-117.84538
 20
-23.92561
 11
-101.94537
 21
-23.92561
  0
LINE
  8
0
  6
CONTINUOUS
 62
     7
 10
-127.34538
 20
-26.12562
 11
-117.84538
 21
-26.12562
  0
LINE
  8
0
  6
CONTINUOUS
 62
     7
 10
-139.94537
 20
-28.325602
 11
-127.34538
 21
-28.325602
  0
LINE
  8
0
  6
CONTINUOUS
 62
     7
 10
-132.84538
 20
-172.36147
 11
-127.34538
 21
-172.36147
  0
LINE
  8
0
  6
CONTINUOUS
 62
     7
 10
-134.34538
 20
-172.73788
 11
-127.34538
 21
-172.73788
  0
LINE
  8
0
  6
CONTINUOUS
 62
     7
 10
-132.84538
 20
-155.90875
 11
-127.34538
 21
-155.90875
  0
LINE
  8
0
  6
CONTINUOUS
 62
     7
 10
-134.34538
 20
-148.72609
 11
-127.34538
 21
-148.72609
  0
LINE
  8
0
  6
CONTINUOUS
 62
     7
 10
-117.84538
 20
-189.12561
 11
-101.94537
 21
-189.12561
  0
LINE
  8
0
  6
CONTINUOUS
 62
     7
 10
-127.34538
 20
-186.92561
 11
-117.84538
 21
-186.92561
  0
LINE
  8
0
  6
CONTINUOUS
 62
     7
 10
-139.94537
 20
-184.72562
 11
-127.34538
 21
-184.72562
  0
LINE
  8
0
  6
CONTINUOUS
 62
     7
 10
-134.34537
 20
-148.72609
 11
-132.84537
 21
-155.90875
  0
LINE
  8
0
  6
CONTINUOUS
 62
     7
 10
-132.84537
 20
-172.36145
 11
-134.34537
 21
-172.73788
  0
LINE
  8
0
  6
CONTINUOUS
 62
     7
 10
-132.84538
 20
-57.142467
 11
-132.84538
 21
-40.68977
  0
LINE
  8
0
  6
CONTINUOUS
 62
     7
 10
-134.34538
 20
-64.325111
 11
-134.34538
 21
-40.313335
  0
LINE
  8
0
  6
CONTINUOUS
 62
     7
 10
-132.84538
 20
-40.68977
 11
-127.34538
 21
-40.68977
  0
LINE
  8
0
  6
CONTINUOUS
 62
     7
 10
-134.34538
 20
-40.313335
 11
-127.34538
 21
-40.313335
  0
LINE
  8
0
  6
CONTINUOUS
 62
     7
 10
-132.84538
 20
-57.142467
 11
-127.34538
 21
-57.142467
  0
LINE
  8
0
  6
CONTINUOUS
 62
     7
 10
-134.34538
 20
-64.325111
 11
-127.34538
 21
-64.325111
  0
LINE
  8
0
  6
CONTINUOUS
 62
     7
 10
-134.34538
 20
-64.325111
 11
-132.84538
 21
-57.142452
  0
ARC
  8
0
  6
CONTINUOUS
 62
     7
 10
-318.75418
 20
98.543724
 40
22.75
 50
90.000003
 51
180.00001
  0
ARC
  8
0
  6
CONTINUOUS
 62
     7
 10
-318.75418
 20
98.543724
 40
77.25
 50
90.000003
 51
180.00001
  0
ARC
  8
0
  6
CONTINUOUS
 62
     7
 10
-127.22038
 20
96.396187
 40
96.699997
 50
90.000003
 51
180.00001
  0
ARC
  8
0
  6
CONTINUOUS
 62
     7
 10
-127.22038
 20
96.396187
 40
27.299999
 50
90.000003
 51
180.00001
  0
ARC
  8
0
  6
CONTINUOUS
 62
     7
 10
85.613045
 20
80.612015
 40
33.5
 50
90.000003
 51
180.00001
  0
ARC
  8
0
  6
CONTINUOUS
 62
     7
 10
85.613045
 20
80.612015
 40
115.5
 50
90.000003
 51
180.00001
  0
ARC
  8
0
  6
CONTINUOUS
 62
     7
 10
318.29477
 20
53.395618
 40
145.5
 50
90.000003
 51
180.00001
  0
ARC
  8
0
  6
CONTINUOUS
 62
     7
 10
318.29477
 20
53.395618
 40
38.5
 50
90.000003
 51
180.00001
  0
ARC
  8
0
  6
CONTINUOUS
 62
     7
 10
149.62167
 20
-226.17519
 40
167.55
 50
90.000003
 51
180.00001
  0
ARC
  8
0
  6
CONTINUOUS
 62
     7
 10
149.62167
 20
-226.17519
 40
36.450001
 50
90.000003
 51
180.00001
  0
ARC
  8
0
  6
CONTINUOUS
 62
     7
 10
-139.94537
 20
-233.5256
 40
205.2
 50
90.000003
 51
180.00001
  0
ARC
  8
0
  6
CONTINUOUS
 62
     7
 10
-139.94537
 20
-233.5256
 40
48.799999
 50
90.000003
 51
180.00001
  0
TEXT
  8
0
  6
CONTINUOUS
 62
     7
 10
-395.12787
 20
168.00639
 40
14
 41
1.0714291
  1
2
  0
TEXT
  8
0
  6
CONTINUOUS
 62
     7
 10
-246.49617
 20
194.952
 40
14
 41
1.0129871
  1
21/2
  0
TEXT
  8
0
  6
CONTINUOUS
 62
     7
 10
-20.530776
 20
178.6456
 40
14
 41
1.0714291
  1
3
  0
TEXT
  8
0
  6
CONTINUOUS
 62
     7
 10
190.76092
 20
173.00066
 40
14
 41
1.0714291
  1
4
  0
TEXT
  8
0
  6
CONTINUOUS
 62
     7
 10
6.2539916
 20
-83.886528
 40
14
 41
1.0714291
  1
5
  0
TEXT
  8
0
  6
CONTINUOUS
 62
     7
 10
-314.62433
 20
-66.036304
 40
14
 41
1.0714291
  1
6
  0
TEXT
  8
0
  6
CONTINUOUS
 62
     7
 10
-388.93149
 20
243.12045
 40
15
 41
1.0026954
  1
TOP-J F-1(L) 6ｻｲｽﾞ
  0
TEXT
  8
0
  6
CONTINUOUS
 62
     7
 10
-358.13133
 20
119.98061
 40
11
 41
1.071429
  1
2
 50
45.000001
  0
TEXT
  8
0
  6
CONTINUOUS
 62
     7
 10
-363.28054
 20
134.54295
 40
5.5
 41
1.0178573
  1
F-1
 50
45.000001
  0
TEXT
  8
0
  6
CONTINUOUS
 62
     7
 10
-181.80249
 20
122.88484
 40
6
 41
1.0178573
  1
2/E
 50
45.000001
  0
TEXT
  8
0
  6
CONTINUOUS
 62
     7
 10
-182.805
 20
141.91029
 40
5.5
 41
1.0178573
  1
F-1
 50
45.000001
  0
TEXT
  8
0
  6
CONTINUOUS
 62
     7
 10
-180.81602
 20
130.61115
 40
3.2
 41
1.0714291
  1
1
 50
45.000001
  0
TEXT
  8
0
  6
CONTINUOUS
 62
     7
 10
-174.78678
 20
128.38984
 40
3.2
 41
1.0714291
  1
2
 50
45.000001
  0
TEXT
  8
0
  6
CONTINUOUS
 62
     7
 10
17.263686
 20
135.92389
 40
7
 41
1.0178573
  1
F-1
 50
45.000001
  0
TEXT
  8
0
  6
CONTINUOUS
 62
     7
 10
24.000039
 20
113.59351
 40
14
 41
1.0714291
  1
3
 50
45.000001
  0
TEXT
  8
0
  6
CONTINUOUS
 62
     7
 10
243.76082
 20
95.557972
 40
18
 41
1.071429
  1
4
 50
45.000001
  0
TEXT
  8
0
  6
CONTINUOUS
 62
     7
 10
232.72536
 20
120.75911
 40
9
 41
1.0178573
  1
F-1
 50
45.000001
  0
TEXT
  8
0
  6
CONTINUOUS
 62
     7
 10
56.765856
 20
-147.42562
 40
9
 41
1.0178573
  1
F-1
 50
45.000001
  0
TEXT
  8
0
  6
CONTINUOUS
 62
     7
 10
64.972223
 20
-184.05952
 40
18
 41
1.0285716
  1
5E
 50
45.000001
  0
TEXT
  8
0
  6
CONTINUOUS
 62
     7
 10
-255.02487
 20
-135.4847
 40
9
 41
1.0178573
  1
F-1
 50
45.000001
  0
TEXT
  8
0
  6
CONTINUOUS
 62
     7
 10
-245.49172
 20
-174.77214
 40
18
 41
1.0285716
  1
6J
 50
45.000001
  0
LINE
  8
0
  6
CONTINUOUS
 62
     7
 10
-347.23842
 20
146.62656
 11
-346.07631
 21
145.46445
  0
LINE
  8
0
  6
CONTINUOUS
 62
     7
 10
-348.08695
 20
145.77803
 11
-346.92484
 21
144.61593
  0
LINE
  8
0
  6
CONTINUOUS
 62
     7
 10
-340.76377
 20
138.45486
 11
-339.60167
 21
137.29275
  0
LINE
  8
0
  6
CONTINUOUS
 62
     7
 10
-339.91525
 20
139.30339
 11
-338.75314
 21
138.14128
  0
LINE
  8
0
  6
CONTINUOUS
 62
     7
 10
-346.07323
 20
143.76431
 11
-343.84431
 21
141.53539
  0
LINE
  8
0
  6
CONTINUOUS
 62
     7
 10
-345.2247
 20
144.61284
 11
-342.99578
 21
142.38392
  0
ARC
  8
0
  6
CONTINUOUS
 62
     7
 10
-341.72299
 20
143.65671
 40
2.4000001
 50
351.00833
 51
98.991677
  0
ARC
  8
0
  6
CONTINUOUS
 62
     7
 10
-341.72299
 20
143.65671
 40
3.5999999
 50
351.00833
 51
98.991677
  0
ARC
  8
0
  6
CONTINUOUS
 62
     7
 10
-345.1171
 20
140.2626
 40
2.4000001
 50
171.00833
 51
278.99168
  0
ARC
  8
0
  6
CONTINUOUS
 62
     7
 10
-345.1171
 20
140.2626
 40
3.5999999
 50
171.00833
 51
278.99168
  0
ARC
  8
0
  6
CONTINUOUS
 62
     7
 10
-341.08496
 20
139.62457
 40
7.6823077
 50
98.991677
 51
130.52055
  0
ARC
  8
0
  6
CONTINUOUS
 62
     7
 10
-341.08496
 20
139.62457
 40
6.4823079
 50
98.991677
 51
129.68912
  0
ARC
  8
0
  6
CONTINUOUS
 62
     7
 10
-345.75513
 20
144.29474
 40
6.4823079
 50
278.99167
 51
351.00833
  0
ARC
  8
0
  6
CONTINUOUS
 62
     7
 10
-345.75513
 20
144.29474
 40
7.6823077
 50
278.99167
 51
310.52055
  0
ARC
  8
0
  6
CONTINUOUS
 62
     7
 10
-347.34449
 20
145.8841
 40
0.75
 50
81.869899
 51
188.1301
  0
ARC
  8
0
  6
CONTINUOUS
 62
     7
 10
-343.73824
 20
142.27785
 40
0.75
 50
261.8699
 51
8.1301039
  0
ARC
  8
0
  6
CONTINUOUS
 62
     7
 10
-339.4956
 20
138.03521
 40
0.75
 50
261.8699
 51
8.1301039
  0
ARC
  8
0
  6
CONTINUOUS
 62
     7
 10
-341.08496
 20
139.62457
 40
6.4823079
 50
140.31088
 51
171.00833
  0
ARC
  8
0
  6
CONTINUOUS
 62
     7
 10
-341.08496
 20
139.62457
 40
7.6823077
 50
139.47945
 51
171.00833
  0
ARC
  8
0
  6
CONTINUOUS
 62
     7
 10
-345.75513
 20
144.29474
 40
7.6823077
 50
319.47945
 51
351.00833
  0
LINE
  8
0
  6
CONTINUOUS
 62
     7
 10
-160.84065
 20
155.62261
 11
-159.67855
 21
154.4605
  0
LINE
  8
0
  6
CONTINUOUS
 62
     7
 10
-161.68918
 20
154.77408
 11
-160.52708
 21
153.61197
  0
LINE
  8
0
  6
CONTINUOUS
 62
     7
 10
-154.36601
 20
147.45091
 11
-153.2039
 21
146.2888
  0
LINE
  8
0
  6
CONTINUOUS
 62
     7
 10
-153.51748
 20
148.29943
 11
-152.35537
 21
147.13733
  0
LINE
  8
0
  6
CONTINUOUS
 62
     7
 10
-159.67546
 20
152.76036
 11
-157.44654
 21
150.53144
  0
LINE
  8
0
  6
CONTINUOUS
 62
     7
 10
-158.82694
 20
153.60889
 11
-156.59801
 21
151.37997
  0
ARC
  8
0
  6
CONTINUOUS
 62
     7
 10
-155.32522
 20
152.65276
 40
2.4000001
 50
351.00833
 51
98.991677
  0
ARC
  8
0
  6
CONTINUOUS
 62
     7
 10
-155.32522
 20
152.65276
 40
3.5999999
 50
351.00833
 51
98.991677
  0
ARC
  8
0
  6
CONTINUOUS
 62
     7
 10
-158.71933
 20
149.25865
 40
2.4000001
 50
171.00833
 51
278.99168
  0
ARC
  8
0
  6
CONTINUOUS
 62
     7
 10
-158.71933
 20
149.25865
 40
3.5999999
 50
171.00833
 51
278.99168
  0
ARC
  8
0
  6
CONTINUOUS
 62
     7
 10
-154.68719
 20
148.62062
 40
7.6823077
 50
98.991677
 51
130.52055
  0
ARC
  8
0
  6
CONTINUOUS
 62
     7
 10
-154.68719
 20
148.62062
 40
6.4823079
 50
98.991677
 51
129.68912
  0
ARC
  8
0
  6
CONTINUOUS
 62
     7
 10
-159.35736
 20
153.29079
 40
6.4823079
 50
278.99167
 51
351.00833
  0
ARC
  8
0
  6
CONTINUOUS
 62
     7
 10
-159.35736
 20
153.29079
 40
7.6823077
 50
278.99167
 51
310.52055
  0
ARC
  8
0
  6
CONTINUOUS
 62
     7
 10
-160.94672
 20
154.88015
 40
0.75
 50
81.869899
 51
188.1301
  0
ARC
  8
0
  6
CONTINUOUS
 62
     7
 10
-157.34048
 20
151.2739
 40
0.75
 50
261.8699
 51
8.1301039
  0
ARC
  8
0
  6
CONTINUOUS
 62
     7
 10
-153.09783
 20
147.03126
 40
0.75
 50
261.8699
 51
8.1301039
  0
ARC
  8
0
  6
CONTINUOUS
 62
     7
 10
-154.68719
 20
148.62062
 40
6.4823079
 50
140.31088
 51
171.00833
  0
ARC
  8
0
  6
CONTINUOUS
 62
     7
 10
-154.68719
 20
148.62062
 40
7.6823077
 50
139.47945
 51
171.00833
  0
ARC
  8
0
  6
CONTINUOUS
 62
     7
 10
-159.35736
 20
153.29079
 40
7.6823077
 50
319.47945
 51
351.00833
  0
LINE
  8
0
  6
CONTINUOUS
 62
     7
 10
40.025872
 20
148.85612
 11
41.478505
 21
147.40349
  0
LINE
  8
0
  6
CONTINUOUS
 62
     7
 10
38.965212
 20
147.79546
 11
40.417845
 21
146.34283
  0
LINE
  8
0
  6
CONTINUOUS
 62
     7
 10
48.119182
 20
138.64149
 11
49.571814
 21
137.18886
  0
LINE
  8
0
  6
CONTINUOUS
 62
     7
 10
49.179842
 20
139.70215
 11
50.632474
 21
138.24952
  0
LINE
  8
0
  6
CONTINUOUS
 62
     7
 10
41.48236
 20
145.27831
 11
44.268513
 21
142.49216
  0
LINE
  8
0
  6
CONTINUOUS
 62
     7
 10
42.54302
 20
146.33897
 11
45.329173
 21
143.55282
  0
ARC
  8
0
  6
CONTINUOUS
 62
     7
 10
46.920164
 20
145.14381
 40
3
 50
351.00833
 51
98.991677
  0
ARC
  8
0
  6
CONTINUOUS
 62
     7
 10
46.920164
 20
145.14381
 40
4.5
 50
351.00833
 51
98.991677
  0
ARC
  8
0
  6
CONTINUOUS
 62
     7
 10
42.677523
 20
140.90117
 40
3
 50
171.00833
 51
278.99168
  0
ARC
  8
0
  6
CONTINUOUS
 62
     7
 10
42.677523
 20
140.90117
 40
4.5
 50
171.00833
 51
278.99168
  0
ARC
  8
0
  6
CONTINUOUS
 62
     7
 10
47.717698
 20
140.10364
 40
9.6028843
 50
98.991677
 51
130.52055
  0
ARC
  8
0
  6
CONTINUOUS
 62
     7
 10
47.717698
 20
140.10364
 40
8.1028843
 50
98.991677
 51
129.68912
  0
ARC
  8
0
  6
CONTINUOUS
 62
     7
 10
41.879988
 20
145.94135
 40
8.1028843
 50
278.99167
 51
351.00833
  0
ARC
  8
0
  6
CONTINUOUS
 62
     7
 10
41.879988
 20
145.94135
 40
9.6028843
 50
278.99167
 51
310.52055
  0
ARC
  8
0
  6
CONTINUOUS
 62
     7
 10
39.89329
 20
147.92804
 40
0.9375
 50
81.869899
 51
188.1301
  0
ARC
  8
0
  6
CONTINUOUS
 62
     7
 10
44.401096
 20
143.42024
 40
0.9375
 50
261.8699
 51
8.1301039
  0
ARC
  8
0
  6
CONTINUOUS
 62
     7
 10
49.704397
 20
138.11694
 40
0.9375
 50
261.8699
 51
8.1301039
  0
ARC
  8
0
  6
CONTINUOUS
 62
     7
 10
47.717698
 20
140.10364
 40
9.6028843
 50
139.47945
 51
171.00833
  0
ARC
  8
0
  6
CONTINUOUS
 62
     7
 10
47.717698
 20
140.10364
 40
8.1028843
 50
140.31088
 51
171.00833
  0
ARC
  8
0
  6
CONTINUOUS
 62
     7
 10
41.879988
 20
145.94135
 40
9.6028843
 50
319.47945
 51
351.00833
  0
LINE
  8
0
  6
CONTINUOUS
 62
     7
 10
260.51813
 20
137.26482
 11
262.26129
 21
135.52166
  0
LINE
  8
0
  6
CONTINUOUS
 62
     7
 10
259.24534
 20
135.99203
 11
260.9885
 21
134.24887
  0
LINE
  8
0
  6
CONTINUOUS
 62
     7
 10
270.2301
 20
125.00727
 11
271.97326
 21
123.26411
  0
LINE
  8
0
  6
CONTINUOUS
 62
     7
 10
271.50289
 20
126.28006
 11
273.24605
 21
124.5369
  0
LINE
  8
0
  6
CONTINUOUS
 62
     7
 10
262.26592
 20
132.97145
 11
265.6093
 21
129.62807
  0
LINE
  8
0
  6
CONTINUOUS
 62
     7
 10
263.53871
 20
134.24424
 11
266.88209
 21
130.90086
  0
ARC
  8
0
  6
CONTINUOUS
 62
     7
 10
268.79128
 20
132.81005
 40
3.5999999
 50
351.00833
 51
98.991677
  0
ARC
  8
0
  6
CONTINUOUS
 62
     7
 10
268.79128
 20
132.81005
 40
5.4000001
 50
351.00833
 51
98.991677
  0
ARC
  8
0
  6
CONTINUOUS
 62
     7
 10
263.70011
 20
127.71888
 40
3.5999999
 50
171.00833
 51
278.99168
  0
ARC
  8
0
  6
CONTINUOUS
 62
     7
 10
263.70011
 20
127.71888
 40
5.4000001
 50
171.00833
 51
278.99168
  0
ARC
  8
0
  6
CONTINUOUS
 62
     7
 10
269.74832
 20
126.76184
 40
11.523461
 50
98.991677
 51
130.52055
  0
ARC
  8
0
  6
CONTINUOUS
 62
     7
 10
269.74832
 20
126.76184
 40
9.7234612
 50
98.991677
 51
129.68912
  0
ARC
  8
0
  6
CONTINUOUS
 62
     7
 10
262.74307
 20
133.76709
 40
9.7234612
 50
278.99167
 51
351.00833
  0
ARC
  8
0
  6
CONTINUOUS
 62
     7
 10
262.74307
 20
133.76709
 40
11.523461
 50
278.99167
 51
310.52055
  0
ARC
  8
0
  6
CONTINUOUS
 62
     7
 10
260.35903
 20
136.15113
 40
1.125
 50
81.869899
 51
188.1301
  0
ARC
  8
0
  6
CONTINUOUS
 62
     7
 10
265.7684
 20
130.74176
 40
1.125
 50
261.8699
 51
8.1301039
  0
ARC
  8
0
  6
CONTINUOUS
 62
     7
 10
272.13236
 20
124.3778
 40
1.125
 50
261.8699
 51
8.1301039
  0
ARC
  8
0
  6
CONTINUOUS
 62
     7
 10
269.74832
 20
126.76184
 40
11.523461
 50
139.47945
 51
171.00833
  0
ARC
  8
0
  6
CONTINUOUS
 62
     7
 10
269.74832
 20
126.76184
 40
9.7234612
 50
140.31088
 51
171.00833
  0
ARC
  8
0
  6
CONTINUOUS
 62
     7
 10
262.74307
 20
133.76709
 40
11.523461
 50
319.47945
 51
351.00833
  0
LINE
  8
0
  6
CONTINUOUS
 62
     7
 10
87.278691
 20
-132.98029
 11
89.021851
 21
-134.72345
  0
LINE
  8
0
  6
CONTINUOUS
 62
     7
 10
86.005899
 20
-134.25309
 11
87.749058
 21
-135.99625
  0
LINE
  8
0
  6
CONTINUOUS
 62
     7
 10
96.990662
 20
-145.23785
 11
98.733821
 21
-146.98101
  0
LINE
  8
0
  6
CONTINUOUS
 62
     7
 10
98.263454
 20
-143.96506
 11
100.00661
 21
-145.70822
  0
LINE
  8
0
  6
CONTINUOUS
 62
     7
 10
89.026477
 20
-137.27366
 11
92.36986
 21
-140.61705
  0
LINE
  8
0
  6
CONTINUOUS
 62
     7
 10
90.299269
 20
-136.00087
 11
93.642652
 21
-139.34426
  0
ARC
  8
0
  6
CONTINUOUS
 62
     7
 10
95.55184
 20
-137.43507
 40
3.5999999
 50
351.00833
 51
98.991677
  0
ARC
  8
0
  6
CONTINUOUS
 62
     7
 10
95.55184
 20
-137.43507
 40
5.4000001
 50
351.00833
 51
98.991677
  0
ARC
  8
0
  6
CONTINUOUS
 62
     7
 10
90.460672
 20
-142.52624
 40
3.5999999
 50
171.00833
 51
278.99168
  0
ARC
  8
0
  6
CONTINUOUS
 62
     7
 10
90.460672
 20
-142.52624
 40
5.4000001
 50
171.00833
 51
278.99168
  0
ARC
  8
0
  6
CONTINUOUS
 62
     7
 10
96.508883
 20
-143.48328
 40
11.523461
 50
98.991677
 51
130.52055
  0
ARC
  8
0
  6
CONTINUOUS
 62
     7
 10
96.508883
 20
-143.48328
 40
9.7234612
 50
98.991677
 51
129.68912
  0
ARC
  8
0
  6
CONTINUOUS
 62
     7
 10
89.50363
 20
-136.47803
 40
9.7234612
 50
278.99167
 51
351.00833
  0
ARC
  8
0
  6
CONTINUOUS
 62
     7
 10
89.50363
 20
-136.47803
 40
11.523461
 50
278.99167
 51
310.52055
  0
ARC
  8
0
  6
CONTINUOUS
 62
     7
 10
87.119592
 20
-134.09399
 40
1.125
 50
81.869899
 51
188.1301
  0
ARC
  8
0
  6
CONTINUOUS
 62
     7
 10
92.528959
 20
-139.50335
 40
1.125
 50
261.8699
 51
8.1301039
  0
ARC
  8
0
  6
CONTINUOUS
 62
     7
 10
98.89292
 20
-145.86732
 40
1.125
 50
261.8699
 51
8.1301039
  0
ARC
  8
0
  6
CONTINUOUS
 62
     7
 10
96.508883
 20
-143.48328
 40
11.523461
 50
139.47945
 51
171.00833
  0
ARC
  8
0
  6
CONTINUOUS
 62
     7
 10
96.508883
 20
-143.48328
 40
9.7234612
 50
140.31088
 51
171.00833
  0
ARC
  8
0
  6
CONTINUOUS
 62
     7
 10
89.50363
 20
-136.47803
 40
11.523461
 50
319.47945
 51
351.00833
  0
LINE
  8
0
  6
CONTINUOUS
 62
     7
 10
-213.23449
 20
-119.04922
 11
-211.49133
 21
-120.79238
  0
LINE
  8
0
  6
CONTINUOUS
 62
     7
 10
-214.50728
 20
-120.32201
 11
-212.76413
 21
-122.06517
  0
LINE
  8
0
  6
CONTINUOUS
 62
     7
 10
-203.52252
 20
-131.30677
 11
-201.77936
 21
-133.04993
  0
LINE
  8
0
  6
CONTINUOUS
 62
     7
 10
-202.24973
 20
-130.03398
 11
-200.50657
 21
-131.77714
  0
LINE
  8
0
  6
CONTINUOUS
 62
     7
 10
-211.48671
 20
-123.34259
 11
-208.14332
 21
-126.68597
  0
LINE
  8
0
  6
CONTINUOUS
 62
     7
 10
-210.21391
 20
-122.0698
 11
-206.87053
 21
-125.41318
  0
ARC
  8
0
  6
CONTINUOUS
 62
     7
 10
-204.96134
 20
-123.50399
 40
3.5999999
 50
351.00833
 51
98.991677
  0
ARC
  8
0
  6
CONTINUOUS
 62
     7
 10
-204.96134
 20
-123.50399
 40
5.4000001
 50
351.00833
 51
98.991677
  0
ARC
  8
0
  6
CONTINUOUS
 62
     7
 10
-210.05251
 20
-128.59516
 40
3.5999999
 50
171.00833
 51
278.99168
  0
ARC
  8
0
  6
CONTINUOUS
 62
     7
 10
-210.05251
 20
-128.59516
 40
5.4000001
 50
171.00833
 51
278.99168
  0
ARC
  8
0
  6
CONTINUOUS
 62
     7
 10
-204.0043
 20
-129.5522
 40
11.523461
 50
98.991677
 51
130.52055
  0
ARC
  8
0
  6
CONTINUOUS
 62
     7
 10
-204.0043
 20
-129.5522
 40
9.7234612
 50
98.991677
 51
129.68912
  0
ARC
  8
0
  6
CONTINUOUS
 62
     7
 10
-211.00955
 20
-122.54695
 40
9.7234612
 50
278.99167
 51
351.00833
  0
ARC
  8
0
  6
CONTINUOUS
 62
     7
 10
-211.00955
 20
-122.54695
 40
11.523461
 50
278.99167
 51
310.52055
  0
ARC
  8
0
  6
CONTINUOUS
 62
     7
 10
-213.39359
 20
-120.16291
 40
1.125
 50
81.869899
 51
188.1301
  0
ARC
  8
0
  6
CONTINUOUS
 62
     7
 10
-207.98422
 20
-125.57228
 40
1.125
 50
261.8699
 51
8.1301039
  0
ARC
  8
0
  6
CONTINUOUS
 62
     7
 10
-201.62026
 20
-131.93624
 40
1.125
 50
261.8699
 51
8.1301039
  0
ARC
  8
0
  6
CONTINUOUS
 62
     7
 10
-204.0043
 20
-129.5522
 40
11.523461
 50
139.47945
 51
171.00833
  0
ARC
  8
0
  6
CONTINUOUS
 62
     7
 10
-204.0043
 20
-129.5522
 40
9.7234612
 50
140.31088
 51
171.00833
  0
ARC
  8
0
  6
CONTINUOUS
 62
     7
 10
-211.00955
 20
-122.54695
 40
11.523461
 50
319.47945
 51
351.00833
  0
LINE
  8
1
  6
CONTINUOUS
 62
     7
 10
-429
 20
-297.5
 11
410
 21
-297.5
  0
LINE
  8
1
  6
CONTINUOUS
 62
     7
 10
-429
 20
297.5
 11
-429
 21
-297.5
  0
LINE
  8
1
  6
CONTINUOUS
 62
     7
 10
410
 20
297.5
 11
410
 21
-297.5
  0
LINE
  8
1
  6
CONTINUOUS
 62
     7
 10
-429
 20
297.5
 11
410
 21
297.5
  0
ENDSEC
  0
EOF
