  0
SECTION
  2
HEADER
  9
$EXTMAX
 10
208.5
 20
148.5
  9
$EXTMIN
 10
-208.5
 20
-148.5
  0
ENDSEC
  0
SECTION
  2
TABLES
  0
TABLE
  2
LTYPE
 70
    22
  0
LTYPE
  2
CONTINUOUS
 70
    64
  3
Solid line
 72
    65
 73
     0
 40
0.000000
  0
LTYPE
  2
DASHED
 70
    64
  3
__ __ __ __ __ __ __ __ __ __ __ __ __ __ __
 72
    65
 73
     2
 40
3.500000
 49
2.000000
 49
-1.500000
  0
LTYPE
  2
CENTER
 70
    64
  3
____ _ ____ _ ____ _ ____ _ ____ _ ____ _ ____
 72
    65
 73
     4
 40
17.500000
 49
13.000000
 49
-1.500000
 49
1.500000
 49
-1.500000
  0
LTYPE
  2
PHANTOM
 70
    64
  3
_____ _ _ _____ _ _ _____ _ _ _____ _ _ ____  
 72
    65
 73
     6
 40
15.500000
 49
8.000000
 49
-1.500000
 49
1.500000
 49
-1.500000
 49
1.500000
 49
-1.500000
  0
LTYPE
  2
DOT
 70
    64
  3
. . . . . . . . . . . . . . . . . . . . . . . .
 72
    65
 73
     2
 40
0.25
 49
0.0
 49
-0.25
  0
ENDTAB
  0
TABLE
  2
LAYER
 70
     2
  0
LAYER
  2
0
 70
     0
 62
     7
  6
CONTINUOUS
  0
LAYER
  2
1
 70
     0
 62
     7
  6
CONTINUOUS
  0
ENDTAB
  0
TABLE
  2
STYLE
 70
     1
  0
STYLE
  2
STANDARD
 70
     0
 40
0.000000
 41
1.000000
 50
0.000000
 71
     0
 42
0.200000
  3
txt
  4
BIGFONT
  0
ENDTAB
  0
TABLE
  2
VIEW
 70
     0
  0
ENDTAB
  0
ENDSEC
  0
SECTION
  2
BLOCKS
  0
ENDSEC
  0
SECTION
  2
ENTITIES
  0
POINT
  8
0
  6
CONTINUOUS
 62
     7
 10
-104.3229598999023
 20
-38.68939590454102
  0
POINT
  8
0
  6
CONTINUOUS
 62
     7
 10
137.3982086181641
 20
-38.01148223876953
  0
POINT
  8
0
  6
CONTINUOUS
 62
     7
 10
410.3157958984375
 20
-38.01148223876953
  0
POINT
  8
0
  6
CONTINUOUS
 62
     7
 10
701.71484375
 20
-380.0567932128906
  0
POINT
  8
0
  6
CONTINUOUS
 62
     7
 10
267.3886108398438
 20
-380.0567932128906
  0
POINT
  8
0
  6
CONTINUOUS
 62
     7
 10
-82.342529296875
 20
-380.0567932128906
  0
LINE
  8
0
  6
CENTER
 62
     7
 10
-193.7839202880859
 20
-38.68939590454102
 11
-14.51446533203125
 21
-38.68939590454102
  0
LINE
  8
0
  6
CENTER
 62
     7
 10
-104.3229598999023
 20
53.28609085083008
 11
-104.3229598999023
 21
-81.96446990966797
  0
LINE
  8
0
  6
CONTINUOUS
 62
     7
 10
-21.32295989990234
 20
-8.939396858215332
 11
-21.32295989990234
 21
-68.43939971923828
  0
LINE
  8
0
  6
CONTINUOUS
 62
     7
 10
-51.0229606628418
 20
-68.93939971923828
 11
-46.0229606628418
 21
-68.93939971923828
  0
LINE
  8
0
  6
CONTINUOUS
 62
     7
 10
-51.0229606628418
 20
-8.439396858215332
 11
-46.0229606628418
 21
-8.439396858215332
  0
LINE
  8
0
  6
CONTINUOUS
 62
     7
 10
-37.32295989990234
 20
-8.439396858215332
 11
-37.32295989990234
 21
-8.739397048950195
  0
LINE
  8
0
  6
CONTINUOUS
 62
     7
 10
-46.0229606628418
 20
-8.439396858215332
 11
-46.0229606628418
 21
-68.93939971923828
  0
LINE
  8
0
  6
CONTINUOUS
 62
     7
 10
-51.0229606628418
 20
-8.439396858215332
 11
-51.0229606628418
 21
-68.93939971923828
  0
LINE
  8
0
  6
CONTINUOUS
 62
     7
 10
-37.32295989990234
 20
-8.439396858215332
 11
-21.82295989990234
 21
-8.439396858215332
  0
LINE
  8
0
  6
CONTINUOUS
 62
     7
 10
-37.32295989990234
 20
-68.93939971923828
 11
-21.82295989990234
 21
-68.93939971923828
  0
LINE
  8
0
  6
CONTINUOUS
 62
     7
 10
-54.32295989990234
 20
-10.2393970489502
 11
-53.01854705810547
 21
-10.2393970489502
  0
LINE
  8
0
  6
CONTINUOUS
 62
     7
 10
-44.02737045288086
 20
-10.2393970489502
 11
-38.82295989990234
 21
-10.2393970489502
  0
LINE
  8
0
  6
CONTINUOUS
 62
     7
 10
-51.04893112182617
 20
-8.586692810058594
 11
-51.0229606628418
 21
-8.439396858215332
  0
LINE
  8
0
  6
CONTINUOUS
 62
     7
 10
-45.99698638916016
 20
-8.586692810058594
 11
-46.0229606628418
 21
-8.439396858215332
  0
LINE
  8
0
  6
CONTINUOUS
 62
     7
 10
-37.32295989990234
 20
-8.739397048950195
 11
-37.32295989990234
 21
-68.93939971923828
  0
LINE
  8
0
  6
CONTINUOUS
 62
     7
 10
-44.02737045288086
 20
-67.13939666748047
 11
-38.82295989990234
 21
-67.13939666748047
  0
LINE
  8
0
  6
CONTINUOUS
 62
     7
 10
-51.04893112182617
 20
-68.79209899902344
 11
-51.0229606628418
 21
-68.93939971923828
  0
LINE
  8
0
  6
CONTINUOUS
 62
     7
 10
-45.99698638916016
 20
-68.79209899902344
 11
-46.0229606628418
 21
-68.93939971923828
  0
LINE
  8
0
  6
CONTINUOUS
 62
     7
 10
-122.1229629516602
 20
-67.13939666748047
 11
-86.52295684814453
 21
-67.13939666748047
  0
LINE
  8
0
  6
CONTINUOUS
 62
     7
 10
-157.5969848632813
 20
-68.79209899902344
 11
-157.6229553222656
 21
-68.93939971923828
  0
LINE
  8
0
  6
CONTINUOUS
 62
     7
 10
-162.64892578125
 20
-68.79209899902344
 11
-162.6229553222656
 21
-68.93939971923828
  0
LINE
  8
0
  6
CONTINUOUS
 62
     7
 10
-152.1229553222656
 20
-67.13939666748047
 11
-155.6273651123047
 21
-67.13939666748047
  0
LINE
  8
0
  6
CONTINUOUS
 62
     7
 10
-164.6185455322266
 20
-10.2393970489502
 11
-169.8229522705078
 21
-10.2393970489502
  0
LINE
  8
0
  6
CONTINUOUS
 62
     7
 10
-157.5969848632813
 20
-8.586692810058594
 11
-157.6229553222656
 21
-8.439396858215332
  0
LINE
  8
0
  6
CONTINUOUS
 62
     7
 10
-162.64892578125
 20
-8.586692810058594
 11
-162.6229553222656
 21
-8.439396858215332
  0
LINE
  8
0
  6
CONTINUOUS
 62
     7
 10
-154.3229522705078
 20
-10.2393970489502
 11
-155.6273651123047
 21
-10.2393970489502
  0
LINE
  8
0
  6
CONTINUOUS
 62
     7
 10
-164.6185455322266
 20
-67.13939666748047
 11
-169.8229522705078
 21
-67.13939666748047
  0
LINE
  8
0
  6
CONTINUOUS
 62
     7
 10
-171.3229522705078
 20
-8.739397048950195
 11
-171.3229522705078
 21
-68.93939971923828
  0
LINE
  8
0
  6
CONTINUOUS
 62
     7
 10
-171.3229522705078
 20
-68.93939971923828
 11
-186.8229522705078
 21
-68.93939971923828
  0
LINE
  8
0
  6
CONTINUOUS
 62
     7
 10
-171.3229522705078
 20
-8.439396858215332
 11
-186.8229522705078
 21
-8.439396858215332
  0
LINE
  8
0
  6
CONTINUOUS
 62
     7
 10
-171.3229522705078
 20
-8.439396858215332
 11
-171.3229522705078
 21
-8.739397048950195
  0
LINE
  8
0
  6
CONTINUOUS
 62
     7
 10
-162.6229553222656
 20
-8.439396858215332
 11
-162.6229553222656
 21
-68.93939971923828
  0
LINE
  8
0
  6
CONTINUOUS
 62
     7
 10
-157.6229553222656
 20
-8.439396858215332
 11
-157.6229553222656
 21
-68.93939971923828
  0
LINE
  8
0
  6
CONTINUOUS
 62
     7
 10
-157.6229553222656
 20
-8.439396858215332
 11
-162.6229553222656
 21
-8.439396858215332
  0
LINE
  8
0
  6
CONTINUOUS
 62
     7
 10
-157.6229553222656
 20
-68.93939971923828
 11
-162.6229553222656
 21
-68.93939971923828
  0
LINE
  8
0
  6
CONTINUOUS
 62
     7
 10
-187.3229522705078
 20
-8.939396858215332
 11
-187.3229522705078
 21
-68.43939971923828
  0
LINE
  8
0
  6
CONTINUOUS
 62
     7
 10
-74.22025299072266
 20
14.58463096618652
 11
-74.07295989990234
 21
14.61060333251953
  0
LINE
  8
0
  6
CONTINUOUS
 62
     7
 10
-74.22025299072266
 20
19.63657569885254
 11
-74.07295989990234
 21
19.61060333251953
  0
LINE
  8
0
  6
CONTINUOUS
 62
     7
 10
-75.87296295166016
 20
11.31060314178467
 11
-75.87296295166016
 21
12.61501502990723
  0
LINE
  8
0
  6
CONTINUOUS
 62
     7
 10
-132.7729644775391
 20
21.60619163513184
 11
-132.7729644775391
 21
26.81060409545898
  0
LINE
  8
0
  6
CONTINUOUS
 62
     7
 10
-134.4256591796875
 20
14.58463096618652
 11
-134.5729522705078
 21
14.61060333251953
  0
LINE
  8
0
  6
CONTINUOUS
 62
     7
 10
-134.4256591796875
 20
19.63657569885254
 11
-134.5729522705078
 21
19.61060333251953
  0
LINE
  8
0
  6
CONTINUOUS
 62
     7
 10
-132.7729644775391
 20
11.31060314178467
 11
-132.7729644775391
 21
12.61501502990723
  0
LINE
  8
0
  6
CONTINUOUS
 62
     7
 10
-75.87296295166016
 20
21.60619163513184
 11
-75.87296295166016
 21
26.81060409545898
  0
LINE
  8
0
  6
CONTINUOUS
 62
     7
 10
-134.2729644775391
 20
28.31060409545898
 11
-74.07295989990234
 21
28.31060409545898
  0
LINE
  8
0
  6
CONTINUOUS
 62
     7
 10
-74.07295989990234
 20
28.31060409545898
 11
-74.07295989990234
 21
43.81060409545898
  0
LINE
  8
0
  6
CONTINUOUS
 62
     7
 10
-134.5729522705078
 20
28.31060409545898
 11
-134.5729522705078
 21
43.81060409545898
  0
LINE
  8
0
  6
CONTINUOUS
 62
     7
 10
-134.5729522705078
 20
28.31060409545898
 11
-134.2729644775391
 21
28.31060409545898
  0
LINE
  8
0
  6
CONTINUOUS
 62
     7
 10
-134.5729522705078
 20
19.61060333251953
 11
-74.07295989990234
 21
19.61060333251953
  0
LINE
  8
0
  6
CONTINUOUS
 62
     7
 10
-134.5729522705078
 20
14.61060333251953
 11
-74.07295989990234
 21
14.61060333251953
  0
LINE
  8
0
  6
CONTINUOUS
 62
     7
 10
-134.5729522705078
 20
14.61060333251953
 11
-134.5729522705078
 21
19.61060333251953
  0
LINE
  8
0
  6
CONTINUOUS
 62
     7
 10
-74.07295989990234
 20
14.61060333251953
 11
-74.07295989990234
 21
19.61060333251953
  0
LINE
  8
0
  6
CONTINUOUS
 62
     7
 10
-134.0729522705078
 20
44.31060409545898
 11
-74.57295989990234
 21
44.31060409545898
  0
LINE
  8
0
  6
CONTINUOUS
 62
     7
 10
-152.1229553222656
 20
-65.63939666748047
 11
-152.1229553222656
 21
-68.13939666748047
  0
LINE
  8
0
  6
CONTINUOUS
 62
     7
 10
-56.5229606628418
 20
-65.63939666748047
 11
-56.5229606628418
 21
-68.13939666748047
  0
LINE
  8
0
  6
CONTINUOUS
 62
     7
 10
-122.1229629516602
 20
-65.63939666748047
 11
-122.1229629516602
 21
-68.13939666748047
  0
LINE
  8
0
  6
CONTINUOUS
 62
     7
 10
-86.52295684814453
 20
-65.63939666748047
 11
-86.52295684814453
 21
-68.13939666748047
  0
LINE
  8
0
  6
CONTINUOUS
 62
     7
 10
-122.1229629516602
 20
-68.13939666748047
 11
-152.1229553222656
 21
-68.13939666748047
  0
LINE
  8
0
  6
CONTINUOUS
 62
     7
 10
-86.52295684814453
 20
-68.13939666748047
 11
-56.5229606628418
 21
-68.13939666748047
  0
LINE
  8
0
  6
CONTINUOUS
 62
     7
 10
-86.52295684814453
 20
-65.63939666748047
 11
-56.5229606628418
 21
-65.63939666748047
  0
LINE
  8
0
  6
CONTINUOUS
 62
     7
 10
-122.1229629516602
 20
-65.63939666748047
 11
-152.1229553222656
 21
-65.63939666748047
  0
LINE
  8
0
  6
CONTINUOUS
 62
     7
 10
-56.5229606628418
 20
-67.13939666748047
 11
-53.01854705810547
 21
-67.13939666748047
  0
LINE
  8
0
  6
CENTER
 62
     7
 10
37.68640899658203
 20
-38.01148223876953
 11
239.2160797119141
 21
-38.01148223876953
  0
LINE
  8
0
  6
CENTER
 62
     7
 10
137.3982086181641
 20
71.07275390625
 11
137.3982086181641
 21
-88.07920074462891
  0
LINE
  8
0
  6
CONTINUOUS
 62
     7
 10
232.3982086181641
 20
-0.361483097076416
 11
232.3982086181641
 21
-75.66148376464844
  0
LINE
  8
0
  6
CONTINUOUS
 62
     7
 10
202.6981964111328
 20
-76.16148376464844
 11
207.6981964111328
 21
-76.16148376464844
  0
LINE
  8
0
  6
CONTINUOUS
 62
     7
 10
202.6981964111328
 20
0.138516902923584
 11
207.6981964111328
 21
0.138516902923584
  0
LINE
  8
0
  6
CONTINUOUS
 62
     7
 10
216.3982086181641
 20
0.138516902923584
 11
216.3982086181641
 21
-0.411483108997345
  0
LINE
  8
0
  6
CONTINUOUS
 62
     7
 10
207.6981964111328
 20
0.138516902923584
 11
207.6981964111328
 21
-76.16148376464844
  0
LINE
  8
0
  6
CONTINUOUS
 62
     7
 10
202.6981964111328
 20
0.138516902923584
 11
202.6981964111328
 21
-76.16148376464844
  0
LINE
  8
0
  6
CONTINUOUS
 62
     7
 10
216.3982086181641
 20
0.138516902923584
 11
231.8982086181641
 21
0.138516902923584
  0
LINE
  8
0
  6
CONTINUOUS
 62
     7
 10
216.3982086181641
 20
-76.16148376464844
 11
231.8982086181641
 21
-76.16148376464844
  0
LINE
  8
0
  6
CONTINUOUS
 62
     7
 10
199.3982086181641
 20
-1.9114830493927
 11
200.6585388183594
 21
-1.9114830493927
  0
LINE
  8
0
  6
CONTINUOUS
 62
     7
 10
209.7378692626953
 20
-1.9114830493927
 11
214.8982086181641
 21
-1.9114830493927
  0
LINE
  8
0
  6
CONTINUOUS
 62
     7
 10
202.6281433105469
 20
-0.2587794661521912
 11
202.6981964111328
 21
0.138516902923584
  0
LINE
  8
0
  6
CONTINUOUS
 62
     7
 10
207.7682495117188
 20
-0.2587794661521912
 11
207.6981964111328
 21
0.138516902923584
  0
LINE
  8
0
  6
CONTINUOUS
 62
     7
 10
216.3982086181641
 20
-0.411483108997345
 11
216.3982086181641
 21
-76.16148376464844
  0
LINE
  8
0
  6
CONTINUOUS
 62
     7
 10
112.0982055664063
 20
-74.11148071289063
 11
162.6981964111328
 21
-74.11148071289063
  0
LINE
  8
0
  6
CONTINUOUS
 62
     7
 10
209.7378692626953
 20
-74.11148071289063
 11
214.8982086181641
 21
-74.11148071289063
  0
LINE
  8
0
  6
CONTINUOUS
 62
     7
 10
207.7682495117188
 20
-75.76418304443359
 11
207.6981964111328
 21
-76.16148376464844
  0
LINE
  8
0
  6
CONTINUOUS
 62
     7
 10
202.6281433105469
 20
-75.76418304443359
 11
202.6981964111328
 21
-76.16148376464844
  0
LINE
  8
0
  6
CONTINUOUS
 62
     7
 10
42.39820098876953
 20
-0.361483097076416
 11
42.39820098876953
 21
-75.66148376464844
  0
LINE
  8
0
  6
CONTINUOUS
 62
     7
 10
72.09820556640625
 20
-76.16148376464844
 11
67.09820556640625
 21
-76.16148376464844
  0
LINE
  8
0
  6
CONTINUOUS
 62
     7
 10
72.09820556640625
 20
0.138516902923584
 11
67.09820556640625
 21
0.138516902923584
  0
LINE
  8
0
  6
CONTINUOUS
 62
     7
 10
72.09820556640625
 20
0.138516902923584
 11
72.09820556640625
 21
-76.16148376464844
  0
LINE
  8
0
  6
CONTINUOUS
 62
     7
 10
67.09820556640625
 20
0.138516902923584
 11
67.09820556640625
 21
-76.16148376464844
  0
LINE
  8
0
  6
CONTINUOUS
 62
     7
 10
58.39820098876953
 20
0.138516902923584
 11
58.39820098876953
 21
-0.411483108997345
  0
LINE
  8
0
  6
CONTINUOUS
 62
     7
 10
65.05853271484375
 20
-74.11148071289063
 11
59.89820098876953
 21
-74.11148071289063
  0
LINE
  8
0
  6
CONTINUOUS
 62
     7
 10
58.39820098876953
 20
0.138516902923584
 11
42.89820098876953
 21
0.138516902923584
  0
LINE
  8
0
  6
CONTINUOUS
 62
     7
 10
58.39820098876953
 20
-76.16148376464844
 11
42.89820098876953
 21
-76.16148376464844
  0
LINE
  8
0
  6
CONTINUOUS
 62
     7
 10
75.39820098876953
 20
-1.9114830493927
 11
74.13787078857422
 21
-1.9114830493927
  0
LINE
  8
0
  6
CONTINUOUS
 62
     7
 10
82.09820556640625
 20
-74.11148071289063
 11
74.13787078857422
 21
-74.11148071289063
  0
LINE
  8
0
  6
CONTINUOUS
 62
     7
 10
72.16825866699219
 20
-75.76418304443359
 11
72.09820556640625
 21
-76.16148376464844
  0
LINE
  8
0
  6
CONTINUOUS
 62
     7
 10
58.39820098876953
 20
-0.411483108997345
 11
58.39820098876953
 21
-76.16148376464844
  0
LINE
  8
0
  6
CONTINUOUS
 62
     7
 10
67.02814483642578
 20
-75.76418304443359
 11
67.09820556640625
 21
-76.16148376464844
  0
LINE
  8
0
  6
CONTINUOUS
 62
     7
 10
65.05853271484375
 20
-1.9114830493927
 11
59.89820098876953
 21
-1.9114830493927
  0
LINE
  8
0
  6
CONTINUOUS
 62
     7
 10
67.02814483642578
 20
-0.2587794661521912
 11
67.09820556640625
 21
0.138516902923584
  0
LINE
  8
0
  6
CONTINUOUS
 62
     7
 10
72.16825866699219
 20
-0.2587794661521912
 11
72.09820556640625
 21
0.138516902923584
  0
LINE
  8
0
  6
CONTINUOUS
 62
     7
 10
99.74819946289063
 20
56.98851776123047
 11
175.0482025146484
 21
56.98851776123047
  0
LINE
  8
0
  6
CONTINUOUS
 62
     7
 10
175.5482025146484
 20
27.28851699829102
 11
175.5482025146484
 21
32.28851699829102
  0
LINE
  8
0
  6
CONTINUOUS
 62
     7
 10
99.24819946289063
 20
27.28851699829102
 11
99.24819946289063
 21
32.28851699829102
  0
LINE
  8
0
  6
CONTINUOUS
 62
     7
 10
99.24819946289063
 20
27.28851699829102
 11
175.5482025146484
 21
27.28851699829102
  0
LINE
  8
0
  6
CONTINUOUS
 62
     7
 10
99.24819946289063
 20
32.28851699829102
 11
175.5482025146484
 21
32.28851699829102
  0
LINE
  8
0
  6
CONTINUOUS
 62
     7
 10
99.24819946289063
 20
40.98851776123047
 11
99.79820251464844
 21
40.98851776123047
  0
LINE
  8
0
  6
CONTINUOUS
 62
     7
 10
173.4981994628906
 20
34.32818603515625
 11
173.4981994628906
 21
39.48851776123047
  0
LINE
  8
0
  6
CONTINUOUS
 62
     7
 10
99.24819946289063
 20
40.98851776123047
 11
99.24819946289063
 21
56.48851776123047
  0
LINE
  8
0
  6
CONTINUOUS
 62
     7
 10
175.5482025146484
 20
40.98851776123047
 11
175.5482025146484
 21
56.48851776123047
  0
LINE
  8
0
  6
CONTINUOUS
 62
     7
 10
101.2982025146484
 20
23.98851776123047
 11
101.2982025146484
 21
25.24884796142578
  0
LINE
  8
0
  6
CONTINUOUS
 62
     7
 10
173.4981994628906
 20
23.98851776123047
 11
173.4981994628906
 21
25.24884796142578
  0
LINE
  8
0
  6
CONTINUOUS
 62
     7
 10
175.1509094238281
 20
27.21846199035645
 11
175.5482025146484
 21
27.28851699829102
  0
LINE
  8
0
  6
CONTINUOUS
 62
     7
 10
99.79820251464844
 20
40.98851776123047
 11
175.5482025146484
 21
40.98851776123047
  0
LINE
  8
0
  6
CONTINUOUS
 62
     7
 10
175.1509094238281
 20
32.35857009887695
 11
175.5482025146484
 21
32.28851699829102
  0
LINE
  8
0
  6
CONTINUOUS
 62
     7
 10
101.2982025146484
 20
34.32818603515625
 11
101.2982025146484
 21
39.48851776123047
  0
LINE
  8
0
  6
CONTINUOUS
 62
     7
 10
99.64550018310547
 20
32.35857009887695
 11
99.24819946289063
 21
32.28851699829102
  0
LINE
  8
0
  6
CONTINUOUS
 62
     7
 10
99.64550018310547
 20
27.21846199035645
 11
99.24819946289063
 21
27.28851699829102
  0
LINE
  8
0
  6
CONTINUOUS
 62
     7
 10
82.09820556640625
 20
-72.61148071289063
 11
82.09820556640625
 21
-75.11148071289063
  0
LINE
  8
0
  6
CONTINUOUS
 62
     7
 10
112.0982055664063
 20
-72.61148071289063
 11
112.0982055664063
 21
-75.11148071289063
  0
LINE
  8
0
  6
CONTINUOUS
 62
     7
 10
112.0982055664063
 20
-72.61148071289063
 11
82.09820556640625
 21
-72.61148071289063
  0
LINE
  8
0
  6
CONTINUOUS
 62
     7
 10
112.0982055664063
 20
-75.11148071289063
 11
82.09820556640625
 21
-75.11148071289063
  0
LINE
  8
0
  6
CONTINUOUS
 62
     7
 10
192.6981964111328
 20
-72.61148071289063
 11
192.6981964111328
 21
-75.11148071289063
  0
LINE
  8
0
  6
CONTINUOUS
 62
     7
 10
162.6981964111328
 20
-75.11148071289063
 11
192.6981964111328
 21
-75.11148071289063
  0
LINE
  8
0
  6
CONTINUOUS
 62
     7
 10
162.6981964111328
 20
-72.61148071289063
 11
192.6981964111328
 21
-72.61148071289063
  0
LINE
  8
0
  6
CONTINUOUS
 62
     7
 10
162.6981964111328
 20
-72.61148071289063
 11
162.6981964111328
 21
-75.11148071289063
  0
LINE
  8
0
  6
CONTINUOUS
 62
     7
 10
192.6981964111328
 20
-74.11148071289063
 11
200.6585388183594
 21
-74.11148071289063
  0
LINE
  8
0
  6
CENTER
 62
     7
 10
292.1142883300781
 20
-38.01148223876953
 11
526.8591918945313
 21
-38.01148223876953
  0
LINE
  8
0
  6
CENTER
 62
     7
 10
410.3157958984375
 20
84.84684753417969
 11
410.3157958984375
 21
-102.9062271118164
  0
LINE
  8
0
  6
CONTINUOUS
 62
     7
 10
518.3157958984375
 20
6.038516998291016
 11
518.3157958984375
 21
-82.06148529052734
  0
LINE
  8
0
  6
CONTINUOUS
 62
     7
 10
488.6157836914063
 20
6.538516998291016
 11
493.6157836914063
 21
6.538516998291016
  0
LINE
  8
0
  6
CONTINUOUS
 62
     7
 10
488.6157836914063
 20
-82.56148529052734
 11
493.6157836914063
 21
-82.56148529052734
  0
LINE
  8
0
  6
CONTINUOUS
 62
     7
 10
502.3157958984375
 20
6.538516998291016
 11
502.3157958984375
 21
5.938517093658447
  0
LINE
  8
0
  6
CONTINUOUS
 62
     7
 10
493.6157836914063
 20
6.538516998291016
 11
493.6157836914063
 21
-82.56148529052734
  0
LINE
  8
0
  6
CONTINUOUS
 62
     7
 10
488.6157836914063
 20
6.538516998291016
 11
488.6157836914063
 21
-82.56148529052734
  0
LINE
  8
0
  6
CONTINUOUS
 62
     7
 10
502.3157958984375
 20
6.538516998291016
 11
517.8157958984375
 21
6.538516998291016
  0
LINE
  8
0
  6
CONTINUOUS
 62
     7
 10
502.3157958984375
 20
-82.56148529052734
 11
517.8157958984375
 21
-82.56148529052734
  0
LINE
  8
0
  6
CONTINUOUS
 62
     7
 10
485.3157958984375
 20
4.438517093658447
 11
486.5672912597656
 21
4.438517093658447
  0
LINE
  8
0
  6
CONTINUOUS
 62
     7
 10
495.6642761230469
 20
4.438517093658447
 11
500.8157958984375
 21
4.438517093658447
  0
LINE
  8
0
  6
CONTINUOUS
 62
     7
 10
488.5369262695313
 20
6.091220378875732
 11
488.6157836914063
 21
6.538516998291016
  0
LINE
  8
0
  6
CONTINUOUS
 62
     7
 10
493.6946411132813
 20
6.091220378875732
 11
493.6157836914063
 21
6.538516998291016
  0
LINE
  8
0
  6
CONTINUOUS
 62
     7
 10
502.3157958984375
 20
5.938517093658447
 11
502.3157958984375
 21
-82.56148529052734
  0
LINE
  8
0
  6
CONTINUOUS
 62
     7
 10
488.5369262695313
 20
-82.11418914794922
 11
488.6157836914063
 21
-82.56148529052734
  0
LINE
  8
0
  6
CONTINUOUS
 62
     7
 10
392.0157775878906
 20
-80.46148681640625
 11
428.6157836914063
 21
-80.46148681640625
  0
LINE
  8
0
  6
CONTINUOUS
 62
     7
 10
493.6946411132813
 20
-82.11418914794922
 11
493.6157836914063
 21
-82.56148529052734
  0
LINE
  8
0
  6
CONTINUOUS
 62
     7
 10
495.6642761230469
 20
-80.46148681640625
 11
500.8157958984375
 21
-80.46148681640625
  0
LINE
  8
0
  6
CONTINUOUS
 62
     7
 10
332.0157775878906
 20
6.538516998291016
 11
327.0157775878906
 21
6.538516998291016
  0
LINE
  8
0
  6
CONTINUOUS
 62
     7
 10
302.3157958984375
 20
6.038516998291016
 11
302.3157958984375
 21
-82.06148529052734
  0
LINE
  8
0
  6
CONTINUOUS
 62
     7
 10
332.0157775878906
 20
-82.56148529052734
 11
327.0157775878906
 21
-82.56148529052734
  0
LINE
  8
0
  6
CONTINUOUS
 62
     7
 10
342.0157775878906
 20
-80.46148681640625
 11
334.0642700195313
 21
-80.46148681640625
  0
LINE
  8
0
  6
CONTINUOUS
 62
     7
 10
332.0946655273438
 20
6.091220378875732
 11
332.0157775878906
 21
6.538516998291016
  0
LINE
  8
0
  6
CONTINUOUS
 62
     7
 10
335.3157958984375
 20
4.438517093658447
 11
334.0642700195313
 21
4.438517093658447
  0
LINE
  8
0
  6
CONTINUOUS
 62
     7
 10
326.9369201660156
 20
6.091220378875732
 11
327.0157775878906
 21
6.538516998291016
  0
LINE
  8
0
  6
CONTINUOUS
 62
     7
 10
318.3157958984375
 20
-82.56148529052734
 11
302.8157958984375
 21
-82.56148529052734
  0
LINE
  8
0
  6
CONTINUOUS
 62
     7
 10
318.3157958984375
 20
6.538516998291016
 11
302.8157958984375
 21
6.538516998291016
  0
LINE
  8
0
  6
CONTINUOUS
 62
     7
 10
324.96728515625
 20
4.438517093658447
 11
319.8157958984375
 21
4.438517093658447
  0
LINE
  8
0
  6
CONTINUOUS
 62
     7
 10
332.0157775878906
 20
6.538516998291016
 11
332.0157775878906
 21
-82.56148529052734
  0
LINE
  8
0
  6
CONTINUOUS
 62
     7
 10
327.0157775878906
 20
6.538516998291016
 11
327.0157775878906
 21
-82.56148529052734
  0
LINE
  8
0
  6
CONTINUOUS
 62
     7
 10
318.3157958984375
 20
6.538516998291016
 11
318.3157958984375
 21
5.938517093658447
  0
LINE
  8
0
  6
CONTINUOUS
 62
     7
 10
326.9369201660156
 20
-82.11418914794922
 11
327.0157775878906
 21
-82.56148529052734
  0
LINE
  8
0
  6
CONTINUOUS
 62
     7
 10
318.3157958984375
 20
5.938517093658447
 11
318.3157958984375
 21
-82.56148529052734
  0
LINE
  8
0
  6
CONTINUOUS
 62
     7
 10
332.0946655273438
 20
-82.11418914794922
 11
332.0157775878906
 21
-82.56148529052734
  0
LINE
  8
0
  6
CONTINUOUS
 62
     7
 10
324.96728515625
 20
-80.46148681640625
 11
319.8157958984375
 21
-80.46148681640625
  0
LINE
  8
0
  6
CONTINUOUS
 62
     7
 10
365.7657775878906
 20
40.28851699829102
 11
365.7657775878906
 21
45.28851699829102
  0
LINE
  8
0
  6
CONTINUOUS
 62
     7
 10
366.2657775878906
 20
69.98851776123047
 11
454.3657836914063
 21
69.98851776123047
  0
LINE
  8
0
  6
CONTINUOUS
 62
     7
 10
454.8657836914063
 20
40.28851699829102
 11
454.8657836914063
 21
45.28851699829102
  0
LINE
  8
0
  6
CONTINUOUS
 62
     7
 10
452.7657775878906
 20
36.98851776123047
 11
452.7657775878906
 21
38.24003219604492
  0
LINE
  8
0
  6
CONTINUOUS
 62
     7
 10
366.2130737304688
 20
40.20964813232422
 11
365.7657775878906
 21
40.28851699829102
  0
LINE
  8
0
  6
CONTINUOUS
 62
     7
 10
367.8657836914063
 20
36.98851776123047
 11
367.8657836914063
 21
38.24003219604492
  0
LINE
  8
0
  6
CONTINUOUS
 62
     7
 10
366.2130737304688
 20
45.36738586425781
 11
365.7657775878906
 21
45.28851699829102
  0
LINE
  8
0
  6
CONTINUOUS
 62
     7
 10
454.8657836914063
 20
53.98851776123047
 11
454.8657836914063
 21
69.48851776123047
  0
LINE
  8
0
  6
CONTINUOUS
 62
     7
 10
365.7657775878906
 20
53.98851776123047
 11
365.7657775878906
 21
69.48851776123047
  0
LINE
  8
0
  6
CONTINUOUS
 62
     7
 10
367.8657836914063
 20
47.33700180053711
 11
367.8657836914063
 21
52.48851776123047
  0
LINE
  8
0
  6
CONTINUOUS
 62
     7
 10
365.7657775878906
 20
40.28851699829102
 11
454.8657836914063
 21
40.28851699829102
  0
LINE
  8
0
  6
CONTINUOUS
 62
     7
 10
365.7657775878906
 20
45.28851699829102
 11
454.8657836914063
 21
45.28851699829102
  0
LINE
  8
0
  6
CONTINUOUS
 62
     7
 10
365.7657775878906
 20
53.98851776123047
 11
366.3657836914063
 21
53.98851776123047
  0
LINE
  8
0
  6
CONTINUOUS
 62
     7
 10
454.4184875488281
 20
45.36738586425781
 11
454.8657836914063
 21
45.28851699829102
  0
LINE
  8
0
  6
CONTINUOUS
 62
     7
 10
366.3657836914063
 20
53.98851776123047
 11
454.8657836914063
 21
53.98851776123047
  0
LINE
  8
0
  6
CONTINUOUS
 62
     7
 10
454.4184875488281
 20
40.20964813232422
 11
454.8657836914063
 21
40.28851699829102
  0
LINE
  8
0
  6
CONTINUOUS
 62
     7
 10
452.7657775878906
 20
47.33700180053711
 11
452.7657775878906
 21
52.48851776123047
  0
LINE
  8
0
  6
CONTINUOUS
 62
     7
 10
342.0157775878906
 20
-78.96148681640625
 11
342.0157775878906
 21
-81.46148681640625
  0
LINE
  8
0
  6
CONTINUOUS
 62
     7
 10
392.0157775878906
 20
-78.96148681640625
 11
392.0157775878906
 21
-81.46148681640625
  0
LINE
  8
0
  6
CONTINUOUS
 62
     7
 10
392.0157775878906
 20
-78.96148681640625
 11
342.0157775878906
 21
-78.96148681640625
  0
LINE
  8
0
  6
CONTINUOUS
 62
     7
 10
392.0157775878906
 20
-81.46148681640625
 11
342.0157775878906
 21
-81.46148681640625
  0
LINE
  8
0
  6
CONTINUOUS
 62
     7
 10
428.6157836914063
 20
-78.96148681640625
 11
428.6157836914063
 21
-81.46148681640625
  0
LINE
  8
0
  6
CONTINUOUS
 62
     7
 10
478.6157836914063
 20
-78.96148681640625
 11
478.6157836914063
 21
-81.46148681640625
  0
LINE
  8
0
  6
CONTINUOUS
 62
     7
 10
428.6157836914063
 20
-81.46148681640625
 11
478.6157836914063
 21
-81.46148681640625
  0
LINE
  8
0
  6
CONTINUOUS
 62
     7
 10
428.6157836914063
 20
-78.96148681640625
 11
478.6157836914063
 21
-78.96148681640625
  0
LINE
  8
0
  6
CONTINUOUS
 62
     7
 10
478.6157836914063
 20
-80.46148681640625
 11
486.5672912597656
 21
-80.46148681640625
  0
LINE
  8
0
  6
CENTER
 62
     7
 10
-222.4930572509766
 20
-380.0567932128906
 11
58.16701889038086
 21
-380.0567932128906
  0
LINE
  8
0
  6
CENTER
 62
     7
 10
-82.342529296875
 20
-226.1365203857422
 11
-82.342529296875
 21
-452.3955383300781
  0
LINE
  8
0
  6
CONTINUOUS
 62
     7
 10
44.65747451782227
 20
-323.4067993164063
 11
44.65747451782227
 21
-436.706787109375
  0
LINE
  8
0
  6
CONTINUOUS
 62
     7
 10
14.95747470855713
 20
-437.206787109375
 11
19.95747375488281
 21
-437.206787109375
  0
LINE
  8
0
  6
CONTINUOUS
 62
     7
 10
14.95747470855713
 20
-322.9067993164063
 11
19.95747375488281
 21
-322.9067993164063
  0
LINE
  8
0
  6
CONTINUOUS
 62
     7
 10
28.65747451782227
 20
-322.9067993164063
 11
28.65747451782227
 21
-323.7568054199219
  0
LINE
  8
0
  6
CONTINUOUS
 62
     7
 10
19.95747375488281
 20
-322.9067993164063
 11
19.95747375488281
 21
-437.206787109375
  0
LINE
  8
0
  6
CONTINUOUS
 62
     7
 10
14.95747470855713
 20
-322.9067993164063
 11
14.95747470855713
 21
-437.206787109375
  0
LINE
  8
0
  6
CONTINUOUS
 62
     7
 10
28.65747451782227
 20
-322.9067993164063
 11
44.15747451782227
 21
-322.9067993164063
  0
LINE
  8
0
  6
CONTINUOUS
 62
     7
 10
28.65747451782227
 20
-437.206787109375
 11
44.15747451782227
 21
-437.206787109375
  0
LINE
  8
0
  6
CONTINUOUS
 62
     7
 10
9.657474517822266
 20
-325.2568054199219
 11
12.86490726470947
 21
-325.2568054199219
  0
LINE
  8
0
  6
CONTINUOUS
 62
     7
 10
22.0500431060791
 20
-325.2568054199219
 11
27.15747451782227
 21
-325.2568054199219
  0
LINE
  8
0
  6
CONTINUOUS
 62
     7
 10
14.83452224731445
 20
-323.6040954589844
 11
14.95747470855713
 21
-322.9067993164063
  0
LINE
  8
0
  6
CONTINUOUS
 62
     7
 10
20.08042716979981
 20
-323.6040954589844
 11
19.95747375488281
 21
-322.9067993164063
  0
LINE
  8
0
  6
CONTINUOUS
 62
     7
 10
28.65747451782227
 20
-323.7568054199219
 11
28.65747451782227
 21
-437.206787109375
  0
LINE
  8
0
  6
CONTINUOUS
 62
     7
 10
14.83452224731445
 20
-436.5094909667969
 11
14.95747470855713
 21
-437.206787109375
  0
LINE
  8
0
  6
CONTINUOUS
 62
     7
 10
20.08042716979981
 20
-436.5094909667969
 11
19.95747375488281
 21
-437.206787109375
  0
LINE
  8
0
  6
CONTINUOUS
 62
     7
 10
-119.6425247192383
 20
-434.8567810058594
 11
-45.04252624511719
 21
-434.8567810058594
  0
LINE
  8
0
  6
CONTINUOUS
 62
     7
 10
22.0500431060791
 20
-434.8567810058594
 11
27.15747451782227
 21
-434.8567810058594
  0
LINE
  8
0
  6
CONTINUOUS
 62
     7
 10
-179.6425323486328
 20
-437.206787109375
 11
-184.6425323486328
 21
-437.206787109375
  0
LINE
  8
0
  6
CONTINUOUS
 62
     7
 10
-209.342529296875
 20
-323.4067993164063
 11
-209.342529296875
 21
-436.706787109375
  0
LINE
  8
0
  6
CONTINUOUS
 62
     7
 10
-179.6425323486328
 20
-322.9067993164063
 11
-184.6425323486328
 21
-322.9067993164063
  0
LINE
  8
0
  6
CONTINUOUS
 62
     7
 10
-179.5195770263672
 20
-323.6040954589844
 11
-179.6425323486328
 21
-322.9067993164063
  0
LINE
  8
0
  6
CONTINUOUS
 62
     7
 10
-179.6425323486328
 20
-322.9067993164063
 11
-179.6425323486328
 21
-437.206787109375
  0
LINE
  8
0
  6
CONTINUOUS
 62
     7
 10
-184.6425323486328
 20
-322.9067993164063
 11
-184.6425323486328
 21
-437.206787109375
  0
LINE
  8
0
  6
CONTINUOUS
 62
     7
 10
-193.342529296875
 20
-322.9067993164063
 11
-193.342529296875
 21
-323.7568054199219
  0
LINE
  8
0
  6
CONTINUOUS
 62
     7
 10
-184.7654724121094
 20
-323.6040954589844
 11
-184.6425323486328
 21
-322.9067993164063
  0
LINE
  8
0
  6
CONTINUOUS
 62
     7
 10
-193.342529296875
 20
-322.9067993164063
 11
-208.842529296875
 21
-322.9067993164063
  0
LINE
  8
0
  6
CONTINUOUS
 62
     7
 10
-193.342529296875
 20
-437.206787109375
 11
-208.842529296875
 21
-437.206787109375
  0
LINE
  8
0
  6
CONTINUOUS
 62
     7
 10
-193.342529296875
 20
-323.7568054199219
 11
-193.342529296875
 21
-437.206787109375
  0
LINE
  8
0
  6
CONTINUOUS
 62
     7
 10
-174.342529296875
 20
-325.2568054199219
 11
-177.5499572753906
 21
-325.2568054199219
  0
LINE
  8
0
  6
CONTINUOUS
 62
     7
 10
-186.7350921630859
 20
-325.2568054199219
 11
-191.842529296875
 21
-325.2568054199219
  0
LINE
  8
0
  6
CONTINUOUS
 62
     7
 10
-184.7654724121094
 20
-436.5094909667969
 11
-184.6425323486328
 21
-437.206787109375
  0
LINE
  8
0
  6
CONTINUOUS
 62
     7
 10
-169.6425323486328
 20
-434.8567810058594
 11
-177.5499572753906
 21
-434.8567810058594
  0
LINE
  8
0
  6
CONTINUOUS
 62
     7
 10
-179.5195770263672
 20
-436.5094909667969
 11
-179.6425323486328
 21
-437.206787109375
  0
LINE
  8
0
  6
CONTINUOUS
 62
     7
 10
-186.7350921630859
 20
-434.8567810058594
 11
-191.842529296875
 21
-434.8567810058594
  0
LINE
  8
0
  6
CONTINUOUS
 62
     7
 10
-25.19252586364746
 20
-282.7568054199219
 11
-25.19252586364746
 21
-277.7568054199219
  0
LINE
  8
0
  6
CONTINUOUS
 62
     7
 10
-138.9925231933594
 20
-253.0567932128906
 11
-25.69252586364746
 21
-253.0567932128906
  0
LINE
  8
0
  6
CONTINUOUS
 62
     7
 10
-139.4925231933594
 20
-282.7568054199219
 11
-139.4925231933594
 21
-277.7568054199219
  0
LINE
  8
0
  6
CONTINUOUS
 62
     7
 10
-138.7952270507813
 20
-282.8797607421875
 11
-139.4925231933594
 21
-282.7568054199219
  0
LINE
  8
0
  6
CONTINUOUS
 62
     7
 10
-139.4925231933594
 20
-282.7568054199219
 11
-25.19252586364746
 21
-282.7568054199219
  0
LINE
  8
0
  6
CONTINUOUS
 62
     7
 10
-139.4925231933594
 20
-277.7568054199219
 11
-25.19252586364746
 21
-277.7568054199219
  0
LINE
  8
0
  6
CONTINUOUS
 62
     7
 10
-139.4925231933594
 20
-269.0567932128906
 11
-138.6425323486328
 21
-269.0567932128906
  0
LINE
  8
0
  6
CONTINUOUS
 62
     7
 10
-138.7952270507813
 20
-277.6338500976563
 11
-139.4925231933594
 21
-277.7568054199219
  0
LINE
  8
0
  6
CONTINUOUS
 62
     7
 10
-139.4925231933594
 20
-269.0567932128906
 11
-139.4925231933594
 21
-253.5567932128906
  0
LINE
  8
0
  6
CONTINUOUS
 62
     7
 10
-25.19252586364746
 20
-269.0567932128906
 11
-25.19252586364746
 21
-253.5567932128906
  0
LINE
  8
0
  6
CONTINUOUS
 62
     7
 10
-138.6425323486328
 20
-269.0567932128906
 11
-25.19252586364746
 21
-269.0567932128906
  0
LINE
  8
0
  6
CONTINUOUS
 62
     7
 10
-137.1425323486328
 20
-288.0567932128906
 11
-137.1425323486328
 21
-284.849365234375
  0
LINE
  8
0
  6
CONTINUOUS
 62
     7
 10
-137.1425323486328
 20
-275.6642150878906
 11
-137.1425323486328
 21
-270.5567932128906
  0
LINE
  8
0
  6
CONTINUOUS
 62
     7
 10
-25.88982200622559
 20
-277.6338500976563
 11
-25.19252586364746
 21
-277.7568054199219
  0
LINE
  8
0
  6
CONTINUOUS
 62
     7
 10
-27.54252624511719
 20
-288.0567932128906
 11
-27.54252624511719
 21
-284.849365234375
  0
LINE
  8
0
  6
CONTINUOUS
 62
     7
 10
-25.88982200622559
 20
-282.8797607421875
 11
-25.19252586364746
 21
-282.7568054199219
  0
LINE
  8
0
  6
CONTINUOUS
 62
     7
 10
-27.54252624511719
 20
-275.6642150878906
 11
-27.54252624511719
 21
-270.5567932128906
  0
LINE
  8
0
  6
CONTINUOUS
 62
     7
 10
-169.6425323486328
 20
-433.3567810058594
 11
-169.6425323486328
 21
-435.8567810058594
  0
LINE
  8
0
  6
CONTINUOUS
 62
     7
 10
-119.6425247192383
 20
-433.3567810058594
 11
-119.6425247192383
 21
-435.8567810058594
  0
LINE
  8
0
  6
CONTINUOUS
 62
     7
 10
-119.6425247192383
 20
-435.8567810058594
 11
-169.6425323486328
 21
-435.8567810058594
  0
LINE
  8
0
  6
CONTINUOUS
 62
     7
 10
-119.6425247192383
 20
-433.3567810058594
 11
-169.6425323486328
 21
-433.3567810058594
  0
LINE
  8
0
  6
CONTINUOUS
 62
     7
 10
4.957474708557129
 20
-433.3567810058594
 11
4.957474708557129
 21
-435.8567810058594
  0
LINE
  8
0
  6
CONTINUOUS
 62
     7
 10
-45.04252624511719
 20
-433.3567810058594
 11
-45.04252624511719
 21
-435.8567810058594
  0
LINE
  8
0
  6
CONTINUOUS
 62
     7
 10
-45.04252624511719
 20
-435.8567810058594
 11
4.957474708557129
 21
-435.8567810058594
  0
LINE
  8
0
  6
CONTINUOUS
 62
     7
 10
-45.04252624511719
 20
-433.3567810058594
 11
4.957474708557129
 21
-433.3567810058594
  0
LINE
  8
0
  6
CONTINUOUS
 62
     7
 10
4.957474708557129
 20
-434.8567810058594
 11
12.86490726470947
 21
-434.8567810058594
  0
LINE
  8
0
  6
CENTER
 62
     7
 10
108.2810516357422
 20
-380.0567932128906
 11
422.3669738769531
 21
-380.0567932128906
  0
LINE
  8
0
  6
CENTER
 62
     7
 10
267.3886108398438
 20
-218.2482147216797
 11
267.3886108398438
 21
-466.4618530273438
  0
LINE
  8
0
  6
CONTINUOUS
 62
     7
 10
407.3886108398438
 20
-310.6567993164063
 11
407.3886108398438
 21
-449.456787109375
  0
LINE
  8
0
  6
CONTINUOUS
 62
     7
 10
377.6885986328125
 20
-310.1567993164063
 11
382.6885986328125
 21
-310.1567993164063
  0
LINE
  8
0
  6
CONTINUOUS
 62
     7
 10
377.6885986328125
 20
-449.956787109375
 11
382.6885986328125
 21
-449.956787109375
  0
LINE
  8
0
  6
CONTINUOUS
 62
     7
 10
391.3886108398438
 20
-310.1567993164063
 11
391.3886108398438
 21
-311.0567932128906
  0
LINE
  8
0
  6
CONTINUOUS
 62
     7
 10
382.6885986328125
 20
-310.1567993164063
 11
382.6885986328125
 21
-449.956787109375
  0
LINE
  8
0
  6
CONTINUOUS
 62
     7
 10
377.6885986328125
 20
-310.1567993164063
 11
377.6885986328125
 21
-449.956787109375
  0
LINE
  8
0
  6
CONTINUOUS
 62
     7
 10
391.3886108398438
 20
-310.1567993164063
 11
406.8886108398438
 21
-310.1567993164063
  0
LINE
  8
0
  6
CONTINUOUS
 62
     7
 10
391.3886108398438
 20
-449.956787109375
 11
406.8886108398438
 21
-449.956787109375
  0
LINE
  8
0
  6
CONTINUOUS
 62
     7
 10
369.3886108398438
 20
-312.5567932128906
 11
375.5872192382813
 21
-312.5567932128906
  0
LINE
  8
0
  6
CONTINUOUS
 62
     7
 10
384.7899780273438
 20
-312.5567932128906
 11
389.8886108398438
 21
-312.5567932128906
  0
LINE
  8
0
  6
CONTINUOUS
 62
     7
 10
377.5568237304688
 20
-310.9040832519531
 11
377.6885986328125
 21
-310.1567993164063
  0
LINE
  8
0
  6
CONTINUOUS
 62
     7
 10
382.8203735351563
 20
-310.9040832519531
 11
382.6885986328125
 21
-310.1567993164063
  0
LINE
  8
0
  6
CONTINUOUS
 62
     7
 10
391.3886108398438
 20
-311.0567932128906
 11
391.3886108398438
 21
-449.956787109375
  0
LINE
  8
0
  6
CONTINUOUS
 62
     7
 10
377.5568237304688
 20
-449.2095031738281
 11
377.6885986328125
 21
-449.956787109375
  0
LINE
  8
0
  6
CONTINUOUS
 62
     7
 10
223.0885925292969
 20
-447.5567932128906
 11
311.6885986328125
 21
-447.5567932128906
  0
LINE
  8
0
  6
CONTINUOUS
 62
     7
 10
382.8203735351563
 20
-449.2095031738281
 11
382.6885986328125
 21
-449.956787109375
  0
LINE
  8
0
  6
CONTINUOUS
 62
     7
 10
384.7899780273438
 20
-447.5567932128906
 11
389.8886108398438
 21
-447.5567932128906
  0
LINE
  8
0
  6
CONTINUOUS
 62
     7
 10
157.0885925292969
 20
-449.956787109375
 11
152.0885925292969
 21
-449.956787109375
  0
LINE
  8
0
  6
CONTINUOUS
 62
     7
 10
157.0885925292969
 20
-310.1567993164063
 11
152.0885925292969
 21
-310.1567993164063
  0
LINE
  8
0
  6
CONTINUOUS
 62
     7
 10
127.3885955810547
 20
-310.6567993164063
 11
127.3885955810547
 21
-449.456787109375
  0
LINE
  8
0
  6
CONTINUOUS
 62
     7
 10
157.2203674316406
 20
-310.9040832519531
 11
157.0885925292969
 21
-310.1567993164063
  0
LINE
  8
0
  6
CONTINUOUS
 62
     7
 10
143.3885955810547
 20
-311.0567932128906
 11
143.3885955810547
 21
-449.956787109375
  0
LINE
  8
0
  6
CONTINUOUS
 62
     7
 10
165.3885955810547
 20
-312.5567932128906
 11
159.1899871826172
 21
-312.5567932128906
  0
LINE
  8
0
  6
CONTINUOUS
 62
     7
 10
143.3885955810547
 20
-449.956787109375
 11
127.8885955810547
 21
-449.956787109375
  0
LINE
  8
0
  6
CONTINUOUS
 62
     7
 10
143.3885955810547
 20
-310.1567993164063
 11
127.8885955810547
 21
-310.1567993164063
  0
LINE
  8
0
  6
CONTINUOUS
 62
     7
 10
157.2203674316406
 20
-449.2095031738281
 11
157.0885925292969
 21
-449.956787109375
  0
LINE
  8
0
  6
CONTINUOUS
 62
     7
 10
151.9568328857422
 20
-310.9040832519531
 11
152.0885925292969
 21
-310.1567993164063
  0
LINE
  8
0
  6
CONTINUOUS
 62
     7
 10
157.0885925292969
 20
-310.1567993164063
 11
157.0885925292969
 21
-449.956787109375
  0
LINE
  8
0
  6
CONTINUOUS
 62
     7
 10
152.0885925292969
 20
-310.1567993164063
 11
152.0885925292969
 21
-449.956787109375
  0
LINE
  8
0
  6
CONTINUOUS
 62
     7
 10
143.3885955810547
 20
-310.1567993164063
 11
143.3885955810547
 21
-311.0567932128906
  0
LINE
  8
0
  6
CONTINUOUS
 62
     7
 10
149.9872131347656
 20
-312.5567932128906
 11
144.8885955810547
 21
-312.5567932128906
  0
LINE
  8
0
  6
CONTINUOUS
 62
     7
 10
173.0885925292969
 20
-447.5567932128906
 11
159.1899871826172
 21
-447.5567932128906
  0
LINE
  8
0
  6
CONTINUOUS
 62
     7
 10
151.9568328857422
 20
-449.2095031738281
 11
152.0885925292969
 21
-449.956787109375
  0
LINE
  8
0
  6
CONTINUOUS
 62
     7
 10
149.9872131347656
 20
-447.5567932128906
 11
144.8885955810547
 21
-447.5567932128906
  0
LINE
  8
0
  6
CONTINUOUS
 62
     7
 10
337.2886047363281
 20
-269.7568054199219
 11
337.2886047363281
 21
-264.7568054199219
  0
LINE
  8
0
  6
CONTINUOUS
 62
     7
 10
197.4886016845703
 20
-269.7568054199219
 11
197.4886016845703
 21
-264.7568054199219
  0
LINE
  8
0
  6
CONTINUOUS
 62
     7
 10
197.9886016845703
 20
-240.0567932128906
 11
336.7886047363281
 21
-240.0567932128906
  0
LINE
  8
0
  6
CONTINUOUS
 62
     7
 10
198.2359008789063
 20
-269.8885498046875
 11
197.4886016845703
 21
-269.7568054199219
  0
LINE
  8
0
  6
CONTINUOUS
 62
     7
 10
198.3885955810547
 20
-256.0567932128906
 11
337.2886047363281
 21
-256.0567932128906
  0
LINE
  8
0
  6
CONTINUOUS
 62
     7
 10
199.8885955810547
 20
-278.0567932128906
 11
199.8885955810547
 21
-271.8581848144531
  0
LINE
  8
0
  6
CONTINUOUS
 62
     7
 10
337.2886047363281
 20
-256.0567932128906
 11
337.2886047363281
 21
-240.5567932128906
  0
LINE
  8
0
  6
CONTINUOUS
 62
     7
 10
197.4886016845703
 20
-256.0567932128906
 11
197.4886016845703
 21
-240.5567932128906
  0
LINE
  8
0
  6
CONTINUOUS
 62
     7
 10
336.5412902832031
 20
-269.8885498046875
 11
337.2886047363281
 21
-269.7568054199219
  0
LINE
  8
0
  6
CONTINUOUS
 62
     7
 10
198.2359008789063
 20
-264.6250305175781
 11
197.4886016845703
 21
-264.7568054199219
  0
LINE
  8
0
  6
CONTINUOUS
 62
     7
 10
197.4886016845703
 20
-269.7568054199219
 11
337.2886047363281
 21
-269.7568054199219
  0
LINE
  8
0
  6
CONTINUOUS
 62
     7
 10
197.4886016845703
 20
-264.7568054199219
 11
337.2886047363281
 21
-264.7568054199219
  0
LINE
  8
0
  6
CONTINUOUS
 62
     7
 10
197.4886016845703
 20
-256.0567932128906
 11
198.3885955810547
 21
-256.0567932128906
  0
LINE
  8
0
  6
CONTINUOUS
 62
     7
 10
199.8885955810547
 20
-262.6554260253906
 11
199.8885955810547
 21
-257.5567932128906
  0
LINE
  8
0
  6
CONTINUOUS
 62
     7
 10
334.8886108398438
 20
-278.0567932128906
 11
334.8886108398438
 21
-271.8581848144531
  0
LINE
  8
0
  6
CONTINUOUS
 62
     7
 10
336.5412902832031
 20
-264.6250305175781
 11
337.2886047363281
 21
-264.7568054199219
  0
LINE
  8
0
  6
CONTINUOUS
 62
     7
 10
334.8886108398438
 20
-262.6554260253906
 11
334.8886108398438
 21
-257.5567932128906
  0
LINE
  8
0
  6
CONTINUOUS
 62
     7
 10
173.0885925292969
 20
-446.0567932128906
 11
173.0885925292969
 21
-448.5567932128906
  0
LINE
  8
0
  6
CONTINUOUS
 62
     7
 10
223.0885925292969
 20
-446.0567932128906
 11
223.0885925292969
 21
-448.5567932128906
  0
LINE
  8
0
  6
CONTINUOUS
 62
     7
 10
223.0885925292969
 20
-448.5567932128906
 11
173.0885925292969
 21
-448.5567932128906
  0
LINE
  8
0
  6
CONTINUOUS
 62
     7
 10
223.0885925292969
 20
-446.0567932128906
 11
173.0885925292969
 21
-446.0567932128906
  0
LINE
  8
0
  6
CONTINUOUS
 62
     7
 10
361.6885986328125
 20
-446.0567932128906
 11
361.6885986328125
 21
-448.5567932128906
  0
LINE
  8
0
  6
CONTINUOUS
 62
     7
 10
311.6885986328125
 20
-446.0567932128906
 11
311.6885986328125
 21
-448.5567932128906
  0
LINE
  8
0
  6
CONTINUOUS
 62
     7
 10
311.6885986328125
 20
-448.5567932128906
 11
361.6885986328125
 21
-448.5567932128906
  0
LINE
  8
0
  6
CONTINUOUS
 62
     7
 10
311.6885986328125
 20
-446.0567932128906
 11
361.6885986328125
 21
-446.0567932128906
  0
LINE
  8
0
  6
CONTINUOUS
 62
     7
 10
361.6885986328125
 20
-447.5567932128906
 11
375.5872192382813
 21
-447.5567932128906
  0
LINE
  8
0
  6
CENTER
 62
     7
 10
502.6895141601563
 20
-380.0567932128906
 11
893.2894897460938
 21
-380.0567932128906
  0
LINE
  8
0
  6
CENTER
 62
     7
 10
701.71484375
 20
-190.2716217041016
 11
701.71484375
 21
-483.8549194335938
  0
LINE
  8
0
  6
CONTINUOUS
 62
     7
 10
866.71484375
 20
-297.956787109375
 11
866.71484375
 21
-462.1567993164063
  0
LINE
  8
0
  6
CONTINUOUS
 62
     7
 10
837.0148315429688
 20
-462.6567993164063
 11
842.0148315429688
 21
-462.6567993164063
  0
LINE
  8
0
  6
CONTINUOUS
 62
     7
 10
837.0148315429688
 20
-297.456787109375
 11
842.0148315429688
 21
-297.456787109375
  0
LINE
  8
0
  6
CONTINUOUS
 62
     7
 10
850.71484375
 20
-297.456787109375
 11
850.71484375
 21
-298.6567993164063
  0
LINE
  8
0
  6
CONTINUOUS
 62
     7
 10
842.0148315429688
 20
-297.456787109375
 11
842.0148315429688
 21
-462.6567993164063
  0
LINE
  8
0
  6
CONTINUOUS
 62
     7
 10
837.0148315429688
 20
-297.456787109375
 11
837.0148315429688
 21
-462.6567993164063
  0
LINE
  8
0
  6
CONTINUOUS
 62
     7
 10
850.71484375
 20
-297.456787109375
 11
866.21484375
 21
-297.456787109375
  0
LINE
  8
0
  6
CONTINUOUS
 62
     7
 10
850.71484375
 20
-462.6567993164063
 11
866.21484375
 21
-462.6567993164063
  0
LINE
  8
0
  6
CONTINUOUS
 62
     7
 10
828.71484375
 20
-300.1567993164063
 11
834.8605346679688
 21
-300.1567993164063
  0
LINE
  8
0
  6
CONTINUOUS
 62
     7
 10
844.1691284179688
 20
-300.1567993164063
 11
849.21484375
 21
-300.1567993164063
  0
LINE
  8
0
  6
CONTINUOUS
 62
     7
 10
836.8301391601563
 20
-298.5040893554688
 11
837.0148315429688
 21
-297.456787109375
  0
LINE
  8
0
  6
CONTINUOUS
 62
     7
 10
842.199462890625
 20
-298.5040893554688
 11
842.0148315429688
 21
-297.456787109375
  0
LINE
  8
0
  6
CONTINUOUS
 62
     7
 10
850.71484375
 20
-298.6567993164063
 11
850.71484375
 21
-462.6567993164063
  0
LINE
  8
0
  6
CONTINUOUS
 62
     7
 10
844.1691284179688
 20
-459.956787109375
 11
849.21484375
 21
-459.956787109375
  0
LINE
  8
0
  6
CONTINUOUS
 62
     7
 10
836.8301391601563
 20
-461.6094970703125
 11
837.0148315429688
 21
-462.6567993164063
  0
LINE
  8
0
  6
CONTINUOUS
 62
     7
 10
632.414794921875
 20
-459.956787109375
 11
771.0148315429688
 21
-459.956787109375
  0
LINE
  8
0
  6
CONTINUOUS
 62
     7
 10
842.199462890625
 20
-461.6094970703125
 11
842.0148315429688
 21
-462.6567993164063
  0
LINE
  8
0
  6
CONTINUOUS
 62
     7
 10
619.6148071289063
 20
-215.0567932128906
 11
783.8148193359375
 21
-215.0567932128906
  0
LINE
  8
0
  6
CONTINUOUS
 62
     7
 10
784.3148193359375
 20
-244.7567901611328
 11
784.3148193359375
 21
-239.7567901611328
  0
LINE
  8
0
  6
CONTINUOUS
 62
     7
 10
619.1148071289063
 20
-244.7567901611328
 11
619.1148071289063
 21
-239.7567901611328
  0
LINE
  8
0
  6
CONTINUOUS
 62
     7
 10
783.2675170898438
 20
-244.9414672851563
 11
784.3148193359375
 21
-244.7567901611328
  0
LINE
  8
0
  6
CONTINUOUS
 62
     7
 10
783.2675170898438
 20
-239.5721282958984
 11
784.3148193359375
 21
-239.7567901611328
  0
LINE
  8
0
  6
CONTINUOUS
 62
     7
 10
781.6148071289063
 20
-237.6025085449219
 11
781.6148071289063
 21
-232.5567932128906
  0
LINE
  8
0
  6
CONTINUOUS
 62
     7
 10
620.3148193359375
 20
-231.0567932128906
 11
784.3148193359375
 21
-231.0567932128906
  0
LINE
  8
0
  6
CONTINUOUS
 62
     7
 10
781.6148071289063
 20
-253.0567932128906
 11
781.6148071289063
 21
-246.9110717773438
  0
LINE
  8
0
  6
CONTINUOUS
 62
     7
 10
621.8148193359375
 20
-237.6025085449219
 11
621.8148193359375
 21
-232.5567932128906
  0
LINE
  8
0
  6
CONTINUOUS
 62
     7
 10
620.162109375
 20
-244.9414672851563
 11
619.1148071289063
 21
-244.7567901611328
  0
LINE
  8
0
  6
CONTINUOUS
 62
     7
 10
621.8148193359375
 20
-253.0567932128906
 11
621.8148193359375
 21
-246.9110717773438
  0
LINE
  8
0
  6
CONTINUOUS
 62
     7
 10
784.3148193359375
 20
-231.0567932128906
 11
784.3148193359375
 21
-215.5567932128906
  0
LINE
  8
0
  6
CONTINUOUS
 62
     7
 10
619.1148071289063
 20
-231.0567932128906
 11
619.1148071289063
 21
-215.5567932128906
  0
LINE
  8
0
  6
CONTINUOUS
 62
     7
 10
620.162109375
 20
-239.5721282958984
 11
619.1148071289063
 21
-239.7567901611328
  0
LINE
  8
0
  6
CONTINUOUS
 62
     7
 10
619.1148071289063
 20
-244.7567901611328
 11
784.3148193359375
 21
-244.7567901611328
  0
LINE
  8
0
  6
CONTINUOUS
 62
     7
 10
619.1148071289063
 20
-239.7567901611328
 11
784.3148193359375
 21
-239.7567901611328
  0
LINE
  8
0
  6
CONTINUOUS
 62
     7
 10
619.1148071289063
 20
-231.0567932128906
 11
620.3148193359375
 21
-231.0567932128906
  0
LINE
  8
0
  6
CONTINUOUS
 62
     7
 10
784.3148193359375
 20
-244.7567901611328
 11
784.3148193359375
 21
-239.7567901611328
  0
LINE
  8
0
  6
CONTINUOUS
 62
     7
 10
619.1148071289063
 20
-231.0567932128906
 11
620.3148193359375
 21
-231.0567932128906
  0
LINE
  8
0
  6
CONTINUOUS
 62
     7
 10
619.1148071289063
 20
-231.0567932128906
 11
620.3148193359375
 21
-231.0567932128906
  0
LINE
  8
0
  6
CONTINUOUS
 62
     7
 10
561.2301635742188
 20
-298.5040893554688
 11
561.414794921875
 21
-297.456787109375
  0
LINE
  8
0
  6
CONTINUOUS
 62
     7
 10
559.2605590820313
 20
-300.1567993164063
 11
554.21484375
 21
-300.1567993164063
  0
LINE
  8
0
  6
CONTINUOUS
 62
     7
 10
552.71484375
 20
-461.456787109375
 11
552.71484375
 21
-297.456787109375
  0
LINE
  8
0
  6
CONTINUOUS
 62
     7
 10
566.5994873046875
 20
-298.5040893554688
 11
566.414794921875
 21
-297.456787109375
  0
LINE
  8
0
  6
CONTINUOUS
 62
     7
 10
566.414794921875
 20
-462.6567993164063
 11
561.414794921875
 21
-462.6567993164063
  0
LINE
  8
0
  6
CONTINUOUS
 62
     7
 10
566.414794921875
 20
-297.456787109375
 11
561.414794921875
 21
-297.456787109375
  0
LINE
  8
0
  6
CONTINUOUS
 62
     7
 10
536.71484375
 20
-462.1567993164063
 11
536.71484375
 21
-297.956787109375
  0
LINE
  8
0
  6
CONTINUOUS
 62
     7
 10
574.71484375
 20
-300.1567993164063
 11
568.569091796875
 21
-300.1567993164063
  0
LINE
  8
0
  6
CONTINUOUS
 62
     7
 10
559.2605590820313
 20
-459.956787109375
 11
554.21484375
 21
-459.956787109375
  0
LINE
  8
0
  6
CONTINUOUS
 62
     7
 10
566.5994873046875
 20
-461.6094970703125
 11
566.414794921875
 21
-462.6567993164063
  0
LINE
  8
0
  6
CONTINUOUS
 62
     7
 10
582.414794921875
 20
-459.956787109375
 11
568.569091796875
 21
-459.956787109375
  0
LINE
  8
0
  6
CONTINUOUS
 62
     7
 10
552.71484375
 20
-297.456787109375
 11
537.21484375
 21
-297.456787109375
  0
LINE
  8
0
  6
CONTINUOUS
 62
     7
 10
552.71484375
 20
-462.6567993164063
 11
537.21484375
 21
-462.6567993164063
  0
LINE
  8
0
  6
CONTINUOUS
 62
     7
 10
561.2301635742188
 20
-461.6094970703125
 11
561.414794921875
 21
-462.6567993164063
  0
LINE
  8
0
  6
CONTINUOUS
 62
     7
 10
566.414794921875
 20
-462.6567993164063
 11
566.414794921875
 21
-297.456787109375
  0
LINE
  8
0
  6
CONTINUOUS
 62
     7
 10
561.414794921875
 20
-462.6567993164063
 11
561.414794921875
 21
-297.456787109375
  0
LINE
  8
0
  6
CONTINUOUS
 62
     7
 10
552.71484375
 20
-462.6567993164063
 11
552.71484375
 21
-461.456787109375
  0
LINE
  8
0
  6
CONTINUOUS
 62
     7
 10
582.414794921875
 20
-460.956787109375
 11
582.414794921875
 21
-458.456787109375
  0
LINE
  8
0
  6
CONTINUOUS
 62
     7
 10
632.414794921875
 20
-460.956787109375
 11
632.414794921875
 21
-458.456787109375
  0
LINE
  8
0
  6
CONTINUOUS
 62
     7
 10
632.414794921875
 20
-460.956787109375
 11
582.414794921875
 21
-460.956787109375
  0
LINE
  8
0
  6
CONTINUOUS
 62
     7
 10
632.414794921875
 20
-458.456787109375
 11
582.414794921875
 21
-458.456787109375
  0
LINE
  8
0
  6
CONTINUOUS
 62
     7
 10
771.0148315429688
 20
-460.956787109375
 11
771.0148315429688
 21
-458.456787109375
  0
LINE
  8
0
  6
CONTINUOUS
 62
     7
 10
821.0148315429688
 20
-460.956787109375
 11
821.0148315429688
 21
-458.456787109375
  0
LINE
  8
0
  6
CONTINUOUS
 62
     7
 10
771.0148315429688
 20
-458.456787109375
 11
821.0148315429688
 21
-458.456787109375
  0
LINE
  8
0
  6
CONTINUOUS
 62
     7
 10
771.0148315429688
 20
-460.956787109375
 11
821.0148315429688
 21
-460.956787109375
  0
LINE
  8
0
  6
CONTINUOUS
 62
     7
 10
821.0148315429688
 20
-459.956787109375
 11
834.8605346679688
 21
-459.956787109375
  0
LINE
  8
0
  6
CONTINUOUS
 62
     7
 10
-100.6232376098633
 20
-44.57391738891602
 11
-98.88024139404297
 21
-34.68888473510742
  0
LINE
  8
0
  6
CONTINUOUS
 62
     7
 10
-111.7856292724609
 20
-34.68888473510742
 11
-107.4838333129883
 21
-34.68888473510742
  0
LINE
  8
0
  6
CONTINUOUS
 62
     7
 10
-102.2356033325195
 20
-37.45363616943359
 11
-100.8449096679688
 21
-37.6988525390625
  0
LINE
  8
0
  6
CONTINUOUS
 62
     7
 10
-94.57844543457031
 20
-34.68888854980469
 11
-94.0804443359375
 21
-31.86459541320801
  0
LINE
  8
0
  6
CONTINUOUS
 62
     7
 10
-105.6300354003906
 20
-40.43993759155273
 11
-105.0169906616211
 21
-36.96319961547852
  0
LINE
  8
0
  6
CONTINUOUS
 62
     7
 10
-106.4076843261719
 20
-36.71798324584961
 11
-105.0169906616211
 21
-36.96319961547852
  0
LINE
  8
0
  6
CONTINUOUS
 62
     7
 10
-102.8486480712891
 20
-40.93037033081055
 11
-102.2356033325195
 21
-37.45363616943359
  0
LINE
  8
0
  6
CONTINUOUS
 62
     7
 10
-107.0207290649414
 20
-40.19471740722656
 11
-106.4076843261719
 21
-36.71798324584961
  0
LINE
  8
0
  6
CONTINUOUS
 62
     7
 10
-94.57844543457031
 20
-34.68888473510742
 11
-98.88024139404297
 21
-34.68888473510742
  0
LINE
  8
0
  6
CONTINUOUS
 62
     7
 10
-111.7856292724609
 20
-34.68888473510742
 11
-111.2876281738281
 21
-31.86458969116211
  0
LINE
  8
0
  6
CONTINUOUS
 62
     7
 10
-100.6232376098633
 20
-44.57391738891602
 11
-109.2268295288086
 21
-44.57391738891602
  0
LINE
  8
0
  6
CONTINUOUS
 62
     7
 10
-94.0804443359375
 20
-31.86458969116211
 11
-111.2876281738281
 21
-31.86458969116211
  0
LINE
  8
0
  6
CONTINUOUS
 62
     7
 10
-109.2268295288086
 20
-44.57391738891602
 11
-107.4838333129883
 21
-34.68888473510742
  0
LINE
  8
0
  6
CONTINUOUS
 62
     7
 10
-101.4579544067383
 20
-41.17558670043945
 11
-100.8449096679688
 21
-37.6988525390625
  0
LINE
  8
0
  6
CONTINUOUS
 62
     7
 10
140.8223419189453
 20
-44.57391738891602
 11
142.5653381347656
 21
-34.68888473510742
  0
LINE
  8
0
  6
CONTINUOUS
 62
     7
 10
139.2099761962891
 20
-37.45363616943359
 11
140.6006622314453
 21
-37.6988525390625
  0
LINE
  8
0
  6
CONTINUOUS
 62
     7
 10
129.6599426269531
 20
-34.68888473510742
 11
133.9617462158203
 21
-34.68888473510742
  0
LINE
  8
0
  6
CONTINUOUS
 62
     7
 10
146.8671417236328
 20
-34.68888854980469
 11
147.3651275634766
 21
-31.86459541320801
  0
LINE
  8
0
  6
CONTINUOUS
 62
     7
 10
135.8155364990234
 20
-40.43993759155273
 11
136.4285888671875
 21
-36.96319961547852
  0
LINE
  8
0
  6
CONTINUOUS
 62
     7
 10
135.0378875732422
 20
-36.71798324584961
 11
136.4285888671875
 21
-36.96319961547852
  0
LINE
  8
0
  6
CONTINUOUS
 62
     7
 10
138.5969390869141
 20
-40.93037033081055
 11
139.2099761962891
 21
-37.45363616943359
  0
LINE
  8
0
  6
CONTINUOUS
 62
     7
 10
134.4248504638672
 20
-40.19471740722656
 11
135.0378875732422
 21
-36.71798324584961
  0
LINE
  8
0
  6
CONTINUOUS
 62
     7
 10
146.8671264648438
 20
-34.68888473510742
 11
142.5653381347656
 21
-34.68888473510742
  0
LINE
  8
0
  6
CONTINUOUS
 62
     7
 10
129.6599426269531
 20
-34.68888473510742
 11
130.1579437255859
 21
-31.86458969116211
  0
LINE
  8
0
  6
CONTINUOUS
 62
     7
 10
140.8223419189453
 20
-44.57391738891602
 11
132.21875
 21
-44.57391738891602
  0
LINE
  8
0
  6
CONTINUOUS
 62
     7
 10
147.3651275634766
 20
-31.86458969116211
 11
130.1579437255859
 21
-31.86458969116211
  0
LINE
  8
0
  6
CONTINUOUS
 62
     7
 10
132.21875
 20
-44.57391738891602
 11
133.9617462158203
 21
-34.68888473510742
  0
LINE
  8
0
  6
CONTINUOUS
 62
     7
 10
139.9876251220703
 20
-41.17558670043945
 11
140.6006622314453
 21
-37.6988525390625
  0
LINE
  8
0
  6
CONTINUOUS
 62
     7
 10
413.1637878417969
 20
-44.57391738891602
 11
414.9067993164063
 21
-34.68888473510742
  0
LINE
  8
0
  6
CONTINUOUS
 62
     7
 10
411.5514221191406
 20
-37.45363616943359
 11
412.942138671875
 21
-37.6988525390625
  0
LINE
  8
0
  6
CONTINUOUS
 62
     7
 10
402.0014038085938
 20
-34.68888473510742
 11
406.3031921386719
 21
-34.68888473510742
  0
LINE
  8
0
  6
CONTINUOUS
 62
     7
 10
419.2085876464844
 20
-34.68888854980469
 11
419.7066040039063
 21
-31.86459541320801
  0
LINE
  8
0
  6
CONTINUOUS
 62
     7
 10
408.1570129394531
 20
-40.43993759155273
 11
408.7700500488281
 21
-36.96319961547852
  0
LINE
  8
0
  6
CONTINUOUS
 62
     7
 10
407.3793640136719
 20
-36.71798324584961
 11
408.7700500488281
 21
-36.96319961547852
  0
LINE
  8
0
  6
CONTINUOUS
 62
     7
 10
410.9383850097656
 20
-40.93037033081055
 11
411.5514221191406
 21
-37.45363616943359
  0
LINE
  8
0
  6
CONTINUOUS
 62
     7
 10
406.7662963867188
 20
-40.19471740722656
 11
407.3793640136719
 21
-36.71798324584961
  0
LINE
  8
0
  6
CONTINUOUS
 62
     7
 10
419.2085876464844
 20
-34.68888473510742
 11
414.9067993164063
 21
-34.68888473510742
  0
LINE
  8
0
  6
CONTINUOUS
 62
     7
 10
402.0014038085938
 20
-34.68888473510742
 11
402.4994201660156
 21
-31.86458969116211
  0
LINE
  8
0
  6
CONTINUOUS
 62
     7
 10
413.1637878417969
 20
-44.57391738891602
 11
404.5602111816406
 21
-44.57391738891602
  0
LINE
  8
0
  6
CONTINUOUS
 62
     7
 10
419.7065734863281
 20
-31.86458969116211
 11
402.4994201660156
 21
-31.86458969116211
  0
LINE
  8
0
  6
CONTINUOUS
 62
     7
 10
404.5602111816406
 20
-44.57391738891602
 11
406.3031921386719
 21
-34.68888473510742
  0
LINE
  8
0
  6
CONTINUOUS
 62
     7
 10
412.3290710449219
 20
-41.17558670043945
 11
412.942138671875
 21
-37.6988525390625
  0
LINE
  8
0
  6
CONTINUOUS
 62
     7
 10
-78.88169097900391
 20
-385.9543151855469
 11
-77.13869476318359
 21
-376.0692749023438
  0
LINE
  8
0
  6
CONTINUOUS
 62
     7
 10
-80.49405670166016
 20
-378.8340454101563
 11
-79.10336303710938
 21
-379.0792541503906
  0
LINE
  8
0
  6
CONTINUOUS
 62
     7
 10
-90.04408264160156
 20
-376.0692749023438
 11
-85.74228668212891
 21
-376.0692749023438
  0
LINE
  8
0
  6
CONTINUOUS
 62
     7
 10
-72.83689880371094
 20
-376.0692749023438
 11
-72.33889770507813
 21
-373.2449951171875
  0
LINE
  8
0
  6
CONTINUOUS
 62
     7
 10
-83.88848876953125
 20
-381.8203430175781
 11
-83.27544403076172
 21
-378.3435974121094
  0
LINE
  8
0
  6
CONTINUOUS
 62
     7
 10
-84.6661376953125
 20
-378.098388671875
 11
-83.27544403076172
 21
-378.3435974121094
  0
LINE
  8
0
  6
CONTINUOUS
 62
     7
 10
-81.10710144042969
 20
-382.3107604980469
 11
-80.49405670166016
 21
-378.8340454101563
  0
LINE
  8
0
  6
CONTINUOUS
 62
     7
 10
-85.27918243408203
 20
-381.5751037597656
 11
-84.6661376953125
 21
-378.098388671875
  0
LINE
  8
0
  6
CONTINUOUS
 62
     7
 10
-72.83689880371094
 20
-376.0692749023438
 11
-77.13869476318359
 21
-376.0692749023438
  0
LINE
  8
0
  6
CONTINUOUS
 62
     7
 10
-90.04408264160156
 20
-376.0692749023438
 11
-89.54608154296875
 21
-373.2449951171875
  0
LINE
  8
0
  6
CONTINUOUS
 62
     7
 10
-78.88169097900391
 20
-385.9543151855469
 11
-87.48529052734375
 21
-385.9543151855469
  0
LINE
  8
0
  6
CONTINUOUS
 62
     7
 10
-72.33889770507813
 20
-373.2449951171875
 11
-89.54608154296875
 21
-373.2449951171875
  0
LINE
  8
0
  6
CONTINUOUS
 62
     7
 10
-87.48528289794922
 20
-385.9543151855469
 11
-85.74228668212891
 21
-376.0692749023438
  0
LINE
  8
0
  6
CONTINUOUS
 62
     7
 10
-79.71640777587891
 20
-382.5559692382813
 11
-79.10336303710938
 21
-379.0792541503906
  0
LINE
  8
0
  6
CONTINUOUS
 62
     7
 10
270.5087585449219
 20
-386.3357543945313
 11
272.2517395019531
 21
-376.4507141113281
  0
LINE
  8
0
  6
CONTINUOUS
 62
     7
 10
268.8963928222656
 20
-379.2154541015625
 11
270.2870788574219
 21
-379.460693359375
  0
LINE
  8
0
  6
CONTINUOUS
 62
     7
 10
259.3463439941406
 20
-376.4507141113281
 11
263.6481628417969
 21
-376.4507141113281
  0
LINE
  8
0
  6
CONTINUOUS
 62
     7
 10
276.5535278320313
 20
-376.4507141113281
 11
277.0515441894531
 21
-373.6264343261719
  0
LINE
  8
0
  6
CONTINUOUS
 62
     7
 10
265.501953125
 20
-382.2017517089844
 11
266.114990234375
 21
-378.7250366210938
  0
LINE
  8
0
  6
CONTINUOUS
 62
     7
 10
264.7243041992188
 20
-378.4797973632813
 11
266.114990234375
 21
-378.7250366210938
  0
LINE
  8
0
  6
CONTINUOUS
 62
     7
 10
268.2833251953125
 20
-382.6921997070313
 11
268.8963928222656
 21
-379.2154541015625
  0
LINE
  8
0
  6
CONTINUOUS
 62
     7
 10
264.1112670898438
 20
-381.95654296875
 11
264.7243041992188
 21
-378.4797973632813
  0
LINE
  8
0
  6
CONTINUOUS
 62
     7
 10
276.5535278320313
 20
-376.4507141113281
 11
272.2517395019531
 21
-376.4507141113281
  0
LINE
  8
0
  6
CONTINUOUS
 62
     7
 10
259.3463439941406
 20
-376.4507141113281
 11
259.8443603515625
 21
-373.6264038085938
  0
LINE
  8
0
  6
CONTINUOUS
 62
     7
 10
270.5087585449219
 20
-386.3357543945313
 11
261.9051513671875
 21
-386.3357543945313
  0
LINE
  8
0
  6
CONTINUOUS
 62
     7
 10
277.0515441894531
 20
-373.6264038085938
 11
259.8443603515625
 21
-373.6264038085938
  0
LINE
  8
0
  6
CONTINUOUS
 62
     7
 10
261.9051513671875
 20
-386.3357543945313
 11
263.6481628417969
 21
-376.4507141113281
  0
LINE
  8
0
  6
CONTINUOUS
 62
     7
 10
269.6740417480469
 20
-382.9374084472656
 11
270.2870788574219
 21
-379.460693359375
  0
LINE
  8
0
  6
CONTINUOUS
 62
     7
 10
705.7210693359375
 20
-386.3357543945313
 11
707.4640502929688
 21
-376.4507141113281
  0
LINE
  8
0
  6
CONTINUOUS
 62
     7
 10
704.1087036132813
 20
-379.2154541015625
 11
705.4993896484375
 21
-379.460693359375
  0
LINE
  8
0
  6
CONTINUOUS
 62
     7
 10
694.5586547851563
 20
-376.4507141113281
 11
698.8604736328125
 21
-376.4507141113281
  0
LINE
  8
0
  6
CONTINUOUS
 62
     7
 10
711.765869140625
 20
-376.4507141113281
 11
712.2638549804688
 21
-373.6264343261719
  0
LINE
  8
0
  6
CONTINUOUS
 62
     7
 10
700.7142944335938
 20
-382.2017517089844
 11
701.3273315429688
 21
-378.7250366210938
  0
LINE
  8
0
  6
CONTINUOUS
 62
     7
 10
699.9366455078125
 20
-378.4797973632813
 11
701.3273315429688
 21
-378.7250366210938
  0
LINE
  8
0
  6
CONTINUOUS
 62
     7
 10
703.4956665039063
 20
-382.6921997070313
 11
704.1087036132813
 21
-379.2154541015625
  0
LINE
  8
0
  6
CONTINUOUS
 62
     7
 10
699.3236083984375
 20
-381.95654296875
 11
699.9366455078125
 21
-378.4797973632813
  0
LINE
  8
0
  6
CONTINUOUS
 62
     7
 10
711.765869140625
 20
-376.4507141113281
 11
707.4640502929688
 21
-376.4507141113281
  0
LINE
  8
0
  6
CONTINUOUS
 62
     7
 10
694.5586547851563
 20
-376.4507141113281
 11
695.0567016601563
 21
-373.6264038085938
  0
LINE
  8
0
  6
CONTINUOUS
 62
     7
 10
705.7210693359375
 20
-386.3357543945313
 11
697.1174926757813
 21
-386.3357543945313
  0
LINE
  8
0
  6
CONTINUOUS
 62
     7
 10
712.2638549804688
 20
-373.6264038085938
 11
695.0567016601563
 21
-373.6264038085938
  0
LINE
  8
0
  6
CONTINUOUS
 62
     7
 10
697.1174926757813
 20
-386.3357543945313
 11
698.8604736328125
 21
-376.4507141113281
  0
LINE
  8
0
  6
CONTINUOUS
 62
     7
 10
704.8863525390625
 20
-382.9374084472656
 11
705.4993896484375
 21
-379.460693359375
  0
ARC
  8
0
  6
CONTINUOUS
 62
     7
 10
-44.02737045288086
 20
-8.239397048950195
 40
1.999999999999998
 50
190.0000066529676
 51
269.9999974955217
  0
ARC
  8
0
  6
CONTINUOUS
 62
     7
 10
-53.01854705810547
 20
-8.239397048950195
 40
2
 50
269.9999974955217
 51
350.0000002909071
  0
ARC
  8
0
  6
CONTINUOUS
 62
     7
 10
-38.82295989990234
 20
-8.739397048950195
 40
1.5
 50
269.9999974955218
 51
0
  0
ARC
  8
0
  6
CONTINUOUS
 62
     7
 10
-38.82295989990234
 20
-68.63939666748047
 40
1.5
 50
0
 51
90.0000025044782
  0
ARC
  8
0
  6
CONTINUOUS
 62
     7
 10
-44.02737045288086
 20
-69.13939666748047
 40
2.000000000000002
 50
90.00000250447806
 51
169.9999933470324
  0
ARC
  8
0
  6
CONTINUOUS
 62
     7
 10
-53.01854705810547
 20
-69.13939666748047
 40
1.999999999999998
 50
9.999999709092995
 51
90.00000250447806
  0
ARC
  8
0
  6
CONTINUOUS
 62
     7
 10
-54.32295989990234
 20
11.31060314178467
 40
21.54999923706054
 50
180.0000050089563
 51
270.0000006832453
  0
ARC
  8
0
  6
CONTINUOUS
 62
     7
 10
-154.3229522705078
 20
11.31060314178467
 40
21.54999923706055
 50
269.9999974955218
 51
8.973444616203096E-014
  0
ARC
  8
0
  6
CONTINUOUS
 62
     7
 10
-155.6273651123047
 20
-69.13939666748047
 40
2.000000000000002
 50
90.00000250447846
 51
169.9999933470324
  0
ARC
  8
0
  6
CONTINUOUS
 62
     7
 10
-169.8229522705078
 20
-8.739397048950195
 40
1.500000000000006
 50
179.9999949910437
 51
269.9999974955215
  0
ARC
  8
0
  6
CONTINUOUS
 62
     7
 10
-169.8229522705078
 20
-68.63939666748047
 40
1.500000000000002
 50
90.00000250447846
 51
180.0000050089564
  0
ARC
  8
0
  6
CONTINUOUS
 62
     7
 10
-164.6185455322266
 20
-8.239397048950195
 40
2
 50
269.9999974955215
 51
350.0000002909071
  0
ARC
  8
0
  6
CONTINUOUS
 62
     7
 10
-155.6273651123047
 20
-8.239397048950195
 40
1.999999999999998
 50
190.0000066529676
 51
269.9999974955215
  0
ARC
  8
0
  6
CONTINUOUS
 62
     7
 10
-164.6185455322266
 20
-69.13939666748047
 40
2.000000000000012
 50
9.999999709092926
 51
90.00000250447846
  0
ARC
  8
0
  6
CONTINUOUS
 62
     7
 10
-73.87296295166016
 20
12.61501502990723
 40
2
 50
100.0000005060239
 51
180.0000050089563
  0
ARC
  8
0
  6
CONTINUOUS
 62
     7
 10
-134.2729644775391
 20
26.81060409545898
 40
1.5
 50
0
 51
90.00000250447846
  0
ARC
  8
0
  6
CONTINUOUS
 62
     7
 10
-74.37296295166016
 20
26.81060409545898
 40
1.500000000000002
 50
90.00000250447792
 51
180.0000050089562
  0
ARC
  8
0
  6
CONTINUOUS
 62
     7
 10
-134.7729644775391
 20
21.60619163513184
 40
1.999999999999996
 50
280.0000023272563
 51
0
  0
ARC
  8
0
  6
CONTINUOUS
 62
     7
 10
-134.7729644775391
 20
12.61501502990723
 40
2
 50
0
 51
79.99999767274298
  0
ARC
  8
0
  6
CONTINUOUS
 62
     7
 10
-73.87296295166016
 20
21.60619163513184
 40
1.999999999999993
 50
179.9999949910437
 51
259.9999994939762
  0
ARC
  8
0
  6
CONTINUOUS
 62
     7
 10
209.7378692626953
 20
0.08851689845323563
 40
1.999999999999998
 50
190.0000066529676
 51
269.9999974955215
  0
ARC
  8
0
  6
CONTINUOUS
 62
     7
 10
200.6585388183594
 20
0.08851689845323563
 40
2
 50
269.9999974955215
 51
350.0000002909071
  0
ARC
  8
0
  6
CONTINUOUS
 62
     7
 10
214.8982086181641
 20
-0.411483108997345
 40
1.5
 50
269.9999974955215
 51
360
  0
ARC
  8
0
  6
CONTINUOUS
 62
     7
 10
214.8982086181641
 20
-75.61148071289063
 40
1.5
 50
0
 51
90.00000250447846
  0
ARC
  8
0
  6
CONTINUOUS
 62
     7
 10
209.7378692626953
 20
-76.11148071289063
 40
2.000000000000002
 50
90.00000250447846
 51
169.9999933470324
  0
ARC
  8
0
  6
CONTINUOUS
 62
     7
 10
200.6585388183594
 20
-76.11148071289063
 40
2.000000000000012
 50
9.999999709092926
 51
90.00000250447846
  0
ARC
  8
0
  6
CONTINUOUS
 62
     7
 10
199.3982086181641
 20
23.98851776123047
 40
25.89999961853026
 50
180.0000050089563
 51
270.0000006832453
  0
ARC
  8
0
  6
CONTINUOUS
 62
     7
 10
74.13787078857422
 20
-76.11148071289063
 40
2.000000000000002
 50
90.00000250447806
 51
169.9999933470324
  0
ARC
  8
0
  6
CONTINUOUS
 62
     7
 10
59.89820098876953
 20
-0.411483108997345
 40
1.499999999999999
 50
179.9999949910437
 51
269.9999974955218
  0
ARC
  8
0
  6
CONTINUOUS
 62
     7
 10
65.05853271484375
 20
-76.11148071289063
 40
1.999999999999998
 50
9.999999709092995
 51
90.00000250447806
  0
ARC
  8
0
  6
CONTINUOUS
 62
     7
 10
65.05853271484375
 20
0.08851689845323563
 40
2
 50
269.9999974955219
 51
350.0000002909071
  0
ARC
  8
0
  6
CONTINUOUS
 62
     7
 10
74.13787078857422
 20
0.08851689845323563
 40
1.999999999999998
 50
190.0000066529676
 51
269.9999974955219
  0
ARC
  8
0
  6
CONTINUOUS
 62
     7
 10
59.89820098876953
 20
-75.61148071289063
 40
1.500000000000002
 50
90.0000025044782
 51
180.0000050089564
  0
ARC
  8
0
  6
CONTINUOUS
 62
     7
 10
75.39820098876953
 20
23.98851776123047
 40
25.89999961853027
 50
269.9999974955218
 51
8.645214396637805E-014
  0
ARC
  8
0
  6
CONTINUOUS
 62
     7
 10
175.4981994628906
 20
25.24884796142578
 40
1.999999999999999
 50
100.0000005060235
 51
180.0000050089563
  0
ARC
  8
0
  6
CONTINUOUS
 62
     7
 10
99.79820251464844
 20
39.48851776123047
 40
1.5
 50
0
 51
90.00000250447792
  0
ARC
  8
0
  6
CONTINUOUS
 62
     7
 10
175.4981994628906
 20
34.32818603515625
 40
2.000000000000008
 50
179.9999949910437
 51
259.9999994939766
  0
ARC
  8
0
  6
CONTINUOUS
 62
     7
 10
99.29820251464844
 20
34.32818603515625
 40
1.999999999999998
 50
280.0000023272567
 51
0
  0
ARC
  8
0
  6
CONTINUOUS
 62
     7
 10
99.29820251464844
 20
25.24884796142578
 40
2
 50
0
 51
79.99999767274336
  0
ARC
  8
0
  6
CONTINUOUS
 62
     7
 10
174.9981994628906
 20
39.48851776123047
 40
1.500000000000002
 50
90.00000250447846
 51
180.0000050089564
  0
ARC
  8
0
  6
CONTINUOUS
 62
     7
 10
495.6642761230469
 20
6.438517093658447
 40
2.000000000000026
 50
190.0000066529675
 51
269.9999974955215
  0
ARC
  8
0
  6
CONTINUOUS
 62
     7
 10
486.5672912597656
 20
6.438517093658447
 40
2
 50
269.9999974955215
 51
350.0000002909071
  0
ARC
  8
0
  6
CONTINUOUS
 62
     7
 10
500.8157958984375
 20
5.938517093658447
 40
1.5
 50
269.9999974955227
 51
0
  0
ARC
  8
0
  6
CONTINUOUS
 62
     7
 10
486.5672912597656
 20
-82.46148681640625
 40
2.000000000000012
 50
9.999999709092926
 51
90.00000250447846
  0
ARC
  8
0
  6
CONTINUOUS
 62
     7
 10
495.6642761230469
 20
-82.46148681640625
 40
2.000000000000002
 50
90.00000250447846
 51
169.9999933470326
  0
ARC
  8
0
  6
CONTINUOUS
 62
     7
 10
500.8157958984375
 20
-81.96148681640625
 40
1.5
 50
0
 51
90.00000250447738
  0
ARC
  8
0
  6
CONTINUOUS
 62
     7
 10
485.3157958984375
 20
36.98851776123047
 40
32.54999923706055
 50
180.0000050089563
 51
270.0000006832453
  0
ARC
  8
0
  6
CONTINUOUS
 62
     7
 10
334.0642700195313
 20
6.438517093658447
 40
2.000000000000026
 50
190.0000066529675
 51
269.9999974955215
  0
ARC
  8
0
  6
CONTINUOUS
 62
     7
 10
324.96728515625
 20
6.438517093658447
 40
2
 50
269.9999974955215
 51
350.0000002909071
  0
ARC
  8
0
  6
CONTINUOUS
 62
     7
 10
319.8157958984375
 20
5.938517093658447
 40
1.500000000000006
 50
179.9999949910437
 51
269.9999974955227
  0
ARC
  8
0
  6
CONTINUOUS
 62
     7
 10
334.0642700195313
 20
-82.46148681640625
 40
2.000000000000002
 50
90.00000250447846
 51
169.9999933470326
  0
ARC
  8
0
  6
CONTINUOUS
 62
     7
 10
324.96728515625
 20
-82.46148681640625
 40
2.000000000000012
 50
9.999999709092926
 51
90.00000250447846
  0
ARC
  8
0
  6
CONTINUOUS
 62
     7
 10
319.8157958984375
 20
-81.96148681640625
 40
1.500000000000002
 50
90.00000250447738
 51
180.0000050089564
  0
ARC
  8
0
  6
CONTINUOUS
 62
     7
 10
335.3157958984375
 20
36.98851776123047
 40
32.54999923706055
 50
269.9999974955218
 51
8.755075457410863E-014
  0
ARC
  8
0
  6
CONTINUOUS
 62
     7
 10
365.8657836914063
 20
38.24003219604492
 40
2
 50
0
 51
79.99999767274377
  0
ARC
  8
0
  6
CONTINUOUS
 62
     7
 10
365.8657836914063
 20
47.33700180053711
 40
1.999999999999996
 50
280.0000023272563
 51
0
  0
ARC
  8
0
  6
CONTINUOUS
 62
     7
 10
366.3657836914063
 20
52.48851776123047
 40
1.5
 50
0
 51
90.00000250447738
  0
ARC
  8
0
  6
CONTINUOUS
 62
     7
 10
454.7657775878906
 20
38.24003219604492
 40
2
 50
100.0000005060243
 51
180.0000050089563
  0
ARC
  8
0
  6
CONTINUOUS
 62
     7
 10
454.7657775878906
 20
47.33700180053711
 40
2.000000000000008
 50
179.9999949910437
 51
259.9999994939757
  0
ARC
  8
0
  6
CONTINUOUS
 62
     7
 10
454.2657775878906
 20
52.48851776123047
 40
1.500000000000002
 50
90.00000250447738
 51
180.0000050089564
  0
ARC
  8
0
  6
CONTINUOUS
 62
     7
 10
22.0500431060791
 20
-323.2568054199219
 40
2.000000000000003
 50
190.0000066529684
 51
269.9999974955218
  0
ARC
  8
0
  6
CONTINUOUS
 62
     7
 10
12.86490726470947
 20
-323.2568054199219
 40
2.000000000000002
 50
269.9999974955218
 51
350.0000002909066
  0
ARC
  8
0
  6
CONTINUOUS
 62
     7
 10
27.15747451782227
 20
-323.7568054199219
 40
1.500000000000002
 50
269.9999974955218
 51
0
  0
ARC
  8
0
  6
CONTINUOUS
 62
     7
 10
12.86490726470947
 20
-436.8567810058594
 40
2.000000000000004
 50
9.999999709093377
 51
90.00000250447816
  0
ARC
  8
0
  6
CONTINUOUS
 62
     7
 10
22.0500431060791
 20
-436.8567810058594
 40
2.000000000000002
 50
90.00000250447816
 51
169.9999933470316
  0
ARC
  8
0
  6
CONTINUOUS
 62
     7
 10
27.15747451782227
 20
-436.3567810058594
 40
1.5
 50
0
 51
90.0000025044782
  0
ARC
  8
0
  6
CONTINUOUS
 62
     7
 10
9.657474517822266
 20
-288.0567932128906
 40
37.20000076293945
 50
180.0000050089564
 51
270.0000006832453
  0
ARC
  8
0
  6
CONTINUOUS
 62
     7
 10
-177.5499572753906
 20
-323.2568054199219
 40
2.000000000000003
 50
190.0000066529684
 51
269.9999974955215
  0
ARC
  8
0
  6
CONTINUOUS
 62
     7
 10
-186.7350921630859
 20
-323.2568054199219
 40
2.000000000000002
 50
269.9999974955215
 51
350.0000002909067
  0
ARC
  8
0
  6
CONTINUOUS
 62
     7
 10
-177.5499572753906
 20
-436.8567810058594
 40
2.000000000000002
 50
90.00000250447846
 51
169.9999933470316
  0
ARC
  8
0
  6
CONTINUOUS
 62
     7
 10
-191.842529296875
 20
-323.7568054199219
 40
1.500000000000006
 50
179.9999949910431
 51
269.9999974955215
  0
ARC
  8
0
  6
CONTINUOUS
 62
     7
 10
-186.7350921630859
 20
-436.8567810058594
 40
2.000000000000014
 50
9.999999709093325
 51
90.00000250447846
  0
ARC
  8
0
  6
CONTINUOUS
 62
     7
 10
-191.842529296875
 20
-436.3567810058594
 40
1.500000000000002
 50
90.00000250447846
 51
180.0000050089569
  0
ARC
  8
0
  6
CONTINUOUS
 62
     7
 10
-174.342529296875
 20
-288.0567932128906
 40
37.20000076293943
 50
269.9999974955218
 51
8.75507507264172E-014
  0
ARC
  8
0
  6
CONTINUOUS
 62
     7
 10
-139.1425323486328
 20
-284.849365234375
 40
2
 50
0
 51
79.99999767274287
  0
ARC
  8
0
  6
CONTINUOUS
 62
     7
 10
-139.1425323486328
 20
-275.6642150878906
 40
1.999999999999975
 50
280.0000023272563
 51
0
  0
ARC
  8
0
  6
CONTINUOUS
 62
     7
 10
-25.54252624511719
 20
-284.849365234375
 40
2.000000000000025
 50
100.0000005060236
 51
180.0000050089569
  0
ARC
  8
0
  6
CONTINUOUS
 62
     7
 10
-138.6425323486328
 20
-270.5567932128906
 40
1.5
 50
0
 51
90.00000250447846
  0
ARC
  8
0
  6
CONTINUOUS
 62
     7
 10
-25.54252624511719
 20
-275.6642150878906
 40
2
 50
179.9999949910431
 51
259.9999994939763
  0
ARC
  8
0
  6
CONTINUOUS
 62
     7
 10
-26.04252624511719
 20
-270.5567932128906
 40
1.500000000000002
 50
90.0000025044782
 51
180.0000050089569
  0
ARC
  8
0
  6
CONTINUOUS
 62
     7
 10
384.7899780273438
 20
-310.5567932128906
 40
2.000000000000031
 50
190.0000066529683
 51
269.9999974955215
  0
ARC
  8
0
  6
CONTINUOUS
 62
     7
 10
375.5872192382813
 20
-310.5567932128906
 40
2.000000000000002
 50
269.9999974955215
 51
350.0000002909067
  0
ARC
  8
0
  6
CONTINUOUS
 62
     7
 10
389.8886108398438
 20
-311.0567932128906
 40
1.500000000000002
 50
269.9999974955227
 51
0
  0
ARC
  8
0
  6
CONTINUOUS
 62
     7
 10
384.7899780273438
 20
-449.5567932128906
 40
2.000000000000002
 50
90.00000250447846
 51
169.9999933470318
  0
ARC
  8
0
  6
CONTINUOUS
 62
     7
 10
375.5872192382813
 20
-449.5567932128906
 40
2.000000000000014
 50
9.999999709093325
 51
90.00000250447846
  0
ARC
  8
0
  6
CONTINUOUS
 62
     7
 10
389.8886108398438
 20
-449.0567932128906
 40
1.5
 50
0
 51
90.00000250447738
  0
ARC
  8
0
  6
CONTINUOUS
 62
     7
 10
369.3886108398438
 20
-278.0567932128906
 40
34.50000000000002
 50
180.0000050089563
 51
270.0000006832453
  0
ARC
  8
0
  6
CONTINUOUS
 62
     7
 10
149.9872131347656
 20
-310.5567932128906
 40
2.000000000000002
 50
269.9999974955215
 51
350.0000002909067
  0
ARC
  8
0
  6
CONTINUOUS
 62
     7
 10
159.1899871826172
 20
-310.5567932128906
 40
2.000000000000003
 50
190.0000066529684
 51
269.9999974955215
  0
ARC
  8
0
  6
CONTINUOUS
 62
     7
 10
144.8885955810547
 20
-311.0567932128906
 40
1.500000000000006
 50
179.9999949910431
 51
269.9999974955215
  0
ARC
  8
0
  6
CONTINUOUS
 62
     7
 10
149.9872131347656
 20
-449.5567932128906
 40
2.000000000000014
 50
9.999999709093325
 51
90.00000250447846
  0
ARC
  8
0
  6
CONTINUOUS
 62
     7
 10
159.1899871826172
 20
-449.5567932128906
 40
2.000000000000002
 50
90.00000250447846
 51
169.9999933470316
  0
ARC
  8
0
  6
CONTINUOUS
 62
     7
 10
144.8885955810547
 20
-449.0567932128906
 40
1.500000000000002
 50
90.00000250447846
 51
180.0000050089569
  0
ARC
  8
0
  6
CONTINUOUS
 62
     7
 10
165.3885955810547
 20
-278.0567932128906
 40
34.49999999999998
 50
269.9999974955218
 51
9.440255054546786E-014
  0
ARC
  8
0
  6
CONTINUOUS
 62
     7
 10
197.8885955810547
 20
-262.6554260253906
 40
1.999999999999975
 50
280.0000023272563
 51
0
  0
ARC
  8
0
  6
CONTINUOUS
 62
     7
 10
197.8885955810547
 20
-271.8581848144531
 40
2
 50
0
 51
79.99999767274287
  0
ARC
  8
0
  6
CONTINUOUS
 62
     7
 10
198.3885955810547
 20
-257.5567932128906
 40
1.5
 50
0
 51
90.00000250447846
  0
ARC
  8
0
  6
CONTINUOUS
 62
     7
 10
336.8886108398438
 20
-262.6554260253906
 40
2.000000000000008
 50
179.9999949910431
 51
259.9999994939759
  0
ARC
  8
0
  6
CONTINUOUS
 62
     7
 10
336.8886108398438
 20
-271.8581848144531
 40
2.000000000000028
 50
100.0000005060241
 51
180.0000050089569
  0
ARC
  8
0
  6
CONTINUOUS
 62
     7
 10
336.3886108398438
 20
-257.5567932128906
 40
1.500000000000002
 50
90.00000250447738
 51
180.0000050089569
  0
ARC
  8
0
  6
CONTINUOUS
 62
     7
 10
844.1691284179688
 20
-298.1567993164063
 40
1.999999999999975
 50
190.0000066529686
 51
269.9999974955215
  0
ARC
  8
0
  6
CONTINUOUS
 62
     7
 10
834.8605346679688
 20
-298.1567993164063
 40
2.000000000000002
 50
269.9999974955215
 51
350.0000002909064
  0
ARC
  8
0
  6
CONTINUOUS
 62
     7
 10
849.21484375
 20
-298.6567993164063
 40
1.500000000000002
 50
269.9999974955227
 51
0
  0
ARC
  8
0
  6
CONTINUOUS
 62
     7
 10
849.21484375
 20
-461.456787109375
 40
1.5
 50
0
 51
90.00000250447738
  0
ARC
  8
0
  6
CONTINUOUS
 62
     7
 10
844.1691284179688
 20
-461.956787109375
 40
2.000000000000002
 50
90.00000250447846
 51
169.9999933470315
  0
ARC
  8
0
  6
CONTINUOUS
 62
     7
 10
834.8605346679688
 20
-461.956787109375
 40
1.999999999999958
 50
9.999999709093608
 51
90.00000250447846
  0
ARC
  8
0
  6
CONTINUOUS
 62
     7
 10
783.6148071289063
 20
-246.9110717773438
 40
1.999999999999991
 50
100.0000005060227
 51
180.0000050089561
  0
ARC
  8
0
  6
CONTINUOUS
 62
     7
 10
783.6148071289063
 20
-237.6025085449219
 40
2.000000000000008
 50
179.9999949910439
 51
259.9999994939773
  0
ARC
  8
0
  6
CONTINUOUS
 62
     7
 10
620.3148193359375
 20
-232.5567932128906
 40
1.5
 50
0
 51
90.00000250447738
  0
ARC
  8
0
  6
CONTINUOUS
 62
     7
 10
783.1148071289063
 20
-232.5567932128906
 40
1.500000000000002
 50
90.00000250447738
 51
180.0000050089558
  0
ARC
  8
0
  6
CONTINUOUS
 62
     7
 10
619.8148193359375
 20
-237.6025085449219
 40
2.000000000000003
 50
280.0000023272563
 51
0
  0
ARC
  8
0
  6
CONTINUOUS
 62
     7
 10
619.8148193359375
 20
-246.9110717773438
 40
2
 50
0
 51
79.9999976727438
  0
ARC
  8
0
  6
CONTINUOUS
 62
     7
 10
568.569091796875
 20
-298.1567993164063
 40
1.999999999999975
 50
190.0000066529686
 51
269.9999974955215
  0
ARC
  8
0
  6
CONTINUOUS
 62
     7
 10
559.2605590820313
 20
-298.1567993164063
 40
2.000000000000002
 50
269.9999974955215
 51
350.0000002909064
  0
ARC
  8
0
  6
CONTINUOUS
 62
     7
 10
554.21484375
 20
-461.456787109375
 40
1.500000000000002
 50
90.00000250447738
 51
180.0000050089569
  0
ARC
  8
0
  6
CONTINUOUS
 62
     7
 10
554.21484375
 20
-298.6567993164063
 40
1.500000000000006
 50
179.9999949910431
 51
269.9999974955227
  0
ARC
  8
0
  6
CONTINUOUS
 62
     7
 10
559.2605590820313
 20
-461.956787109375
 40
1.999999999999958
 50
9.999999709093608
 51
90.00000250447846
  0
ARC
  8
0
  6
CONTINUOUS
 62
     7
 10
568.569091796875
 20
-461.956787109375
 40
2.000000000000002
 50
90.00000250447846
 51
169.9999933470315
  0
ARC
  8
0
  6
CONTINUOUS
 62
     7
 10
828.71484375
 20
-253.0567932128906
 40
47.09999847412104
 50
180.0000050089563
 51
270.0000006832453
  0
ARC
  8
0
  6
CONTINUOUS
 62
     7
 10
574.71484375
 20
-253.0567932128906
 40
47.09999847412108
 50
269.9999974955218
 51
1.03722550934098E-013
  0
ARC
  8
0
  6
CONTINUOUS
 62
     7
 10
-134.0729522705078
 20
43.81060409545898
 40
0.5000000000000004
 50
90.00000250447846
 51
180.0000050089561
  0
ARC
  8
0
  6
CONTINUOUS
 62
     7
 10
-74.57295989990234
 20
43.81060409545898
 40
0.5
 50
0
 51
90.00000250447846
  0
ARC
  8
0
  6
CONTINUOUS
 62
     7
 10
-186.8229522705078
 20
-8.939396858215332
 40
0.5000000000000004
 50
90.00000250447846
 51
180.0000050089563
  0
ARC
  8
0
  6
CONTINUOUS
 62
     7
 10
-186.8229522705078
 20
-68.43939971923828
 40
0.5000000000000019
 50
180.0000050089569
 51
270.0000006832462
  0
ARC
  8
0
  6
CONTINUOUS
 62
     7
 10
-21.82295989990234
 20
-8.939396858215332
 40
0.5
 50
0
 51
90.00000250447806
  0
ARC
  8
0
  6
CONTINUOUS
 62
     7
 10
-21.82295989990234
 20
-68.43939971923828
 40
0.5000000000000004
 50
269.9999974955219
 51
0
  0
ARC
  8
0
  6
CONTINUOUS
 62
     7
 10
42.89820098876953
 20
-0.361483097076416
 40
0.4999999999999999
 50
90.00000250447846
 51
180.0000050089563
  0
ARC
  8
0
  6
CONTINUOUS
 62
     7
 10
42.89820098876953
 20
-75.66148376464844
 40
0.5000000000000019
 50
180.0000050089569
 51
270.0000006832455
  0
ARC
  8
0
  6
CONTINUOUS
 62
     7
 10
99.74819946289063
 20
56.48851776123047
 40
0.5000000000000004
 50
90.00000250447846
 51
180.0000050089561
  0
ARC
  8
0
  6
CONTINUOUS
 62
     7
 10
175.0482025146484
 20
56.48851776123047
 40
0.5
 50
0
 51
90.00000250447846
  0
ARC
  8
0
  6
CONTINUOUS
 62
     7
 10
231.8982086181641
 20
-0.361483097076416
 40
0.5
 50
0
 51
90.00000250447846
  0
ARC
  8
0
  6
CONTINUOUS
 62
     7
 10
231.8982086181641
 20
-75.66148376464844
 40
0.5000000000000004
 50
269.9999974955215
 51
0
  0
ARC
  8
0
  6
CONTINUOUS
 62
     7
 10
302.8157958984375
 20
6.038516998291016
 40
0.4999999999999996
 50
90.00000250447521
 51
180.0000050089563
  0
ARC
  8
0
  6
CONTINUOUS
 62
     7
 10
302.8157958984375
 20
-82.06148529052734
 40
0.5000000000000019
 50
180.0000050089569
 51
270.000000683243
  0
ARC
  8
0
  6
CONTINUOUS
 62
     7
 10
366.2657775878906
 20
69.48851776123047
 40
0.5000000000000004
 50
90.00000250447521
 51
180.0000050089569
  0
ARC
  8
0
  6
CONTINUOUS
 62
     7
 10
454.3657836914063
 20
69.48851776123047
 40
0.5
 50
0
 51
90.00000250447521
  0
ARC
  8
0
  6
CONTINUOUS
 62
     7
 10
517.8157958984375
 20
6.038516998291016
 40
0.5
 50
0
 51
90.00000250448173
  0
ARC
  8
0
  6
CONTINUOUS
 62
     7
 10
517.8157958984375
 20
-82.06148529052734
 40
0.5000000000000004
 50
269.9999974955182
 51
0
  0
ARC
  8
0
  6
CONTINUOUS
 62
     7
 10
-208.842529296875
 20
-323.4067993164063
 40
0.5000000000000004
 50
90.00000250447846
 51
180.0000050089569
  0
ARC
  8
0
  6
CONTINUOUS
 62
     7
 10
-208.842529296875
 20
-436.706787109375
 40
0.5000000000000019
 50
180.0000050089569
 51
270.0000006832462
  0
ARC
  8
0
  6
CONTINUOUS
 62
     7
 10
-138.9925231933594
 20
-253.5567932128906
 40
0.5000000000000004
 50
90.00000250447846
 51
180.0000050089569
  0
ARC
  8
0
  6
CONTINUOUS
 62
     7
 10
-25.69252586364746
 20
-253.5567932128906
 40
0.5
 50
0
 51
90.00000250447806
  0
ARC
  8
0
  6
CONTINUOUS
 62
     7
 10
44.15747451782227
 20
-323.4067993164063
 40
0.5
 50
0
 51
90.00000250447846
  0
ARC
  8
0
  6
CONTINUOUS
 62
     7
 10
44.15747451782227
 20
-436.706787109375
 40
0.5000000000000004
 50
269.9999974955215
 51
0
  0
ARC
  8
0
  6
CONTINUOUS
 62
     7
 10
127.8885955810547
 20
-310.6567993164063
 40
0.5000000000000004
 50
90.00000250447846
 51
180.0000050089569
  0
ARC
  8
0
  6
CONTINUOUS
 62
     7
 10
127.8885955810547
 20
-449.456787109375
 40
0.5000000000000019
 50
180.0000050089569
 51
270.0000006832446
  0
ARC
  8
0
  6
CONTINUOUS
 62
     7
 10
406.8886108398438
 20
-310.6567993164063
 40
0.5
 50
0
 51
90.00000250447521
  0
ARC
  8
0
  6
CONTINUOUS
 62
     7
 10
406.8886108398438
 20
-449.456787109375
 40
0.5000000000000004
 50
269.9999974955248
 51
0
  0
ARC
  8
0
  6
CONTINUOUS
 62
     7
 10
197.9886016845703
 20
-240.5567932128906
 40
0.5000000000000004
 50
90.00000250447846
 51
180.0000050089569
  0
ARC
  8
0
  6
CONTINUOUS
 62
     7
 10
336.7886047363281
 20
-240.5567932128906
 40
0.5
 50
0
 51
90.00000250447521
  0
ARC
  8
0
  6
CONTINUOUS
 62
     7
 10
537.21484375
 20
-297.956787109375
 40
0.5000000000000004
 50
90.00000250448173
 51
180.0000050089569
  0
ARC
  8
0
  6
CONTINUOUS
 62
     7
 10
537.21484375
 20
-462.1567993164063
 40
0.5000000000000019
 50
180.0000050089569
 51
270.000000683243
  0
ARC
  8
0
  6
CONTINUOUS
 62
     7
 10
619.6148071289063
 20
-215.5567932128906
 40
0.5000000000000004
 50
90.00000250448173
 51
180.0000050089569
  0
ARC
  8
0
  6
CONTINUOUS
 62
     7
 10
783.8148193359375
 20
-215.5567932128906
 40
0.5
 50
0
 51
90.00000250448173
  0
ARC
  8
0
  6
CONTINUOUS
 62
     7
 10
866.21484375
 20
-297.956787109375
 40
0.5
 50
0
 51
90.00000250448173
  0
ARC
  8
0
  6
CONTINUOUS
 62
     7
 10
866.21484375
 20
-462.1567993164063
 40
0.5000000000000004
 50
269.9999974955182
 51
0
  0
ARC
  8
0
  6
CONTINUOUS
 62
     7
 10
-104.2393417358398
 20
-40.68514633178711
 40
1.412147641181952
 50
169.9999933470325
 51
350.0000120163671
  0
ARC
  8
0
  6
CONTINUOUS
 62
     7
 10
-104.2393417358398
 20
-40.68514633178711
 40
2.824295282363891
 50
169.9999933470323
 51
350.000012016367
  0
ARC
  8
0
  6
CONTINUOUS
 62
     7
 10
137.2062377929688
 20
-40.68514633178711
 40
1.412147641181952
 50
169.9999933470325
 51
350.0000120163672
  0
ARC
  8
0
  6
CONTINUOUS
 62
     7
 10
137.2062377929688
 20
-40.68514633178711
 40
2.824295282363905
 50
169.9999933470323
 51
350.000012016367
  0
ARC
  8
0
  6
CONTINUOUS
 62
     7
 10
409.5476989746094
 20
-40.68514633178711
 40
1.412147641181952
 50
169.9999933470325
 51
350.0000120163672
  0
ARC
  8
0
  6
CONTINUOUS
 62
     7
 10
409.5476989746094
 20
-40.68514633178711
 40
2.824295282363905
 50
169.9999933470323
 51
350.0000120163671
  0
ARC
  8
0
  6
CONTINUOUS
 62
     7
 10
-82.49779510498047
 20
-382.0655517578125
 40
1.41214764118195
 50
169.9999933470331
 51
350.000012016368
  0
ARC
  8
0
  6
CONTINUOUS
 62
     7
 10
-82.49779510498047
 20
-382.0655517578125
 40
2.824295282363895
 50
169.9999933470319
 51
350.0000120163668
  0
ARC
  8
0
  6
CONTINUOUS
 62
     7
 10
266.8926391601563
 20
-382.4469604492188
 40
1.41214764118195
 50
169.9999933470331
 51
350.0000120163681
  0
ARC
  8
0
  6
CONTINUOUS
 62
     7
 10
266.8926391601563
 20
-382.4469604492188
 40
2.824295282363909
 50
169.9999933470319
 51
350.000012016367
  0
ARC
  8
0
  6
CONTINUOUS
 62
     7
 10
702.10498046875
 20
-382.4469604492188
 40
1.41214764118195
 50
169.9999933470331
 51
350.0000120163677
  0
ARC
  8
0
  6
CONTINUOUS
 62
     7
 10
702.10498046875
 20
-382.4469604492188
 40
2.824295282363909
 50
169.9999933470319
 51
350.000012016367
  0
TEXT
  8
0
  6
CONTINUOUS
 62
     7
 10
47.56089186668396
 20
-111.9076385498047
 40
10
 41
0.8512700469189696
  1
　６５Ａ
  0
TEXT
  8
0
  6
CONTINUOUS
 62
     7
 10
47.56089186668396
 20
-126.9076385498047
 40
10
 41
0.8474110189900798
  1
（７５Ｓｕ）
  0
TEXT
  8
0
  6
CONTINUOUS
 62
     7
 10
314.1953980922699
 20
-116.8453140258789
 40
10
 41
0.8512700469189696
  1
　８０Ａ
  0
TEXT
  8
0
  6
CONTINUOUS
 62
     7
 10
314.1953980922699
 20
-131.8453140258789
 40
10
 41
0.8474110189900798
  1
（８０Ｓｕ）
  0
TEXT
  8
0
  6
CONTINUOUS
 62
     7
 10
-201.7917540073395
 20
-477.2956848144531
 40
10
 41
0.8489270656764293
  1
　１００Ａ
  0
TEXT
  8
0
  6
CONTINUOUS
 62
     7
 10
-201.7917540073395
 20
-492.2956848144531
 40
10
 41
0.8463497863096351
  1
（１００Ｓｕ）
  0
TEXT
  8
0
  6
CONTINUOUS
 62
     7
 10
141.3767335414887
 20
-488.4054565429688
 40
10
 41
0.8489270656764293
  1
　１２５Ａ
  0
TEXT
  8
0
  6
CONTINUOUS
 62
     7
 10
141.3767335414887
 20
-503.4054565429688
 40
10
 41
0.8463497863096351
  1
（１２５Ｓｕ）
  0
TEXT
  8
0
  6
CONTINUOUS
 62
     7
 10
585.7676026821137
 20
-503.2184753417969
 40
10
 41
0.8489270656764293
  1
　１５０Ａ
  0
TEXT
  8
0
  6
CONTINUOUS
 62
     7
 10
585.7676026821137
 20
-518.2184753417969
 40
10
 41
0.8463497863096351
  1
（１５０Ｓｕ）
  0
TEXT
  8
0
  6
CONTINUOUS
 62
     7
 10
-185.7442991733551
 20
-109.4388046264648
 40
10
 41
0.8512700469189696
  1
　５０Ａ
  0
TEXT
  8
0
  6
CONTINUOUS
 62
     7
 10
-185.7442991733551
 20
-124.4388046264648
 40
10
 41
0.8474110189900798
  1
（６０Ｓｕ）
  0
LINE
  8
0
  6
CONTINUOUS
 62
     7
 10
-116.8332091174185
 20
-41.11018635466831
 11
-115.8206140341758
 21
-41.28873419863362
  0
LINE
  8
0
  6
CONTINUOUS
 62
     7
 10
-112.7184280296957
 20
-39.17330002118542
 11
-111.7740634048019
 21
-39.3398169937466
  0
POLYLINE
  8
0
  6
CONTINUOUS
 62
     7
 66
     1
 10
0
 20
0
  0
VERTEX
  8
0
  6
CONTINUOUS
 62
     7
 10
-112.6999736699763
 20
-38.96237872430964
 42
0.07333214780387673
  0
VERTEX
  8
0
  6
CONTINUOUS
 62
     7
 10
-112.7516713398827
 20
-38.72249859591422
 42
0.07333214780387673
  0
VERTEX
  8
0
  6
CONTINUOUS
 62
     7
 10
-112.9023636537993
 20
-38.5030379463077
 42
0.07333214780387673
  0
VERTEX
  8
0
  6
CONTINUOUS
 62
     7
 10
-113.1392231277316
 20
-38.32267807314328
 42
0.07333214780387673
  0
VERTEX
  8
0
  6
CONTINUOUS
 62
     7
 10
-113.442087412108
 20
-38.19677187217388
 42
0.07333214780387673
  0
VERTEX
  8
0
  6
CONTINUOUS
 62
     7
 10
-113.785175585132
 20
-38.13603694229894
 42
0.07333214780387673
  0
VERTEX
  8
0
  6
CONTINUOUS
 62
     7
 10
-114.1392827196649
 20
-38.14564326412761
 42
0.07333214780387673
  0
VERTEX
  8
0
  6
CONTINUOUS
 62
     7
 10
-114.4742659140376
 20
-38.22477311221455
 42
0.07333214780387673
  0
VERTEX
  8
0
  6
CONTINUOUS
 62
     7
 10
-114.7616101667038
 20
-38.36669066285737
 42
0.07333214780387673
  0
VERTEX
  8
0
  6
CONTINUOUS
 62
     7
 10
-114.9768556780474
 20
-38.55931537218397
 42
0.07333214780387673
  0
VERTEX
  8
0
  6
CONTINUOUS
 62
     7
 10
-115.1016799584871
 20
-38.78625031647821
 42
0.07333214780387673
  0
VERTEX
  8
0
  6
CONTINUOUS
 62
     7
 10
-115.1254575061781
 20
-39.02817795863324
 42
0.07333214780387673
  0
VERTEX
  8
0
  6
CONTINUOUS
 62
     7
 10
-115.046164288809
 20
-39.26450452795834
 42
0.07333214780387673
  0
VERTEX
  8
0
  6
CONTINUOUS
 62
     7
 10
-114.8705500366766
 20
-39.47511303768236
 42
0.07333214780387673
  0
VERTEX
  8
0
  6
CONTINUOUS
 62
     7
 10
-114.6135636808172
 20
-39.64207571685637
 42
0.07333214780387673
  0
VERTEX
  8
0
  6
CONTINUOUS
 62
     7
 10
-114.2970808450171
 20
-39.75118008815372
 42
0.07333214780387673
  0
VERTEX
  8
0
  6
CONTINUOUS
 62
     7
 10
-113.9480417122579
 20
-39.79313878621247
 42
-1
  0
SEQEND
  8
0
  0
POLYLINE
  8
0
  6
CONTINUOUS
 62
     7
 66
     1
 10
0
 20
0
  0
VERTEX
  8
0
  6
CONTINUOUS
 62
     7
 10
-111.7410410098698
 20
-38.96237850280341
 42
0.07332668712448476
  0
VERTEX
  8
0
  6
CONTINUOUS
 62
     7
 10
-111.8335389298901
 20
-38.46051150712356
 42
0.07332668712448476
  0
VERTEX
  8
0
  6
CONTINUOUS
 62
     7
 10
-112.1031601961717
 20
-38.00135896893029
 42
0.07332668712448476
  0
VERTEX
  8
0
  6
CONTINUOUS
 62
     7
 10
-112.5269570363129
 20
-37.62399988258281
 42
0.07332668712448476
  0
VERTEX
  8
0
  6
CONTINUOUS
 62
     7
 10
-113.068859619598
 20
-37.36055170879428
 42
0.07332668712448476
  0
VERTEX
  8
0
  6
CONTINUOUS
 62
     7
 10
-113.6827460012833
 20
-37.23343682104856
 42
0.07332668712448476
  0
VERTEX
  8
0
  6
CONTINUOUS
 62
     7
 10
-114.3163676137328
 20
-37.2534741119096
 42
0.07332668712448476
  0
VERTEX
  8
0
  6
CONTINUOUS
 62
     7
 10
-114.9157962013906
 20
-37.41895818477958
 42
0.07332668712448476
  0
VERTEX
  8
0
  6
CONTINUOUS
 62
     7
 10
-115.4300137159018
 20
-37.71580450214142
 42
0.07332668712448476
  0
VERTEX
  8
0
  6
CONTINUOUS
 62
     7
 10
-115.8152545201906
 20
-38.1187481365543
 42
0.07332668712448476
  0
VERTEX
  8
0
  6
CONTINUOUS
 62
     7
 10
-116.0387303315722
 20
-38.59349409734198
 42
0.07332668712448476
  0
VERTEX
  8
0
  6
CONTINUOUS
 62
     7
 10
-116.0814208697563
 20
-39.09963621622608
 42
0.07332668712448476
  0
VERTEX
  8
0
  6
CONTINUOUS
 62
     7
 10
-115.9396926945198
 20
-39.59409616223044
 42
0.07332668712448476
  0
VERTEX
  8
0
  6
CONTINUOUS
 62
     7
 10
-115.625608451933
 20
-40.03478988738966
 42
0.07332668712448476
  0
VERTEX
  8
0
  6
CONTINUOUS
 62
     7
 10
-115.1659002088439
 20
-40.38420944790057
 42
0.07332668712448476
  0
VERTEX
  8
0
  6
CONTINUOUS
 62
     7
 10
-114.599694256287
 20
-40.61261534784763
 42
0.07332668712448476
  0
VERTEX
  8
0
  6
CONTINUOUS
 62
     7
 10
-113.9751810263858
 20
-40.70056770149969
 42
-1
  0
SEQEND
  8
0
  0
POLYLINE
  8
0
  6
CONTINUOUS
 62
     7
 66
     1
 10
0
 20
0
  0
VERTEX
  8
0
  6
CONTINUOUS
 62
     7
 10
-115.8661287955872
 20
-41.56280401325437
 42
0.07459289906077718
  0
VERTEX
  8
0
  6
CONTINUOUS
 62
     7
 10
-115.8376839672877
 20
-41.85803228278331
 42
0.07459289906077718
  0
VERTEX
  8
0
  6
CONTINUOUS
 62
     7
 10
-115.6883196278831
 20
-42.13434552715256
 42
0.07459289906077718
  0
VERTEX
  8
0
  6
CONTINUOUS
 62
     7
 10
-115.4311862801486
 20
-42.36741626564386
 42
0.07459289906077718
  0
VERTEX
  8
0
  6
CONTINUOUS
 62
     7
 10
-115.0889227468206
 20
-42.53672422276491
 42
0.07459289906077718
  0
VERTEX
  8
0
  6
CONTINUOUS
 62
     7
 10
-114.6916629779622
 20
-42.62736299737047
 42
0.07459289906077718
  0
VERTEX
  8
0
  6
CONTINUOUS
 62
     7
 10
-114.2743829639177
 20
-42.63135246875886
 42
0.07459289906077718
  0
VERTEX
  8
0
  6
CONTINUOUS
 62
     7
 10
-113.873821339923
 20
-42.54834139141342
 42
0.07459289906077718
  0
VERTEX
  8
0
  6
CONTINUOUS
 62
     7
 10
-113.5252448019575
 20
-42.38563831975445
 42
0.07459289906077718
  0
VERTEX
  8
0
  6
CONTINUOUS
 62
     7
 10
-113.2593431167224
 20
-42.15756814018983
 42
0.07459289906077718
  0
VERTEX
  8
0
  6
CONTINUOUS
 62
     7
 10
-113.0995270987636
 20
-41.88421086339161
 42
0.07459289906077718
  0
VERTEX
  8
0
  6
CONTINUOUS
 62
     7
 10
-113.0598674492676
 20
-41.58963371746418
 42
0.07459289906077718
  0
VERTEX
  8
0
  6
CONTINUOUS
 62
     7
 10
-113.1438559275983
 20
-41.29977219404111
 42
0.07459289906077718
  0
VERTEX
  8
0
  6
CONTINUOUS
 62
     7
 10
-113.344097925901
 20
-41.04014660662794
 42
0.07459289906077718
  0
VERTEX
  8
0
  6
CONTINUOUS
 62
     7
 10
-113.642963513465
 20
-40.83361520252357
 42
0.07459289906077718
  0
VERTEX
  8
0
  6
CONTINUOUS
 62
     7
 10
-114.0141396308661
 20
-40.69836165136182
 42
0.07459289906077718
  0
VERTEX
  8
0
  6
CONTINUOUS
 62
     7
 10
-114.4249467738706
 20
-40.64629409806522
 42
-1
  0
SEQEND
  8
0
  0
POLYLINE
  8
0
  6
CONTINUOUS
 62
     7
 66
     1
 10
0
 20
0
  0
VERTEX
  8
0
  6
CONTINUOUS
 62
     7
 10
-116.8889214038103
 20
-41.55215466336991
 42
0.07398282385211347
  0
VERTEX
  8
0
  6
CONTINUOUS
 62
     7
 10
-116.8131451490832
 20
-42.10595840623217
 42
0.07398282385211347
  0
VERTEX
  8
0
  6
CONTINUOUS
 62
     7
 10
-116.5336777842621
 20
-42.61859235082905
 42
0.07398282385211347
  0
VERTEX
  8
0
  6
CONTINUOUS
 62
     7
 10
-116.0747280204923
 20
-43.04564985563385
 42
0.07398282385211347
  0
VERTEX
  8
0
  6
CONTINUOUS
 62
     7
 10
-115.4760521358223
 20
-43.35013729248943
 42
0.07398282385211347
  0
VERTEX
  8
0
  6
CONTINUOUS
 62
     7
 10
-114.7895101088615
 20
-43.50567859987987
 42
0.07398282385211347
  0
VERTEX
  8
0
  6
CONTINUOUS
 62
     7
 10
-114.0745732758441
 20
-43.49880009516537
 42
0.07398282385211347
  0
VERTEX
  8
0
  6
CONTINUOUS
 62
     7
 10
-113.3931726579066
 20
-43.33009762514134
 42
0.07398282385211347
  0
VERTEX
  8
0
  6
CONTINUOUS
 62
     7
 10
-112.8043342194739
 20
-43.01418495112807
 42
0.07398282385211347
  0
VERTEX
  8
0
  6
CONTINUOUS
 62
     7
 10
-112.3590657756317
 20
-42.57842783970524
 42
0.07398282385211347
  0
VERTEX
  8
0
  6
CONTINUOUS
 62
     7
 10
-112.0959384674003
 20
-42.06057351780467
 42
0.07398282385211347
  0
VERTEX
  8
0
  6
CONTINUOUS
 62
     7
 10
-112.0377455572542
 20
-41.50548083934752
 42
0.07398282385211347
  0
VERTEX
  8
0
  6
CONTINUOUS
 62
     7
 10
-112.1895279749396
 20
-40.96123441099347
 42
0.07398282385211347
  0
VERTEX
  8
0
  6
CONTINUOUS
 62
     7
 10
-112.5381376496289
 20
-40.47497928878267
 42
0.07398282385211347
  0
VERTEX
  8
0
  6
CONTINUOUS
 62
     7
 10
-113.0533764545304
 20
-40.08883706284805
 42
0.07398282385211347
  0
VERTEX
  8
0
  6
CONTINUOUS
 62
     7
 10
-113.6906121034854
 20
-39.83625709717757
 42
0.07398282385211347
  0
VERTEX
  8
0
  6
CONTINUOUS
 62
     7
 10
-114.3946443989075
 20
-39.73911899633228
 42
-1
  0
SEQEND
  8
0
  0
LINE
  8
0
  6
CONTINUOUS
 62
     7
 10
-95.65099628782869
 20
-41.11018635466831
 11
-94.63840120458598
 21
-41.28873419863362
  0
LINE
  8
0
  6
CONTINUOUS
 62
     7
 10
-91.53621520010587
 20
-39.17330002118542
 11
-90.59185057521206
 21
-39.3398169937466
  0
POLYLINE
  8
0
  6
CONTINUOUS
 62
     7
 66
     1
 10
0
 20
0
  0
VERTEX
  8
0
  6
CONTINUOUS
 62
     7
 10
-91.51776084038647
 20
-38.96237872430964
 42
0.07333214780387673
  0
VERTEX
  8
0
  6
CONTINUOUS
 62
     7
 10
-91.56945851029282
 20
-38.72249859591422
 42
0.07333214780387673
  0
VERTEX
  8
0
  6
CONTINUOUS
 62
     7
 10
-91.7201508242095
 20
-38.5030379463077
 42
0.07333214780387673
  0
VERTEX
  8
0
  6
CONTINUOUS
 62
     7
 10
-91.95701029814171
 20
-38.32267807314328
 42
0.07333214780387673
  0
VERTEX
  8
0
  6
CONTINUOUS
 62
     7
 10
-92.25987458251814
 20
-38.19677187217388
 42
0.07333214780387673
  0
VERTEX
  8
0
  6
CONTINUOUS
 62
     7
 10
-92.60296275554212
 20
-38.13603694229894
 42
0.07333214780387673
  0
VERTEX
  8
0
  6
CONTINUOUS
 62
     7
 10
-92.95706989007503
 20
-38.14564326412761
 42
0.07333214780387673
  0
VERTEX
  8
0
  6
CONTINUOUS
 62
     7
 10
-93.29205308444776
 20
-38.22477311221455
 42
0.07333214780387673
  0
VERTEX
  8
0
  6
CONTINUOUS
 62
     7
 10
-93.57939733711396
 20
-38.36669066285737
 42
0.07333214780387673
  0
VERTEX
  8
0
  6
CONTINUOUS
 62
     7
 10
-93.79464284845754
 20
-38.55931537218397
 42
0.07333214780387673
  0
VERTEX
  8
0
  6
CONTINUOUS
 62
     7
 10
-93.91946712889721
 20
-38.78625031647821
 42
0.07333214780387673
  0
VERTEX
  8
0
  6
CONTINUOUS
 62
     7
 10
-93.94324467658821
 20
-39.02817795863324
 42
0.07333214780387673
  0
VERTEX
  8
0
  6
CONTINUOUS
 62
     7
 10
-93.86395145921919
 20
-39.26450452795834
 42
0.07333214780387673
  0
VERTEX
  8
0
  6
CONTINUOUS
 62
     7
 10
-93.6883372070867
 20
-39.47511303768236
 42
0.07333214780387673
  0
VERTEX
  8
0
  6
CONTINUOUS
 62
     7
 10
-93.43135085122739
 20
-39.64207571685637
 42
0.07333214780387673
  0
VERTEX
  8
0
  6
CONTINUOUS
 62
     7
 10
-93.11486801542725
 20
-39.75118008815372
 42
0.07333214780387673
  0
VERTEX
  8
0
  6
CONTINUOUS
 62
     7
 10
-92.76582888266809
 20
-39.79313878621247
 42
-1
  0
SEQEND
  8
0
  0
POLYLINE
  8
0
  6
CONTINUOUS
 62
     7
 66
     1
 10
0
 20
0
  0
VERTEX
  8
0
  6
CONTINUOUS
 62
     7
 10
-90.55882818027997
 20
-38.96237850280341
 42
0.07332668712448476
  0
VERTEX
  8
0
  6
CONTINUOUS
 62
     7
 10
-90.65132610030024
 20
-38.46051150712356
 42
0.07332668712448476
  0
VERTEX
  8
0
  6
CONTINUOUS
 62
     7
 10
-90.92094736658184
 20
-38.00135896893029
 42
0.07332668712448476
  0
VERTEX
  8
0
  6
CONTINUOUS
 62
     7
 10
-91.34474420672306
 20
-37.62399988258281
 42
0.07332668712448476
  0
VERTEX
  8
0
  6
CONTINUOUS
 62
     7
 10
-91.88664679000814
 20
-37.36055170879428
 42
0.07332668712448476
  0
VERTEX
  8
0
  6
CONTINUOUS
 62
     7
 10
-92.50053317169348
 20
-37.23343682104856
 42
0.07332668712448476
  0
VERTEX
  8
0
  6
CONTINUOUS
 62
     7
 10
-93.13415478414295
 20
-37.2534741119096
 42
0.07332668712448476
  0
VERTEX
  8
0
  6
CONTINUOUS
 62
     7
 10
-93.73358337180076
 20
-37.41895818477958
 42
0.07332668712448476
  0
VERTEX
  8
0
  6
CONTINUOUS
 62
     7
 10
-94.24780088631196
 20
-37.71580450214142
 42
0.07332668712448476
  0
VERTEX
  8
0
  6
CONTINUOUS
 62
     7
 10
-94.63304169060078
 20
-38.1187481365543
 42
0.07332668712448476
  0
VERTEX
  8
0
  6
CONTINUOUS
 62
     7
 10
-94.85651750198235
 20
-38.59349409734198
 42
0.07332668712448476
  0
VERTEX
  8
0
  6
CONTINUOUS
 62
     7
 10
-94.89920804016649
 20
-39.09963621622608
 42
0.07332668712448476
  0
VERTEX
  8
0
  6
CONTINUOUS
 62
     7
 10
-94.75747986492991
 20
-39.59409616223044
 42
0.07332668712448476
  0
VERTEX
  8
0
  6
CONTINUOUS
 62
     7
 10
-94.44339562234312
 20
-40.03478988738966
 42
0.07332668712448476
  0
VERTEX
  8
0
  6
CONTINUOUS
 62
     7
 10
-93.98368737925406
 20
-40.38420944790057
 42
0.07332668712448476
  0
VERTEX
  8
0
  6
CONTINUOUS
 62
     7
 10
-93.41748142669718
 20
-40.61261534784763
 42
0.07332668712448476
  0
VERTEX
  8
0
  6
CONTINUOUS
 62
     7
 10
-92.79296819679594
 20
-40.70056770149969
 42
-1
  0
SEQEND
  8
0
  0
POLYLINE
  8
0
  6
CONTINUOUS
 62
     7
 66
     1
 10
0
 20
0
  0
VERTEX
  8
0
  6
CONTINUOUS
 62
     7
 10
-94.68391596599739
 20
-41.56280401325437
 42
0.07459289906077718
  0
VERTEX
  8
0
  6
CONTINUOUS
 62
     7
 10
-94.65547113769783
 20
-41.85803228278331
 42
0.07459289906077718
  0
VERTEX
  8
0
  6
CONTINUOUS
 62
     7
 10
-94.50610679829326
 20
-42.13434552715256
 42
0.07459289906077718
  0
VERTEX
  8
0
  6
CONTINUOUS
 62
     7
 10
-94.24897345055872
 20
-42.36741626564386
 42
0.07459289906077718
  0
VERTEX
  8
0
  6
CONTINUOUS
 62
     7
 10
-93.90670991723071
 20
-42.53672422276491
 42
0.07459289906077718
  0
VERTEX
  8
0
  6
CONTINUOUS
 62
     7
 10
-93.50945014837234
 20
-42.62736299737047
 42
0.07459289906077718
  0
VERTEX
  8
0
  6
CONTINUOUS
 62
     7
 10
-93.0921701343278
 20
-42.63135246875886
 42
0.07459289906077718
  0
VERTEX
  8
0
  6
CONTINUOUS
 62
     7
 10
-92.69160851033317
 20
-42.54834139141342
 42
0.07459289906077718
  0
VERTEX
  8
0
  6
CONTINUOUS
 62
     7
 10
-92.34303197236763
 20
-42.38563831975445
 42
0.07459289906077718
  0
VERTEX
  8
0
  6
CONTINUOUS
 62
     7
 10
-92.07713028713253
 20
-42.15756814018983
 42
0.07459289906077718
  0
VERTEX
  8
0
  6
CONTINUOUS
 62
     7
 10
-91.9173142691738
 20
-41.88421086339161
 42
0.07459289906077718
  0
VERTEX
  8
0
  6
CONTINUOUS
 62
     7
 10
-91.8776546196778
 20
-41.58963371746418
 42
0.07459289906077718
  0
VERTEX
  8
0
  6
CONTINUOUS
 62
     7
 10
-91.96164309800845
 20
-41.29977219404111
 42
0.07459289906077718
  0
VERTEX
  8
0
  6
CONTINUOUS
 62
     7
 10
-92.16188509631117
 20
-41.04014660662794
 42
0.07459289906077718
  0
VERTEX
  8
0
  6
CONTINUOUS
 62
     7
 10
-92.46075068387519
 20
-40.83361520252357
 42
0.07459289906077718
  0
VERTEX
  8
0
  6
CONTINUOUS
 62
     7
 10
-92.83192680127624
 20
-40.69836165136182
 42
0.07459289906077718
  0
VERTEX
  8
0
  6
CONTINUOUS
 62
     7
 10
-93.24273394428077
 20
-40.64629409806522
 42
-1
  0
SEQEND
  8
0
  0
POLYLINE
  8
0
  6
CONTINUOUS
 62
     7
 66
     1
 10
0
 20
0
  0
VERTEX
  8
0
  6
CONTINUOUS
 62
     7
 10
-95.70670857422041
 20
-41.55215466336991
 42
0.07398282385211347
  0
VERTEX
  8
0
  6
CONTINUOUS
 62
     7
 10
-95.63093231949333
 20
-42.10595840623217
 42
0.07398282385211347
  0
VERTEX
  8
0
  6
CONTINUOUS
 62
     7
 10
-95.35146495467224
 20
-42.61859235082905
 42
0.07398282385211347
  0
VERTEX
  8
0
  6
CONTINUOUS
 62
     7
 10
-94.89251519090246
 20
-43.04564985563385
 42
0.07398282385211347
  0
VERTEX
  8
0
  6
CONTINUOUS
 62
     7
 10
-94.29383930623246
 20
-43.35013729248943
 42
0.07398282385211347
  0
VERTEX
  8
0
  6
CONTINUOUS
 62
     7
 10
-93.60729727927161
 20
-43.50567859987987
 42
0.07398282385211347
  0
VERTEX
  8
0
  6
CONTINUOUS
 62
     7
 10
-92.89236044625424
 20
-43.49880009516537
 42
0.07398282385211347
  0
VERTEX
  8
0
  6
CONTINUOUS
 62
     7
 10
-92.21095982831672
 20
-43.33009762514134
 42
0.07398282385211347
  0
VERTEX
  8
0
  6
CONTINUOUS
 62
     7
 10
-91.62212138988404
 20
-43.01418495112807
 42
0.07398282385211347
  0
VERTEX
  8
0
  6
CONTINUOUS
 62
     7
 10
-91.17685294604185
 20
-42.57842783970524
 42
0.07398282385211347
  0
VERTEX
  8
0
  6
CONTINUOUS
 62
     7
 10
-90.91372563781047
 20
-42.06057351780467
 42
0.07398282385211347
  0
VERTEX
  8
0
  6
CONTINUOUS
 62
     7
 10
-90.85553272766437
 20
-41.50548083934752
 42
0.07398282385211347
  0
VERTEX
  8
0
  6
CONTINUOUS
 62
     7
 10
-91.00731514534978
 20
-40.96123441099347
 42
0.07398282385211347
  0
VERTEX
  8
0
  6
CONTINUOUS
 62
     7
 10
-91.35592482003908
 20
-40.47497928878267
 42
0.07398282385211347
  0
VERTEX
  8
0
  6
CONTINUOUS
 62
     7
 10
-91.87116362494055
 20
-40.08883706284805
 42
0.07398282385211347
  0
VERTEX
  8
0
  6
CONTINUOUS
 62
     7
 10
-92.50839927389552
 20
-39.83625709717757
 42
0.07398282385211347
  0
VERTEX
  8
0
  6
CONTINUOUS
 62
     7
 10
-93.2124315693177
 20
-39.73911899633228
 42
-1
  0
SEQEND
  8
0
  0
LINE
  8
0
  6
CONTINUOUS
 62
     7
 10
124.6123627819955
 20
-41.11018635466831
 11
125.6249578652382
 21
-41.28873419863362
  0
LINE
  8
0
  6
CONTINUOUS
 62
     7
 10
128.7271438697184
 20
-39.17330002118542
 11
129.6715084946122
 21
-39.3398169937466
  0
POLYLINE
  8
0
  6
CONTINUOUS
 62
     7
 66
     1
 10
0
 20
0
  0
VERTEX
  8
0
  6
CONTINUOUS
 62
     7
 10
128.7455982294378
 20
-38.96237872430964
 42
0.07333214780387673
  0
VERTEX
  8
0
  6
CONTINUOUS
 62
     7
 10
128.6939005595314
 20
-38.72249859591422
 42
0.07333214780387673
  0
VERTEX
  8
0
  6
CONTINUOUS
 62
     7
 10
128.5432082456147
 20
-38.5030379463077
 42
0.07333214780387673
  0
VERTEX
  8
0
  6
CONTINUOUS
 62
     7
 10
128.3063487716825
 20
-38.32267807314328
 42
0.07333214780387673
  0
VERTEX
  8
0
  6
CONTINUOUS
 62
     7
 10
128.0034844873061
 20
-38.19677187217388
 42
0.07333214780387673
  0
VERTEX
  8
0
  6
CONTINUOUS
 62
     7
 10
127.6603963142821
 20
-38.13603694229894
 42
0.07333214780387673
  0
VERTEX
  8
0
  6
CONTINUOUS
 62
     7
 10
127.3062891797492
 20
-38.14564326412761
 42
0.07333214780387673
  0
VERTEX
  8
0
  6
CONTINUOUS
 62
     7
 10
126.9713059853765
 20
-38.22477311221455
 42
0.07333214780387673
  0
VERTEX
  8
0
  6
CONTINUOUS
 62
     7
 10
126.6839617327103
 20
-38.36669066285737
 42
0.07333214780387673
  0
VERTEX
  8
0
  6
CONTINUOUS
 62
     7
 10
126.4687162213667
 20
-38.55931537218397
 42
0.07333214780387673
  0
VERTEX
  8
0
  6
CONTINUOUS
 62
     7
 10
126.343891940927
 20
-38.78625031647821
 42
0.07333214780387673
  0
VERTEX
  8
0
  6
CONTINUOUS
 62
     7
 10
126.320114393236
 20
-39.02817795863324
 42
0.07333214780387673
  0
VERTEX
  8
0
  6
CONTINUOUS
 62
     7
 10
126.399407610605
 20
-39.26450452795834
 42
0.07333214780387673
  0
VERTEX
  8
0
  6
CONTINUOUS
 62
     7
 10
126.5750218627375
 20
-39.47511303768236
 42
0.07333214780387673
  0
VERTEX
  8
0
  6
CONTINUOUS
 62
     7
 10
126.8320082185968
 20
-39.64207571685637
 42
0.07333214780387673
  0
VERTEX
  8
0
  6
CONTINUOUS
 62
     7
 10
127.148491054397
 20
-39.75118008815372
 42
0.07333214780387673
  0
VERTEX
  8
0
  6
CONTINUOUS
 62
     7
 10
127.4975301871561
 20
-39.79313878621247
 42
-1
  0
SEQEND
  8
0
  0
POLYLINE
  8
0
  6
CONTINUOUS
 62
     7
 66
     1
 10
0
 20
0
  0
VERTEX
  8
0
  6
CONTINUOUS
 62
     7
 10
129.7045308895442
 20
-38.96237850280341
 42
0.07332668712448476
  0
VERTEX
  8
0
  6
CONTINUOUS
 62
     7
 10
129.612032969524
 20
-38.46051150712357
 42
0.07332668712448476
  0
VERTEX
  8
0
  6
CONTINUOUS
 62
     7
 10
129.3424117032424
 20
-38.00135896893029
 42
0.07332668712448476
  0
VERTEX
  8
0
  6
CONTINUOUS
 62
     7
 10
128.9186148631012
 20
-37.62399988258281
 42
0.07332668712448476
  0
VERTEX
  8
0
  6
CONTINUOUS
 62
     7
 10
128.3767122798161
 20
-37.36055170879428
 42
0.07332668712448476
  0
VERTEX
  8
0
  6
CONTINUOUS
 62
     7
 10
127.7628258981307
 20
-37.23343682104856
 42
0.07332668712448476
  0
VERTEX
  8
0
  6
CONTINUOUS
 62
     7
 10
127.1292042856813
 20
-37.25347411190961
 42
0.07332668712448476
  0
VERTEX
  8
0
  6
CONTINUOUS
 62
     7
 10
126.5297756980235
 20
-37.41895818477958
 42
0.07332668712448476
  0
VERTEX
  8
0
  6
CONTINUOUS
 62
     7
 10
126.0155581835123
 20
-37.71580450214142
 42
0.07332668712448476
  0
VERTEX
  8
0
  6
CONTINUOUS
 62
     7
 10
125.6303173792234
 20
-38.1187481365543
 42
0.07332668712448476
  0
VERTEX
  8
0
  6
CONTINUOUS
 62
     7
 10
125.4068415678419
 20
-38.59349409734198
 42
0.07332668712448476
  0
VERTEX
  8
0
  6
CONTINUOUS
 62
     7
 10
125.3641510296577
 20
-39.09963621622608
 42
0.07332668712448476
  0
VERTEX
  8
0
  6
CONTINUOUS
 62
     7
 10
125.5058792048943
 20
-39.59409616223044
 42
0.07332668712448476
  0
VERTEX
  8
0
  6
CONTINUOUS
 62
     7
 10
125.8199634474811
 20
-40.03478988738966
 42
0.07332668712448476
  0
VERTEX
  8
0
  6
CONTINUOUS
 62
     7
 10
126.2796716905702
 20
-40.38420944790057
 42
0.07332668712448476
  0
VERTEX
  8
0
  6
CONTINUOUS
 62
     7
 10
126.845877643127
 20
-40.61261534784763
 42
0.07332668712448476
  0
VERTEX
  8
0
  6
CONTINUOUS
 62
     7
 10
127.4703908730283
 20
-40.70056770149969
 42
-1
  0
SEQEND
  8
0
  0
POLYLINE
  8
0
  6
CONTINUOUS
 62
     7
 66
     1
 10
0
 20
0
  0
VERTEX
  8
0
  6
CONTINUOUS
 62
     7
 10
125.5794431038269
 20
-41.56280401325437
 42
0.07459289906077718
  0
VERTEX
  8
0
  6
CONTINUOUS
 62
     7
 10
125.6078879321264
 20
-41.85803228278331
 42
0.07459289906077718
  0
VERTEX
  8
0
  6
CONTINUOUS
 62
     7
 10
125.757252271531
 20
-42.13434552715256
 42
0.07459289906077718
  0
VERTEX
  8
0
  6
CONTINUOUS
 62
     7
 10
126.0143856192655
 20
-42.36741626564386
 42
0.07459289906077718
  0
VERTEX
  8
0
  6
CONTINUOUS
 62
     7
 10
126.3566491525935
 20
-42.53672422276491
 42
0.07459289906077718
  0
VERTEX
  8
0
  6
CONTINUOUS
 62
     7
 10
126.7539089214519
 20
-42.62736299737047
 42
0.07459289906077718
  0
VERTEX
  8
0
  6
CONTINUOUS
 62
     7
 10
127.1711889354964
 20
-42.63135246875886
 42
0.07459289906077718
  0
VERTEX
  8
0
  6
CONTINUOUS
 62
     7
 10
127.5717505594911
 20
-42.54834139141342
 42
0.07459289906077718
  0
VERTEX
  8
0
  6
CONTINUOUS
 62
     7
 10
127.9203270974566
 20
-42.38563831975445
 42
0.07459289906077718
  0
VERTEX
  8
0
  6
CONTINUOUS
 62
     7
 10
128.1862287826917
 20
-42.15756814018983
 42
0.07459289906077718
  0
VERTEX
  8
0
  6
CONTINUOUS
 62
     7
 10
128.3460448006504
 20
-41.88421086339161
 42
0.07459289906077718
  0
VERTEX
  8
0
  6
CONTINUOUS
 62
     7
 10
128.3857044501464
 20
-41.58963371746418
 42
0.07459289906077718
  0
VERTEX
  8
0
  6
CONTINUOUS
 62
     7
 10
128.3017159718158
 20
-41.29977219404111
 42
0.07459289906077718
  0
VERTEX
  8
0
  6
CONTINUOUS
 62
     7
 10
128.101473973513
 20
-41.04014660662794
 42
0.07459289906077718
  0
VERTEX
  8
0
  6
CONTINUOUS
 62
     7
 10
127.802608385949
 20
-40.83361520252357
 42
0.07459289906077718
  0
VERTEX
  8
0
  6
CONTINUOUS
 62
     7
 10
127.431432268548
 20
-40.69836165136182
 42
0.07459289906077718
  0
VERTEX
  8
0
  6
CONTINUOUS
 62
     7
 10
127.0206251255435
 20
-40.64629409806522
 42
-1
  0
SEQEND
  8
0
  0
POLYLINE
  8
0
  6
CONTINUOUS
 62
     7
 66
     1
 10
0
 20
0
  0
VERTEX
  8
0
  6
CONTINUOUS
 62
     7
 10
124.5566504956038
 20
-41.55215466336991
 42
0.07398282385211347
  0
VERTEX
  8
0
  6
CONTINUOUS
 62
     7
 10
124.6324267503309
 20
-42.10595840623217
 42
0.07398282385211347
  0
VERTEX
  8
0
  6
CONTINUOUS
 62
     7
 10
124.911894115152
 20
-42.61859235082905
 42
0.07398282385211347
  0
VERTEX
  8
0
  6
CONTINUOUS
 62
     7
 10
125.3708438789218
 20
-43.04564985563385
 42
0.07398282385211347
  0
VERTEX
  8
0
  6
CONTINUOUS
 62
     7
 10
125.9695197635918
 20
-43.35013729248943
 42
0.07398282385211347
  0
VERTEX
  8
0
  6
CONTINUOUS
 62
     7
 10
126.6560617905526
 20
-43.50567859987987
 42
0.07398282385211347
  0
VERTEX
  8
0
  6
CONTINUOUS
 62
     7
 10
127.37099862357
 20
-43.49880009516537
 42
0.07398282385211347
  0
VERTEX
  8
0
  6
CONTINUOUS
 62
     7
 10
128.0523992415075
 20
-43.33009762514134
 42
0.07398282385211347
  0
VERTEX
  8
0
  6
CONTINUOUS
 62
     7
 10
128.6412376799402
 20
-43.01418495112807
 42
0.07398282385211347
  0
VERTEX
  8
0
  6
CONTINUOUS
 62
     7
 10
129.0865061237824
 20
-42.57842783970524
 42
0.07398282385211347
  0
VERTEX
  8
0
  6
CONTINUOUS
 62
     7
 10
129.3496334320138
 20
-42.06057351780467
 42
0.07398282385211347
  0
VERTEX
  8
0
  6
CONTINUOUS
 62
     7
 10
129.4078263421599
 20
-41.50548083934752
 42
0.07398282385211347
  0
VERTEX
  8
0
  6
CONTINUOUS
 62
     7
 10
129.2560439244744
 20
-40.96123441099347
 42
0.07398282385211347
  0
VERTEX
  8
0
  6
CONTINUOUS
 62
     7
 10
128.9074342497851
 20
-40.47497928878267
 42
0.07398282385211347
  0
VERTEX
  8
0
  6
CONTINUOUS
 62
     7
 10
128.3921954448837
 20
-40.08883706284805
 42
0.07398282385211347
  0
VERTEX
  8
0
  6
CONTINUOUS
 62
     7
 10
127.7549597959287
 20
-39.83625709717757
 42
0.07398282385211347
  0
VERTEX
  8
0
  6
CONTINUOUS
 62
     7
 10
127.0509275005065
 20
-39.73911899633228
 42
-1
  0
SEQEND
  8
0
  0
LINE
  8
0
  6
CONTINUOUS
 62
     7
 10
145.7945756115854
 20
-41.11018635466831
 11
146.8071706948281
 21
-41.28873419863362
  0
LINE
  8
0
  6
CONTINUOUS
 62
     7
 10
149.9093566993082
 20
-39.17330002118542
 11
150.853721324202
 21
-39.3398169937466
  0
POLYLINE
  8
0
  6
CONTINUOUS
 62
     7
 66
     1
 10
0
 20
0
  0
VERTEX
  8
0
  6
CONTINUOUS
 62
     7
 10
149.9278110590276
 20
-38.96237872430964
 42
0.07333214780387673
  0
VERTEX
  8
0
  6
CONTINUOUS
 62
     7
 10
149.8761133891213
 20
-38.72249859591422
 42
0.07333214780387673
  0
VERTEX
  8
0
  6
CONTINUOUS
 62
     7
 10
149.7254210752046
 20
-38.5030379463077
 42
0.07333214780387673
  0
VERTEX
  8
0
  6
CONTINUOUS
 62
     7
 10
149.4885616012724
 20
-38.32267807314328
 42
0.07333214780387673
  0
VERTEX
  8
0
  6
CONTINUOUS
 62
     7
 10
149.1856973168959
 20
-38.19677187217388
 42
0.07333214780387673
  0
VERTEX
  8
0
  6
CONTINUOUS
 62
     7
 10
148.842609143872
 20
-38.13603694229894
 42
0.07333214780387673
  0
VERTEX
  8
0
  6
CONTINUOUS
 62
     7
 10
148.488502009339
 20
-38.14564326412761
 42
0.07333214780387673
  0
VERTEX
  8
0
  6
CONTINUOUS
 62
     7
 10
148.1535188149663
 20
-38.22477311221455
 42
0.07333214780387673
  0
VERTEX
  8
0
  6
CONTINUOUS
 62
     7
 10
147.8661745623001
 20
-38.36669066285737
 42
0.07333214780387673
  0
VERTEX
  8
0
  6
CONTINUOUS
 62
     7
 10
147.6509290509565
 20
-38.55931537218397
 42
0.07333214780387673
  0
VERTEX
  8
0
  6
CONTINUOUS
 62
     7
 10
147.5261047705169
 20
-38.78625031647821
 42
0.07333214780387673
  0
VERTEX
  8
0
  6
CONTINUOUS
 62
     7
 10
147.5023272228258
 20
-39.02817795863324
 42
0.07333214780387673
  0
VERTEX
  8
0
  6
CONTINUOUS
 62
     7
 10
147.5816204401949
 20
-39.26450452795834
 42
0.07333214780387673
  0
VERTEX
  8
0
  6
CONTINUOUS
 62
     7
 10
147.7572346923274
 20
-39.47511303768236
 42
0.07333214780387673
  0
VERTEX
  8
0
  6
CONTINUOUS
 62
     7
 10
148.0142210481867
 20
-39.64207571685637
 42
0.07333214780387673
  0
VERTEX
  8
0
  6
CONTINUOUS
 62
     7
 10
148.3307038839868
 20
-39.75118008815372
 42
0.07333214780387673
  0
VERTEX
  8
0
  6
CONTINUOUS
 62
     7
 10
148.679743016746
 20
-39.79313878621247
 42
-1
  0
SEQEND
  8
0
  0
POLYLINE
  8
0
  6
CONTINUOUS
 62
     7
 66
     1
 10
0
 20
0
  0
VERTEX
  8
0
  6
CONTINUOUS
 62
     7
 10
150.8867437191341
 20
-38.96237850280341
 42
0.07332668712448476
  0
VERTEX
  8
0
  6
CONTINUOUS
 62
     7
 10
150.7942457991138
 20
-38.46051150712357
 42
0.07332668712448476
  0
VERTEX
  8
0
  6
CONTINUOUS
 62
     7
 10
150.5246245328322
 20
-38.00135896893029
 42
0.07332668712448476
  0
VERTEX
  8
0
  6
CONTINUOUS
 62
     7
 10
150.100827692691
 20
-37.62399988258281
 42
0.07332668712448476
  0
VERTEX
  8
0
  6
CONTINUOUS
 62
     7
 10
149.5589251094059
 20
-37.36055170879428
 42
0.07332668712448476
  0
VERTEX
  8
0
  6
CONTINUOUS
 62
     7
 10
148.9450387277206
 20
-37.23343682104856
 42
0.07332668712448476
  0
VERTEX
  8
0
  6
CONTINUOUS
 62
     7
 10
148.3114171152711
 20
-37.25347411190961
 42
0.07332668712448476
  0
VERTEX
  8
0
  6
CONTINUOUS
 62
     7
 10
147.7119885276133
 20
-37.41895818477958
 42
0.07332668712448476
  0
VERTEX
  8
0
  6
CONTINUOUS
 62
     7
 10
147.1977710131021
 20
-37.71580450214143
 42
0.07332668712448476
  0
VERTEX
  8
0
  6
CONTINUOUS
 62
     7
 10
146.8125302088133
 20
-38.1187481365543
 42
0.07332668712448476
  0
VERTEX
  8
0
  6
CONTINUOUS
 62
     7
 10
146.5890543974317
 20
-38.59349409734198
 42
0.07332668712448476
  0
VERTEX
  8
0
  6
CONTINUOUS
 62
     7
 10
146.5463638592476
 20
-39.09963621622608
 42
0.07332668712448476
  0
VERTEX
  8
0
  6
CONTINUOUS
 62
     7
 10
146.6880920344842
 20
-39.59409616223044
 42
0.07332668712448476
  0
VERTEX
  8
0
  6
CONTINUOUS
 62
     7
 10
147.002176277071
 20
-40.03478988738966
 42
0.07332668712448476
  0
VERTEX
  8
0
  6
CONTINUOUS
 62
     7
 10
147.46188452016
 20
-40.38420944790057
 42
0.07332668712448476
  0
VERTEX
  8
0
  6
CONTINUOUS
 62
     7
 10
148.0280904727169
 20
-40.61261534784763
 42
0.07332668712448476
  0
VERTEX
  8
0
  6
CONTINUOUS
 62
     7
 10
148.6526037026181
 20
-40.70056770149969
 42
-1
  0
SEQEND
  8
0
  0
POLYLINE
  8
0
  6
CONTINUOUS
 62
     7
 66
     1
 10
0
 20
0
  0
VERTEX
  8
0
  6
CONTINUOUS
 62
     7
 10
146.7616559334167
 20
-41.56280401325437
 42
0.07459289906077718
  0
VERTEX
  8
0
  6
CONTINUOUS
 62
     7
 10
146.7901007617163
 20
-41.85803228278331
 42
0.07459289906077718
  0
VERTEX
  8
0
  6
CONTINUOUS
 62
     7
 10
146.9394651011208
 20
-42.13434552715256
 42
0.07459289906077718
  0
VERTEX
  8
0
  6
CONTINUOUS
 62
     7
 10
147.1965984488554
 20
-42.36741626564386
 42
0.07459289906077718
  0
VERTEX
  8
0
  6
CONTINUOUS
 62
     7
 10
147.5388619821834
 20
-42.53672422276491
 42
0.07459289906077718
  0
VERTEX
  8
0
  6
CONTINUOUS
 62
     7
 10
147.9361217510417
 20
-42.62736299737047
 42
0.07459289906077718
  0
VERTEX
  8
0
  6
CONTINUOUS
 62
     7
 10
148.3534017650863
 20
-42.63135246875886
 42
0.07459289906077718
  0
VERTEX
  8
0
  6
CONTINUOUS
 62
     7
 10
148.7539633890809
 20
-42.54834139141342
 42
0.07459289906077718
  0
VERTEX
  8
0
  6
CONTINUOUS
 62
     7
 10
149.1025399270464
 20
-42.38563831975445
 42
0.07459289906077718
  0
VERTEX
  8
0
  6
CONTINUOUS
 62
     7
 10
149.3684416122815
 20
-42.15756814018983
 42
0.07459289906077718
  0
VERTEX
  8
0
  6
CONTINUOUS
 62
     7
 10
149.5282576302403
 20
-41.88421086339161
 42
0.07459289906077718
  0
VERTEX
  8
0
  6
CONTINUOUS
 62
     7
 10
149.5679172797363
 20
-41.58963371746418
 42
0.07459289906077718
  0
VERTEX
  8
0
  6
CONTINUOUS
 62
     7
 10
149.4839288014056
 20
-41.29977219404111
 42
0.07459289906077718
  0
VERTEX
  8
0
  6
CONTINUOUS
 62
     7
 10
149.2836868031029
 20
-41.04014660662794
 42
0.07459289906077718
  0
VERTEX
  8
0
  6
CONTINUOUS
 62
     7
 10
148.9848212155389
 20
-40.83361520252357
 42
0.07459289906077718
  0
VERTEX
  8
0
  6
CONTINUOUS
 62
     7
 10
148.6136450981378
 20
-40.69836165136182
 42
0.07459289906077718
  0
VERTEX
  8
0
  6
CONTINUOUS
 62
     7
 10
148.2028379551333
 20
-40.64629409806522
 42
-1
  0
SEQEND
  8
0
  0
POLYLINE
  8
0
  6
CONTINUOUS
 62
     7
 66
     1
 10
0
 20
0
  0
VERTEX
  8
0
  6
CONTINUOUS
 62
     7
 10
145.7388633251936
 20
-41.55215466336991
 42
0.07398282385211347
  0
VERTEX
  8
0
  6
CONTINUOUS
 62
     7
 10
145.8146395799207
 20
-42.10595840623217
 42
0.07398282385211347
  0
VERTEX
  8
0
  6
CONTINUOUS
 62
     7
 10
146.0941069447418
 20
-42.61859235082905
 42
0.07398282385211347
  0
VERTEX
  8
0
  6
CONTINUOUS
 62
     7
 10
146.5530567085116
 20
-43.04564985563385
 42
0.07398282385211347
  0
VERTEX
  8
0
  6
CONTINUOUS
 62
     7
 10
147.1517325931816
 20
-43.35013729248943
 42
0.07398282385211347
  0
VERTEX
  8
0
  6
CONTINUOUS
 62
     7
 10
147.8382746201424
 20
-43.50567859987987
 42
0.07398282385211347
  0
VERTEX
  8
0
  6
CONTINUOUS
 62
     7
 10
148.5532114531598
 20
-43.49880009516537
 42
0.07398282385211347
  0
VERTEX
  8
0
  6
CONTINUOUS
 62
     7
 10
149.2346120710973
 20
-43.33009762514134
 42
0.07398282385211347
  0
VERTEX
  8
0
  6
CONTINUOUS
 62
     7
 10
149.82345050953
 20
-43.01418495112807
 42
0.07398282385211347
  0
VERTEX
  8
0
  6
CONTINUOUS
 62
     7
 10
150.2687189533722
 20
-42.57842783970524
 42
0.07398282385211347
  0
VERTEX
  8
0
  6
CONTINUOUS
 62
     7
 10
150.5318462616036
 20
-42.06057351780468
 42
0.07398282385211347
  0
VERTEX
  8
0
  6
CONTINUOUS
 62
     7
 10
150.5900391717497
 20
-41.50548083934752
 42
0.07398282385211347
  0
VERTEX
  8
0
  6
CONTINUOUS
 62
     7
 10
150.4382567540643
 20
-40.96123441099347
 42
0.07398282385211347
  0
VERTEX
  8
0
  6
CONTINUOUS
 62
     7
 10
150.089647079375
 20
-40.47497928878267
 42
0.07398282385211347
  0
VERTEX
  8
0
  6
CONTINUOUS
 62
     7
 10
149.5744082744735
 20
-40.08883706284805
 42
0.07398282385211347
  0
VERTEX
  8
0
  6
CONTINUOUS
 62
     7
 10
148.9371726255185
 20
-39.83625709717757
 42
0.07398282385211347
  0
VERTEX
  8
0
  6
CONTINUOUS
 62
     7
 10
148.2331403300964
 20
-39.73911899633228
 42
-1
  0
SEQEND
  8
0
  0
LINE
  8
0
  6
CONTINUOUS
 62
     7
 10
396.9538315930307
 20
-41.11018635466831
 11
397.9664266762734
 21
-41.28873419863362
  0
LINE
  8
0
  6
CONTINUOUS
 62
     7
 10
401.0686126807535
 20
-39.17330002118542
 11
402.0129773056473
 21
-39.3398169937466
  0
POLYLINE
  8
0
  6
CONTINUOUS
 62
     7
 66
     1
 10
0
 20
0
  0
VERTEX
  8
0
  6
CONTINUOUS
 62
     7
 10
401.0870670404729
 20
-38.96237872430964
 42
0.07333214780387673
  0
VERTEX
  8
0
  6
CONTINUOUS
 62
     7
 10
401.0353693705666
 20
-38.72249859591422
 42
0.07333214780387673
  0
VERTEX
  8
0
  6
CONTINUOUS
 62
     7
 10
400.8846770566499
 20
-38.5030379463077
 42
0.07333214780387673
  0
VERTEX
  8
0
  6
CONTINUOUS
 62
     7
 10
400.6478175827177
 20
-38.32267807314328
 42
0.07333214780387673
  0
VERTEX
  8
0
  6
CONTINUOUS
 62
     7
 10
400.3449532983412
 20
-38.19677187217388
 42
0.07333214780387673
  0
VERTEX
  8
0
  6
CONTINUOUS
 62
     7
 10
400.0018651253172
 20
-38.13603694229894
 42
0.07333214780387673
  0
VERTEX
  8
0
  6
CONTINUOUS
 62
     7
 10
399.6477579907843
 20
-38.14564326412761
 42
0.07333214780387673
  0
VERTEX
  8
0
  6
CONTINUOUS
 62
     7
 10
399.3127747964116
 20
-38.22477311221455
 42
0.07333214780387673
  0
VERTEX
  8
0
  6
CONTINUOUS
 62
     7
 10
399.0254305437454
 20
-38.36669066285737
 42
0.07333214780387673
  0
VERTEX
  8
0
  6
CONTINUOUS
 62
     7
 10
398.8101850324018
 20
-38.55931537218397
 42
0.07333214780387673
  0
VERTEX
  8
0
  6
CONTINUOUS
 62
     7
 10
398.6853607519622
 20
-38.78625031647821
 42
0.07333214780387673
  0
VERTEX
  8
0
  6
CONTINUOUS
 62
     7
 10
398.6615832042712
 20
-39.02817795863324
 42
0.07333214780387673
  0
VERTEX
  8
0
  6
CONTINUOUS
 62
     7
 10
398.7408764216402
 20
-39.26450452795834
 42
0.07333214780387673
  0
VERTEX
  8
0
  6
CONTINUOUS
 62
     7
 10
398.9164906737727
 20
-39.47511303768236
 42
0.07333214780387673
  0
VERTEX
  8
0
  6
CONTINUOUS
 62
     7
 10
399.173477029632
 20
-39.64207571685637
 42
0.07333214780387673
  0
VERTEX
  8
0
  6
CONTINUOUS
 62
     7
 10
399.4899598654321
 20
-39.75118008815372
 42
0.07333214780387673
  0
VERTEX
  8
0
  6
CONTINUOUS
 62
     7
 10
399.8389989981913
 20
-39.79313878621247
 42
-1
  0
SEQEND
  8
0
  0
POLYLINE
  8
0
  6
CONTINUOUS
 62
     7
 66
     1
 10
0
 20
0
  0
VERTEX
  8
0
  6
CONTINUOUS
 62
     7
 10
402.0459997005794
 20
-38.96237850280341
 42
0.07332668712448476
  0
VERTEX
  8
0
  6
CONTINUOUS
 62
     7
 10
401.9535017805591
 20
-38.46051150712356
 42
0.07332668712448476
  0
VERTEX
  8
0
  6
CONTINUOUS
 62
     7
 10
401.6838805142775
 20
-38.00135896893029
 42
0.07332668712448476
  0
VERTEX
  8
0
  6
CONTINUOUS
 62
     7
 10
401.2600836741363
 20
-37.62399988258281
 42
0.07332668712448476
  0
VERTEX
  8
0
  6
CONTINUOUS
 62
     7
 10
400.7181810908512
 20
-37.36055170879428
 42
0.07332668712448476
  0
VERTEX
  8
0
  6
CONTINUOUS
 62
     7
 10
400.1042947091659
 20
-37.23343682104856
 42
0.07332668712448476
  0
VERTEX
  8
0
  6
CONTINUOUS
 62
     7
 10
399.4706730967164
 20
-37.2534741119096
 42
0.07332668712448476
  0
VERTEX
  8
0
  6
CONTINUOUS
 62
     7
 10
398.8712445090586
 20
-37.41895818477958
 42
0.07332668712448476
  0
VERTEX
  8
0
  6
CONTINUOUS
 62
     7
 10
398.3570269945474
 20
-37.71580450214142
 42
0.07332668712448476
  0
VERTEX
  8
0
  6
CONTINUOUS
 62
     7
 10
397.9717861902586
 20
-38.1187481365543
 42
0.07332668712448476
  0
VERTEX
  8
0
  6
CONTINUOUS
 62
     7
 10
397.748310378877
 20
-38.59349409734198
 42
0.07332668712448476
  0
VERTEX
  8
0
  6
CONTINUOUS
 62
     7
 10
397.7056198406929
 20
-39.09963621622608
 42
0.07332668712448476
  0
VERTEX
  8
0
  6
CONTINUOUS
 62
     7
 10
397.8473480159295
 20
-39.59409616223044
 42
0.07332668712448476
  0
VERTEX
  8
0
  6
CONTINUOUS
 62
     7
 10
398.1614322585162
 20
-40.03478988738966
 42
0.07332668712448476
  0
VERTEX
  8
0
  6
CONTINUOUS
 62
     7
 10
398.6211405016053
 20
-40.38420944790057
 42
0.07332668712448476
  0
VERTEX
  8
0
  6
CONTINUOUS
 62
     7
 10
399.1873464541622
 20
-40.61261534784763
 42
0.07332668712448476
  0
VERTEX
  8
0
  6
CONTINUOUS
 62
     7
 10
399.8118596840634
 20
-40.70056770149969
 42
-1
  0
SEQEND
  8
0
  0
POLYLINE
  8
0
  6
CONTINUOUS
 62
     7
 66
     1
 10
0
 20
0
  0
VERTEX
  8
0
  6
CONTINUOUS
 62
     7
 10
397.920911914862
 20
-41.56280401325437
 42
0.07459289906077718
  0
VERTEX
  8
0
  6
CONTINUOUS
 62
     7
 10
397.9493567431615
 20
-41.85803228278331
 42
0.07459289906077718
  0
VERTEX
  8
0
  6
CONTINUOUS
 62
     7
 10
398.098721082566
 20
-42.13434552715256
 42
0.07459289906077718
  0
VERTEX
  8
0
  6
CONTINUOUS
 62
     7
 10
398.3558544303006
 20
-42.36741626564386
 42
0.07459289906077718
  0
VERTEX
  8
0
  6
CONTINUOUS
 62
     7
 10
398.6981179636287
 20
-42.53672422276491
 42
0.07459289906077718
  0
VERTEX
  8
0
  6
CONTINUOUS
 62
     7
 10
399.095377732487
 20
-42.62736299737047
 42
0.07459289906077718
  0
VERTEX
  8
0
  6
CONTINUOUS
 62
     7
 10
399.5126577465315
 20
-42.63135246875886
 42
0.07459289906077718
  0
VERTEX
  8
0
  6
CONTINUOUS
 62
     7
 10
399.9132193705262
 20
-42.54834139141342
 42
0.07459289906077718
  0
VERTEX
  8
0
  6
CONTINUOUS
 62
     7
 10
400.2617959084918
 20
-42.38563831975445
 42
0.07459289906077718
  0
VERTEX
  8
0
  6
CONTINUOUS
 62
     7
 10
400.5276975937268
 20
-42.15756814018983
 42
0.07459289906077718
  0
VERTEX
  8
0
  6
CONTINUOUS
 62
     7
 10
400.6875136116856
 20
-41.88421086339161
 42
0.07459289906077718
  0
VERTEX
  8
0
  6
CONTINUOUS
 62
     7
 10
400.7271732611816
 20
-41.58963371746418
 42
0.07459289906077718
  0
VERTEX
  8
0
  6
CONTINUOUS
 62
     7
 10
400.6431847828509
 20
-41.29977219404111
 42
0.07459289906077718
  0
VERTEX
  8
0
  6
CONTINUOUS
 62
     7
 10
400.4429427845482
 20
-41.04014660662794
 42
0.07459289906077718
  0
VERTEX
  8
0
  6
CONTINUOUS
 62
     7
 10
400.1440771969841
 20
-40.83361520252357
 42
0.07459289906077718
  0
VERTEX
  8
0
  6
CONTINUOUS
 62
     7
 10
399.7729010795831
 20
-40.69836165136182
 42
0.07459289906077718
  0
VERTEX
  8
0
  6
CONTINUOUS
 62
     7
 10
399.3620939365786
 20
-40.64629409806522
 42
-1
  0
SEQEND
  8
0
  0
POLYLINE
  8
0
  6
CONTINUOUS
 62
     7
 66
     1
 10
0
 20
0
  0
VERTEX
  8
0
  6
CONTINUOUS
 62
     7
 10
396.898119306639
 20
-41.55215466336991
 42
0.07398282385211347
  0
VERTEX
  8
0
  6
CONTINUOUS
 62
     7
 10
396.9738955613661
 20
-42.10595840623217
 42
0.07398282385211347
  0
VERTEX
  8
0
  6
CONTINUOUS
 62
     7
 10
397.2533629261872
 20
-42.61859235082905
 42
0.07398282385211347
  0
VERTEX
  8
0
  6
CONTINUOUS
 62
     7
 10
397.712312689957
 20
-43.04564985563385
 42
0.07398282385211347
  0
VERTEX
  8
0
  6
CONTINUOUS
 62
     7
 10
398.310988574627
 20
-43.35013729248943
 42
0.07398282385211347
  0
VERTEX
  8
0
  6
CONTINUOUS
 62
     7
 10
398.9975306015878
 20
-43.50567859987987
 42
0.07398282385211347
  0
VERTEX
  8
0
  6
CONTINUOUS
 62
     7
 10
399.7124674346052
 20
-43.49880009516537
 42
0.07398282385211347
  0
VERTEX
  8
0
  6
CONTINUOUS
 62
     7
 10
400.3938680525426
 20
-43.33009762514134
 42
0.07398282385211347
  0
VERTEX
  8
0
  6
CONTINUOUS
 62
     7
 10
400.9827064909753
 20
-43.01418495112807
 42
0.07398282385211347
  0
VERTEX
  8
0
  6
CONTINUOUS
 62
     7
 10
401.4279749348175
 20
-42.57842783970524
 42
0.07398282385211347
  0
VERTEX
  8
0
  6
CONTINUOUS
 62
     7
 10
401.6911022430489
 20
-42.06057351780467
 42
0.07398282385211347
  0
VERTEX
  8
0
  6
CONTINUOUS
 62
     7
 10
401.749295153195
 20
-41.50548083934752
 42
0.07398282385211347
  0
VERTEX
  8
0
  6
CONTINUOUS
 62
     7
 10
401.5975127355096
 20
-40.96123441099347
 42
0.07398282385211347
  0
VERTEX
  8
0
  6
CONTINUOUS
 62
     7
 10
401.2489030608203
 20
-40.47497928878267
 42
0.07398282385211347
  0
VERTEX
  8
0
  6
CONTINUOUS
 62
     7
 10
400.7336642559188
 20
-40.08883706284806
 42
0.07398282385211347
  0
VERTEX
  8
0
  6
CONTINUOUS
 62
     7
 10
400.0964286069639
 20
-39.83625709717757
 42
0.07398282385211347
  0
VERTEX
  8
0
  6
CONTINUOUS
 62
     7
 10
399.3923963115417
 20
-39.73911899633228
 42
-1
  0
SEQEND
  8
0
  0
LINE
  8
0
  6
CONTINUOUS
 62
     7
 10
418.1360520520151
 20
-41.11018635466831
 11
419.1486471352578
 21
-41.28873419863362
  0
LINE
  8
0
  6
CONTINUOUS
 62
     7
 10
422.2508331397379
 20
-39.17330002118542
 11
423.1951977646317
 21
-39.3398169937466
  0
POLYLINE
  8
0
  6
CONTINUOUS
 62
     7
 66
     1
 10
0
 20
0
  0
VERTEX
  8
0
  6
CONTINUOUS
 62
     7
 10
422.2692874994573
 20
-38.96237872430964
 42
0.07333214780387673
  0
VERTEX
  8
0
  6
CONTINUOUS
 62
     7
 10
422.217589829551
 20
-38.72249859591422
 42
0.07333214780387673
  0
VERTEX
  8
0
  6
CONTINUOUS
 62
     7
 10
422.0668975156343
 20
-38.5030379463077
 42
0.07333214780387673
  0
VERTEX
  8
0
  6
CONTINUOUS
 62
     7
 10
421.830038041702
 20
-38.32267807314328
 42
0.07333214780387673
  0
VERTEX
  8
0
  6
CONTINUOUS
 62
     7
 10
421.5271737573256
 20
-38.19677187217388
 42
0.07333214780387673
  0
VERTEX
  8
0
  6
CONTINUOUS
 62
     7
 10
421.1840855843016
 20
-38.13603694229894
 42
0.07333214780387673
  0
VERTEX
  8
0
  6
CONTINUOUS
 62
     7
 10
420.8299784497687
 20
-38.14564326412761
 42
0.07333214780387673
  0
VERTEX
  8
0
  6
CONTINUOUS
 62
     7
 10
420.494995255396
 20
-38.22477311221455
 42
0.07333214780387673
  0
VERTEX
  8
0
  6
CONTINUOUS
 62
     7
 10
420.2076510027298
 20
-38.36669066285737
 42
0.07333214780387673
  0
VERTEX
  8
0
  6
CONTINUOUS
 62
     7
 10
419.9924054913862
 20
-38.55931537218397
 42
0.07333214780387673
  0
VERTEX
  8
0
  6
CONTINUOUS
 62
     7
 10
419.8675812109465
 20
-38.78625031647821
 42
0.07333214780387673
  0
VERTEX
  8
0
  6
CONTINUOUS
 62
     7
 10
419.8438036632555
 20
-39.02817795863324
 42
0.07333214780387673
  0
VERTEX
  8
0
  6
CONTINUOUS
 62
     7
 10
419.9230968806245
 20
-39.26450452795834
 42
0.07333214780387673
  0
VERTEX
  8
0
  6
CONTINUOUS
 62
     7
 10
420.0987111327571
 20
-39.47511303768236
 42
0.07333214780387673
  0
VERTEX
  8
0
  6
CONTINUOUS
 62
     7
 10
420.3556974886163
 20
-39.64207571685637
 42
0.07333214780387673
  0
VERTEX
  8
0
  6
CONTINUOUS
 62
     7
 10
420.6721803244165
 20
-39.75118008815372
 42
0.07333214780387673
  0
VERTEX
  8
0
  6
CONTINUOUS
 62
     7
 10
421.0212194571757
 20
-39.79313878621247
 42
-1
  0
SEQEND
  8
0
  0
POLYLINE
  8
0
  6
CONTINUOUS
 62
     7
 66
     1
 10
0
 20
0
  0
VERTEX
  8
0
  6
CONTINUOUS
 62
     7
 10
423.2282201595638
 20
-38.96237850280341
 42
0.07332668712448476
  0
VERTEX
  8
0
  6
CONTINUOUS
 62
     7
 10
423.1357222395435
 20
-38.46051150712356
 42
0.07332668712448476
  0
VERTEX
  8
0
  6
CONTINUOUS
 62
     7
 10
422.8661009732619
 20
-38.00135896893029
 42
0.07332668712448476
  0
VERTEX
  8
0
  6
CONTINUOUS
 62
     7
 10
422.4423041331207
 20
-37.62399988258281
 42
0.07332668712448476
  0
VERTEX
  8
0
  6
CONTINUOUS
 62
     7
 10
421.9004015498356
 20
-37.36055170879428
 42
0.07332668712448476
  0
VERTEX
  8
0
  6
CONTINUOUS
 62
     7
 10
421.2865151681502
 20
-37.23343682104856
 42
0.07332668712448476
  0
VERTEX
  8
0
  6
CONTINUOUS
 62
     7
 10
420.6528935557008
 20
-37.2534741119096
 42
0.07332668712448476
  0
VERTEX
  8
0
  6
CONTINUOUS
 62
     7
 10
420.053464968043
 20
-37.41895818477958
 42
0.07332668712448476
  0
VERTEX
  8
0
  6
CONTINUOUS
 62
     7
 10
419.5392474535318
 20
-37.71580450214142
 42
0.07332668712448476
  0
VERTEX
  8
0
  6
CONTINUOUS
 62
     7
 10
419.1540066492429
 20
-38.1187481365543
 42
0.07332668712448476
  0
VERTEX
  8
0
  6
CONTINUOUS
 62
     7
 10
418.9305308378614
 20
-38.59349409734198
 42
0.07332668712448476
  0
VERTEX
  8
0
  6
CONTINUOUS
 62
     7
 10
418.8878402996772
 20
-39.09963621622608
 42
0.07332668712448476
  0
VERTEX
  8
0
  6
CONTINUOUS
 62
     7
 10
419.0295684749138
 20
-39.59409616223044
 42
0.07332668712448476
  0
VERTEX
  8
0
  6
CONTINUOUS
 62
     7
 10
419.3436527175006
 20
-40.03478988738966
 42
0.07332668712448476
  0
VERTEX
  8
0
  6
CONTINUOUS
 62
     7
 10
419.8033609605897
 20
-40.38420944790057
 42
0.07332668712448476
  0
VERTEX
  8
0
  6
CONTINUOUS
 62
     7
 10
420.3695669131466
 20
-40.61261534784763
 42
0.07332668712448476
  0
VERTEX
  8
0
  6
CONTINUOUS
 62
     7
 10
420.9940801430478
 20
-40.70056770149969
 42
-1
  0
SEQEND
  8
0
  0
POLYLINE
  8
0
  6
CONTINUOUS
 62
     7
 66
     1
 10
0
 20
0
  0
VERTEX
  8
0
  6
CONTINUOUS
 62
     7
 10
419.1031323738463
 20
-41.56280401325437
 42
0.07459289906077718
  0
VERTEX
  8
0
  6
CONTINUOUS
 62
     7
 10
419.1315772021459
 20
-41.85803228278331
 42
0.07459289906077718
  0
VERTEX
  8
0
  6
CONTINUOUS
 62
     7
 10
419.2809415415504
 20
-42.13434552715256
 42
0.07459289906077718
  0
VERTEX
  8
0
  6
CONTINUOUS
 62
     7
 10
419.538074889285
 20
-42.36741626564386
 42
0.07459289906077718
  0
VERTEX
  8
0
  6
CONTINUOUS
 62
     7
 10
419.880338422613
 20
-42.53672422276491
 42
0.07459289906077718
  0
VERTEX
  8
0
  6
CONTINUOUS
 62
     7
 10
420.2775981914714
 20
-42.62736299737047
 42
0.07459289906077718
  0
VERTEX
  8
0
  6
CONTINUOUS
 62
     7
 10
420.6948782055159
 20
-42.63135246875886
 42
0.07459289906077718
  0
VERTEX
  8
0
  6
CONTINUOUS
 62
     7
 10
421.0954398295106
 20
-42.54834139141342
 42
0.07459289906077718
  0
VERTEX
  8
0
  6
CONTINUOUS
 62
     7
 10
421.4440163674761
 20
-42.38563831975445
 42
0.07459289906077718
  0
VERTEX
  8
0
  6
CONTINUOUS
 62
     7
 10
421.7099180527112
 20
-42.15756814018983
 42
0.07459289906077718
  0
VERTEX
  8
0
  6
CONTINUOUS
 62
     7
 10
421.86973407067
 20
-41.88421086339161
 42
0.07459289906077718
  0
VERTEX
  8
0
  6
CONTINUOUS
 62
     7
 10
421.909393720166
 20
-41.58963371746418
 42
0.07459289906077718
  0
VERTEX
  8
0
  6
CONTINUOUS
 62
     7
 10
421.8254052418353
 20
-41.29977219404111
 42
0.07459289906077718
  0
VERTEX
  8
0
  6
CONTINUOUS
 62
     7
 10
421.6251632435326
 20
-41.04014660662794
 42
0.07459289906077718
  0
VERTEX
  8
0
  6
CONTINUOUS
 62
     7
 10
421.3262976559685
 20
-40.83361520252357
 42
0.07459289906077718
  0
VERTEX
  8
0
  6
CONTINUOUS
 62
     7
 10
420.9551215385675
 20
-40.69836165136182
 42
0.07459289906077718
  0
VERTEX
  8
0
  6
CONTINUOUS
 62
     7
 10
420.5443143955629
 20
-40.64629409806522
 42
-1
  0
SEQEND
  8
0
  0
POLYLINE
  8
0
  6
CONTINUOUS
 62
     7
 66
     1
 10
0
 20
0
  0
VERTEX
  8
0
  6
CONTINUOUS
 62
     7
 10
418.0803397656234
 20
-41.55215466336991
 42
0.07398282385211347
  0
VERTEX
  8
0
  6
CONTINUOUS
 62
     7
 10
418.1561160203505
 20
-42.10595840623217
 42
0.07398282385211347
  0
VERTEX
  8
0
  6
CONTINUOUS
 62
     7
 10
418.4355833851715
 20
-42.61859235082905
 42
0.07398282385211347
  0
VERTEX
  8
0
  6
CONTINUOUS
 62
     7
 10
418.8945331489413
 20
-43.04564985563385
 42
0.07398282385211347
  0
VERTEX
  8
0
  6
CONTINUOUS
 62
     7
 10
419.4932090336113
 20
-43.35013729248943
 42
0.07398282385211347
  0
VERTEX
  8
0
  6
CONTINUOUS
 62
     7
 10
420.1797510605722
 20
-43.50567859987987
 42
0.07398282385211347
  0
VERTEX
  8
0
  6
CONTINUOUS
 62
     7
 10
420.8946878935896
 20
-43.49880009516537
 42
0.07398282385211347
  0
VERTEX
  8
0
  6
CONTINUOUS
 62
     7
 10
421.576088511527
 20
-43.33009762514134
 42
0.07398282385211347
  0
VERTEX
  8
0
  6
CONTINUOUS
 62
     7
 10
422.1649269499597
 20
-43.01418495112807
 42
0.07398282385211347
  0
VERTEX
  8
0
  6
CONTINUOUS
 62
     7
 10
422.6101953938019
 20
-42.57842783970524
 42
0.07398282385211347
  0
VERTEX
  8
0
  6
CONTINUOUS
 62
     7
 10
422.8733227020333
 20
-42.06057351780467
 42
0.07398282385211347
  0
VERTEX
  8
0
  6
CONTINUOUS
 62
     7
 10
422.9315156121794
 20
-41.50548083934752
 42
0.07398282385211347
  0
VERTEX
  8
0
  6
CONTINUOUS
 62
     7
 10
422.779733194494
 20
-40.96123441099347
 42
0.07398282385211347
  0
VERTEX
  8
0
  6
CONTINUOUS
 62
     7
 10
422.4311235198047
 20
-40.47497928878267
 42
0.07398282385211347
  0
VERTEX
  8
0
  6
CONTINUOUS
 62
     7
 10
421.9158847149032
 20
-40.08883706284806
 42
0.07398282385211347
  0
VERTEX
  8
0
  6
CONTINUOUS
 62
     7
 10
421.2786490659482
 20
-39.83625709717757
 42
0.07398282385211347
  0
VERTEX
  8
0
  6
CONTINUOUS
 62
     7
 10
420.5746167705261
 20
-39.73911899633228
 42
-1
  0
SEQEND
  8
0
  0
LINE
  8
0
  6
CONTINUOUS
 62
     7
 10
-95.09167011595369
 20
-382.4905841512992
 11
-94.07907503271098
 21
-382.6691319952645
  0
LINE
  8
0
  6
CONTINUOUS
 62
     7
 10
-90.97688902823087
 20
-380.5536978178163
 11
-90.03252440333706
 21
-380.7202147903774
  0
POLYLINE
  8
0
  6
CONTINUOUS
 62
     7
 66
     1
 10
0
 20
0
  0
VERTEX
  8
0
  6
CONTINUOUS
 62
     7
 10
-90.95843466851147
 20
-380.3427765209405
 42
0.07333214780387673
  0
VERTEX
  8
0
  6
CONTINUOUS
 62
     7
 10
-91.01013233841782
 20
-380.1028963925451
 42
0.07333214780387673
  0
VERTEX
  8
0
  6
CONTINUOUS
 62
     7
 10
-91.1608246523345
 20
-379.8834357429386
 42
0.07333214780387673
  0
VERTEX
  8
0
  6
CONTINUOUS
 62
     7
 10
-91.39768412626671
 20
-379.7030758697741
 42
0.07333214780387673
  0
VERTEX
  8
0
  6
CONTINUOUS
 62
     7
 10
-91.70054841064314
 20
-379.5771696688047
 42
0.07333214780387673
  0
VERTEX
  8
0
  6
CONTINUOUS
 62
     7
 10
-92.04363658366712
 20
-379.5164347389298
 42
0.07333214780387673
  0
VERTEX
  8
0
  6
CONTINUOUS
 62
     7
 10
-92.39774371820003
 20
-379.5260410607585
 42
0.07333214780387673
  0
VERTEX
  8
0
  6
CONTINUOUS
 62
     7
 10
-92.73272691257276
 20
-379.6051709088454
 42
0.07333214780387673
  0
VERTEX
  8
0
  6
CONTINUOUS
 62
     7
 10
-93.02007116523896
 20
-379.7470884594882
 42
0.07333214780387673
  0
VERTEX
  8
0
  6
CONTINUOUS
 62
     7
 10
-93.23531667658254
 20
-379.9397131688148
 42
0.07333214780387673
  0
VERTEX
  8
0
  6
CONTINUOUS
 62
     7
 10
-93.36014095702221
 20
-380.1666481131091
 42
0.07333214780387673
  0
VERTEX
  8
0
  6
CONTINUOUS
 62
     7
 10
-93.38391850471321
 20
-380.4085757552641
 42
0.07333214780387673
  0
VERTEX
  8
0
  6
CONTINUOUS
 62
     7
 10
-93.30462528734419
 20
-380.6449023245892
 42
0.07333214780387673
  0
VERTEX
  8
0
  6
CONTINUOUS
 62
     7
 10
-93.1290110352117
 20
-380.8555108343132
 42
0.07333214780387673
  0
VERTEX
  8
0
  6
CONTINUOUS
 62
     7
 10
-92.87202467935239
 20
-381.0224735134872
 42
0.07333214780387673
  0
VERTEX
  8
0
  6
CONTINUOUS
 62
     7
 10
-92.55554184355225
 20
-381.1315778847846
 42
0.07333214780387673
  0
VERTEX
  8
0
  6
CONTINUOUS
 62
     7
 10
-92.20650271079309
 20
-381.1735365828433
 42
-1
  0
SEQEND
  8
0
  0
POLYLINE
  8
0
  6
CONTINUOUS
 62
     7
 66
     1
 10
0
 20
0
  0
VERTEX
  8
0
  6
CONTINUOUS
 62
     7
 10
-89.99950200840497
 20
-380.3427762994343
 42
0.07332668712448476
  0
VERTEX
  8
0
  6
CONTINUOUS
 62
     7
 10
-90.09199992842524
 20
-379.8409093037544
 42
0.07332668712448476
  0
VERTEX
  8
0
  6
CONTINUOUS
 62
     7
 10
-90.36162119470684
 20
-379.3817567655611
 42
0.07332668712448476
  0
VERTEX
  8
0
  6
CONTINUOUS
 62
     7
 10
-90.78541803484806
 20
-379.0043976792136
 42
0.07332668712448476
  0
VERTEX
  8
0
  6
CONTINUOUS
 62
     7
 10
-91.32732061813314
 20
-378.7409495054251
 42
0.07332668712448476
  0
VERTEX
  8
0
  6
CONTINUOUS
 62
     7
 10
-91.94120699981848
 20
-378.6138346176794
 42
0.07332668712448476
  0
VERTEX
  8
0
  6
CONTINUOUS
 62
     7
 10
-92.57482861226795
 20
-378.6338719085405
 42
0.07332668712448476
  0
VERTEX
  8
0
  6
CONTINUOUS
 62
     7
 10
-93.17425719992576
 20
-378.7993559814104
 42
0.07332668712448476
  0
VERTEX
  8
0
  6
CONTINUOUS
 62
     7
 10
-93.68847471443696
 20
-379.0962022987723
 42
0.07332668712448476
  0
VERTEX
  8
0
  6
CONTINUOUS
 62
     7
 10
-94.07371551872578
 20
-379.4991459331852
 42
0.07332668712448476
  0
VERTEX
  8
0
  6
CONTINUOUS
 62
     7
 10
-94.29719133010735
 20
-379.9738918939729
 42
0.07332668712448476
  0
VERTEX
  8
0
  6
CONTINUOUS
 62
     7
 10
-94.33988186829149
 20
-380.480034012857
 42
0.07332668712448476
  0
VERTEX
  8
0
  6
CONTINUOUS
 62
     7
 10
-94.19815369305491
 20
-380.9744939588613
 42
0.07332668712448476
  0
VERTEX
  8
0
  6
CONTINUOUS
 62
     7
 10
-93.88406945046812
 20
-381.4151876840205
 42
0.07332668712448476
  0
VERTEX
  8
0
  6
CONTINUOUS
 62
     7
 10
-93.42436120737906
 20
-381.7646072445314
 42
0.07332668712448476
  0
VERTEX
  8
0
  6
CONTINUOUS
 62
     7
 10
-92.85815525482218
 20
-381.9930131444785
 42
0.07332668712448476
  0
VERTEX
  8
0
  6
CONTINUOUS
 62
     7
 10
-92.23364202492094
 20
-382.0809654981305
 42
-1
  0
SEQEND
  8
0
  0
POLYLINE
  8
0
  6
CONTINUOUS
 62
     7
 66
     1
 10
0
 20
0
  0
VERTEX
  8
0
  6
CONTINUOUS
 62
     7
 10
-94.12458979412239
 20
-382.9432018098852
 42
0.07459289906077718
  0
VERTEX
  8
0
  6
CONTINUOUS
 62
     7
 10
-94.09614496582283
 20
-383.2384300794142
 42
0.07459289906077718
  0
VERTEX
  8
0
  6
CONTINUOUS
 62
     7
 10
-93.94678062641826
 20
-383.5147433237834
 42
0.07459289906077718
  0
VERTEX
  8
0
  6
CONTINUOUS
 62
     7
 10
-93.68964727868372
 20
-383.7478140622747
 42
0.07459289906077718
  0
VERTEX
  8
0
  6
CONTINUOUS
 62
     7
 10
-93.34738374535571
 20
-383.9171220193958
 42
0.07459289906077718
  0
VERTEX
  8
0
  6
CONTINUOUS
 62
     7
 10
-92.95012397649734
 20
-384.0077607940013
 42
0.07459289906077718
  0
VERTEX
  8
0
  6
CONTINUOUS
 62
     7
 10
-92.5328439624528
 20
-384.0117502653897
 42
0.07459289906077718
  0
VERTEX
  8
0
  6
CONTINUOUS
 62
     7
 10
-92.13228233845817
 20
-383.9287391880443
 42
0.07459289906077718
  0
VERTEX
  8
0
  6
CONTINUOUS
 62
     7
 10
-91.78370580049263
 20
-383.7660361163853
 42
0.07459289906077718
  0
VERTEX
  8
0
  6
CONTINUOUS
 62
     7
 10
-91.51780411525753
 20
-383.5379659368207
 42
0.07459289906077718
  0
VERTEX
  8
0
  6
CONTINUOUS
 62
     7
 10
-91.3579880972988
 20
-383.2646086600225
 42
0.07459289906077718
  0
VERTEX
  8
0
  6
CONTINUOUS
 62
     7
 10
-91.3183284478028
 20
-382.970031514095
 42
0.07459289906077718
  0
VERTEX
  8
0
  6
CONTINUOUS
 62
     7
 10
-91.40231692613345
 20
-382.680169990672
 42
0.07459289906077718
  0
VERTEX
  8
0
  6
CONTINUOUS
 62
     7
 10
-91.60255892443617
 20
-382.4205444032588
 42
0.07459289906077718
  0
VERTEX
  8
0
  6
CONTINUOUS
 62
     7
 10
-91.90142451200019
 20
-382.2140129991544
 42
0.07459289906077718
  0
VERTEX
  8
0
  6
CONTINUOUS
 62
     7
 10
-92.27260062940124
 20
-382.0787594479926
 42
0.07459289906077718
  0
VERTEX
  8
0
  6
CONTINUOUS
 62
     7
 10
-92.68340777240577
 20
-382.0266918946961
 42
-1
  0
SEQEND
  8
0
  0
POLYLINE
  8
0
  6
CONTINUOUS
 62
     7
 66
     1
 10
0
 20
0
  0
VERTEX
  8
0
  6
CONTINUOUS
 62
     7
 10
-95.14738240234541
 20
-382.9325524600008
 42
0.07398282385211347
  0
VERTEX
  8
0
  6
CONTINUOUS
 62
     7
 10
-95.07160614761834
 20
-383.486356202863
 42
0.07398282385211347
  0
VERTEX
  8
0
  6
CONTINUOUS
 62
     7
 10
-94.79213878279724
 20
-383.9989901474599
 42
0.07398282385211347
  0
VERTEX
  8
0
  6
CONTINUOUS
 62
     7
 10
-94.33318901902746
 20
-384.4260476522647
 42
0.07398282385211347
  0
VERTEX
  8
0
  6
CONTINUOUS
 62
     7
 10
-93.73451313435746
 20
-384.7305350891203
 42
0.07398282385211347
  0
VERTEX
  8
0
  6
CONTINUOUS
 62
     7
 10
-93.04797110739661
 20
-384.8860763965107
 42
0.07398282385211347
  0
VERTEX
  8
0
  6
CONTINUOUS
 62
     7
 10
-92.33303427437924
 20
-384.8791978917962
 42
0.07398282385211347
  0
VERTEX
  8
0
  6
CONTINUOUS
 62
     7
 10
-91.65163365644172
 20
-384.7104954217722
 42
0.07398282385211347
  0
VERTEX
  8
0
  6
CONTINUOUS
 62
     7
 10
-91.06279521800904
 20
-384.3945827477589
 42
0.07398282385211347
  0
VERTEX
  8
0
  6
CONTINUOUS
 62
     7
 10
-90.61752677416685
 20
-383.9588256363361
 42
0.07398282385211347
  0
VERTEX
  8
0
  6
CONTINUOUS
 62
     7
 10
-90.35439946593547
 20
-383.4409713144355
 42
0.07398282385211347
  0
VERTEX
  8
0
  6
CONTINUOUS
 62
     7
 10
-90.29620655578937
 20
-382.8858786359784
 42
0.07398282385211347
  0
VERTEX
  8
0
  6
CONTINUOUS
 62
     7
 10
-90.44798897347478
 20
-382.3416322076243
 42
0.07398282385211347
  0
VERTEX
  8
0
  6
CONTINUOUS
 62
     7
 10
-90.79659864816408
 20
-381.8553770854135
 42
0.07398282385211347
  0
VERTEX
  8
0
  6
CONTINUOUS
 62
     7
 10
-91.31183745306555
 20
-381.4692348594789
 42
0.07398282385211347
  0
VERTEX
  8
0
  6
CONTINUOUS
 62
     7
 10
-91.94907310202052
 20
-381.2166548938084
 42
0.07398282385211347
  0
VERTEX
  8
0
  6
CONTINUOUS
 62
     7
 10
-92.6531053974427
 20
-381.1195167929631
 42
-1
  0
SEQEND
  8
0
  0
LINE
  8
0
  6
CONTINUOUS
 62
     7
 10
-73.90944965696932
 20
-382.4905841512992
 11
-72.8968545737266
 21
-382.6691319952645
  0
LINE
  8
0
  6
CONTINUOUS
 62
     7
 10
-69.7946685692465
 20
-380.5536978178163
 11
-68.85030394435269
 21
-380.7202147903774
  0
POLYLINE
  8
0
  6
CONTINUOUS
 62
     7
 66
     1
 10
0
 20
0
  0
VERTEX
  8
0
  6
CONTINUOUS
 62
     7
 10
-69.7762142095271
 20
-380.3427765209405
 42
0.07333214780387673
  0
VERTEX
  8
0
  6
CONTINUOUS
 62
     7
 10
-69.82791187943344
 20
-380.1028963925451
 42
0.07333214780387673
  0
VERTEX
  8
0
  6
CONTINUOUS
 62
     7
 10
-69.97860419335012
 20
-379.8834357429386
 42
0.07333214780387673
  0
VERTEX
  8
0
  6
CONTINUOUS
 62
     7
 10
-70.21546366728234
 20
-379.7030758697741
 42
0.07333214780387673
  0
VERTEX
  8
0
  6
CONTINUOUS
 62
     7
 10
-70.51832795165876
 20
-379.5771696688047
 42
0.07333214780387673
  0
VERTEX
  8
0
  6
CONTINUOUS
 62
     7
 10
-70.86141612468275
 20
-379.5164347389298
 42
0.07333214780387673
  0
VERTEX
  8
0
  6
CONTINUOUS
 62
     7
 10
-71.21552325921566
 20
-379.5260410607585
 42
0.07333214780387673
  0
VERTEX
  8
0
  6
CONTINUOUS
 62
     7
 10
-71.55050645358838
 20
-379.6051709088454
 42
0.07333214780387673
  0
VERTEX
  8
0
  6
CONTINUOUS
 62
     7
 10
-71.83785070625459
 20
-379.7470884594882
 42
0.07333214780387673
  0
VERTEX
  8
0
  6
CONTINUOUS
 62
     7
 10
-72.05309621759817
 20
-379.9397131688148
 42
0.07333214780387673
  0
VERTEX
  8
0
  6
CONTINUOUS
 62
     7
 10
-72.17792049803784
 20
-380.1666481131091
 42
0.07333214780387673
  0
VERTEX
  8
0
  6
CONTINUOUS
 62
     7
 10
-72.20169804572883
 20
-380.4085757552641
 42
0.07333214780387673
  0
VERTEX
  8
0
  6
CONTINUOUS
 62
     7
 10
-72.12240482835982
 20
-380.6449023245892
 42
0.07333214780387673
  0
VERTEX
  8
0
  6
CONTINUOUS
 62
     7
 10
-71.94679057622733
 20
-380.8555108343132
 42
0.07333214780387673
  0
VERTEX
  8
0
  6
CONTINUOUS
 62
     7
 10
-71.68980422036802
 20
-381.0224735134872
 42
0.07333214780387673
  0
VERTEX
  8
0
  6
CONTINUOUS
 62
     7
 10
-71.37332138456787
 20
-381.1315778847846
 42
0.07333214780387673
  0
VERTEX
  8
0
  6
CONTINUOUS
 62
     7
 10
-71.02428225180871
 20
-381.1735365828433
 42
-1
  0
SEQEND
  8
0
  0
POLYLINE
  8
0
  6
CONTINUOUS
 62
     7
 66
     1
 10
0
 20
0
  0
VERTEX
  8
0
  6
CONTINUOUS
 62
     7
 10
-68.8172815494206
 20
-380.3427762994343
 42
0.07332668712448476
  0
VERTEX
  8
0
  6
CONTINUOUS
 62
     7
 10
-68.90977946944086
 20
-379.8409093037544
 42
0.07332668712448476
  0
VERTEX
  8
0
  6
CONTINUOUS
 62
     7
 10
-69.17940073572247
 20
-379.3817567655611
 42
0.07332668712448476
  0
VERTEX
  8
0
  6
CONTINUOUS
 62
     7
 10
-69.60319757586369
 20
-379.0043976792136
 42
0.07332668712448476
  0
VERTEX
  8
0
  6
CONTINUOUS
 62
     7
 10
-70.14510015914877
 20
-378.7409495054251
 42
0.07332668712448476
  0
VERTEX
  8
0
  6
CONTINUOUS
 62
     7
 10
-70.7589865408341
 20
-378.6138346176794
 42
0.07332668712448476
  0
VERTEX
  8
0
  6
CONTINUOUS
 62
     7
 10
-71.39260815328358
 20
-378.6338719085405
 42
0.07332668712448476
  0
VERTEX
  8
0
  6
CONTINUOUS
 62
     7
 10
-71.99203674094139
 20
-378.7993559814104
 42
0.07332668712448476
  0
VERTEX
  8
0
  6
CONTINUOUS
 62
     7
 10
-72.50625425545259
 20
-379.0962022987723
 42
0.07332668712448476
  0
VERTEX
  8
0
  6
CONTINUOUS
 62
     7
 10
-72.8914950597414
 20
-379.4991459331852
 42
0.07332668712448476
  0
VERTEX
  8
0
  6
CONTINUOUS
 62
     7
 10
-73.11497087112298
 20
-379.9738918939729
 42
0.07332668712448476
  0
VERTEX
  8
0
  6
CONTINUOUS
 62
     7
 10
-73.15766140930711
 20
-380.480034012857
 42
0.07332668712448476
  0
VERTEX
  8
0
  6
CONTINUOUS
 62
     7
 10
-73.01593323407053
 20
-380.9744939588613
 42
0.07332668712448476
  0
VERTEX
  8
0
  6
CONTINUOUS
 62
     7
 10
-72.70184899148374
 20
-381.4151876840205
 42
0.07332668712448476
  0
VERTEX
  8
0
  6
CONTINUOUS
 62
     7
 10
-72.24214074839469
 20
-381.7646072445314
 42
0.07332668712448476
  0
VERTEX
  8
0
  6
CONTINUOUS
 62
     7
 10
-71.6759347958378
 20
-381.9930131444785
 42
0.07332668712448476
  0
VERTEX
  8
0
  6
CONTINUOUS
 62
     7
 10
-71.05142156593657
 20
-382.0809654981305
 42
-1
  0
SEQEND
  8
0
  0
POLYLINE
  8
0
  6
CONTINUOUS
 62
     7
 66
     1
 10
0
 20
0
  0
VERTEX
  8
0
  6
CONTINUOUS
 62
     7
 10
-72.94236933513801
 20
-382.9432018098852
 42
0.07459289906077718
  0
VERTEX
  8
0
  6
CONTINUOUS
 62
     7
 10
-72.91392450683846
 20
-383.2384300794142
 42
0.07459289906077718
  0
VERTEX
  8
0
  6
CONTINUOUS
 62
     7
 10
-72.76456016743389
 20
-383.5147433237834
 42
0.07459289906077718
  0
VERTEX
  8
0
  6
CONTINUOUS
 62
     7
 10
-72.50742681969935
 20
-383.7478140622747
 42
0.07459289906077718
  0
VERTEX
  8
0
  6
CONTINUOUS
 62
     7
 10
-72.16516328637134
 20
-383.9171220193958
 42
0.07459289906077718
  0
VERTEX
  8
0
  6
CONTINUOUS
 62
     7
 10
-71.76790351751296
 20
-384.0077607940013
 42
0.07459289906077718
  0
VERTEX
  8
0
  6
CONTINUOUS
 62
     7
 10
-71.35062350346843
 20
-384.0117502653897
 42
0.07459289906077718
  0
VERTEX
  8
0
  6
CONTINUOUS
 62
     7
 10
-70.95006187947379
 20
-383.9287391880443
 42
0.07459289906077718
  0
VERTEX
  8
0
  6
CONTINUOUS
 62
     7
 10
-70.60148534150825
 20
-383.7660361163853
 42
0.07459289906077718
  0
VERTEX
  8
0
  6
CONTINUOUS
 62
     7
 10
-70.33558365627316
 20
-383.5379659368207
 42
0.07459289906077718
  0
VERTEX
  8
0
  6
CONTINUOUS
 62
     7
 10
-70.17576763831443
 20
-383.2646086600225
 42
0.07459289906077718
  0
VERTEX
  8
0
  6
CONTINUOUS
 62
     7
 10
-70.13610798881842
 20
-382.970031514095
 42
0.07459289906077718
  0
VERTEX
  8
0
  6
CONTINUOUS
 62
     7
 10
-70.22009646714908
 20
-382.680169990672
 42
0.07459289906077718
  0
VERTEX
  8
0
  6
CONTINUOUS
 62
     7
 10
-70.42033846545179
 20
-382.4205444032588
 42
0.07459289906077718
  0
VERTEX
  8
0
  6
CONTINUOUS
 62
     7
 10
-70.71920405301582
 20
-382.2140129991544
 42
0.07459289906077718
  0
VERTEX
  8
0
  6
CONTINUOUS
 62
     7
 10
-71.09038017041686
 20
-382.0787594479926
 42
0.07459289906077718
  0
VERTEX
  8
0
  6
CONTINUOUS
 62
     7
 10
-71.5011873134214
 20
-382.0266918946961
 42
-1
  0
SEQEND
  8
0
  0
POLYLINE
  8
0
  6
CONTINUOUS
 62
     7
 66
     1
 10
0
 20
0
  0
VERTEX
  8
0
  6
CONTINUOUS
 62
     7
 10
-73.96516194336104
 20
-382.9325524600008
 42
0.07398282385211347
  0
VERTEX
  8
0
  6
CONTINUOUS
 62
     7
 10
-73.88938568863397
 20
-383.486356202863
 42
0.07398282385211347
  0
VERTEX
  8
0
  6
CONTINUOUS
 62
     7
 10
-73.60991832381286
 20
-383.9989901474599
 42
0.07398282385211347
  0
VERTEX
  8
0
  6
CONTINUOUS
 62
     7
 10
-73.15096856004308
 20
-384.4260476522647
 42
0.07398282385211347
  0
VERTEX
  8
0
  6
CONTINUOUS
 62
     7
 10
-72.55229267537308
 20
-384.7305350891203
 42
0.07398282385211347
  0
VERTEX
  8
0
  6
CONTINUOUS
 62
     7
 10
-71.86575064841223
 20
-384.8860763965107
 42
0.07398282385211347
  0
VERTEX
  8
0
  6
CONTINUOUS
 62
     7
 10
-71.15081381539487
 20
-384.8791978917962
 42
0.07398282385211347
  0
VERTEX
  8
0
  6
CONTINUOUS
 62
     7
 10
-70.46941319745734
 20
-384.7104954217722
 42
0.07398282385211347
  0
VERTEX
  8
0
  6
CONTINUOUS
 62
     7
 10
-69.88057475902467
 20
-384.3945827477589
 42
0.07398282385211347
  0
VERTEX
  8
0
  6
CONTINUOUS
 62
     7
 10
-69.43530631518247
 20
-383.9588256363361
 42
0.07398282385211347
  0
VERTEX
  8
0
  6
CONTINUOUS
 62
     7
 10
-69.1721790069511
 20
-383.4409713144355
 42
0.07398282385211347
  0
VERTEX
  8
0
  6
CONTINUOUS
 62
     7
 10
-69.11398609680499
 20
-382.8858786359784
 42
0.07398282385211347
  0
VERTEX
  8
0
  6
CONTINUOUS
 62
     7
 10
-69.2657685144904
 20
-382.3416322076243
 42
0.07398282385211347
  0
VERTEX
  8
0
  6
CONTINUOUS
 62
     7
 10
-69.6143781891797
 20
-381.8553770854135
 42
0.07398282385211347
  0
VERTEX
  8
0
  6
CONTINUOUS
 62
     7
 10
-70.12961699408118
 20
-381.4692348594789
 42
0.07398282385211347
  0
VERTEX
  8
0
  6
CONTINUOUS
 62
     7
 10
-70.76685264303615
 20
-381.2166548938084
 42
0.07398282385211347
  0
VERTEX
  8
0
  6
CONTINUOUS
 62
     7
 10
-71.47088493845833
 20
-381.1195167929631
 42
-1
  0
SEQEND
  8
0
  0
LINE
  8
0
  6
CONTINUOUS
 62
     7
 10
254.2987717785776
 20
-382.8720233602836
 11
255.3113668618203
 21
-383.0505712042489
  0
LINE
  8
0
  6
CONTINUOUS
 62
     7
 10
258.4135528663004
 20
-380.9351370268007
 11
259.3579174911942
 21
-381.1016539993618
  0
POLYLINE
  8
0
  6
CONTINUOUS
 62
     7
 66
     1
 10
0
 20
0
  0
VERTEX
  8
0
  6
CONTINUOUS
 62
     7
 10
258.4320072260198
 20
-380.7242157299249
 42
0.07333214780387673
  0
VERTEX
  8
0
  6
CONTINUOUS
 62
     7
 10
258.3803095561135
 20
-380.4843356015294
 42
0.07333214780387673
  0
VERTEX
  8
0
  6
CONTINUOUS
 62
     7
 10
258.2296172421968
 20
-380.2648749519229
 42
0.07333214780387673
  0
VERTEX
  8
0
  6
CONTINUOUS
 62
     7
 10
257.9927577682645
 20
-380.0845150787585
 42
0.07333214780387673
  0
VERTEX
  8
0
  6
CONTINUOUS
 62
     7
 10
257.6898934838881
 20
-379.9586088777891
 42
0.07333214780387673
  0
VERTEX
  8
0
  6
CONTINUOUS
 62
     7
 10
257.3468053108641
 20
-379.8978739479142
 42
0.07333214780387673
  0
VERTEX
  8
0
  6
CONTINUOUS
 62
     7
 10
256.9926981763312
 20
-379.9074802697429
 42
0.07333214780387673
  0
VERTEX
  8
0
  6
CONTINUOUS
 62
     7
 10
256.6577149819585
 20
-379.9866101178298
 42
0.07333214780387673
  0
VERTEX
  8
0
  6
CONTINUOUS
 62
     7
 10
256.3703707292923
 20
-380.1285276684726
 42
0.07333214780387673
  0
VERTEX
  8
0
  6
CONTINUOUS
 62
     7
 10
256.1551252179487
 20
-380.3211523777992
 42
0.07333214780387673
  0
VERTEX
  8
0
  6
CONTINUOUS
 62
     7
 10
256.030300937509
 20
-380.5480873220935
 42
0.07333214780387673
  0
VERTEX
  8
0
  6
CONTINUOUS
 62
     7
 10
256.006523389818
 20
-380.7900149642485
 42
0.07333214780387673
  0
VERTEX
  8
0
  6
CONTINUOUS
 62
     7
 10
256.085816607187
 20
-381.0263415335735
 42
0.07333214780387673
  0
VERTEX
  8
0
  6
CONTINUOUS
 62
     7
 10
256.2614308593196
 20
-381.2369500432976
 42
0.07333214780387673
  0
VERTEX
  8
0
  6
CONTINUOUS
 62
     7
 10
256.5184172151788
 20
-381.4039127224716
 42
0.07333214780387673
  0
VERTEX
  8
0
  6
CONTINUOUS
 62
     7
 10
256.834900050979
 20
-381.513017093769
 42
0.07333214780387673
  0
VERTEX
  8
0
  6
CONTINUOUS
 62
     7
 10
257.1839391837382
 20
-381.5549757918277
 42
-1
  0
SEQEND
  8
0
  0
POLYLINE
  8
0
  6
CONTINUOUS
 62
     7
 66
     1
 10
0
 20
0
  0
VERTEX
  8
0
  6
CONTINUOUS
 62
     7
 10
259.3909398861263
 20
-380.7242155084186
 42
0.07332668712448476
  0
VERTEX
  8
0
  6
CONTINUOUS
 62
     7
 10
259.298441966106
 20
-380.2223485127388
 42
0.07332668712448476
  0
VERTEX
  8
0
  6
CONTINUOUS
 62
     7
 10
259.0288206998244
 20
-379.7631959745455
 42
0.07332668712448476
  0
VERTEX
  8
0
  6
CONTINUOUS
 62
     7
 10
258.6050238596832
 20
-379.385836888198
 42
0.07332668712448476
  0
VERTEX
  8
0
  6
CONTINUOUS
 62
     7
 10
258.0631212763981
 20
-379.1223887144095
 42
0.07332668712448476
  0
VERTEX
  8
0
  6
CONTINUOUS
 62
     7
 10
257.4492348947127
 20
-378.9952738266638
 42
0.07332668712448476
  0
VERTEX
  8
0
  6
CONTINUOUS
 62
     7
 10
256.8156132822633
 20
-379.0153111175249
 42
0.07332668712448476
  0
VERTEX
  8
0
  6
CONTINUOUS
 62
     7
 10
256.2161846946055
 20
-379.1807951903948
 42
0.07332668712448476
  0
VERTEX
  8
0
  6
CONTINUOUS
 62
     7
 10
255.7019671800943
 20
-379.4776415077566
 42
0.07332668712448476
  0
VERTEX
  8
0
  6
CONTINUOUS
 62
     7
 10
255.3167263758055
 20
-379.8805851421695
 42
0.07332668712448476
  0
VERTEX
  8
0
  6
CONTINUOUS
 62
     7
 10
255.0932505644239
 20
-380.3553311029572
 42
0.07332668712448476
  0
VERTEX
  8
0
  6
CONTINUOUS
 62
     7
 10
255.0505600262398
 20
-380.8614732218413
 42
0.07332668712448476
  0
VERTEX
  8
0
  6
CONTINUOUS
 62
     7
 10
255.1922882014763
 20
-381.3559331678457
 42
0.07332668712448476
  0
VERTEX
  8
0
  6
CONTINUOUS
 62
     7
 10
255.5063724440631
 20
-381.7966268930049
 42
0.07332668712448476
  0
VERTEX
  8
0
  6
CONTINUOUS
 62
     7
 10
255.9660806871522
 20
-382.1460464535158
 42
0.07332668712448476
  0
VERTEX
  8
0
  6
CONTINUOUS
 62
     7
 10
256.5322866397091
 20
-382.3744523534629
 42
0.07332668712448476
  0
VERTEX
  8
0
  6
CONTINUOUS
 62
     7
 10
257.1567998696103
 20
-382.4624047071149
 42
-1
  0
SEQEND
  8
0
  0
POLYLINE
  8
0
  6
CONTINUOUS
 62
     7
 66
     1
 10
0
 20
0
  0
VERTEX
  8
0
  6
CONTINUOUS
 62
     7
 10
255.2658521004088
 20
-383.3246410188696
 42
0.07459289906077718
  0
VERTEX
  8
0
  6
CONTINUOUS
 62
     7
 10
255.2942969287084
 20
-383.6198692883986
 42
0.07459289906077718
  0
VERTEX
  8
0
  6
CONTINUOUS
 62
     7
 10
255.443661268113
 20
-383.8961825327678
 42
0.07459289906077718
  0
VERTEX
  8
0
  6
CONTINUOUS
 62
     7
 10
255.7007946158475
 20
-384.1292532712591
 42
0.07459289906077718
  0
VERTEX
  8
0
  6
CONTINUOUS
 62
     7
 10
256.0430581491755
 20
-384.2985612283802
 42
0.07459289906077718
  0
VERTEX
  8
0
  6
CONTINUOUS
 62
     7
 10
256.4403179180339
 20
-384.3892000029857
 42
0.07459289906077718
  0
VERTEX
  8
0
  6
CONTINUOUS
 62
     7
 10
256.8575979320784
 20
-384.3931894743741
 42
0.07459289906077718
  0
VERTEX
  8
0
  6
CONTINUOUS
 62
     7
 10
257.2581595560731
 20
-384.3101783970287
 42
0.07459289906077718
  0
VERTEX
  8
0
  6
CONTINUOUS
 62
     7
 10
257.6067360940386
 20
-384.1474753253697
 42
0.07459289906077718
  0
VERTEX
  8
0
  6
CONTINUOUS
 62
     7
 10
257.8726377792737
 20
-383.9194051458051
 42
0.07459289906077718
  0
VERTEX
  8
0
  6
CONTINUOUS
 62
     7
 10
258.0324537972325
 20
-383.6460478690069
 42
0.07459289906077718
  0
VERTEX
  8
0
  6
CONTINUOUS
 62
     7
 10
258.0721134467285
 20
-383.3514707230794
 42
0.07459289906077718
  0
VERTEX
  8
0
  6
CONTINUOUS
 62
     7
 10
257.9881249683978
 20
-383.0616091996564
 42
0.07459289906077718
  0
VERTEX
  8
0
  6
CONTINUOUS
 62
     7
 10
257.7878829700951
 20
-382.8019836122431
 42
0.07459289906077718
  0
VERTEX
  8
0
  6
CONTINUOUS
 62
     7
 10
257.489017382531
 20
-382.5954522081388
 42
0.07459289906077718
  0
VERTEX
  8
0
  6
CONTINUOUS
 62
     7
 10
257.11784126513
 20
-382.460198656977
 42
0.07459289906077718
  0
VERTEX
  8
0
  6
CONTINUOUS
 62
     7
 10
256.7070341221254
 20
-382.4081311036804
 42
-1
  0
SEQEND
  8
0
  0
POLYLINE
  8
0
  6
CONTINUOUS
 62
     7
 66
     1
 10
0
 20
0
  0
VERTEX
  8
0
  6
CONTINUOUS
 62
     7
 10
254.2430594921859
 20
-383.3139916689851
 42
0.07398282385211347
  0
VERTEX
  8
0
  6
CONTINUOUS
 62
     7
 10
254.3188357469129
 20
-383.8677954118474
 42
0.07398282385211347
  0
VERTEX
  8
0
  6
CONTINUOUS
 62
     7
 10
254.598303111734
 20
-384.3804293564443
 42
0.07398282385211347
  0
VERTEX
  8
0
  6
CONTINUOUS
 62
     7
 10
255.0572528755038
 20
-384.8074868612491
 42
0.07398282385211347
  0
VERTEX
  8
0
  6
CONTINUOUS
 62
     7
 10
255.6559287601738
 20
-385.1119742981047
 42
0.07398282385211347
  0
VERTEX
  8
0
  6
CONTINUOUS
 62
     7
 10
256.3424707871347
 20
-385.2675156054951
 42
0.07398282385211347
  0
VERTEX
  8
0
  6
CONTINUOUS
 62
     7
 10
257.0574076201521
 20
-385.2606371007806
 42
0.07398282385211347
  0
VERTEX
  8
0
  6
CONTINUOUS
 62
     7
 10
257.7388082380895
 20
-385.0919346307566
 42
0.07398282385211347
  0
VERTEX
  8
0
  6
CONTINUOUS
 62
     7
 10
258.3276466765222
 20
-384.7760219567433
 42
0.07398282385211347
  0
VERTEX
  8
0
  6
CONTINUOUS
 62
     7
 10
258.7729151203644
 20
-384.3402648453205
 42
0.07398282385211347
  0
VERTEX
  8
0
  6
CONTINUOUS
 62
     7
 10
259.0360424285958
 20
-383.8224105234199
 42
0.07398282385211347
  0
VERTEX
  8
0
  6
CONTINUOUS
 62
     7
 10
259.0942353387419
 20
-383.2673178449628
 42
0.07398282385211347
  0
VERTEX
  8
0
  6
CONTINUOUS
 62
     7
 10
258.9424529210565
 20
-382.7230714166087
 42
0.07398282385211347
  0
VERTEX
  8
0
  6
CONTINUOUS
 62
     7
 10
258.5938432463672
 20
-382.2368162943979
 42
0.07398282385211347
  0
VERTEX
  8
0
  6
CONTINUOUS
 62
     7
 10
258.0786044414657
 20
-381.8506740684633
 42
0.07398282385211347
  0
VERTEX
  8
0
  6
CONTINUOUS
 62
     7
 10
257.4413687925107
 20
-381.5980941027928
 42
0.07398282385211347
  0
VERTEX
  8
0
  6
CONTINUOUS
 62
     7
 10
256.7373364970886
 20
-381.5009560019475
 42
-1
  0
SEQEND
  8
0
  0
LINE
  8
0
  6
CONTINUOUS
 62
     7
 10
275.480992237562
 20
-382.8720233602836
 11
276.4935873208046
 21
-383.0505712042489
  0
LINE
  8
0
  6
CONTINUOUS
 62
     7
 10
279.5957733252848
 20
-380.9351370268007
 11
280.5401379501786
 21
-381.1016539993618
  0
POLYLINE
  8
0
  6
CONTINUOUS
 62
     7
 66
     1
 10
0
 20
0
  0
VERTEX
  8
0
  6
CONTINUOUS
 62
     7
 10
279.6142276850042
 20
-380.7242157299249
 42
0.07333214780387673
  0
VERTEX
  8
0
  6
CONTINUOUS
 62
     7
 10
279.5625300150978
 20
-380.4843356015294
 42
0.07333214780387673
  0
VERTEX
  8
0
  6
CONTINUOUS
 62
     7
 10
279.4118377011811
 20
-380.2648749519229
 42
0.07333214780387673
  0
VERTEX
  8
0
  6
CONTINUOUS
 62
     7
 10
279.1749782272489
 20
-380.0845150787585
 42
0.07333214780387673
  0
VERTEX
  8
0
  6
CONTINUOUS
 62
     7
 10
278.8721139428725
 20
-379.9586088777891
 42
0.07333214780387673
  0
VERTEX
  8
0
  6
CONTINUOUS
 62
     7
 10
278.5290257698485
 20
-379.8978739479142
 42
0.07333214780387673
  0
VERTEX
  8
0
  6
CONTINUOUS
 62
     7
 10
278.1749186353156
 20
-379.9074802697429
 42
0.07333214780387673
  0
VERTEX
  8
0
  6
CONTINUOUS
 62
     7
 10
277.8399354409428
 20
-379.9866101178298
 42
0.07333214780387673
  0
VERTEX
  8
0
  6
CONTINUOUS
 62
     7
 10
277.5525911882767
 20
-380.1285276684726
 42
0.07333214780387673
  0
VERTEX
  8
0
  6
CONTINUOUS
 62
     7
 10
277.3373456769331
 20
-380.3211523777992
 42
0.07333214780387673
  0
VERTEX
  8
0
  6
CONTINUOUS
 62
     7
 10
277.2125213964934
 20
-380.5480873220935
 42
0.07333214780387673
  0
VERTEX
  8
0
  6
CONTINUOUS
 62
     7
 10
277.1887438488024
 20
-380.7900149642485
 42
0.07333214780387673
  0
VERTEX
  8
0
  6
CONTINUOUS
 62
     7
 10
277.2680370661714
 20
-381.0263415335735
 42
0.07333214780387673
  0
VERTEX
  8
0
  6
CONTINUOUS
 62
     7
 10
277.4436513183039
 20
-381.2369500432976
 42
0.07333214780387673
  0
VERTEX
  8
0
  6
CONTINUOUS
 62
     7
 10
277.7006376741632
 20
-381.4039127224716
 42
0.07333214780387673
  0
VERTEX
  8
0
  6
CONTINUOUS
 62
     7
 10
278.0171205099634
 20
-381.513017093769
 42
0.07333214780387673
  0
VERTEX
  8
0
  6
CONTINUOUS
 62
     7
 10
278.3661596427226
 20
-381.5549757918277
 42
-1
  0
SEQEND
  8
0
  0
POLYLINE
  8
0
  6
CONTINUOUS
 62
     7
 66
     1
 10
0
 20
0
  0
VERTEX
  8
0
  6
CONTINUOUS
 62
     7
 10
280.5731603451106
 20
-380.7242155084186
 42
0.07332668712448476
  0
VERTEX
  8
0
  6
CONTINUOUS
 62
     7
 10
280.4806624250904
 20
-380.2223485127388
 42
0.07332668712448476
  0
VERTEX
  8
0
  6
CONTINUOUS
 62
     7
 10
280.2110411588088
 20
-379.7631959745455
 42
0.07332668712448476
  0
VERTEX
  8
0
  6
CONTINUOUS
 62
     7
 10
279.7872443186676
 20
-379.385836888198
 42
0.07332668712448476
  0
VERTEX
  8
0
  6
CONTINUOUS
 62
     7
 10
279.2453417353825
 20
-379.1223887144095
 42
0.07332668712448476
  0
VERTEX
  8
0
  6
CONTINUOUS
 62
     7
 10
278.6314553536971
 20
-378.9952738266638
 42
0.07332668712448476
  0
VERTEX
  8
0
  6
CONTINUOUS
 62
     7
 10
277.9978337412476
 20
-379.0153111175249
 42
0.07332668712448476
  0
VERTEX
  8
0
  6
CONTINUOUS
 62
     7
 10
277.3984051535899
 20
-379.1807951903948
 42
0.07332668712448476
  0
VERTEX
  8
0
  6
CONTINUOUS
 62
     7
 10
276.8841876390787
 20
-379.4776415077566
 42
0.07332668712448476
  0
VERTEX
  8
0
  6
CONTINUOUS
 62
     7
 10
276.4989468347898
 20
-379.8805851421695
 42
0.07332668712448476
  0
VERTEX
  8
0
  6
CONTINUOUS
 62
     7
 10
276.2754710234083
 20
-380.3553311029572
 42
0.07332668712448476
  0
VERTEX
  8
0
  6
CONTINUOUS
 62
     7
 10
276.2327804852241
 20
-380.8614732218413
 42
0.07332668712448476
  0
VERTEX
  8
0
  6
CONTINUOUS
 62
     7
 10
276.3745086604607
 20
-381.3559331678457
 42
0.07332668712448476
  0
VERTEX
  8
0
  6
CONTINUOUS
 62
     7
 10
276.6885929030475
 20
-381.7966268930049
 42
0.07332668712448476
  0
VERTEX
  8
0
  6
CONTINUOUS
 62
     7
 10
277.1483011461365
 20
-382.1460464535158
 42
0.07332668712448476
  0
VERTEX
  8
0
  6
CONTINUOUS
 62
     7
 10
277.7145070986935
 20
-382.3744523534629
 42
0.07332668712448476
  0
VERTEX
  8
0
  6
CONTINUOUS
 62
     7
 10
278.3390203285946
 20
-382.4624047071149
 42
-1
  0
SEQEND
  8
0
  0
POLYLINE
  8
0
  6
CONTINUOUS
 62
     7
 66
     1
 10
0
 20
0
  0
VERTEX
  8
0
  6
CONTINUOUS
 62
     7
 10
276.4480725593932
 20
-383.3246410188696
 42
0.07459289906077718
  0
VERTEX
  8
0
  6
CONTINUOUS
 62
     7
 10
276.4765173876928
 20
-383.6198692883986
 42
0.07459289906077718
  0
VERTEX
  8
0
  6
CONTINUOUS
 62
     7
 10
276.6258817270973
 20
-383.8961825327678
 42
0.07459289906077718
  0
VERTEX
  8
0
  6
CONTINUOUS
 62
     7
 10
276.8830150748319
 20
-384.1292532712591
 42
0.07459289906077718
  0
VERTEX
  8
0
  6
CONTINUOUS
 62
     7
 10
277.2252786081599
 20
-384.2985612283802
 42
0.07459289906077718
  0
VERTEX
  8
0
  6
CONTINUOUS
 62
     7
 10
277.6225383770183
 20
-384.3892000029857
 42
0.07459289906077718
  0
VERTEX
  8
0
  6
CONTINUOUS
 62
     7
 10
278.0398183910628
 20
-384.3931894743741
 42
0.07459289906077718
  0
VERTEX
  8
0
  6
CONTINUOUS
 62
     7
 10
278.4403800150574
 20
-384.3101783970287
 42
0.07459289906077718
  0
VERTEX
  8
0
  6
CONTINUOUS
 62
     7
 10
278.788956553023
 20
-384.1474753253697
 42
0.07459289906077718
  0
VERTEX
  8
0
  6
CONTINUOUS
 62
     7
 10
279.0548582382581
 20
-383.9194051458051
 42
0.07459289906077718
  0
VERTEX
  8
0
  6
CONTINUOUS
 62
     7
 10
279.2146742562168
 20
-383.6460478690069
 42
0.07459289906077718
  0
VERTEX
  8
0
  6
CONTINUOUS
 62
     7
 10
279.2543339057128
 20
-383.3514707230794
 42
0.07459289906077718
  0
VERTEX
  8
0
  6
CONTINUOUS
 62
     7
 10
279.1703454273822
 20
-383.0616091996564
 42
0.07459289906077718
  0
VERTEX
  8
0
  6
CONTINUOUS
 62
     7
 10
278.9701034290795
 20
-382.8019836122431
 42
0.07459289906077718
  0
VERTEX
  8
0
  6
CONTINUOUS
 62
     7
 10
278.6712378415154
 20
-382.5954522081388
 42
0.07459289906077718
  0
VERTEX
  8
0
  6
CONTINUOUS
 62
     7
 10
278.3000617241144
 20
-382.460198656977
 42
0.07459289906077718
  0
VERTEX
  8
0
  6
CONTINUOUS
 62
     7
 10
277.8892545811098
 20
-382.4081311036804
 42
-1
  0
SEQEND
  8
0
  0
POLYLINE
  8
0
  6
CONTINUOUS
 62
     7
 66
     1
 10
0
 20
0
  0
VERTEX
  8
0
  6
CONTINUOUS
 62
     7
 10
275.4252799511702
 20
-383.3139916689851
 42
0.07398282385211347
  0
VERTEX
  8
0
  6
CONTINUOUS
 62
     7
 10
275.5010562058973
 20
-383.8677954118474
 42
0.07398282385211347
  0
VERTEX
  8
0
  6
CONTINUOUS
 62
     7
 10
275.7805235707184
 20
-384.3804293564443
 42
0.07398282385211347
  0
VERTEX
  8
0
  6
CONTINUOUS
 62
     7
 10
276.2394733344882
 20
-384.8074868612491
 42
0.07398282385211347
  0
VERTEX
  8
0
  6
CONTINUOUS
 62
     7
 10
276.8381492191582
 20
-385.1119742981047
 42
0.07398282385211347
  0
VERTEX
  8
0
  6
CONTINUOUS
 62
     7
 10
277.5246912461191
 20
-385.2675156054951
 42
0.07398282385211347
  0
VERTEX
  8
0
  6
CONTINUOUS
 62
     7
 10
278.2396280791364
 20
-385.2606371007806
 42
0.07398282385211347
  0
VERTEX
  8
0
  6
CONTINUOUS
 62
     7
 10
278.9210286970739
 20
-385.0919346307566
 42
0.07398282385211347
  0
VERTEX
  8
0
  6
CONTINUOUS
 62
     7
 10
279.5098671355066
 20
-384.7760219567433
 42
0.07398282385211347
  0
VERTEX
  8
0
  6
CONTINUOUS
 62
     7
 10
279.9551355793488
 20
-384.3402648453205
 42
0.07398282385211347
  0
VERTEX
  8
0
  6
CONTINUOUS
 62
     7
 10
280.2182628875802
 20
-383.8224105234199
 42
0.07398282385211347
  0
VERTEX
  8
0
  6
CONTINUOUS
 62
     7
 10
280.2764557977263
 20
-383.2673178449628
 42
0.07398282385211347
  0
VERTEX
  8
0
  6
CONTINUOUS
 62
     7
 10
280.1246733800409
 20
-382.7230714166087
 42
0.07398282385211347
  0
VERTEX
  8
0
  6
CONTINUOUS
 62
     7
 10
279.7760637053515
 20
-382.2368162943979
 42
0.07398282385211347
  0
VERTEX
  8
0
  6
CONTINUOUS
 62
     7
 10
279.2608249004501
 20
-381.8506740684633
 42
0.07398282385211347
  0
VERTEX
  8
0
  6
CONTINUOUS
 62
     7
 10
278.6235892514951
 20
-381.5980941027928
 42
0.07398282385211347
  0
VERTEX
  8
0
  6
CONTINUOUS
 62
     7
 10
277.9195569560729
 20
-381.5009560019475
 42
-1
  0
SEQEND
  8
0
  0
LINE
  8
0
  6
CONTINUOUS
 62
     7
 10
689.5111130871713
 20
-382.8720233602836
 11
690.523708170414
 21
-383.0505712042489
  0
LINE
  8
0
  6
CONTINUOUS
 62
     7
 10
693.6258941748941
 20
-380.9351370268007
 11
694.5702587997879
 21
-381.1016539993618
  0
POLYLINE
  8
0
  6
CONTINUOUS
 62
     7
 66
     1
 10
0
 20
0
  0
VERTEX
  8
0
  6
CONTINUOUS
 62
     7
 10
693.6443485346135
 20
-380.7242157299249
 42
0.07333214780387673
  0
VERTEX
  8
0
  6
CONTINUOUS
 62
     7
 10
693.5926508647071
 20
-380.4843356015294
 42
0.07333214780387673
  0
VERTEX
  8
0
  6
CONTINUOUS
 62
     7
 10
693.4419585507905
 20
-380.2648749519229
 42
0.07333214780387673
  0
VERTEX
  8
0
  6
CONTINUOUS
 62
     7
 10
693.2050990768584
 20
-380.0845150787585
 42
0.07333214780387673
  0
VERTEX
  8
0
  6
CONTINUOUS
 62
     7
 10
692.9022347924819
 20
-379.9586088777891
 42
0.07333214780387673
  0
VERTEX
  8
0
  6
CONTINUOUS
 62
     7
 10
692.5591466194579
 20
-379.8978739479142
 42
0.07333214780387673
  0
VERTEX
  8
0
  6
CONTINUOUS
 62
     7
 10
692.205039484925
 20
-379.9074802697429
 42
0.07333214780387673
  0
VERTEX
  8
0
  6
CONTINUOUS
 62
     7
 10
691.8700562905523
 20
-379.9866101178298
 42
0.07333214780387673
  0
VERTEX
  8
0
  6
CONTINUOUS
 62
     7
 10
691.582712037886
 20
-380.1285276684726
 42
0.07333214780387673
  0
VERTEX
  8
0
  6
CONTINUOUS
 62
     7
 10
691.3674665265424
 20
-380.3211523777992
 42
0.07333214780387673
  0
VERTEX
  8
0
  6
CONTINUOUS
 62
     7
 10
691.2426422461028
 20
-380.5480873220935
 42
0.07333214780387673
  0
VERTEX
  8
0
  6
CONTINUOUS
 62
     7
 10
691.2188646984118
 20
-380.7900149642485
 42
0.07333214780387673
  0
VERTEX
  8
0
  6
CONTINUOUS
 62
     7
 10
691.2981579157809
 20
-381.0263415335735
 42
0.07333214780387673
  0
VERTEX
  8
0
  6
CONTINUOUS
 62
     7
 10
691.4737721679134
 20
-381.2369500432976
 42
0.07333214780387673
  0
VERTEX
  8
0
  6
CONTINUOUS
 62
     7
 10
691.7307585237726
 20
-381.4039127224716
 42
0.07333214780387673
  0
VERTEX
  8
0
  6
CONTINUOUS
 62
     7
 10
692.0472413595727
 20
-381.513017093769
 42
0.07333214780387673
  0
VERTEX
  8
0
  6
CONTINUOUS
 62
     7
 10
692.3962804923319
 20
-381.5549757918277
 42
-1
  0
SEQEND
  8
0
  0
POLYLINE
  8
0
  6
CONTINUOUS
 62
     7
 66
     1
 10
0
 20
0
  0
VERTEX
  8
0
  6
CONTINUOUS
 62
     7
 10
694.60328119472
 20
-380.7242155084186
 42
0.07332668712448476
  0
VERTEX
  8
0
  6
CONTINUOUS
 62
     7
 10
694.5107832746998
 20
-380.2223485127388
 42
0.07332668712448476
  0
VERTEX
  8
0
  6
CONTINUOUS
 62
     7
 10
694.2411620084181
 20
-379.7631959745455
 42
0.07332668712448476
  0
VERTEX
  8
0
  6
CONTINUOUS
 62
     7
 10
693.817365168277
 20
-379.385836888198
 42
0.07332668712448476
  0
VERTEX
  8
0
  6
CONTINUOUS
 62
     7
 10
693.2754625849918
 20
-379.1223887144095
 42
0.07332668712448476
  0
VERTEX
  8
0
  6
CONTINUOUS
 62
     7
 10
692.6615762033065
 20
-378.9952738266638
 42
0.07332668712448476
  0
VERTEX
  8
0
  6
CONTINUOUS
 62
     7
 10
692.027954590857
 20
-379.0153111175249
 42
0.07332668712448476
  0
VERTEX
  8
0
  6
CONTINUOUS
 62
     7
 10
691.4285260031992
 20
-379.1807951903948
 42
0.07332668712448476
  0
VERTEX
  8
0
  6
CONTINUOUS
 62
     7
 10
690.914308488688
 20
-379.4776415077566
 42
0.07332668712448476
  0
VERTEX
  8
0
  6
CONTINUOUS
 62
     7
 10
690.5290676843993
 20
-379.8805851421695
 42
0.07332668712448476
  0
VERTEX
  8
0
  6
CONTINUOUS
 62
     7
 10
690.3055918730177
 20
-380.3553311029572
 42
0.07332668712448476
  0
VERTEX
  8
0
  6
CONTINUOUS
 62
     7
 10
690.2629013348335
 20
-380.8614732218413
 42
0.07332668712448476
  0
VERTEX
  8
0
  6
CONTINUOUS
 62
     7
 10
690.4046295100701
 20
-381.3559331678457
 42
0.07332668712448476
  0
VERTEX
  8
0
  6
CONTINUOUS
 62
     7
 10
690.7187137526569
 20
-381.7966268930049
 42
0.07332668712448476
  0
VERTEX
  8
0
  6
CONTINUOUS
 62
     7
 10
691.1784219957459
 20
-382.1460464535158
 42
0.07332668712448476
  0
VERTEX
  8
0
  6
CONTINUOUS
 62
     7
 10
691.7446279483028
 20
-382.3744523534629
 42
0.07332668712448476
  0
VERTEX
  8
0
  6
CONTINUOUS
 62
     7
 10
692.369141178204
 20
-382.4624047071149
 42
-1
  0
SEQEND
  8
0
  0
POLYLINE
  8
0
  6
CONTINUOUS
 62
     7
 66
     1
 10
0
 20
0
  0
VERTEX
  8
0
  6
CONTINUOUS
 62
     7
 10
690.4781934090026
 20
-383.3246410188696
 42
0.07459289906077718
  0
VERTEX
  8
0
  6
CONTINUOUS
 62
     7
 10
690.5066382373021
 20
-383.6198692883986
 42
0.07459289906077718
  0
VERTEX
  8
0
  6
CONTINUOUS
 62
     7
 10
690.6560025767067
 20
-383.8961825327678
 42
0.07459289906077718
  0
VERTEX
  8
0
  6
CONTINUOUS
 62
     7
 10
690.9131359244412
 20
-384.1292532712591
 42
0.07459289906077718
  0
VERTEX
  8
0
  6
CONTINUOUS
 62
     7
 10
691.2553994577693
 20
-384.2985612283802
 42
0.07459289906077718
  0
VERTEX
  8
0
  6
CONTINUOUS
 62
     7
 10
691.6526592266276
 20
-384.3892000029857
 42
0.07459289906077718
  0
VERTEX
  8
0
  6
CONTINUOUS
 62
     7
 10
692.0699392406722
 20
-384.3931894743741
 42
0.07459289906077718
  0
VERTEX
  8
0
  6
CONTINUOUS
 62
     7
 10
692.4705008646668
 20
-384.3101783970287
 42
0.07459289906077718
  0
VERTEX
  8
0
  6
CONTINUOUS
 62
     7
 10
692.8190774026324
 20
-384.1474753253697
 42
0.07459289906077718
  0
VERTEX
  8
0
  6
CONTINUOUS
 62
     7
 10
693.0849790878674
 20
-383.9194051458051
 42
0.07459289906077718
  0
VERTEX
  8
0
  6
CONTINUOUS
 62
     7
 10
693.2447951058261
 20
-383.6460478690069
 42
0.07459289906077718
  0
VERTEX
  8
0
  6
CONTINUOUS
 62
     7
 10
693.2844547553221
 20
-383.3514707230794
 42
0.07459289906077718
  0
VERTEX
  8
0
  6
CONTINUOUS
 62
     7
 10
693.2004662769915
 20
-383.0616091996564
 42
0.07459289906077718
  0
VERTEX
  8
0
  6
CONTINUOUS
 62
     7
 10
693.0002242786889
 20
-382.8019836122431
 42
0.07459289906077718
  0
VERTEX
  8
0
  6
CONTINUOUS
 62
     7
 10
692.7013586911248
 20
-382.5954522081388
 42
0.07459289906077718
  0
VERTEX
  8
0
  6
CONTINUOUS
 62
     7
 10
692.3301825737237
 20
-382.460198656977
 42
0.07459289906077718
  0
VERTEX
  8
0
  6
CONTINUOUS
 62
     7
 10
691.9193754307192
 20
-382.4081311036804
 42
-1
  0
SEQEND
  8
0
  0
POLYLINE
  8
0
  6
CONTINUOUS
 62
     7
 66
     1
 10
0
 20
0
  0
VERTEX
  8
0
  6
CONTINUOUS
 62
     7
 10
689.4554008007796
 20
-383.3139916689851
 42
0.07398282385211347
  0
VERTEX
  8
0
  6
CONTINUOUS
 62
     7
 10
689.5311770555067
 20
-383.8677954118474
 42
0.07398282385211347
  0
VERTEX
  8
0
  6
CONTINUOUS
 62
     7
 10
689.8106444203278
 20
-384.3804293564443
 42
0.07398282385211347
  0
VERTEX
  8
0
  6
CONTINUOUS
 62
     7
 10
690.2695941840975
 20
-384.8074868612491
 42
0.07398282385211347
  0
VERTEX
  8
0
  6
CONTINUOUS
 62
     7
 10
690.8682700687675
 20
-385.1119742981047
 42
0.07398282385211347
  0
VERTEX
  8
0
  6
CONTINUOUS
 62
     7
 10
691.5548120957284
 20
-385.2675156054951
 42
0.07398282385211347
  0
VERTEX
  8
0
  6
CONTINUOUS
 62
     7
 10
692.2697489287458
 20
-385.2606371007806
 42
0.07398282385211347
  0
VERTEX
  8
0
  6
CONTINUOUS
 62
     7
 10
692.9511495466833
 20
-385.0919346307566
 42
0.07398282385211347
  0
VERTEX
  8
0
  6
CONTINUOUS
 62
     7
 10
693.539987985116
 20
-384.7760219567433
 42
0.07398282385211347
  0
VERTEX
  8
0
  6
CONTINUOUS
 62
     7
 10
693.9852564289581
 20
-384.3402648453205
 42
0.07398282385211347
  0
VERTEX
  8
0
  6
CONTINUOUS
 62
     7
 10
694.2483837371896
 20
-383.8224105234199
 42
0.07398282385211347
  0
VERTEX
  8
0
  6
CONTINUOUS
 62
     7
 10
694.3065766473357
 20
-383.2673178449628
 42
0.07398282385211347
  0
VERTEX
  8
0
  6
CONTINUOUS
 62
     7
 10
694.1547942296502
 20
-382.7230714166087
 42
0.07398282385211347
  0
VERTEX
  8
0
  6
CONTINUOUS
 62
     7
 10
693.806184554961
 20
-382.2368162943979
 42
0.07398282385211347
  0
VERTEX
  8
0
  6
CONTINUOUS
 62
     7
 10
693.2909457500595
 20
-381.8506740684633
 42
0.07398282385211347
  0
VERTEX
  8
0
  6
CONTINUOUS
 62
     7
 10
692.6537101011045
 20
-381.5980941027928
 42
0.07398282385211347
  0
VERTEX
  8
0
  6
CONTINUOUS
 62
     7
 10
691.9496778056823
 20
-381.5009560019475
 42
-1
  0
SEQEND
  8
0
  0
LINE
  8
0
  6
CONTINUOUS
 62
     7
 10
710.6933030285776
 20
-382.8720233602836
 11
711.7058981118203
 21
-383.0505712042489
  0
LINE
  8
0
  6
CONTINUOUS
 62
     7
 10
714.8080841163004
 20
-380.9351370268007
 11
715.7524487411941
 21
-381.1016539993618
  0
POLYLINE
  8
0
  6
CONTINUOUS
 62
     7
 66
     1
 10
0
 20
0
  0
VERTEX
  8
0
  6
CONTINUOUS
 62
     7
 10
714.8265384760198
 20
-380.7242157299249
 42
0.07333214780387673
  0
VERTEX
  8
0
  6
CONTINUOUS
 62
     7
 10
714.7748408061134
 20
-380.4843356015294
 42
0.07333214780387673
  0
VERTEX
  8
0
  6
CONTINUOUS
 62
     7
 10
714.6241484921967
 20
-380.2648749519229
 42
0.07333214780387673
  0
VERTEX
  8
0
  6
CONTINUOUS
 62
     7
 10
714.3872890182646
 20
-380.0845150787585
 42
0.07333214780387673
  0
VERTEX
  8
0
  6
CONTINUOUS
 62
     7
 10
714.0844247338881
 20
-379.9586088777891
 42
0.07333214780387673
  0
VERTEX
  8
0
  6
CONTINUOUS
 62
     7
 10
713.7413365608642
 20
-379.8978739479142
 42
0.07333214780387673
  0
VERTEX
  8
0
  6
CONTINUOUS
 62
     7
 10
713.3872294263313
 20
-379.9074802697429
 42
0.07333214780387673
  0
VERTEX
  8
0
  6
CONTINUOUS
 62
     7
 10
713.0522462319585
 20
-379.9866101178298
 42
0.07333214780387673
  0
VERTEX
  8
0
  6
CONTINUOUS
 62
     7
 10
712.7649019792923
 20
-380.1285276684726
 42
0.07333214780387673
  0
VERTEX
  8
0
  6
CONTINUOUS
 62
     7
 10
712.5496564679487
 20
-380.3211523777992
 42
0.07333214780387673
  0
VERTEX
  8
0
  6
CONTINUOUS
 62
     7
 10
712.4248321875091
 20
-380.5480873220935
 42
0.07333214780387673
  0
VERTEX
  8
0
  6
CONTINUOUS
 62
     7
 10
712.4010546398181
 20
-380.7900149642485
 42
0.07333214780387673
  0
VERTEX
  8
0
  6
CONTINUOUS
 62
     7
 10
712.4803478571871
 20
-381.0263415335735
 42
0.07333214780387673
  0
VERTEX
  8
0
  6
CONTINUOUS
 62
     7
 10
712.6559621093196
 20
-381.2369500432976
 42
0.07333214780387673
  0
VERTEX
  8
0
  6
CONTINUOUS
 62
     7
 10
712.9129484651788
 20
-381.4039127224716
 42
0.07333214780387673
  0
VERTEX
  8
0
  6
CONTINUOUS
 62
     7
 10
713.2294313009789
 20
-381.513017093769
 42
0.07333214780387673
  0
VERTEX
  8
0
  6
CONTINUOUS
 62
     7
 10
713.5784704337382
 20
-381.5549757918277
 42
-1
  0
SEQEND
  8
0
  0
POLYLINE
  8
0
  6
CONTINUOUS
 62
     7
 66
     1
 10
0
 20
0
  0
VERTEX
  8
0
  6
CONTINUOUS
 62
     7
 10
715.7854711361263
 20
-380.7242155084186
 42
0.07332668712448476
  0
VERTEX
  8
0
  6
CONTINUOUS
 62
     7
 10
715.692973216106
 20
-380.2223485127388
 42
0.07332668712448476
  0
VERTEX
  8
0
  6
CONTINUOUS
 62
     7
 10
715.4233519498243
 20
-379.7631959745455
 42
0.07332668712448476
  0
VERTEX
  8
0
  6
CONTINUOUS
 62
     7
 10
714.9995551096832
 20
-379.385836888198
 42
0.07332668712448476
  0
VERTEX
  8
0
  6
CONTINUOUS
 62
     7
 10
714.4576525263981
 20
-379.1223887144095
 42
0.07332668712448476
  0
VERTEX
  8
0
  6
CONTINUOUS
 62
     7
 10
713.8437661447127
 20
-378.9952738266638
 42
0.07332668712448476
  0
VERTEX
  8
0
  6
CONTINUOUS
 62
     7
 10
713.2101445322633
 20
-379.0153111175249
 42
0.07332668712448476
  0
VERTEX
  8
0
  6
CONTINUOUS
 62
     7
 10
712.6107159446054
 20
-379.1807951903948
 42
0.07332668712448476
  0
VERTEX
  8
0
  6
CONTINUOUS
 62
     7
 10
712.0964984300942
 20
-379.4776415077566
 42
0.07332668712448476
  0
VERTEX
  8
0
  6
CONTINUOUS
 62
     7
 10
711.7112576258055
 20
-379.8805851421695
 42
0.07332668712448476
  0
VERTEX
  8
0
  6
CONTINUOUS
 62
     7
 10
711.4877818144239
 20
-380.3553311029572
 42
0.07332668712448476
  0
VERTEX
  8
0
  6
CONTINUOUS
 62
     7
 10
711.4450912762397
 20
-380.8614732218413
 42
0.07332668712448476
  0
VERTEX
  8
0
  6
CONTINUOUS
 62
     7
 10
711.5868194514763
 20
-381.3559331678457
 42
0.07332668712448476
  0
VERTEX
  8
0
  6
CONTINUOUS
 62
     7
 10
711.9009036940631
 20
-381.7966268930049
 42
0.07332668712448476
  0
VERTEX
  8
0
  6
CONTINUOUS
 62
     7
 10
712.3606119371522
 20
-382.1460464535158
 42
0.07332668712448476
  0
VERTEX
  8
0
  6
CONTINUOUS
 62
     7
 10
712.926817889709
 20
-382.3744523534629
 42
0.07332668712448476
  0
VERTEX
  8
0
  6
CONTINUOUS
 62
     7
 10
713.5513311196103
 20
-382.4624047071149
 42
-1
  0
SEQEND
  8
0
  0
POLYLINE
  8
0
  6
CONTINUOUS
 62
     7
 66
     1
 10
0
 20
0
  0
VERTEX
  8
0
  6
CONTINUOUS
 62
     7
 10
711.6603833504089
 20
-383.3246410188696
 42
0.07459289906077718
  0
VERTEX
  8
0
  6
CONTINUOUS
 62
     7
 10
711.6888281787084
 20
-383.6198692883986
 42
0.07459289906077718
  0
VERTEX
  8
0
  6
CONTINUOUS
 62
     7
 10
711.8381925181129
 20
-383.8961825327678
 42
0.07459289906077718
  0
VERTEX
  8
0
  6
CONTINUOUS
 62
     7
 10
712.0953258658475
 20
-384.1292532712591
 42
0.07459289906077718
  0
VERTEX
  8
0
  6
CONTINUOUS
 62
     7
 10
712.4375893991755
 20
-384.2985612283802
 42
0.07459289906077718
  0
VERTEX
  8
0
  6
CONTINUOUS
 62
     7
 10
712.8348491680339
 20
-384.3892000029857
 42
0.07459289906077718
  0
VERTEX
  8
0
  6
CONTINUOUS
 62
     7
 10
713.2521291820784
 20
-384.3931894743741
 42
0.07459289906077718
  0
VERTEX
  8
0
  6
CONTINUOUS
 62
     7
 10
713.652690806073
 20
-384.3101783970287
 42
0.07459289906077718
  0
VERTEX
  8
0
  6
CONTINUOUS
 62
     7
 10
714.0012673440386
 20
-384.1474753253697
 42
0.07459289906077718
  0
VERTEX
  8
0
  6
CONTINUOUS
 62
     7
 10
714.2671690292737
 20
-383.9194051458051
 42
0.07459289906077718
  0
VERTEX
  8
0
  6
CONTINUOUS
 62
     7
 10
714.4269850472324
 20
-383.6460478690069
 42
0.07459289906077718
  0
VERTEX
  8
0
  6
CONTINUOUS
 62
     7
 10
714.4666446967284
 20
-383.3514707230794
 42
0.07459289906077718
  0
VERTEX
  8
0
  6
CONTINUOUS
 62
     7
 10
714.3826562183978
 20
-383.0616091996564
 42
0.07459289906077718
  0
VERTEX
  8
0
  6
CONTINUOUS
 62
     7
 10
714.1824142200951
 20
-382.8019836122431
 42
0.07459289906077718
  0
VERTEX
  8
0
  6
CONTINUOUS
 62
     7
 10
713.8835486325311
 20
-382.5954522081388
 42
0.07459289906077718
  0
VERTEX
  8
0
  6
CONTINUOUS
 62
     7
 10
713.51237251513
 20
-382.460198656977
 42
0.07459289906077718
  0
VERTEX
  8
0
  6
CONTINUOUS
 62
     7
 10
713.1015653721255
 20
-382.4081311036804
 42
-1
  0
SEQEND
  8
0
  0
POLYLINE
  8
0
  6
CONTINUOUS
 62
     7
 66
     1
 10
0
 20
0
  0
VERTEX
  8
0
  6
CONTINUOUS
 62
     7
 10
710.6375907421858
 20
-383.3139916689851
 42
0.07398282385211347
  0
VERTEX
  8
0
  6
CONTINUOUS
 62
     7
 10
710.7133669969129
 20
-383.8677954118474
 42
0.07398282385211347
  0
VERTEX
  8
0
  6
CONTINUOUS
 62
     7
 10
710.992834361734
 20
-384.3804293564443
 42
0.07398282385211347
  0
VERTEX
  8
0
  6
CONTINUOUS
 62
     7
 10
711.4517841255038
 20
-384.8074868612491
 42
0.07398282385211347
  0
VERTEX
  8
0
  6
CONTINUOUS
 62
     7
 10
712.0504600101738
 20
-385.1119742981047
 42
0.07398282385211347
  0
VERTEX
  8
0
  6
CONTINUOUS
 62
     7
 10
712.7370020371346
 20
-385.2675156054951
 42
0.07398282385211347
  0
VERTEX
  8
0
  6
CONTINUOUS
 62
     7
 10
713.4519388701521
 20
-385.2606371007806
 42
0.07398282385211347
  0
VERTEX
  8
0
  6
CONTINUOUS
 62
     7
 10
714.1333394880895
 20
-385.0919346307566
 42
0.07398282385211347
  0
VERTEX
  8
0
  6
CONTINUOUS
 62
     7
 10
714.7221779265223
 20
-384.7760219567433
 42
0.07398282385211347
  0
VERTEX
  8
0
  6
CONTINUOUS
 62
     7
 10
715.1674463703644
 20
-384.3402648453205
 42
0.07398282385211347
  0
VERTEX
  8
0
  6
CONTINUOUS
 62
     7
 10
715.4305736785958
 20
-383.8224105234199
 42
0.07398282385211347
  0
VERTEX
  8
0
  6
CONTINUOUS
 62
     7
 10
715.4887665887419
 20
-383.2673178449628
 42
0.07398282385211347
  0
VERTEX
  8
0
  6
CONTINUOUS
 62
     7
 10
715.3369841710564
 20
-382.7230714166087
 42
0.07398282385211347
  0
VERTEX
  8
0
  6
CONTINUOUS
 62
     7
 10
714.9883744963672
 20
-382.2368162943979
 42
0.07398282385211347
  0
VERTEX
  8
0
  6
CONTINUOUS
 62
     7
 10
714.4731356914657
 20
-381.8506740684633
 42
0.07398282385211347
  0
VERTEX
  8
0
  6
CONTINUOUS
 62
     7
 10
713.8359000425107
 20
-381.5980941027928
 42
0.07398282385211347
  0
VERTEX
  8
0
  6
CONTINUOUS
 62
     7
 10
713.1318677470886
 20
-381.5009560019475
 42
-1
  0
SEQEND
  8
0
  0
ENDSEC
  0
EOF
