  0
SECTION
  2
HEADER
  9
$EXTMAX
 10
208.5
 20
148.5
  9
$EXTMIN
 10
-208.5
 20
-148.5
  0
ENDSEC
  0
SECTION
  2
TABLES
  0
TABLE
  2
LTYPE
 70
    22
  0
LTYPE
  2
CONTINUOUS
 70
    64
  3
Solid line
 72
    65
 73
     0
 40
0.000000
  0
LTYPE
  2
DASHED
 70
    64
  3
__ __ __ __ __ __ __ __ __ __ __ __ __ __ __
 72
    65
 73
     2
 40
3.500000
 49
2.000000
 49
-1.500000
  0
LTYPE
  2
CENTER
 70
    64
  3
____ _ ____ _ ____ _ ____ _ ____ _ ____ _ ____
 72
    65
 73
     4
 40
17.500000
 49
13.000000
 49
-1.500000
 49
1.500000
 49
-1.500000
  0
LTYPE
  2
PHANTOM
 70
    64
  3
_____ _ _ _____ _ _ _____ _ _ _____ _ _ ____  
 72
    65
 73
     6
 40
15.500000
 49
8.000000
 49
-1.500000
 49
1.500000
 49
-1.500000
 49
1.500000
 49
-1.500000
  0
LTYPE
  2
DOT
 70
    64
  3
. . . . . . . . . . . . . . . . . . . . . . . .
 72
    65
 73
     2
 40
0.25
 49
0.0
 49
-0.25
  0
ENDTAB
  0
TABLE
  2
LAYER
 70
     2
  0
LAYER
  2
0
 70
     0
 62
     7
  6
CONTINUOUS
  0
LAYER
  2
1
 70
     0
 62
     7
  6
CONTINUOUS
  0
ENDTAB
  0
TABLE
  2
STYLE
 70
     1
  0
STYLE
  2
STANDARD
 70
     0
 40
0.000000
 41
1.000000
 50
0.000000
 71
     0
 42
0.200000
  3
txt
  4
BIGFONT
  0
ENDTAB
  0
TABLE
  2
VIEW
 70
     0
  0
ENDTAB
  0
ENDSEC
  0
SECTION
  2
BLOCKS
  0
ENDSEC
  0
SECTION
  2
ENTITIES
  0
POINT
  8
0
  6
CONTINUOUS
 62
     7
 10
-91.80275726318359
 20
1.165664672851563
  0
POINT
  8
0
  6
CONTINUOUS
 62
     7
 10
32.52753829956055
 20
1.165664672851563
  0
POINT
  8
0
  6
CONTINUOUS
 62
     7
 10
166.0285339355469
 20
1.165664672851563
  0
POINT
  8
0
  6
CONTINUOUS
 62
     7
 10
351.3788146972656
 20
3.931121587753296
  0
POINT
  8
0
  6
CONTINUOUS
 62
     7
 10
531.846923828125
 20
3.873471975326538
  0
POINT
  8
0
  6
CONTINUOUS
 62
     7
 10
707.0878295898438
 20
0.4715079665184021
  0
POINT
  8
0
  6
CONTINUOUS
 62
     7
 10
869.9297485351563
 20
0.7019321918487549
  0
POINT
  8
0
  6
CONTINUOUS
 62
     7
 10
587.7322998046875
 20
-262.24853515625
  0
POINT
  8
0
  6
CONTINUOUS
 62
     7
 10
384.7411499023438
 20
-262.24853515625
  0
POINT
  8
0
  6
CONTINUOUS
 62
     7
 10
142.9990997314453
 20
-262.24853515625
  0
POINT
  8
0
  6
CONTINUOUS
 62
     7
 10
-55.86491012573242
 20
-262.24853515625
  0
POINT
  8
0
  6
CONTINUOUS
 62
     7
 10
-166.4582366943359
 20
-78.42069244384766
  0
POINT
  8
0
  6
CONTINUOUS
 62
     7
 10
-289.6324768066406
 20
-78.42069244384766
  0
POINT
  8
0
  6
CONTINUOUS
 62
     7
 10
-408.7300720214844
 20
-78.42069244384766
  0
LINE
  8
0
  6
CENTER
 62
     7
 10
-43.36169815063477
 20
1.165664672851563
 11
43.06431579589844
 21
1.165664672851563
  0
LINE
  8
0
  6
CONTINUOUS
 62
     7
 10
-31.47246360778809
 20
45.71566390991211
 11
-31.47246360778809
 21
-43.38433456420898
  0
LINE
  8
0
  6
CONTINUOUS
 62
     7
 10
-31.47246360778809
 20
45.71566390991211
 11
-15.47246360778809
 21
45.71566390991211
  0
LINE
  8
0
  6
CONTINUOUS
 62
     7
 10
-31.47246360778809
 20
-43.38433456420898
 11
-15.47246360778809
 21
-43.38433456420898
  0
LINE
  8
0
  6
CONTINUOUS
 62
     7
 10
-15.47246360778809
 20
45.71566390991211
 11
-15.47246360778809
 21
45.11566543579102
  0
LINE
  8
0
  6
CONTINUOUS
 62
     7
 10
-6.772463321685791
 20
45.71566390991211
 11
-6.772463321685791
 21
-43.38433456420898
  0
LINE
  8
0
  6
CONTINUOUS
 62
     7
 10
-1.772463202476502
 20
45.71566390991211
 11
-1.772463202476502
 21
-43.38433456420898
  0
LINE
  8
0
  6
CONTINUOUS
 62
     7
 10
-6.772463321685791
 20
45.71566390991211
 11
-1.772463202476502
 21
45.71566390991211
  0
LINE
  8
0
  6
CONTINUOUS
 62
     7
 10
-6.772463321685791
 20
-43.38433456420898
 11
-1.772463202476502
 21
-43.38433456420898
  0
LINE
  8
0
  6
CONTINUOUS
 62
     7
 10
32.52753829956055
 20
39.31566619873047
 11
32.52753829956055
 21
-36.98433685302734
  0
LINE
  8
0
  6
CONTINUOUS
 62
     7
 10
16.52753639221191
 20
39.31566619873047
 11
32.52753829956055
 21
39.31566619873047
  0
LINE
  8
0
  6
CONTINUOUS
 62
     7
 10
16.52753639221191
 20
-36.98433685302734
 11
32.52753829956055
 21
-36.98433685302734
  0
LINE
  8
0
  6
CONTINUOUS
 62
     7
 10
16.52753639221191
 20
39.31566619873047
 11
16.52753639221191
 21
38.76566314697266
  0
LINE
  8
0
  6
CONTINUOUS
 62
     7
 10
7.827537059783936
 20
39.31566619873047
 11
7.827537059783936
 21
-36.98433685302734
  0
LINE
  8
0
  6
CONTINUOUS
 62
     7
 10
-13.97246360778809
 20
43.61566543579102
 11
-8.820949554443359
 21
43.61566543579102
  0
LINE
  8
0
  6
CONTINUOUS
 62
     7
 10
-6.851333618164063
 20
45.26836776733398
 11
-6.772463321685791
 21
45.71566390991211
  0
LINE
  8
0
  6
CONTINUOUS
 62
     7
 10
-1.69359278678894
 20
45.26836776733398
 11
-1.772463202476502
 21
45.71566390991211
  0
LINE
  8
0
  6
CONTINUOUS
 62
     7
 10
-15.47246360778809
 20
45.11566543579102
 11
-15.47246360778809
 21
-43.38433456420898
  0
LINE
  8
0
  6
CONTINUOUS
 62
     7
 10
7.89759111404419
 20
38.91836929321289
 11
7.827537059783936
 21
39.31566619873047
  0
LINE
  8
0
  6
CONTINUOUS
 62
     7
 10
9.867206573486328
 20
37.26566314697266
 11
15.02753639221191
 21
37.26566314697266
  0
LINE
  8
0
  6
CONTINUOUS
 62
     7
 10
16.52753639221191
 20
38.76566314697266
 11
16.52753639221191
 21
-36.98433685302734
  0
LINE
  8
0
  6
CONTINUOUS
 62
     7
 10
-1.69359278678894
 20
-42.93703842163086
 11
-1.772463202476502
 21
-43.38433456420898
  0
LINE
  8
0
  6
CONTINUOUS
 62
     7
 10
-13.97246360778809
 20
-41.28433609008789
 11
-8.820949554443359
 21
-41.28433609008789
  0
LINE
  8
0
  6
CONTINUOUS
 62
     7
 10
-6.851333618164063
 20
-42.93703842163086
 11
-6.772463321685791
 21
-43.38433456420898
  0
LINE
  8
0
  6
CONTINUOUS
 62
     7
 10
7.89759111404419
 20
-36.58703994750977
 11
7.827537059783936
 21
-36.98433685302734
  0
LINE
  8
0
  6
CONTINUOUS
 62
     7
 10
9.867206573486328
 20
-34.93433380126953
 11
15.02753639221191
 21
-34.93433380126953
  0
LINE
  8
0
  6
CONTINUOUS
 62
     7
 10
7.627536773681641
 20
43.61566543579102
 11
7.627536773681641
 21
39.31966781616211
  0
LINE
  8
0
  6
CONTINUOUS
 62
     7
 10
0.2760227620601654
 20
43.61566543579102
 11
7.627536773681641
 21
43.61566543579102
  0
LINE
  8
0
  6
CONTINUOUS
 62
     7
 10
7.627536773681641
 20
-41.28433609008789
 11
7.627536773681641
 21
-36.98833847045898
  0
LINE
  8
0
  6
CONTINUOUS
 62
     7
 10
0.2760227620601654
 20
-41.28433609008789
 11
7.627536773681641
 21
-41.28433609008789
  0
LINE
  8
0
  6
CENTER
 62
     7
 10
75.21292114257813
 20
1.165664672851563
 11
178.9366760253906
 21
1.165664672851563
  0
LINE
  8
0
  6
CONTINUOUS
 62
     7
 10
90.02853393554688
 20
58.31566619873047
 11
90.02853393554688
 21
-55.98433685302734
  0
LINE
  8
0
  6
CONTINUOUS
 62
     7
 10
90.02853393554688
 20
58.31566619873047
 11
106.0285339355469
 21
58.31566619873047
  0
LINE
  8
0
  6
CONTINUOUS
 62
     7
 10
90.02853393554688
 20
-55.98433685302734
 11
106.0285339355469
 21
-55.98433685302734
  0
LINE
  8
0
  6
CONTINUOUS
 62
     7
 10
166.0285339355469
 20
31.41566467285156
 11
166.0285339355469
 21
-29.08433532714844
  0
LINE
  8
0
  6
CONTINUOUS
 62
     7
 10
106.0285339355469
 20
58.31566619873047
 11
106.0285339355469
 21
57.41566467285156
  0
LINE
  8
0
  6
CONTINUOUS
 62
     7
 10
114.7285308837891
 20
58.31566619873047
 11
114.7285308837891
 21
-55.98433685302734
  0
LINE
  8
0
  6
CONTINUOUS
 62
     7
 10
119.7285308837891
 20
58.31566619873047
 11
119.7285308837891
 21
-55.98433685302734
  0
LINE
  8
0
  6
CONTINUOUS
 62
     7
 10
133.7018280029297
 20
31.41566467285156
 11
141.3285369873047
 21
31.41566467285156
  0
LINE
  8
0
  6
CONTINUOUS
 62
     7
 10
150.0285339355469
 20
-29.08433532714844
 11
166.0285339355469
 21
-29.08433532714844
  0
LINE
  8
0
  6
CONTINUOUS
 62
     7
 10
150.0285339355469
 20
31.41566467285156
 11
150.0285339355469
 21
31.11566543579102
  0
LINE
  8
0
  6
CONTINUOUS
 62
     7
 10
141.3285369873047
 20
31.41566467285156
 11
141.3285369873047
 21
-29.08433532714844
  0
LINE
  8
0
  6
CONTINUOUS
 62
     7
 10
107.5285339355469
 20
55.91566467285156
 11
112.6271438598633
 21
55.91566467285156
  0
LINE
  8
0
  6
CONTINUOUS
 62
     7
 10
114.7285308837891
 20
58.31566619873047
 11
119.7285308837891
 21
58.31566619873047
  0
LINE
  8
0
  6
CONTINUOUS
 62
     7
 10
114.5967636108398
 20
57.56836700439453
 11
114.7285308837891
 21
58.31566619873047
  0
LINE
  8
0
  6
CONTINUOUS
 62
     7
 10
119.8602981567383
 20
57.56836700439453
 11
119.7285308837891
 21
58.31566619873047
  0
LINE
  8
0
  6
CONTINUOUS
 62
     7
 10
106.0285339355469
 20
57.41566467285156
 11
106.0285339355469
 21
-55.98433685302734
  0
LINE
  8
0
  6
CONTINUOUS
 62
     7
 10
130.7474060058594
 20
33.89472198486328
 11
127.7387619018555
 21
50.95755386352539
  0
LINE
  8
0
  6
CONTINUOUS
 62
     7
 10
150.0285339355469
 20
31.41566467285156
 11
166.0285339355469
 21
31.41566467285156
  0
LINE
  8
0
  6
CONTINUOUS
 62
     7
 10
141.3545074462891
 20
31.26836776733398
 11
141.3285369873047
 21
31.41566467285156
  0
LINE
  8
0
  6
CONTINUOUS
 62
     7
 10
143.3241119384766
 20
29.61566543579102
 11
148.5285339355469
 21
29.61566543579102
  0
LINE
  8
0
  6
CONTINUOUS
 62
     7
 10
150.0285339355469
 20
31.11566543579102
 11
150.0285339355469
 21
-29.08433532714844
  0
LINE
  8
0
  6
CONTINUOUS
 62
     7
 10
114.7285308837891
 20
-55.98433685302734
 11
119.7285308837891
 21
-55.98433685302734
  0
LINE
  8
0
  6
CONTINUOUS
 62
     7
 10
133.7018280029297
 20
-29.08433532714844
 11
141.3285369873047
 21
-29.08433532714844
  0
LINE
  8
0
  6
CONTINUOUS
 62
     7
 10
107.5285339355469
 20
-53.58433532714844
 11
112.6271438598633
 21
-53.58433532714844
  0
LINE
  8
0
  6
CONTINUOUS
 62
     7
 10
114.5967636108398
 20
-55.23703765869141
 11
114.7285308837891
 21
-55.98433685302734
  0
LINE
  8
0
  6
CONTINUOUS
 62
     7
 10
130.7474060058594
 20
-31.56339073181152
 11
127.7387619018555
 21
-48.62622451782227
  0
LINE
  8
0
  6
CONTINUOUS
 62
     7
 10
119.8602981567383
 20
-55.23703765869141
 11
119.7285308837891
 21
-55.98433685302734
  0
LINE
  8
0
  6
CONTINUOUS
 62
     7
 10
143.3241119384766
 20
-27.28433609008789
 11
148.5285339355469
 21
-27.28433609008789
  0
LINE
  8
0
  6
CONTINUOUS
 62
     7
 10
141.3545074462891
 20
-28.93703842163086
 11
141.3285369873047
 21
-29.08433532714844
  0
LINE
  8
0
  6
CONTINUOUS
 62
     7
 10
128.7285308837891
 20
55.91566467285156
 11
128.7285308837891
 21
45.34429168701172
  0
LINE
  8
0
  6
CONTINUOUS
 62
     7
 10
121.8299179077148
 20
55.91566467285156
 11
128.7285308837891
 21
55.91566467285156
  0
LINE
  8
0
  6
CONTINUOUS
 62
     7
 10
121.8299179077148
 20
-53.58433532714844
 11
128.7285308837891
 21
-53.58433532714844
  0
LINE
  8
0
  6
CONTINUOUS
 62
     7
 10
128.7285308837891
 20
-53.58433532714844
 11
128.7285308837891
 21
-43.01296234130859
  0
LINE
  8
0
  6
CENTER
 62
     7
 10
439.8206481933594
 20
3.873471975326538
 11
545.0579223632813
 21
3.873471975326538
  0
LINE
  8
0
  6
CONTINUOUS
 62
     7
 10
455.846923828125
 20
61.02347183227539
 11
455.846923828125
 21
-53.27652740478516
  0
LINE
  8
0
  6
CONTINUOUS
 62
     7
 10
531.846923828125
 20
48.4234733581543
 11
531.846923828125
 21
-40.67652893066406
  0
LINE
  8
0
  6
CONTINUOUS
 62
     7
 10
455.846923828125
 20
-53.27652740478516
 11
471.846923828125
 21
-53.27652740478516
  0
LINE
  8
0
  6
CONTINUOUS
 62
     7
 10
455.846923828125
 20
61.02347183227539
 11
471.846923828125
 21
61.02347183227539
  0
LINE
  8
0
  6
CONTINUOUS
 62
     7
 10
471.846923828125
 20
61.02347183227539
 11
471.846923828125
 21
60.1734733581543
  0
LINE
  8
0
  6
CONTINUOUS
 62
     7
 10
480.5469360351563
 20
61.02347183227539
 11
480.5469360351563
 21
-53.27652740478516
  0
LINE
  8
0
  6
CONTINUOUS
 62
     7
 10
485.5469360351563
 20
61.02347183227539
 11
485.5469360351563
 21
-53.27652740478516
  0
LINE
  8
0
  6
CONTINUOUS
 62
     7
 10
500.6936950683594
 20
48.4234733581543
 11
507.1469421386719
 21
48.4234733581543
  0
LINE
  8
0
  6
CONTINUOUS
 62
     7
 10
515.846923828125
 20
-40.67652893066406
 11
531.846923828125
 21
-40.67652893066406
  0
LINE
  8
0
  6
CONTINUOUS
 62
     7
 10
515.846923828125
 20
48.4234733581543
 11
515.846923828125
 21
47.82347106933594
  0
LINE
  8
0
  6
CONTINUOUS
 62
     7
 10
507.1469421386719
 20
48.4234733581543
 11
507.1469421386719
 21
-40.67652893066406
  0
LINE
  8
0
  6
CONTINUOUS
 62
     7
 10
473.346923828125
 20
58.6734733581543
 11
478.4543762207031
 21
58.6734733581543
  0
LINE
  8
0
  6
CONTINUOUS
 62
     7
 10
480.5469360351563
 20
61.02347183227539
 11
485.5469360351563
 21
61.02347183227539
  0
LINE
  8
0
  6
CONTINUOUS
 62
     7
 10
480.4239807128906
 20
60.32617568969727
 11
480.5469360351563
 21
61.02347183227539
  0
LINE
  8
0
  6
CONTINUOUS
 62
     7
 10
485.6698913574219
 20
60.32617568969727
 11
485.5469360351563
 21
61.02347183227539
  0
LINE
  8
0
  6
CONTINUOUS
 62
     7
 10
471.846923828125
 20
60.1734733581543
 11
471.846923828125
 21
-53.27652740478516
  0
LINE
  8
0
  6
CONTINUOUS
 62
     7
 10
480.5469360351563
 20
-53.27652740478516
 11
485.5469360351563
 21
-53.27652740478516
  0
LINE
  8
0
  6
CONTINUOUS
 62
     7
 10
515.846923828125
 20
48.4234733581543
 11
531.846923828125
 21
48.4234733581543
  0
LINE
  8
0
  6
CONTINUOUS
 62
     7
 10
509.1954345703125
 20
46.32347106933594
 11
514.346923828125
 21
46.32347106933594
  0
LINE
  8
0
  6
CONTINUOUS
 62
     7
 10
507.2257995605469
 20
47.97617721557617
 11
507.1469421386719
 21
48.4234733581543
  0
LINE
  8
0
  6
CONTINUOUS
 62
     7
 10
515.846923828125
 20
47.82347106933594
 11
515.846923828125
 21
-40.67652893066406
  0
LINE
  8
0
  6
CONTINUOUS
 62
     7
 10
509.1954345703125
 20
-38.5765266418457
 11
514.346923828125
 21
-38.5765266418457
  0
LINE
  8
0
  6
CONTINUOUS
 62
     7
 10
500.6936950683594
 20
-40.67652893066406
 11
507.1469421386719
 21
-40.67652893066406
  0
LINE
  8
0
  6
CONTINUOUS
 62
     7
 10
496.6494140625
 20
50.48345184326172
 11
492.4926452636719
 21
56.20149612426758
  0
LINE
  8
0
  6
CONTINUOUS
 62
     7
 10
494.5469360351563
 20
58.6734733581543
 11
494.5469360351563
 21
53.37562561035156
  0
LINE
  8
0
  6
CONTINUOUS
 62
     7
 10
487.6394958496094
 20
58.6734733581543
 11
494.5469360351563
 21
58.6734733581543
  0
LINE
  8
0
  6
CONTINUOUS
 62
     7
 10
485.6698913574219
 20
-52.57923126220703
 11
485.5469360351563
 21
-53.27652740478516
  0
LINE
  8
0
  6
CONTINUOUS
 62
     7
 10
496.6494140625
 20
-42.73650741577148
 11
492.4926452636719
 21
-48.45455551147461
  0
LINE
  8
0
  6
CONTINUOUS
 62
     7
 10
494.5469360351563
 20
-50.92652893066406
 11
494.5469360351563
 21
-45.62868118286133
  0
LINE
  8
0
  6
CONTINUOUS
 62
     7
 10
487.6394958496094
 20
-50.92652893066406
 11
494.5469360351563
 21
-50.92652893066406
  0
LINE
  8
0
  6
CONTINUOUS
 62
     7
 10
480.4239807128906
 20
-52.57923126220703
 11
480.5469360351563
 21
-53.27652740478516
  0
LINE
  8
0
  6
CONTINUOUS
 62
     7
 10
473.346923828125
 20
-50.92652893066406
 11
478.4543762207031
 21
-50.92652893066406
  0
LINE
  8
0
  6
CENTER
 62
     7
 10
761.1663208007813
 20
0.7019321918487549
 11
891.617431640625
 21
0.7019321918487549
  0
LINE
  8
0
  6
CONTINUOUS
 62
     7
 10
780.9297485351563
 20
70.6019287109375
 11
780.9297485351563
 21
-69.19806671142578
  0
LINE
  8
0
  6
CONTINUOUS
 62
     7
 10
780.9297485351563
 20
70.6019287109375
 11
796.9297485351563
 21
70.6019287109375
  0
LINE
  8
0
  6
CONTINUOUS
 62
     7
 10
780.9297485351563
 20
-69.19806671142578
 11
796.9297485351563
 21
-69.19806671142578
  0
LINE
  8
0
  6
CONTINUOUS
 62
     7
 10
869.9297485351563
 20
45.25193405151367
 11
869.9297485351563
 21
-43.84806823730469
  0
LINE
  8
0
  6
CONTINUOUS
 62
     7
 10
796.9297485351563
 20
70.6019287109375
 11
796.9297485351563
 21
69.70193481445313
  0
LINE
  8
0
  6
CONTINUOUS
 62
     7
 10
805.6297607421875
 20
70.6019287109375
 11
805.6297607421875
 21
-69.19806671142578
  0
LINE
  8
0
  6
CONTINUOUS
 62
     7
 10
810.6297607421875
 20
70.6019287109375
 11
810.6297607421875
 21
-69.19806671142578
  0
LINE
  8
0
  6
CONTINUOUS
 62
     7
 10
805.6297607421875
 20
70.6019287109375
 11
810.6297607421875
 21
70.6019287109375
  0
LINE
  8
0
  6
CONTINUOUS
 62
     7
 10
805.6297607421875
 20
-69.19806671142578
 11
810.6297607421875
 21
-69.19806671142578
  0
LINE
  8
0
  6
CONTINUOUS
 62
     7
 10
798.4297485351563
 20
68.20193481445313
 11
803.5283813476563
 21
68.20193481445313
  0
LINE
  8
0
  6
CONTINUOUS
 62
     7
 10
853.9297485351563
 20
45.25193405151367
 11
853.9297485351563
 21
45.15193176269531
  0
LINE
  8
0
  6
CONTINUOUS
 62
     7
 10
845.229736328125
 20
45.25193405151367
 11
845.229736328125
 21
-43.84806823730469
  0
LINE
  8
0
  6
CONTINUOUS
 62
     7
 10
805.4979858398438
 20
69.85463714599609
 11
805.6297607421875
 21
70.6019287109375
  0
LINE
  8
0
  6
CONTINUOUS
 62
     7
 10
810.7615356445313
 20
69.85463714599609
 11
810.6297607421875
 21
70.6019287109375
  0
LINE
  8
0
  6
CONTINUOUS
 62
     7
 10
796.9297485351563
 20
69.70193481445313
 11
796.9297485351563
 21
-69.19806671142578
  0
LINE
  8
0
  6
CONTINUOUS
 62
     7
 10
798.4297485351563
 20
-66.79806518554688
 11
803.5283813476563
 21
-66.79806518554688
  0
LINE
  8
0
  6
CONTINUOUS
 62
     7
 10
805.4979858398438
 20
-68.45077514648438
 11
805.6297607421875
 21
-69.19806671142578
  0
LINE
  8
0
  6
CONTINUOUS
 62
     7
 10
812.7311401367188
 20
68.20193481445313
 11
825.6297607421875
 21
68.20193481445313
  0
LINE
  8
0
  6
CONTINUOUS
 62
     7
 10
838.443115234375
 20
45.25193405151367
 11
845.229736328125
 21
45.25193405151367
  0
LINE
  8
0
  6
CONTINUOUS
 62
     7
 10
853.9297485351563
 20
45.25193405151367
 11
869.9297485351563
 21
45.25193405151367
  0
LINE
  8
0
  6
CONTINUOUS
 62
     7
 10
853.9297485351563
 20
-43.84806823730469
 11
869.9297485351563
 21
-43.84806823730469
  0
LINE
  8
0
  6
CONTINUOUS
 62
     7
 10
836.229736328125
 20
45.25193405151367
 11
836.229736328125
 21
-43.84750366210938
  0
LINE
  8
0
  6
CONTINUOUS
 62
     7
 10
834.74169921875
 20
46.89042663574219
 11
817.1727905273438
 21
66.23574066162109
  0
LINE
  8
0
  6
CONTINUOUS
 62
     7
 10
825.6297607421875
 20
68.20193481445313
 11
825.6297607421875
 21
56.92370223999023
  0
LINE
  8
0
  6
CONTINUOUS
 62
     7
 10
810.7615356445313
 20
-68.45077514648438
 11
810.6297607421875
 21
-69.19806671142578
  0
LINE
  8
0
  6
CONTINUOUS
 62
     7
 10
812.7311401367188
 20
-66.79806518554688
 11
825.6297607421875
 21
-66.79806518554688
  0
LINE
  8
0
  6
CONTINUOUS
 62
     7
 10
834.74169921875
 20
-45.4865608215332
 11
817.1727905273438
 21
-64.83187103271484
  0
LINE
  8
0
  6
CONTINUOUS
 62
     7
 10
838.443115234375
 20
-43.84806823730469
 11
845.229736328125
 21
-43.84806823730469
  0
LINE
  8
0
  6
CONTINUOUS
 62
     7
 10
825.6297607421875
 20
-66.79806518554688
 11
825.6297607421875
 21
-55.51984024047852
  0
LINE
  8
0
  6
CONTINUOUS
 62
     7
 10
847.2782592773438
 20
43.15193176269531
 11
851.9297485351563
 21
43.15193176269531
  0
LINE
  8
0
  6
CONTINUOUS
 62
     7
 10
845.3086547851563
 20
44.80463409423828
 11
845.229736328125
 21
45.25193405151367
  0
LINE
  8
0
  6
CONTINUOUS
 62
     7
 10
853.9297485351563
 20
45.25193405151367
 11
853.9297485351563
 21
-43.84806823730469
  0
LINE
  8
0
  6
CONTINUOUS
 62
     7
 10
845.3086547851563
 20
-43.40077209472656
 11
845.229736328125
 21
-43.84806823730469
  0
LINE
  8
0
  6
CONTINUOUS
 62
     7
 10
847.2782592773438
 20
-41.74806594848633
 11
851.9297485351563
 21
-41.74806594848633
  0
LINE
  8
0
  6
CENTER
 62
     7
 10
-169.9797821044922
 20
-262.24853515625
 11
-31.1969108581543
 21
-262.24853515625
  0
LINE
  8
0
  6
CONTINUOUS
 62
     7
 10
-144.8649139404297
 20
-192.3485412597656
 11
-144.8649139404297
 21
-332.1485290527344
  0
LINE
  8
0
  6
CONTINUOUS
 62
     7
 10
-144.8649139404297
 20
-192.3485412597656
 11
-128.8649139404297
 21
-192.3485412597656
  0
LINE
  8
0
  6
CONTINUOUS
 62
     7
 10
-144.8649139404297
 20
-332.1485290527344
 11
-128.8649139404297
 21
-332.1485290527344
  0
LINE
  8
0
  6
CONTINUOUS
 62
     7
 10
-128.8649139404297
 20
-192.3485412597656
 11
-128.8649139404297
 21
-193.24853515625
  0
LINE
  8
0
  6
CONTINUOUS
 62
     7
 10
-120.164909362793
 20
-192.3485412597656
 11
-120.164909362793
 21
-332.1485290527344
  0
LINE
  8
0
  6
CONTINUOUS
 62
     7
 10
-115.164909362793
 20
-192.3485412597656
 11
-115.164909362793
 21
-332.1485290527344
  0
LINE
  8
0
  6
CONTINUOUS
 62
     7
 10
-120.164909362793
 20
-192.3485412597656
 11
-115.164909362793
 21
-192.3485412597656
  0
LINE
  8
0
  6
CONTINUOUS
 62
     7
 10
-120.164909362793
 20
-332.1485290527344
 11
-115.164909362793
 21
-332.1485290527344
  0
LINE
  8
0
  6
CONTINUOUS
 62
     7
 10
-127.3649139404297
 20
-194.74853515625
 11
-122.2662963867188
 21
-194.74853515625
  0
LINE
  8
0
  6
CONTINUOUS
 62
     7
 10
-120.2966766357422
 20
-193.0958404541016
 11
-120.164909362793
 21
-192.3485412597656
  0
LINE
  8
0
  6
CONTINUOUS
 62
     7
 10
-115.0331420898438
 20
-193.0958404541016
 11
-115.164909362793
 21
-192.3485412597656
  0
LINE
  8
0
  6
CONTINUOUS
 62
     7
 10
-128.8649139404297
 20
-193.24853515625
 11
-128.8649139404297
 21
-332.1485290527344
  0
LINE
  8
0
  6
CONTINUOUS
 62
     7
 10
-120.2966766357422
 20
-331.4012451171875
 11
-120.164909362793
 21
-332.1485290527344
  0
LINE
  8
0
  6
CONTINUOUS
 62
     7
 10
-127.3649139404297
 20
-329.74853515625
 11
-122.2662963867188
 21
-329.74853515625
  0
LINE
  8
0
  6
CONTINUOUS
 62
     7
 10
-113.0635299682617
 20
-194.74853515625
 11
-100.164909362793
 21
-194.74853515625
  0
LINE
  8
0
  6
CONTINUOUS
 62
     7
 10
-113.0635299682617
 20
-329.74853515625
 11
-100.164909362793
 21
-329.74853515625
  0
LINE
  8
0
  6
CONTINUOUS
 62
     7
 10
-115.0331420898438
 20
-331.4012451171875
 11
-115.164909362793
 21
-332.1485290527344
  0
LINE
  8
0
  6
CONTINUOUS
 62
     7
 10
-100.164909362793
 20
-194.74853515625
 11
-100.164909362793
 21
-200.3910217285156
  0
LINE
  8
0
  6
CONTINUOUS
 62
     7
 10
-100.164909362793
 20
-329.74853515625
 11
-100.164909362793
 21
-324.1060485839844
  0
LINE
  8
0
  6
CONTINUOUS
 62
     7
 10
-55.86491012573242
 20
-205.0985412597656
 11
-55.86491012573242
 21
-319.3985290527344
  0
LINE
  8
0
  6
CONTINUOUS
 62
     7
 10
-55.86491012573242
 20
-205.0985412597656
 11
-71.86491394042969
 21
-205.0985412597656
  0
LINE
  8
0
  6
CONTINUOUS
 62
     7
 10
-55.86491012573242
 20
-319.3985290527344
 11
-71.86491394042969
 21
-319.3985290527344
  0
LINE
  8
0
  6
CONTINUOUS
 62
     7
 10
-80.56491088867188
 20
-319.3985290527344
 11
-80.56491088867188
 21
-205.0985412597656
  0
LINE
  8
0
  6
CONTINUOUS
 62
     7
 10
-71.86491394042969
 20
-319.3985290527344
 11
-71.86491394042969
 21
-318.5485229492188
  0
LINE
  8
0
  6
CONTINUOUS
 62
     7
 10
-71.86491394042969
 20
-318.5485229492188
 11
-71.86491394042969
 21
-205.0985412597656
  0
LINE
  8
0
  6
CONTINUOUS
 62
     7
 10
-80.44195556640625
 20
-318.7012329101563
 11
-80.56491088867188
 21
-319.3985290527344
  0
LINE
  8
0
  6
CONTINUOUS
 62
     7
 10
-80.56491088867188
 20
-319.3985290527344
 11
-89.40497589111328
 21
-319.3985290527344
  0
LINE
  8
0
  6
CONTINUOUS
 62
     7
 10
-73.36491394042969
 20
-317.0485229492188
 11
-78.47234344482422
 21
-317.0485229492188
  0
LINE
  8
0
  6
CONTINUOUS
 62
     7
 10
-80.56491088867188
 20
-205.0985412597656
 11
-89.40497589111328
 21
-205.0985412597656
  0
LINE
  8
0
  6
CONTINUOUS
 62
     7
 10
-80.44195556640625
 20
-205.7958374023438
 11
-80.56491088867188
 21
-205.0985412597656
  0
LINE
  8
0
  6
CONTINUOUS
 62
     7
 10
-73.36491394042969
 20
-207.4485321044922
 11
-78.47234344482422
 21
-207.4485321044922
  0
LINE
  8
0
  6
CONTINUOUS
 62
     7
 10
-90.56491088867188
 20
-319.3985290527344
 11
-90.56491088867188
 21
-205.0985412597656
  0
LINE
  8
0
  6
CONTINUOUS
 62
     7
 10
-91.60637664794922
 20
-204.5878448486328
 11
-110.4218444824219
 21
-195.3613739013672
  0
LINE
  8
0
  6
CONTINUOUS
 62
     7
 10
-91.60637664794922
 20
-319.9092407226563
 11
-110.4218444824219
 21
-329.1357116699219
  0
LINE
  8
0
  6
CENTER
 62
     7
 10
18.03278160095215
 20
-262.24853515625
 11
162.4563598632813
 21
-262.24853515625
  0
LINE
  8
0
  6
CONTINUOUS
 62
     7
 10
40.99910354614258
 20
-179.6485443115234
 11
40.99910354614258
 21
-344.8485412597656
  0
LINE
  8
0
  6
CONTINUOUS
 62
     7
 10
142.9990997314453
 20
-217.6985321044922
 11
142.9990997314453
 21
-306.7985229492188
  0
LINE
  8
0
  6
CONTINUOUS
 62
     7
 10
126.9991073608398
 20
-306.7985229492188
 11
142.9990997314453
 21
-306.7985229492188
  0
LINE
  8
0
  6
CONTINUOUS
 62
     7
 10
111.4323806762695
 20
-217.6985321044922
 11
118.2991027832031
 21
-217.6985321044922
  0
LINE
  8
0
  6
CONTINUOUS
 62
     7
 10
126.9991073608398
 20
-217.6985321044922
 11
142.9990997314453
 21
-217.6985321044922
  0
LINE
  8
0
  6
CONTINUOUS
 62
     7
 10
118.3779754638672
 20
-218.1458282470703
 11
118.2991027832031
 21
-217.6985321044922
  0
LINE
  8
0
  6
CONTINUOUS
 62
     7
 10
118.2991027832031
 20
-217.6985321044922
 11
118.2991027832031
 21
-306.7985229492188
  0
LINE
  8
0
  6
CONTINUOUS
 62
     7
 10
126.9991073608398
 20
-217.6985321044922
 11
126.9991073608398
 21
-218.2985382080078
  0
LINE
  8
0
  6
CONTINUOUS
 62
     7
 10
120.3475875854492
 20
-219.7985382080078
 11
125.4991073608398
 21
-219.7985382080078
  0
LINE
  8
0
  6
CONTINUOUS
 62
     7
 10
111.4323806762695
 20
-306.7985229492188
 11
118.2991027832031
 21
-306.7985229492188
  0
LINE
  8
0
  6
CONTINUOUS
 62
     7
 10
126.9991073608398
 20
-218.2985382080078
 11
126.9991073608398
 21
-306.7985229492188
  0
LINE
  8
0
  6
CONTINUOUS
 62
     7
 10
120.3475875854492
 20
-304.6985473632813
 11
125.4991073608398
 21
-304.6985473632813
  0
LINE
  8
0
  6
CONTINUOUS
 62
     7
 10
40.99910354614258
 20
-179.6485443115234
 11
56.99910354614258
 21
-179.6485443115234
  0
LINE
  8
0
  6
CONTINUOUS
 62
     7
 10
40.99910354614258
 20
-344.8485412597656
 11
56.99910354614258
 21
-344.8485412597656
  0
LINE
  8
0
  6
CONTINUOUS
 62
     7
 10
56.99910354614258
 20
-179.6485443115234
 11
56.99910354614258
 21
-180.3485412597656
  0
LINE
  8
0
  6
CONTINUOUS
 62
     7
 10
65.69910430908203
 20
-179.6485443115234
 11
65.69910430908203
 21
-344.8485412597656
  0
LINE
  8
0
  6
CONTINUOUS
 62
     7
 10
70.69910430908203
 20
-179.6485443115234
 11
70.69910430908203
 21
-344.8485412597656
  0
LINE
  8
0
  6
CONTINUOUS
 62
     7
 10
65.69910430908203
 20
-179.6485443115234
 11
70.69910430908203
 21
-179.6485443115234
  0
LINE
  8
0
  6
CONTINUOUS
 62
     7
 10
65.69910430908203
 20
-344.8485412597656
 11
70.69910430908203
 21
-344.8485412597656
  0
LINE
  8
0
  6
CONTINUOUS
 62
     7
 10
58.99910354614258
 20
-182.3485412597656
 11
63.96437454223633
 21
-182.3485412597656
  0
LINE
  8
0
  6
CONTINUOUS
 62
     7
 10
65.44158172607422
 20
-181.1090087890625
 11
65.69910430908203
 21
-179.6485443115234
  0
LINE
  8
0
  6
CONTINUOUS
 62
     7
 10
70.88377380371094
 20
-180.6958312988281
 11
70.69910430908203
 21
-179.6485443115234
  0
LINE
  8
0
  6
CONTINUOUS
 62
     7
 10
72.85338592529297
 20
-182.3485412597656
 11
90.69910430908203
 21
-182.3485412597656
  0
LINE
  8
0
  6
CONTINUOUS
 62
     7
 10
56.99910354614258
 20
-180.3485412597656
 11
56.99910354614258
 21
-344.8485412597656
  0
LINE
  8
0
  6
CONTINUOUS
 62
     7
 10
65.44158172607422
 20
-343.3880615234375
 11
65.69910430908203
 21
-344.8485412597656
  0
LINE
  8
0
  6
CONTINUOUS
 62
     7
 10
58.99910354614258
 20
-342.1485290527344
 11
63.96437454223633
 21
-342.1485290527344
  0
LINE
  8
0
  6
CONTINUOUS
 62
     7
 10
109.2991027832031
 20
-217.6985321044922
 11
109.2991027832031
 21
-306.7985229492188
  0
LINE
  8
0
  6
CONTINUOUS
 62
     7
 10
107.822883605957
 20
-216.1585235595703
 11
77.18478393554688
 21
-184.1965484619141
  0
LINE
  8
0
  6
CONTINUOUS
 62
     7
 10
90.69910430908203
 20
-182.3485412597656
 11
90.69910430908203
 21
-198.2948303222656
  0
LINE
  8
0
  6
CONTINUOUS
 62
     7
 10
70.88377380371094
 20
-343.8012390136719
 11
70.69910430908203
 21
-344.8485412597656
  0
LINE
  8
0
  6
CONTINUOUS
 62
     7
 10
72.85338592529297
 20
-342.1485290527344
 11
90.69910430908203
 21
-342.1485290527344
  0
LINE
  8
0
  6
CONTINUOUS
 62
     7
 10
107.822883605957
 20
-308.3385620117188
 11
77.18478393554688
 21
-340.300537109375
  0
LINE
  8
0
  6
CONTINUOUS
 62
     7
 10
90.69910430908203
 20
-342.1485290527344
 11
90.69910430908203
 21
-326.2022399902344
  0
LINE
  8
0
  6
CENTER
 62
     7
 10
261.5418090820313
 20
-262.24853515625
 11
410.8127136230469
 21
-262.24853515625
  0
LINE
  8
0
  6
CONTINUOUS
 62
     7
 10
282.7411499023438
 20
-179.6485443115234
 11
282.7411499023438
 21
-344.8485412597656
  0
LINE
  8
0
  6
CONTINUOUS
 62
     7
 10
282.7411499023438
 20
-179.6485443115234
 11
298.7411499023438
 21
-179.6485443115234
  0
LINE
  8
0
  6
CONTINUOUS
 62
     7
 10
282.7411499023438
 20
-344.8485412597656
 11
298.7411499023438
 21
-344.8485412597656
  0
LINE
  8
0
  6
CONTINUOUS
 62
     7
 10
312.4411315917969
 20
-179.6485443115234
 11
312.4411315917969
 21
-344.8485412597656
  0
LINE
  8
0
  6
CONTINUOUS
 62
     7
 10
307.4411315917969
 20
-179.6485443115234
 11
307.4411315917969
 21
-344.8485412597656
  0
LINE
  8
0
  6
CONTINUOUS
 62
     7
 10
298.7411499023438
 20
-179.6485443115234
 11
298.7411499023438
 21
-180.8485412597656
  0
LINE
  8
0
  6
CONTINUOUS
 62
     7
 10
312.6257934570313
 20
-180.6958312988281
 11
312.4411315917969
 21
-179.6485443115234
  0
LINE
  8
0
  6
CONTINUOUS
 62
     7
 10
307.4411315917969
 20
-179.6485443115234
 11
312.4411315917969
 21
-179.6485443115234
  0
LINE
  8
0
  6
CONTINUOUS
 62
     7
 10
307.4411315917969
 20
-344.8485412597656
 11
312.4411315917969
 21
-344.8485412597656
  0
LINE
  8
0
  6
CONTINUOUS
 62
     7
 10
307.2564697265625
 20
-180.6958312988281
 11
307.4411315917969
 21
-179.6485443115234
  0
LINE
  8
0
  6
CONTINUOUS
 62
     7
 10
300.2411499023438
 20
-182.3485412597656
 11
305.286865234375
 21
-182.3485412597656
  0
LINE
  8
0
  6
CONTINUOUS
 62
     7
 10
314.5954284667969
 20
-182.3485412597656
 11
332.4411315917969
 21
-182.3485412597656
  0
LINE
  8
0
  6
CONTINUOUS
 62
     7
 10
298.7411499023438
 20
-180.3485412597656
 11
298.7411499023438
 21
-343.6485290527344
  0
LINE
  8
0
  6
CONTINUOUS
 62
     7
 10
300.2411499023438
 20
-342.1485290527344
 11
305.286865234375
 21
-342.1485290527344
  0
LINE
  8
0
  6
CONTINUOUS
 62
     7
 10
307.2564697265625
 20
-343.8012390136719
 11
307.4411315917969
 21
-344.8485412597656
  0
LINE
  8
0
  6
CONTINUOUS
 62
     7
 10
312.6257934570313
 20
-343.8012390136719
 11
312.4411315917969
 21
-344.8485412597656
  0
LINE
  8
0
  6
CONTINUOUS
 62
     7
 10
314.5954284667969
 20
-342.1485290527344
 11
332.4411315917969
 21
-342.1485290527344
  0
LINE
  8
0
  6
CONTINUOUS
 62
     7
 10
332.4411315917969
 20
-182.3485412597656
 11
332.4411315917969
 21
-192.8871765136719
  0
LINE
  8
0
  6
CONTINUOUS
 62
     7
 10
332.4411315917969
 20
-342.1485290527344
 11
332.4411315917969
 21
-331.6098937988281
  0
LINE
  8
0
  6
CONTINUOUS
 62
     7
 10
384.7411499023438
 20
-205.0985412597656
 11
384.7411499023438
 21
-319.3985290527344
  0
LINE
  8
0
  6
CONTINUOUS
 62
     7
 10
384.7411499023438
 20
-205.0985412597656
 11
368.7411499023438
 21
-205.0985412597656
  0
LINE
  8
0
  6
CONTINUOUS
 62
     7
 10
384.7411499023438
 20
-319.3985290527344
 11
368.7411499023438
 21
-319.3985290527344
  0
LINE
  8
0
  6
CONTINUOUS
 62
     7
 10
360.0411376953125
 20
-319.3985290527344
 11
360.0411376953125
 21
-205.0985412597656
  0
LINE
  8
0
  6
CONTINUOUS
 62
     7
 10
368.7411499023438
 20
-319.3985290527344
 11
368.7411499023438
 21
-318.5485229492188
  0
LINE
  8
0
  6
CONTINUOUS
 62
     7
 10
368.7411499023438
 20
-318.5485229492188
 11
368.7411499023438
 21
-205.0985412597656
  0
LINE
  8
0
  6
CONTINUOUS
 62
     7
 10
360.1640930175781
 20
-318.7012329101563
 11
360.0411376953125
 21
-319.3985290527344
  0
LINE
  8
0
  6
CONTINUOUS
 62
     7
 10
360.0411376953125
 20
-319.3985290527344
 11
352.5357971191406
 21
-319.3985290527344
  0
LINE
  8
0
  6
CONTINUOUS
 62
     7
 10
367.2411499023438
 20
-317.0485229492188
 11
362.1336975097656
 21
-317.0485229492188
  0
LINE
  8
0
  6
CONTINUOUS
 62
     7
 10
360.0411376953125
 20
-205.0985412597656
 11
352.5357971191406
 21
-205.0985412597656
  0
LINE
  8
0
  6
CONTINUOUS
 62
     7
 10
360.1640930175781
 20
-205.7958374023438
 11
360.0411376953125
 21
-205.0985412597656
  0
LINE
  8
0
  6
CONTINUOUS
 62
     7
 10
367.2411499023438
 20
-207.4485321044922
 11
362.1336975097656
 21
-207.4485321044922
  0
LINE
  8
0
  6
CONTINUOUS
 62
     7
 10
351.0411376953125
 20
-319.3985290527344
 11
351.0411376953125
 21
-205.0985412597656
  0
LINE
  8
0
  6
CONTINUOUS
 62
     7
 10
349.7916870117188
 20
-204.2782440185547
 11
317.8883361816406
 21
-183.3328857421875
  0
LINE
  8
0
  6
CONTINUOUS
 62
     7
 10
349.7916870117188
 20
-320.2188110351563
 11
317.8883361816406
 21
-341.1641845703125
  0
LINE
  8
0
  6
CONTINUOUS
 62
     7
 10
298.7411499023438
 20
-343.6485290527344
 11
298.7411499023438
 21
-344.8485412597656
  0
LINE
  8
0
  6
CENTER
 62
     7
 10
458.6673278808594
 20
-262.24853515625
 11
616.6475219726563
 21
-262.24853515625
  0
LINE
  8
0
  6
CONTINUOUS
 62
     7
 10
485.7323303222656
 20
-344.8485412597656
 11
501.7323303222656
 21
-344.8485412597656
  0
LINE
  8
0
  6
CONTINUOUS
 62
     7
 10
485.7323303222656
 20
-179.6485443115234
 11
501.7323303222656
 21
-179.6485443115234
  0
LINE
  8
0
  6
CONTINUOUS
 62
     7
 10
485.7323303222656
 20
-179.6485443115234
 11
485.7323303222656
 21
-344.8485412597656
  0
LINE
  8
0
  6
CONTINUOUS
 62
     7
 10
515.4323120117188
 20
-179.6485443115234
 11
515.4323120117188
 21
-344.8485412597656
  0
LINE
  8
0
  6
CONTINUOUS
 62
     7
 10
510.4323120117188
 20
-179.6485443115234
 11
510.4323120117188
 21
-344.8485412597656
  0
LINE
  8
0
  6
CONTINUOUS
 62
     7
 10
501.7323303222656
 20
-179.6485443115234
 11
501.7323303222656
 21
-180.8485412597656
  0
LINE
  8
0
  6
CONTINUOUS
 62
     7
 10
515.6170043945313
 20
-180.6958312988281
 11
515.4323120117188
 21
-179.6485443115234
  0
LINE
  8
0
  6
CONTINUOUS
 62
     7
 10
510.4323120117188
 20
-179.6485443115234
 11
515.4323120117188
 21
-179.6485443115234
  0
LINE
  8
0
  6
CONTINUOUS
 62
     7
 10
510.4323120117188
 20
-344.8485412597656
 11
515.4323120117188
 21
-344.8485412597656
  0
LINE
  8
0
  6
CONTINUOUS
 62
     7
 10
510.2476501464844
 20
-180.6958312988281
 11
510.4323120117188
 21
-179.6485443115234
  0
LINE
  8
0
  6
CONTINUOUS
 62
     7
 10
503.2323303222656
 20
-182.3485412597656
 11
508.2780456542969
 21
-182.3485412597656
  0
LINE
  8
0
  6
CONTINUOUS
 62
     7
 10
517.5866088867188
 20
-182.3485412597656
 11
535.4323120117188
 21
-182.3485412597656
  0
LINE
  8
0
  6
CONTINUOUS
 62
     7
 10
501.7323303222656
 20
-180.3485412597656
 11
501.7323303222656
 21
-343.6485290527344
  0
LINE
  8
0
  6
CONTINUOUS
 62
     7
 10
503.2323303222656
 20
-342.1485290527344
 11
508.2780456542969
 21
-342.1485290527344
  0
LINE
  8
0
  6
CONTINUOUS
 62
     7
 10
510.2476501464844
 20
-343.8012390136719
 11
510.4323120117188
 21
-344.8485412597656
  0
LINE
  8
0
  6
CONTINUOUS
 62
     7
 10
515.6170043945313
 20
-343.8012390136719
 11
515.4323120117188
 21
-344.8485412597656
  0
LINE
  8
0
  6
CONTINUOUS
 62
     7
 10
517.5866088867188
 20
-342.1485290527344
 11
535.4323120117188
 21
-342.1485290527344
  0
LINE
  8
0
  6
CONTINUOUS
 62
     7
 10
535.4323120117188
 20
-182.3485412597656
 11
535.4323120117188
 21
-187.2612457275391
  0
LINE
  8
0
  6
CONTINUOUS
 62
     7
 10
535.4323120117188
 20
-342.1485290527344
 11
535.4323120117188
 21
-337.23583984375
  0
LINE
  8
0
  6
CONTINUOUS
 62
     7
 10
501.7323303222656
 20
-343.6485290527344
 11
501.7323303222656
 21
-344.8485412597656
  0
LINE
  8
0
  6
CONTINUOUS
 62
     7
 10
587.7322998046875
 20
-332.1485290527344
 11
587.7322998046875
 21
-192.3485412597656
  0
LINE
  8
0
  6
CONTINUOUS
 62
     7
 10
587.7322998046875
 20
-332.1485290527344
 11
571.7322998046875
 21
-332.1485290527344
  0
LINE
  8
0
  6
CONTINUOUS
 62
     7
 10
587.7322998046875
 20
-192.3485412597656
 11
571.7322998046875
 21
-192.3485412597656
  0
LINE
  8
0
  6
CONTINUOUS
 62
     7
 10
571.7322998046875
 20
-332.1485290527344
 11
571.7322998046875
 21
-331.24853515625
  0
LINE
  8
0
  6
CONTINUOUS
 62
     7
 10
563.0323486328125
 20
-332.1485290527344
 11
563.0323486328125
 21
-192.3485412597656
  0
LINE
  8
0
  6
CONTINUOUS
 62
     7
 10
563.0323486328125
 20
-332.1485290527344
 11
553.740478515625
 21
-332.1485290527344
  0
LINE
  8
0
  6
CONTINUOUS
 62
     7
 10
563.0323486328125
 20
-192.3485412597656
 11
553.740478515625
 21
-192.3485412597656
  0
LINE
  8
0
  6
CONTINUOUS
 62
     7
 10
570.2322998046875
 20
-329.74853515625
 11
565.1337280273438
 21
-329.74853515625
  0
LINE
  8
0
  6
CONTINUOUS
 62
     7
 10
563.1641235351563
 20
-331.4012451171875
 11
563.0323486328125
 21
-332.1485290527344
  0
LINE
  8
0
  6
CONTINUOUS
 62
     7
 10
571.7322998046875
 20
-331.24853515625
 11
571.7322998046875
 21
-192.3485412597656
  0
LINE
  8
0
  6
CONTINUOUS
 62
     7
 10
563.1641235351563
 20
-193.0958404541016
 11
563.0323486328125
 21
-192.3485412597656
  0
LINE
  8
0
  6
CONTINUOUS
 62
     7
 10
570.2322998046875
 20
-194.74853515625
 11
565.1337280273438
 21
-194.74853515625
  0
LINE
  8
0
  6
CONTINUOUS
 62
     7
 10
553.0323486328125
 20
-332.1485290527344
 11
553.0323486328125
 21
-192.3485412597656
  0
LINE
  8
0
  6
CONTINUOUS
 62
     7
 10
552.35205078125
 20
-192.1519012451172
 11
519.252685546875
 21
-182.5845031738281
  0
LINE
  8
0
  6
CONTINUOUS
 62
     7
 10
552.35205078125
 20
-332.3451843261719
 11
519.252685546875
 21
-341.9125671386719
  0
LINE
  8
0
  6
CONTINUOUS
 62
     7
 10
515.4323120117188
 20
-303.74853515625
 11
535.4323120117188
 21
-303.74853515625
  0
LINE
  8
0
  6
CONTINUOUS
 62
     7
 10
515.4323120117188
 20
-220.74853515625
 11
535.4323120117188
 21
-220.74853515625
  0
LINE
  8
0
  6
CONTINUOUS
 62
     7
 10
535.4323120117188
 20
-220.74853515625
 11
535.4323120117188
 21
-303.74853515625
  0
LINE
  8
0
  6
CONTINUOUS
 62
     7
 10
312.4411315917969
 20
-221.24853515625
 11
332.4411315917969
 21
-221.24853515625
  0
LINE
  8
0
  6
CONTINUOUS
 62
     7
 10
312.4411315917969
 20
-303.24853515625
 11
332.4411315917969
 21
-303.24853515625
  0
LINE
  8
0
  6
CONTINUOUS
 62
     7
 10
332.4411315917969
 20
-221.24853515625
 11
332.4411315917969
 21
-303.24853515625
  0
LINE
  8
0
  6
CONTINUOUS
 62
     7
 10
70.69910430908203
 20
-221.24853515625
 11
90.69910430908203
 21
-221.24853515625
  0
LINE
  8
0
  6
CONTINUOUS
 62
     7
 10
70.69910430908203
 20
-303.24853515625
 11
90.69910430908203
 21
-303.24853515625
  0
LINE
  8
0
  6
CONTINUOUS
 62
     7
 10
90.69910430908203
 20
-221.24853515625
 11
90.69910430908203
 21
-303.24853515625
  0
LINE
  8
0
  6
CONTINUOUS
 62
     7
 10
-100.164909362793
 20
-228.24853515625
 11
-100.164909362793
 21
-296.24853515625
  0
LINE
  8
0
  6
CONTINUOUS
 62
     7
 10
-115.164909362793
 20
-228.24853515625
 11
-100.164909362793
 21
-228.24853515625
  0
LINE
  8
0
  6
CONTINUOUS
 62
     7
 10
-115.164909362793
 20
-296.24853515625
 11
-100.164909362793
 21
-296.24853515625
  0
LINE
  8
0
  6
CONTINUOUS
 62
     7
 10
825.6297607421875
 20
34.70193099975586
 11
825.6297607421875
 21
-33.29806900024414
  0
LINE
  8
0
  6
CONTINUOUS
 62
     7
 10
810.6297607421875
 20
34.70193099975586
 11
825.6297607421875
 21
34.70193099975586
  0
LINE
  8
0
  6
CONTINUOUS
 62
     7
 10
810.6297607421875
 20
-33.29806900024414
 11
825.6297607421875
 21
-33.29806900024414
  0
LINE
  8
0
  6
CONTINUOUS
 62
     7
 10
494.5469360351563
 20
26.37347221374512
 11
494.5469360351563
 21
-18.62652778625488
  0
LINE
  8
0
  6
CONTINUOUS
 62
     7
 10
485.5469360351563
 20
26.37347221374512
 11
494.5469360351563
 21
26.37347221374512
  0
LINE
  8
0
  6
CONTINUOUS
 62
     7
 10
485.5469360351563
 20
-18.62652778625488
 11
494.5469360351563
 21
-18.62652778625488
  0
LINE
  8
0
  6
CONTINUOUS
 62
     7
 10
128.7285308837891
 20
30.66566467285156
 11
128.7285308837891
 21
-28.33433532714844
  0
LINE
  8
0
  6
CONTINUOUS
 62
     7
 10
119.7285308837891
 20
30.66566467285156
 11
128.7285308837891
 21
30.66566467285156
  0
LINE
  8
0
  6
CONTINUOUS
 62
     7
 10
119.7285308837891
 20
-28.33433532714844
 11
128.7285308837891
 21
-28.33433532714844
  0
LINE
  8
0
  6
CONTINUOUS
 62
     7
 10
7.227536678314209
 20
23.66566467285156
 11
7.227536678314209
 21
-21.33433532714844
  0
LINE
  8
0
  6
CONTINUOUS
 62
     7
 10
-1.772463202476502
 20
23.66566467285156
 11
7.227536678314209
 21
23.66566467285156
  0
LINE
  8
0
  6
CONTINUOUS
 62
     7
 10
-1.772463202476502
 20
-21.33433532714844
 11
7.227536678314209
 21
-21.33433532714844
  0
LINE
  8
0
  6
CENTER
 62
     7
 10
-172.2628326416016
 20
1.165664672851563
 11
-71.41725158691406
 21
1.165664672851563
  0
LINE
  8
0
  6
CONTINUOUS
 62
     7
 10
-139.8027496337891
 20
45.71566390991211
 11
-139.8027496337891
 21
45.11566543579102
  0
LINE
  8
0
  6
CONTINUOUS
 62
     7
 10
-131.1027526855469
 20
45.71566390991211
 11
-131.1027526855469
 21
-43.38433456420898
  0
LINE
  8
0
  6
CONTINUOUS
 62
     7
 10
-126.1027526855469
 20
45.71566390991211
 11
-126.1027526855469
 21
-43.38433456420898
  0
LINE
  8
0
  6
CONTINUOUS
 62
     7
 10
-155.8027496337891
 20
-43.38433456420898
 11
-139.8027496337891
 21
-43.38433456420898
  0
LINE
  8
0
  6
CONTINUOUS
 62
     7
 10
-155.8027496337891
 20
45.71566390991211
 11
-139.8027496337891
 21
45.71566390991211
  0
LINE
  8
0
  6
CONTINUOUS
 62
     7
 10
-155.8027496337891
 20
45.71566390991211
 11
-155.8027496337891
 21
-43.38433456420898
  0
LINE
  8
0
  6
CONTINUOUS
 62
     7
 10
-126.0238876342773
 20
45.26836776733398
 11
-126.1027526855469
 21
45.71566390991211
  0
LINE
  8
0
  6
CONTINUOUS
 62
     7
 10
-138.3027496337891
 20
43.61566543579102
 11
-133.1512451171875
 21
43.61566543579102
  0
LINE
  8
0
  6
CONTINUOUS
 62
     7
 10
-131.1027526855469
 20
45.71566390991211
 11
-126.1027526855469
 21
45.71566390991211
  0
LINE
  8
0
  6
CONTINUOUS
 62
     7
 10
-131.1027526855469
 20
-43.38433456420898
 11
-126.1027526855469
 21
-43.38433456420898
  0
LINE
  8
0
  6
CONTINUOUS
 62
     7
 10
-131.1816253662109
 20
45.26836776733398
 11
-131.1027526855469
 21
45.71566390991211
  0
LINE
  8
0
  6
CONTINUOUS
 62
     7
 10
-116.5027542114258
 20
31.41566467285156
 11
-116.5027542114258
 21
-29.08433532714844
  0
LINE
  8
0
  6
CONTINUOUS
 62
     7
 10
-139.8027496337891
 20
45.11566543579102
 11
-139.8027496337891
 21
-43.38433456420898
  0
LINE
  8
0
  6
CONTINUOUS
 62
     7
 10
-131.1816253662109
 20
-42.93703842163086
 11
-131.1027526855469
 21
-43.38433456420898
  0
LINE
  8
0
  6
CONTINUOUS
 62
     7
 10
-138.3027496337891
 20
-41.28433609008789
 11
-133.1512451171875
 21
-41.28433609008789
  0
LINE
  8
0
  6
CONTINUOUS
 62
     7
 10
-126.0238876342773
 20
-42.93703842163086
 11
-126.1027526855469
 21
-43.38433456420898
  0
LINE
  8
0
  6
CONTINUOUS
 62
     7
 10
-116.7027587890625
 20
43.61566543579102
 11
-116.7027587890625
 21
31.42233848571777
  0
LINE
  8
0
  6
CONTINUOUS
 62
     7
 10
-124.0542678833008
 20
43.61566543579102
 11
-116.7027587890625
 21
43.61566543579102
  0
LINE
  8
0
  6
CONTINUOUS
 62
     7
 10
-124.0542678833008
 20
-41.28433609008789
 11
-116.7027587890625
 21
-41.28433609008789
  0
LINE
  8
0
  6
CONTINUOUS
 62
     7
 10
-116.7027587890625
 20
-41.28433609008789
 11
-116.7027587890625
 21
-29.09100914001465
  0
LINE
  8
0
  6
CONTINUOUS
 62
     7
 10
-126.1027526855469
 20
-21.33433532714844
 11
-117.1027526855469
 21
-21.33433532714844
  0
LINE
  8
0
  6
CONTINUOUS
 62
     7
 10
-126.1027526855469
 20
23.66566467285156
 11
-117.1027526855469
 21
23.66566467285156
  0
LINE
  8
0
  6
CONTINUOUS
 62
     7
 10
-117.1027526855469
 20
23.66566467285156
 11
-117.1027526855469
 21
-21.33433532714844
  0
LINE
  8
0
  6
CONTINUOUS
 62
     7
 10
-91.80275726318359
 20
31.41566467285156
 11
-91.80275726318359
 21
-29.08433532714844
  0
LINE
  8
0
  6
CONTINUOUS
 62
     7
 10
-107.8027572631836
 20
-29.08433532714844
 11
-91.80275726318359
 21
-29.08433532714844
  0
LINE
  8
0
  6
CONTINUOUS
 62
     7
 10
-107.8027572631836
 20
31.41566467285156
 11
-107.8027572631836
 21
31.11566543579102
  0
LINE
  8
0
  6
CONTINUOUS
 62
     7
 10
-114.5071640014648
 20
29.61566543579102
 11
-109.3027572631836
 21
29.61566543579102
  0
LINE
  8
0
  6
CONTINUOUS
 62
     7
 10
-107.8027572631836
 20
31.41566467285156
 11
-91.80275726318359
 21
31.41566467285156
  0
LINE
  8
0
  6
CONTINUOUS
 62
     7
 10
-107.8027572631836
 20
31.11566543579102
 11
-107.8027572631836
 21
-29.08433532714844
  0
LINE
  8
0
  6
CONTINUOUS
 62
     7
 10
-114.5071640014648
 20
-27.28433609008789
 11
-109.3027572631836
 21
-27.28433609008789
  0
LINE
  8
0
  6
CONTINUOUS
 62
     7
 10
-116.4767837524414
 20
31.26836776733398
 11
-116.5027542114258
 21
31.41566467285156
  0
LINE
  8
0
  6
CONTINUOUS
 62
     7
 10
-116.4767837524414
 20
-28.93703842163086
 11
-116.5027542114258
 21
-29.08433532714844
  0
LINE
  8
0
  6
CONTINUOUS
 62
     7
 10
-119.498405456543
 20
34.2541618347168
 11
-119.749885559082
 21
38.91876602172852
  0
LINE
  8
0
  6
CONTINUOUS
 62
     7
 10
-119.498405456543
 20
-31.92283058166504
 11
-119.749885559082
 21
-36.58743667602539
  0
LINE
  8
0
  6
CONTINUOUS
 62
     7
 10
275.3788146972656
 20
60.58112335205078
 11
275.3788146972656
 21
-53.21887969970703
  0
LINE
  8
0
  6
CONTINUOUS
 62
     7
 10
304.7085266113281
 20
61.08112335205078
 11
300.4490966796875
 21
61.08112335205078
  0
LINE
  8
0
  6
CONTINUOUS
 62
     7
 10
291.3788146972656
 20
61.08112335205078
 11
291.3788146972656
 21
60.23112106323242
  0
LINE
  8
0
  6
CONTINUOUS
 62
     7
 10
291.3788146972656
 20
61.08112335205078
 11
275.8788146972656
 21
61.08112335205078
  0
LINE
  8
0
  6
CONTINUOUS
 62
     7
 10
291.3788146972656
 20
-53.21887969970703
 11
275.3788146972656
 21
-53.21887969970703
  0
LINE
  8
0
  6
CENTER
 62
     7
 10
359.5223388671875
 20
3.931121587753296
 11
262.7462158203125
 21
3.931121587753296
  0
LINE
  8
0
  6
CONTINUOUS
 62
     7
 10
300.3261413574219
 20
60.38382339477539
 11
300.4490966796875
 21
61.08112335205078
  0
LINE
  8
0
  6
CONTINUOUS
 62
     7
 10
304.7873840332031
 20
60.63382339477539
 11
304.7085266113281
 21
61.08112335205078
  0
LINE
  8
0
  6
CONTINUOUS
 62
     7
 10
300.3261413574219
 20
-52.52158355712891
 11
300.4490966796875
 21
-53.21887969970703
  0
LINE
  8
0
  6
CONTINUOUS
 62
     7
 10
304.7085266113281
 20
-53.21887969970703
 11
300.4490966796875
 21
-53.21887969970703
  0
LINE
  8
0
  6
CONTINUOUS
 62
     7
 10
304.8091735839844
 20
-52.64813613891602
 11
304.7085266113281
 21
-53.21887969970703
  0
LINE
  8
0
  6
CONTINUOUS
 62
     7
 10
304.7085266113281
 20
61.08112335205078
 11
304.7085266113281
 21
-53.21887969970703
  0
LINE
  8
0
  6
CONTINUOUS
 62
     7
 10
300.4490966796875
 20
61.08112335205078
 11
300.4490966796875
 21
-53.21887969970703
  0
LINE
  8
0
  6
CONTINUOUS
 62
     7
 10
291.3788146972656
 20
60.23112106323242
 11
291.3788146972656
 21
-53.21887969970703
  0
LINE
  8
0
  6
CONTINUOUS
 62
     7
 10
313.5787963867188
 20
-51.11887741088867
 11
306.0870056152344
 21
-51.11887741088867
  0
LINE
  8
0
  6
CONTINUOUS
 62
     7
 10
314.0787963867188
 20
-38.93230056762695
 11
314.0787963867188
 21
-50.61887741088867
  0
LINE
  8
0
  6
CONTINUOUS
 62
     7
 10
314.0787963867188
 20
26.43111801147461
 11
314.0787963867188
 21
-18.56887626647949
  0
LINE
  8
0
  6
CONTINUOUS
 62
     7
 10
313.5787963867188
 20
58.98112106323242
 11
306.7570190429688
 21
58.98112106323242
  0
LINE
  8
0
  6
CONTINUOUS
 62
     7
 10
314.0787963867188
 20
46.7945442199707
 11
314.0787963867188
 21
58.48112106323242
  0
LINE
  8
0
  6
CONTINUOUS
 62
     7
 10
326.3173522949219
 20
-34.21887969970703
 11
326.3173522949219
 21
42.08112335205078
  0
LINE
  8
0
  6
CONTINUOUS
 62
     7
 10
326.3962097167969
 20
-33.77158355712891
 11
326.3173522949219
 21
-34.21887969970703
  0
LINE
  8
0
  6
CONTINUOUS
 62
     7
 10
319.1788635253906
 20
-34.21887969970703
 11
326.3173522949219
 21
-34.21887969970703
  0
LINE
  8
0
  6
CONTINUOUS
 62
     7
 10
335.3788146972656
 20
-34.21887969970703
 11
351.3788146972656
 21
-34.21887969970703
  0
LINE
  8
0
  6
CONTINUOUS
 62
     7
 10
335.3788146972656
 20
41.53112030029297
 11
335.3788146972656
 21
42.08112335205078
  0
LINE
  8
0
  6
CONTINUOUS
 62
     7
 10
351.3788146972656
 20
-34.21887969970703
 11
351.3788146972656
 21
42.08112335205078
  0
LINE
  8
0
  6
CONTINUOUS
 62
     7
 10
328.3658142089844
 20
-32.11887741088867
 11
333.8788146972656
 21
-32.11887741088867
  0
LINE
  8
0
  6
CONTINUOUS
 62
     7
 10
326.3873901367188
 20
41.6838264465332
 11
326.3173522949219
 21
42.08112335205078
  0
LINE
  8
0
  6
CONTINUOUS
 62
     7
 10
335.3788146972656
 20
42.08112335205078
 11
350.8788146972656
 21
42.08112335205078
  0
LINE
  8
0
  6
CONTINUOUS
 62
     7
 10
319.1788635253906
 20
42.08112335205078
 11
326.3173522949219
 21
42.08112335205078
  0
LINE
  8
0
  6
CONTINUOUS
 62
     7
 10
335.3788146972656
 20
-34.21887969970703
 11
335.3788146972656
 21
41.53112030029297
  0
LINE
  8
0
  6
CONTINUOUS
 62
     7
 10
298.3565368652344
 20
-50.86887741088867
 11
292.8788146972656
 21
-50.86887741088867
  0
LINE
  8
0
  6
CONTINUOUS
 62
     7
 10
298.3565368652344
 20
58.73112106323242
 11
292.8788146972656
 21
58.73112106323242
  0
LINE
  8
0
  6
CONTINUOUS
 62
     7
 10
305.0787963867188
 20
-18.56887626647949
 11
314.0787963867188
 21
-18.56887626647949
  0
LINE
  8
0
  6
CONTINUOUS
 62
     7
 10
333.8788146972656
 20
40.03112030029297
 11
328.3570251464844
 21
40.03112030029297
  0
LINE
  8
0
  6
CONTINUOUS
 62
     7
 10
310.8743286132813
 20
55.24837875366211
 11
314.6419677734375
 21
45.30888748168945
  0
LINE
  8
0
  6
CONTINUOUS
 62
     7
 10
311.2294616699219
 20
-46.44924163818359
 11
314.6419677734375
 21
-37.4466438293457
  0
LINE
  8
0
  6
CONTINUOUS
 62
     7
 10
316.4766845703125
 20
3.931121587753296
 11
316.4766845703125
 21
-33.28673934936523
  0
LINE
  8
0
  6
CONTINUOUS
 62
     7
 10
305.0787963867188
 20
26.43111801147461
 11
314.0787963867188
 21
26.43111801147461
  0
LINE
  8
0
  6
CONTINUOUS
 62
     7
 10
316.4766845703125
 20
3.931121587753296
 11
316.4766845703125
 21
41.14897918701172
  0
LINE
  8
0
  6
CONTINUOUS
 62
     7
 10
634.0878295898438
 20
-69.42848968505859
 11
634.0878295898438
 21
69.47150421142578
  0
LINE
  8
0
  6
CONTINUOUS
 62
     7
 10
647.5181884765625
 20
-68.80774688720703
 11
647.4087524414063
 21
-69.42848968505859
  0
LINE
  8
0
  6
CONTINUOUS
 62
     7
 10
618.0878295898438
 20
-69.42848968505859
 11
618.0878295898438
 21
69.87150573730469
  0
LINE
  8
0
  6
CONTINUOUS
 62
     7
 10
643.03515625
 20
69.62421417236328
 11
643.1669311523438
 21
70.37150573730469
  0
LINE
  8
0
  6
CONTINUOUS
 62
     7
 10
643.03515625
 20
-68.68119812011719
 11
643.1669311523438
 21
-69.42848968505859
  0
LINE
  8
0
  6
CONTINUOUS
 62
     7
 10
634.0878295898438
 20
70.37150573730469
 11
618.5878295898438
 21
70.37150573730469
  0
LINE
  8
0
  6
CONTINUOUS
 62
     7
 10
647.5181884765625
 20
69.75076293945313
 11
647.4087524414063
 21
70.37150573730469
  0
LINE
  8
0
  6
CONTINUOUS
 62
     7
 10
647.4087524414063
 20
-69.42848968505859
 11
643.1669311523438
 21
-69.42848968505859
  0
LINE
  8
0
  6
CONTINUOUS
 62
     7
 10
643.1669311523438
 20
-69.42848968505859
 11
643.1669311523438
 21
70.37150573730469
  0
LINE
  8
0
  6
CONTINUOUS
 62
     7
 10
634.0878295898438
 20
-69.42848968505859
 11
618.0878295898438
 21
-69.42848968505859
  0
LINE
  8
0
  6
CONTINUOUS
 62
     7
 10
647.4087524414063
 20
70.37150573730469
 11
643.1581420898438
 21
70.37150573730469
  0
LINE
  8
0
  6
CONTINUOUS
 62
     7
 10
647.4087524414063
 20
-69.42848968505859
 11
647.4087524414063
 21
70.37150573730469
  0
LINE
  8
0
  6
CONTINUOUS
 62
     7
 10
634.0878295898438
 20
69.47150421142578
 11
634.0878295898438
 21
70.37150573730469
  0
LINE
  8
0
  6
CONTINUOUS
 62
     7
 10
649.4183349609375
 20
-67.27849578857422
 11
662.287841796875
 21
-67.27849578857422
  0
LINE
  8
0
  6
CONTINUOUS
 62
     7
 10
662.787841796875
 20
-66.77849578857422
 11
662.787841796875
 21
-51.15622711181641
  0
LINE
  8
0
  6
CONTINUOUS
 62
     7
 10
662.787841796875
 20
-33.52849197387695
 11
662.787841796875
 21
34.47150802612305
  0
LINE
  8
0
  6
CONTINUOUS
 62
     7
 10
648.9345092773438
 20
68.22150421142578
 11
662.287841796875
 21
68.22150421142578
  0
LINE
  8
0
  6
CONTINUOUS
 62
     7
 10
662.787841796875
 20
67.72150421142578
 11
662.787841796875
 21
52.0992431640625
  0
LINE
  8
0
  6
CONTINUOUS
 62
     7
 10
641.0655517578125
 20
67.97150421142578
 11
635.5878295898438
 21
67.97150421142578
  0
LINE
  8
0
  6
CONTINUOUS
 62
     7
 10
641.0655517578125
 20
-67.02849578857422
 11
635.5878295898438
 21
-67.02849578857422
  0
LINE
  8
0
  6
CONTINUOUS
 62
     7
 10
647.787841796875
 20
-33.52849197387695
 11
662.787841796875
 21
-33.52849197387695
  0
LINE
  8
0
  6
CONTINUOUS
 62
     7
 10
707.0878295898438
 20
38.12150955200195
 11
707.0878295898438
 21
-37.17849349975586
  0
LINE
  8
0
  6
CONTINUOUS
 62
     7
 10
675.0685424804688
 20
38.62150955200195
 11
682.0263671875
 21
38.62150955200195
  0
LINE
  8
0
  6
CONTINUOUS
 62
     7
 10
684.0660400390625
 20
36.57150650024414
 11
689.5878295898438
 21
36.57150650024414
  0
LINE
  8
0
  6
CONTINUOUS
 62
     7
 10
691.0878295898438
 20
38.62150955200195
 11
691.0878295898438
 21
38.07150650024414
  0
LINE
  8
0
  6
CONTINUOUS
 62
     7
 10
682.0263671875
 20
38.62150955200195
 11
682.096435546875
 21
38.22421264648438
  0
LINE
  8
0
  6
CONTINUOUS
 62
     7
 10
691.0878295898438
 20
38.62150955200195
 11
706.5878295898438
 21
38.62150955200195
  0
LINE
  8
0
  6
CONTINUOUS
 62
     7
 10
691.0878295898438
 20
-37.67849349975586
 11
691.0878295898438
 21
38.07150650024414
  0
LINE
  8
0
  6
CONTINUOUS
 62
     7
 10
682.0263671875
 20
-37.67849349975586
 11
682.096435546875
 21
-37.28119659423828
  0
LINE
  8
0
  6
CONTINUOUS
 62
     7
 10
684.0660400390625
 20
-35.62849044799805
 11
689.5878295898438
 21
-35.62849044799805
  0
LINE
  8
0
  6
CONTINUOUS
 62
     7
 10
675.0685424804688
 20
-37.67849349975586
 11
682.0263671875
 21
-37.67849349975586
  0
LINE
  8
0
  6
CONTINUOUS
 62
     7
 10
691.0878295898438
 20
-37.67849349975586
 11
706.5878295898438
 21
-37.67849349975586
  0
LINE
  8
0
  6
CONTINUOUS
 62
     7
 10
682.0263671875
 20
-37.67849349975586
 11
682.0263671875
 21
38.62150955200195
  0
LINE
  8
0
  6
CONTINUOUS
 62
     7
 10
671.0134887695313
 20
40.69634628295898
 11
652.9539184570313
 21
65.73169708251953
  0
LINE
  8
0
  6
CONTINUOUS
 62
     7
 10
671.0134887695313
 20
-39.75333023071289
 11
652.9539184570313
 21
-64.78868103027344
  0
LINE
  8
0
  6
CONTINUOUS
 62
     7
 10
672.5101928710938
 20
-37.67849349975586
 11
672.5101928710938
 21
37.13794326782227
  0
LINE
  8
0
  6
DASHED
 62
     7
 10
606.3170776367188
 20
0.4715079665184021
 11
727.2840576171875
 21
0.4715079665184021
  0
LINE
  8
0
  6
CONTINUOUS
 62
     7
 10
647.787841796875
 20
34.47150802612305
 11
662.787841796875
 21
34.47150802612305
  0
LINE
  8
0
  6
CONTINUOUS
 62
     7
 10
493.2562561035156
 20
-8.658651351928711
 11
488.1951293945313
 21
-7.766235828399658
  0
LINE
  8
0
  6
CONTINUOUS
 62
     7
 10
488.1951293945313
 20
-14.37379550933838
 11
488.1951293945313
 21
-12.1712760925293
  0
LINE
  8
0
  6
CONTINUOUS
 62
     7
 10
489.6106872558594
 20
-9.484183311462402
 11
489.7362365722656
 21
-8.772147178649902
  0
LINE
  8
0
  6
CONTINUOUS
 62
     7
 10
488.1951293945313
 20
-5.563716888427734
 11
486.7490844726563
 21
-5.308741092681885
  0
LINE
  8
0
  6
CONTINUOUS
 62
     7
 10
491.1396789550781
 20
-11.22213077545166
 11
489.3595886230469
 21
-10.90825366973877
  0
LINE
  8
0
  6
CONTINUOUS
 62
     7
 10
489.2340393066406
 20
-11.62028884887695
 11
489.3595886230469
 21
-10.90825366973877
  0
LINE
  8
0
  6
CONTINUOUS
 62
     7
 10
491.3907775878906
 20
-9.798060417175293
 11
489.6106872558594
 21
-9.484183311462402
  0
LINE
  8
0
  6
CONTINUOUS
 62
     7
 10
491.0141296386719
 20
-11.93416595458984
 11
489.2340393066406
 21
-11.62028884887695
  0
LINE
  8
0
  6
CONTINUOUS
 62
     7
 10
488.1951293945313
 20
-5.563717365264893
 11
488.1951293945313
 21
-7.766237735748291
  0
LINE
  8
0
  6
CONTINUOUS
 62
     7
 10
488.1951293945313
 20
-14.37379550933838
 11
486.7490844726563
 21
-14.11882019042969
  0
LINE
  8
0
  6
CONTINUOUS
 62
     7
 10
493.2562561035156
 20
-8.658651351928711
 11
493.2562561035156
 21
-13.06369209289551
  0
LINE
  8
0
  6
CONTINUOUS
 62
     7
 10
486.7490844726563
 20
-5.308742046356201
 11
486.7490844726563
 21
-14.11882019042969
  0
LINE
  8
0
  6
CONTINUOUS
 62
     7
 10
493.2562561035156
 20
-13.06369113922119
 11
488.1951293945313
 21
-12.1712760925293
  0
LINE
  8
0
  6
CONTINUOUS
 62
     7
 10
491.5163269042969
 20
-9.086025238037109
 11
489.7362365722656
 21
-8.772147178649902
  0
LINE
  8
0
  6
CONTINUOUS
 62
     7
 10
526.8384399414063
 20
-288.9555358886719
 11
524.0570678710938
 21
-288.4651184082031
  0
LINE
  8
0
  6
CONTINUOUS
 62
     7
 10
529.55712890625
 20
-295.170654296875
 11
521.6491088867188
 21
-293.7762451171875
  0
LINE
  8
0
  6
CONTINUOUS
 62
     7
 10
519.3896484375
 20
-283.0535278320313
 11
519.3896484375
 21
-296.8192749023438
  0
LINE
  8
0
  6
CONTINUOUS
 62
     7
 10
529.55712890625
 20
-288.2877807617188
 11
529.55712890625
 21
-295.170654296875
  0
LINE
  8
0
  6
CONTINUOUS
 62
     7
 10
521.6491088867188
 20
-297.2176818847656
 11
519.3896484375
 21
-296.8192749023438
  0
LINE
  8
0
  6
CONTINUOUS
 62
     7
 10
521.6491088867188
 20
-283.4519348144531
 11
521.6491088867188
 21
-286.8933715820313
  0
LINE
  8
0
  6
CONTINUOUS
 62
     7
 10
526.0537719726563
 20
-293.40576171875
 11
523.2723999023438
 21
-292.9153442382813
  0
LINE
  8
0
  6
CONTINUOUS
 62
     7
 10
526.6422729492188
 20
-290.0680847167969
 11
523.8609008789063
 21
-289.5776672363281
  0
LINE
  8
0
  6
CONTINUOUS
 62
     7
 10
523.2723999023438
 20
-292.9153442382813
 11
523.4685668945313
 21
-291.8027648925781
  0
LINE
  8
0
  6
CONTINUOUS
 62
     7
 10
526.2499389648438
 20
-292.293212890625
 11
523.4685668945313
 21
-291.8027648925781
  0
LINE
  8
0
  6
CONTINUOUS
 62
     7
 10
521.6491088867188
 20
-283.4519348144531
 11
519.3896484375
 21
-283.0535278320313
  0
LINE
  8
0
  6
CONTINUOUS
 62
     7
 10
523.8609008789063
 20
-289.5776672363281
 11
524.0570678710938
 21
-288.4651184082031
  0
LINE
  8
0
  6
CONTINUOUS
 62
     7
 10
521.6491088867188
 20
-297.2176818847656
 11
521.6491088867188
 21
-293.7762451171875
  0
LINE
  8
0
  6
CONTINUOUS
 62
     7
 10
529.55712890625
 20
-288.2877807617188
 11
521.6491088867188
 21
-286.8933715820313
  0
LINE
  8
0
  6
CONTINUOUS
 62
     7
 10
323.7803955078125
 20
-289.2642211914063
 11
320.9989929199219
 21
-288.7737731933594
  0
LINE
  8
0
  6
CONTINUOUS
 62
     7
 10
326.4990539550781
 20
-295.4793090820313
 11
318.5910339355469
 21
-294.0849304199219
  0
LINE
  8
0
  6
CONTINUOUS
 62
     7
 10
316.3315734863281
 20
-283.3622131347656
 11
316.3315734863281
 21
-297.1279602050781
  0
LINE
  8
0
  6
CONTINUOUS
 62
     7
 10
326.4990539550781
 20
-288.596435546875
 11
326.4990539550781
 21
-295.4793090820313
  0
LINE
  8
0
  6
CONTINUOUS
 62
     7
 10
318.5910339355469
 20
-297.5263671875
 11
316.3315734863281
 21
-297.1279602050781
  0
LINE
  8
0
  6
CONTINUOUS
 62
     7
 10
318.5910339355469
 20
-283.7606201171875
 11
318.5910339355469
 21
-287.2020568847656
  0
LINE
  8
0
  6
CONTINUOUS
 62
     7
 10
322.9956970214844
 20
-293.7144470214844
 11
320.2142944335938
 21
-293.2239990234375
  0
LINE
  8
0
  6
CONTINUOUS
 62
     7
 10
323.5841979980469
 20
-290.3767700195313
 11
320.8028259277344
 21
-289.8863220214844
  0
LINE
  8
0
  6
CONTINUOUS
 62
     7
 10
320.2142944335938
 20
-293.2239990234375
 11
320.4104614257813
 21
-292.1114501953125
  0
LINE
  8
0
  6
CONTINUOUS
 62
     7
 10
323.1918640136719
 20
-292.6018676757813
 11
320.4104614257813
 21
-292.1114501953125
  0
LINE
  8
0
  6
CONTINUOUS
 62
     7
 10
318.5910339355469
 20
-283.7606201171875
 11
316.3316040039063
 21
-283.3622131347656
  0
LINE
  8
0
  6
CONTINUOUS
 62
     7
 10
320.8028259277344
 20
-289.8863220214844
 11
320.9989929199219
 21
-288.7737731933594
  0
LINE
  8
0
  6
CONTINUOUS
 62
     7
 10
318.5910339355469
 20
-297.5263671875
 11
318.5910339355469
 21
-294.0849304199219
  0
LINE
  8
0
  6
CONTINUOUS
 62
     7
 10
326.4990539550781
 20
-288.596435546875
 11
318.5910339355469
 21
-287.2020568847656
  0
LINE
  8
0
  6
CONTINUOUS
 62
     7
 10
82.13016510009766
 20
-287.5767517089844
 11
79.34877777099609
 21
-287.0863342285156
  0
LINE
  8
0
  6
CONTINUOUS
 62
     7
 10
84.84882354736328
 20
-293.7918701171875
 11
76.94080352783203
 21
-292.3974609375
  0
LINE
  8
0
  6
CONTINUOUS
 62
     7
 10
74.68136596679688
 20
-281.6747436523438
 11
74.68136596679688
 21
-295.4404907226563
  0
LINE
  8
0
  6
CONTINUOUS
 62
     7
 10
84.84883117675781
 20
-286.9089965820313
 11
84.84883117675781
 21
-293.7918701171875
  0
LINE
  8
0
  6
CONTINUOUS
 62
     7
 10
76.94080352783203
 20
-295.8388977050781
 11
74.68136596679688
 21
-295.4404907226563
  0
LINE
  8
0
  6
CONTINUOUS
 62
     7
 10
76.94080352783203
 20
-282.0731506347656
 11
76.94080352783203
 21
-285.5145874023438
  0
LINE
  8
0
  6
CONTINUOUS
 62
     7
 10
81.34546661376953
 20
-292.0269775390625
 11
78.56407928466797
 21
-291.5365600585938
  0
LINE
  8
0
  6
CONTINUOUS
 62
     7
 10
81.93399047851563
 20
-288.6893005371094
 11
79.15260314941406
 21
-288.1988830566406
  0
LINE
  8
0
  6
CONTINUOUS
 62
     7
 10
78.56407928466797
 20
-291.5365600585938
 11
78.76025390625
 21
-290.4239807128906
  0
LINE
  8
0
  6
CONTINUOUS
 62
     7
 10
81.54164123535156
 20
-290.9144287109375
 11
78.76025390625
 21
-290.4239807128906
  0
LINE
  8
0
  6
CONTINUOUS
 62
     7
 10
76.94080352783203
 20
-282.0731506347656
 11
74.68136596679688
 21
-281.6747436523438
  0
LINE
  8
0
  6
CONTINUOUS
 62
     7
 10
79.15260314941406
 20
-288.1988830566406
 11
79.34877777099609
 21
-287.0863342285156
  0
LINE
  8
0
  6
CONTINUOUS
 62
     7
 10
76.94080352783203
 20
-295.8388977050781
 11
76.94080352783203
 21
-292.3974609375
  0
LINE
  8
0
  6
CONTINUOUS
 62
     7
 10
84.84883117675781
 20
-286.9089965820313
 11
76.94080352783203
 21
-285.5145874023438
  0
LINE
  8
0
  6
CONTINUOUS
 62
     7
 10
-105.7643051147461
 20
-281.9041137695313
 11
-108.5456924438477
 21
-281.4136657714844
  0
LINE
  8
0
  6
CONTINUOUS
 62
     7
 10
-103.0456466674805
 20
-288.1192016601563
 11
-110.9536666870117
 21
-286.7247924804688
  0
LINE
  8
0
  6
CONTINUOUS
 62
     7
 10
-113.2131042480469
 20
-276.0021057128906
 11
-113.2131042480469
 21
-289.7678527832031
  0
LINE
  8
0
  6
CONTINUOUS
 62
     7
 10
-103.0456390380859
 20
-281.236328125
 11
-103.0456390380859
 21
-288.1192016601563
  0
LINE
  8
0
  6
CONTINUOUS
 62
     7
 10
-110.9536666870117
 20
-290.1662292480469
 11
-113.2131042480469
 21
-289.7678527832031
  0
LINE
  8
0
  6
CONTINUOUS
 62
     7
 10
-110.9536666870117
 20
-276.4004821777344
 11
-110.9536666870117
 21
-279.8419189453125
  0
LINE
  8
0
  6
CONTINUOUS
 62
     7
 10
-106.5490036010742
 20
-286.3543090820313
 11
-109.3303909301758
 21
-285.8638916015625
  0
LINE
  8
0
  6
CONTINUOUS
 62
     7
 10
-105.9604797363281
 20
-283.0166625976563
 11
-108.7418670654297
 21
-282.5262145996094
  0
LINE
  8
0
  6
CONTINUOUS
 62
     7
 10
-109.3303909301758
 20
-285.8638916015625
 11
-109.1342163085938
 21
-284.7513427734375
  0
LINE
  8
0
  6
CONTINUOUS
 62
     7
 10
-106.3528289794922
 20
-285.2417602539063
 11
-109.1342163085938
 21
-284.7513427734375
  0
LINE
  8
0
  6
CONTINUOUS
 62
     7
 10
-110.9536666870117
 20
-276.4004821777344
 11
-113.2131042480469
 21
-276.0021057128906
  0
LINE
  8
0
  6
CONTINUOUS
 62
     7
 10
-108.7418670654297
 20
-282.5262145996094
 11
-108.5456924438477
 21
-281.4136657714844
  0
LINE
  8
0
  6
CONTINUOUS
 62
     7
 10
-110.9536666870117
 20
-290.1662292480469
 11
-110.9536666870117
 21
-286.7247924804688
  0
LINE
  8
0
  6
CONTINUOUS
 62
     7
 10
-103.0456390380859
 20
-281.236328125
 11
-110.9536666870117
 21
-279.8419189453125
  0
LINE
  8
0
  6
CONTINUOUS
 62
     7
 10
820.1841430664063
 20
-18.97591972351074
 11
817.4027709960938
 21
-18.4854850769043
  0
LINE
  8
0
  6
CONTINUOUS
 62
     7
 10
822.90283203125
 20
-25.19102287292481
 11
814.9948120117188
 21
-23.7966251373291
  0
LINE
  8
0
  6
CONTINUOUS
 62
     7
 10
812.7353515625
 20
-13.07391548156738
 11
812.7353515625
 21
-26.83966255187988
  0
LINE
  8
0
  6
CONTINUOUS
 62
     7
 10
822.90283203125
 20
-18.30814933776856
 11
822.90283203125
 21
-25.19102478027344
  0
LINE
  8
0
  6
CONTINUOUS
 62
     7
 10
814.9948120117188
 20
-27.23806190490723
 11
812.7353515625
 21
-26.83966255187988
  0
LINE
  8
0
  6
CONTINUOUS
 62
     7
 10
814.9948120117188
 20
-13.47231388092041
 11
814.9948120117188
 21
-16.91375160217285
  0
LINE
  8
0
  6
CONTINUOUS
 62
     7
 10
819.3994750976563
 20
-23.42613983154297
 11
816.6181030273438
 21
-22.93570709228516
  0
LINE
  8
0
  6
CONTINUOUS
 62
     7
 10
819.9879760742188
 20
-20.08847618103027
 11
817.2066040039063
 21
-19.59804153442383
  0
LINE
  8
0
  6
CONTINUOUS
 62
     7
 10
816.6181030273438
 20
-22.93570709228516
 11
816.8142700195313
 21
-21.82315254211426
  0
LINE
  8
0
  6
CONTINUOUS
 62
     7
 10
819.5956420898438
 20
-22.31358528137207
 11
816.8142700195313
 21
-21.82315254211426
  0
LINE
  8
0
  6
CONTINUOUS
 62
     7
 10
814.9948120117188
 20
-13.47231292724609
 11
812.7353515625
 21
-13.07391357421875
  0
LINE
  8
0
  6
CONTINUOUS
 62
     7
 10
817.2066040039063
 20
-19.59804153442383
 11
817.4027709960938
 21
-18.4854850769043
  0
LINE
  8
0
  6
CONTINUOUS
 62
     7
 10
814.9948120117188
 20
-27.23806190490723
 11
814.9948120117188
 21
-23.7966251373291
  0
LINE
  8
0
  6
CONTINUOUS
 62
     7
 10
822.90283203125
 20
-18.30814743041992
 11
814.9948120117188
 21
-16.91374969482422
  0
LINE
  8
0
  6
CONTINUOUS
 62
     7
 10
657.26611328125
 20
-19.5316047668457
 11
654.4847412109375
 21
-19.04117202758789
  0
LINE
  8
0
  6
CONTINUOUS
 62
     7
 10
659.9848022460938
 20
-25.7467098236084
 11
652.0767822265625
 21
-24.35231018066406
  0
LINE
  8
0
  6
CONTINUOUS
 62
     7
 10
649.8173217773438
 20
-13.62960147857666
 11
649.8173217773438
 21
-27.39534759521484
  0
LINE
  8
0
  6
CONTINUOUS
 62
     7
 10
659.9848022460938
 20
-18.86383438110352
 11
659.9848022460938
 21
-25.7467098236084
  0
LINE
  8
0
  6
CONTINUOUS
 62
     7
 10
652.0767822265625
 20
-27.79374694824219
 11
649.8173217773438
 21
-27.39534759521484
  0
LINE
  8
0
  6
CONTINUOUS
 62
     7
 10
652.0767822265625
 20
-14.02799987792969
 11
652.0767822265625
 21
-17.46943855285645
  0
LINE
  8
0
  6
CONTINUOUS
 62
     7
 10
656.4814453125
 20
-23.98182678222656
 11
653.7000732421875
 21
-23.49139213562012
  0
LINE
  8
0
  6
CONTINUOUS
 62
     7
 10
657.0699462890625
 20
-20.64416122436523
 11
654.28857421875
 21
-20.15372657775879
  0
LINE
  8
0
  6
CONTINUOUS
 62
     7
 10
653.7000732421875
 20
-23.49139213562012
 11
653.896240234375
 21
-22.37883758544922
  0
LINE
  8
0
  6
CONTINUOUS
 62
     7
 10
656.6776123046875
 20
-22.86927223205566
 11
653.896240234375
 21
-22.37883758544922
  0
LINE
  8
0
  6
CONTINUOUS
 62
     7
 10
652.0767822265625
 20
-14.02799892425537
 11
649.8173217773438
 21
-13.62959957122803
  0
LINE
  8
0
  6
CONTINUOUS
 62
     7
 10
654.28857421875
 20
-20.15372657775879
 11
654.4847412109375
 21
-19.04117202758789
  0
LINE
  8
0
  6
CONTINUOUS
 62
     7
 10
652.0767822265625
 20
-27.79374694824219
 11
652.0767822265625
 21
-24.35231018066406
  0
LINE
  8
0
  6
CONTINUOUS
 62
     7
 10
659.9848022460938
 20
-18.86383438110352
 11
652.0767822265625
 21
-17.46943473815918
  0
LINE
  8
0
  6
CONTINUOUS
 62
     7
 10
310.9962463378906
 20
-9.450488090515137
 11
309.2161560058594
 21
-9.136610984802246
  0
LINE
  8
0
  6
CONTINUOUS
 62
     7
 10
312.7361755371094
 20
-13.42815494537354
 11
307.675048828125
 21
-12.53573989868164
  0
LINE
  8
0
  6
CONTINUOUS
 62
     7
 10
306.22900390625
 20
-5.673205375671387
 11
306.22900390625
 21
-14.48328304290772
  0
LINE
  8
0
  6
CONTINUOUS
 62
     7
 10
312.7362060546875
 20
-9.023115158081055
 11
312.7362060546875
 21
-13.42815494537354
  0
LINE
  8
0
  6
CONTINUOUS
 62
     7
 10
307.675048828125
 20
-14.73825931549072
 11
306.22900390625
 21
-14.48328304290772
  0
LINE
  8
0
  6
CONTINUOUS
 62
     7
 10
307.675048828125
 20
-5.928180694580078
 11
307.675048828125
 21
-8.130701065063477
  0
LINE
  8
0
  6
CONTINUOUS
 62
     7
 10
310.4940490722656
 20
-12.29862976074219
 11
308.7139587402344
 21
-11.98475170135498
  0
LINE
  8
0
  6
CONTINUOUS
 62
     7
 10
310.8706970214844
 20
-10.16252422332764
 11
309.0906066894531
 21
-9.84864616394043
  0
LINE
  8
0
  6
CONTINUOUS
 62
     7
 10
308.7139587402344
 20
-11.98475170135498
 11
308.8395080566406
 21
-11.2727165222168
  0
LINE
  8
0
  6
CONTINUOUS
 62
     7
 10
310.6195983886719
 20
-11.586594581604
 11
308.8395080566406
 21
-11.2727165222168
  0
LINE
  8
0
  6
CONTINUOUS
 62
     7
 10
307.675048828125
 20
-5.92818021774292
 11
306.22900390625
 21
-5.67320442199707
  0
LINE
  8
0
  6
CONTINUOUS
 62
     7
 10
309.0906066894531
 20
-9.84864616394043
 11
309.2161560058594
 21
-9.136610984802246
  0
LINE
  8
0
  6
CONTINUOUS
 62
     7
 10
307.675048828125
 20
-14.73825931549072
 11
307.675048828125
 21
-12.53573989868164
  0
LINE
  8
0
  6
CONTINUOUS
 62
     7
 10
312.7362060546875
 20
-9.023114204406738
 11
307.675048828125
 21
-8.130699157714844
  0
LINE
  8
0
  6
CONTINUOUS
 62
     7
 10
127.510009765625
 20
-18.27991676330566
 11
122.4488754272461
 21
-17.38750267028809
  0
LINE
  8
0
  6
CONTINUOUS
 62
     7
 10
122.4488754272461
 20
-23.99506187438965
 11
122.4488754272461
 21
-21.79254341125488
  0
LINE
  8
0
  6
CONTINUOUS
 62
     7
 10
123.8644256591797
 20
-19.10544967651367
 11
123.9899749755859
 21
-18.39341354370117
  0
LINE
  8
0
  6
CONTINUOUS
 62
     7
 10
122.4488754272461
 20
-15.184983253479
 11
121.0028381347656
 21
-14.930006980896
  0
LINE
  8
0
  6
CONTINUOUS
 62
     7
 10
125.3934097290039
 20
-20.84339714050293
 11
123.6133270263672
 21
-20.52952003479004
  0
LINE
  8
0
  6
CONTINUOUS
 62
     7
 10
123.4877777099609
 20
-21.24155426025391
 11
123.6133270263672
 21
-20.52952003479004
  0
LINE
  8
0
  6
CONTINUOUS
 62
     7
 10
125.6445159912109
 20
-19.41932678222656
 11
123.8644256591797
 21
-19.10544967651367
  0
LINE
  8
0
  6
CONTINUOUS
 62
     7
 10
125.2678604125977
 20
-21.55543327331543
 11
123.4877777099609
 21
-21.24155426025391
  0
LINE
  8
0
  6
CONTINUOUS
 62
     7
 10
122.4488754272461
 20
-15.18498420715332
 11
122.4488754272461
 21
-17.38750457763672
  0
LINE
  8
0
  6
CONTINUOUS
 62
     7
 10
122.4488754272461
 20
-23.99506187438965
 11
121.0028381347656
 21
-23.74008560180664
  0
LINE
  8
0
  6
CONTINUOUS
 62
     7
 10
127.510009765625
 20
-18.2799186706543
 11
127.510009765625
 21
-22.68495750427246
  0
LINE
  8
0
  6
CONTINUOUS
 62
     7
 10
121.0028381347656
 20
-14.93000793457031
 11
121.0028381347656
 21
-23.74008560180664
  0
LINE
  8
0
  6
CONTINUOUS
 62
     7
 10
127.510009765625
 20
-22.68495750427246
 11
122.4488754272461
 21
-21.79254341125488
  0
LINE
  8
0
  6
CONTINUOUS
 62
     7
 10
125.7700653076172
 20
-18.70729064941406
 11
123.9899749755859
 21
-18.39341354370117
  0
LINE
  8
0
  6
CONTINUOUS
 62
     7
 10
4.259445190429688
 20
-12.26438522338867
 11
2.479357004165649
 21
-11.95050716400147
  0
LINE
  8
0
  6
CONTINUOUS
 62
     7
 10
5.999390125274658
 20
-16.24205207824707
 11
0.9382535815238953
 21
-15.34963607788086
  0
LINE
  8
0
  6
CONTINUOUS
 62
     7
 10
-0.5077856779098511
 20
-8.487102508544922
 11
-0.5077856779098511
 21
-17.29718017578125
  0
LINE
  8
0
  6
CONTINUOUS
 62
     7
 10
5.999391078948975
 20
-11.83701133728027
 11
5.999391078948975
 21
-16.24205207824707
  0
LINE
  8
0
  6
CONTINUOUS
 62
     7
 10
0.9382535815238953
 20
-17.55215644836426
 11
-0.5077856779098511
 21
-17.29718017578125
  0
LINE
  8
0
  6
CONTINUOUS
 62
     7
 10
0.9382535815238953
 20
-8.742077827453613
 11
0.9382535815238953
 21
-10.9445972442627
  0
LINE
  8
0
  6
CONTINUOUS
 62
     7
 10
3.757241010665894
 20
-15.11252593994141
 11
1.977152705192566
 21
-14.79864883422852
  0
LINE
  8
0
  6
CONTINUOUS
 62
     7
 10
4.133893966674805
 20
-12.97642040252686
 11
2.353805780410767
 21
-12.66254329681397
  0
LINE
  8
0
  6
CONTINUOUS
 62
     7
 10
1.977152705192566
 20
-14.79864883422852
 11
2.102703809738159
 21
-14.08661365509033
  0
LINE
  8
0
  6
CONTINUOUS
 62
     7
 10
3.882791996002197
 20
-14.40049076080322
 11
2.102703809738159
 21
-14.08661365509033
  0
LINE
  8
0
  6
CONTINUOUS
 62
     7
 10
0.9382567405700684
 20
-8.742076873779297
 11
-0.507782518863678
 21
-8.487101554870606
  0
LINE
  8
0
  6
CONTINUOUS
 62
     7
 10
2.353805780410767
 20
-12.66254329681397
 11
2.479357004165649
 21
-11.95050716400147
  0
LINE
  8
0
  6
CONTINUOUS
 62
     7
 10
0.9382535815238953
 20
-17.55215644836426
 11
0.9382535815238953
 21
-15.34963607788086
  0
LINE
  8
0
  6
CONTINUOUS
 62
     7
 10
5.999391078948975
 20
-11.83701133728027
 11
0.9382535815238953
 21
-10.94459629058838
  0
LINE
  8
0
  6
CONTINUOUS
 62
     7
 10
-123.0500411987305
 20
-16.89386749267578
 11
-123.0500411987305
 21
-14.6913480758667
  0
LINE
  8
0
  6
CONTINUOUS
 62
     7
 10
-121.6344833374023
 20
-12.00425529479981
 11
-121.5089340209961
 21
-11.29221916198731
  0
LINE
  8
0
  6
CONTINUOUS
 62
     7
 10
-122.0111389160156
 20
-14.14036083221436
 11
-121.8855895996094
 21
-13.42832565307617
  0
LINE
  8
0
  6
CONTINUOUS
 62
     7
 10
-117.988899230957
 20
-15.58376312255859
 11
-123.0500411987305
 21
-14.6913480758667
  0
LINE
  8
0
  6
CONTINUOUS
 62
     7
 10
-123.0500335693359
 20
-8.083788871765137
 11
-124.4960784912109
 21
-7.828813076019287
  0
LINE
  8
0
  6
CONTINUOUS
 62
     7
 10
-120.2310485839844
 20
-14.45423793792725
 11
-122.0111389160156
 21
-14.14036083221436
  0
LINE
  8
0
  6
CONTINUOUS
 62
     7
 10
-124.4960784912109
 20
-7.828814029693604
 11
-124.4960784912109
 21
-16.63889122009277
  0
LINE
  8
0
  6
CONTINUOUS
 62
     7
 10
-123.0500411987305
 20
-16.89386749267578
 11
-124.4960784912109
 21
-16.63889122009277
  0
LINE
  8
0
  6
CONTINUOUS
 62
     7
 10
-123.0500411987305
 20
-8.083789825439453
 11
-123.0500411987305
 21
-10.28630924224854
  0
LINE
  8
0
  6
CONTINUOUS
 62
     7
 10
-119.7288436889648
 20
-11.60609722137451
 11
-121.5089340209961
 21
-11.29221916198731
  0
LINE
  8
0
  6
CONTINUOUS
 62
     7
 10
-120.1054992675781
 20
-13.74220275878906
 11
-121.8855895996094
 21
-13.42832565307617
  0
LINE
  8
0
  6
CONTINUOUS
 62
     7
 10
-117.988899230957
 20
-11.17872333526611
 11
-117.988899230957
 21
-15.58376407623291
  0
LINE
  8
0
  6
CONTINUOUS
 62
     7
 10
-119.8544006347656
 20
-12.3181324005127
 11
-121.6344833374023
 21
-12.00425529479981
  0
LINE
  8
0
  6
CONTINUOUS
 62
     7
 10
-117.988899230957
 20
-11.17872333526611
 11
-123.0500411987305
 21
-10.28630828857422
  0
LINE
  8
0
  6
CENTER
 62
     7
 10
-290.4623718261719
 20
1.165664672851563
 11
-197.2628326416016
 21
1.165664672851563
  0
LINE
  8
0
  6
CONTINUOUS
 62
     7
 10
-248.9155120849609
 20
-36.98433685302734
 11
-248.9155120849609
 21
39.31566619873047
  0
LINE
  8
0
  6
CONTINUOUS
 62
     7
 10
-262.9769897460938
 20
-36.98433685302734
 11
-262.9769897460938
 21
39.31566619873047
  0
LINE
  8
0
  6
CONTINUOUS
 62
     7
 10
-262.9769897460938
 20
39.31566619873047
 11
-278.4769897460938
 21
39.31566619873047
  0
LINE
  8
0
  6
CONTINUOUS
 62
     7
 10
-253.6858062744141
 20
-36.98433685302734
 11
-253.9155120849609
 21
-36.98433685302734
  0
LINE
  8
0
  6
CONTINUOUS
 62
     7
 10
-255.9551849365234
 20
-34.93433380126953
 11
-261.4769897460938
 21
-34.93433380126953
  0
LINE
  8
0
  6
CONTINUOUS
 62
     7
 10
-278.9769897460938
 20
38.81566619873047
 11
-278.9769897460938
 21
-36.48433685302734
  0
LINE
  8
0
  6
CONTINUOUS
 62
     7
 10
-253.6858062744141
 20
-36.98433685302734
 11
-253.9155120849609
 21
-36.98433685302734
  0
LINE
  8
0
  6
CONTINUOUS
 62
     7
 10
-253.9155120849609
 20
-36.98433685302734
 11
-253.9855651855469
 21
-36.58703994750977
  0
LINE
  8
0
  6
CONTINUOUS
 62
     7
 10
-253.9155120849609
 20
-36.98433685302734
 11
-253.9155120849609
 21
39.31566619873047
  0
LINE
  8
0
  6
CONTINUOUS
 62
     7
 10
-246.8758392333984
 20
37.26566314697266
 11
-239.5321350097656
 21
37.26566314697266
  0
LINE
  8
0
  6
CONTINUOUS
 62
     7
 10
-253.9855651855469
 20
38.91836929321289
 11
-253.9155120849609
 21
39.31566619873047
  0
LINE
  8
0
  6
CONTINUOUS
 62
     7
 10
-253.7155151367188
 20
39.31566619873047
 11
-253.9155120849609
 21
39.31566619873047
  0
LINE
  8
0
  6
CONTINUOUS
 62
     7
 10
-239.5321350097656
 20
-29.47683715820313
 11
-239.5321350097656
 21
-34.93433380126953
  0
LINE
  8
0
  6
CONTINUOUS
 62
     7
 10
-246.8758392333984
 20
-34.93433380126953
 11
-239.5321350097656
 21
-34.93433380126953
  0
LINE
  8
0
  6
CONTINUOUS
 62
     7
 10
-248.9155120849609
 20
-36.98433685302734
 11
-248.845458984375
 21
-36.58703994750977
  0
LINE
  8
0
  6
CONTINUOUS
 62
     7
 10
-248.9155120849609
 20
39.31566619873047
 11
-248.845458984375
 21
38.91836929321289
  0
LINE
  8
0
  6
CONTINUOUS
 62
     7
 10
-248.9155120849609
 20
39.31566619873047
 11
-253.9155120849609
 21
39.31566619873047
  0
LINE
  8
0
  6
CONTINUOUS
 62
     7
 10
-239.5321350097656
 20
23.66566467285156
 11
-239.5321350097656
 21
-21.33433532714844
  0
LINE
  8
0
  6
CONTINUOUS
 62
     7
 10
-255.9551849365234
 20
37.26566314697266
 11
-261.4769897460938
 21
37.26566314697266
  0
LINE
  8
0
  6
CONTINUOUS
 62
     7
 10
-248.9155120849609
 20
-36.98433685302734
 11
-253.9155120849609
 21
-36.98433685302734
  0
LINE
  8
0
  6
CONTINUOUS
 62
     7
 10
-239.5321350097656
 20
-21.33433532714844
 11
-248.9155120849609
 21
-21.33433532714844
  0
LINE
  8
0
  6
CONTINUOUS
 62
     7
 10
-203.9769897460938
 20
30.91566467285156
 11
-203.9769897460938
 21
-28.58433532714844
  0
LINE
  8
0
  6
CONTINUOUS
 62
     7
 10
-204.4769897460938
 20
31.41566467285156
 11
-219.9769897460938
 21
31.41566467285156
  0
LINE
  8
0
  6
CONTINUOUS
 62
     7
 10
-219.9769897460938
 20
31.41566467285156
 11
-219.9769897460938
 21
31.11566543579102
  0
LINE
  8
0
  6
CONTINUOUS
 62
     7
 10
-221.4769897460938
 20
29.61566543579102
 11
-226.681396484375
 21
29.61566543579102
  0
LINE
  8
0
  6
CONTINUOUS
 62
     7
 10
-239.5321350097656
 20
31.80816650390625
 11
-239.5321350097656
 21
37.26566314697266
  0
LINE
  8
0
  6
CONTINUOUS
 62
     7
 10
-204.4769897460938
 20
-29.08433532714844
 11
-219.9769897460938
 21
-29.08433532714844
  0
LINE
  8
0
  6
CONTINUOUS
 62
     7
 10
-221.4769897460938
 20
-27.28433609008789
 11
-226.681396484375
 21
-27.28433609008789
  0
LINE
  8
0
  6
CONTINUOUS
 62
     7
 10
-219.9769897460938
 20
31.41566467285156
 11
-219.9769897460938
 21
-29.08433532714844
  0
LINE
  8
0
  6
CONTINUOUS
 62
     7
 10
-219.9769897460938
 20
-29.08433532714844
 11
-219.9769897460938
 21
-28.78433609008789
  0
LINE
  8
0
  6
CONTINUOUS
 62
     7
 10
-246.8758392333984
 20
37.26566314697266
 11
-246.7412261962891
 21
37.26566314697266
  0
LINE
  8
0
  6
CONTINUOUS
 62
     7
 10
-228.6769866943359
 20
31.41566467285156
 11
-237.5902252197266
 21
31.41566467285156
  0
LINE
  8
0
  6
CONTINUOUS
 62
     7
 10
-228.6769866943359
 20
31.41566467285156
 11
-228.6510162353516
 21
31.26836776733398
  0
LINE
  8
0
  6
CONTINUOUS
 62
     7
 10
-228.6769866943359
 20
31.41566467285156
 11
-228.6769866943359
 21
-29.08433532714844
  0
LINE
  8
0
  6
CONTINUOUS
 62
     7
 10
-242.4111022949219
 20
-32.43433380126953
 11
-241.9203643798828
 21
-31.58433532714844
  0
LINE
  8
0
  6
CONTINUOUS
 62
     7
 10
-228.6769866943359
 20
-29.08433532714844
 11
-228.6510162353516
 21
-28.93703842163086
  0
LINE
  8
0
  6
CONTINUOUS
 62
     7
 10
-242.4111022949219
 20
34.76566314697266
 11
-241.9203643798828
 21
33.91566467285156
  0
LINE
  8
0
  6
CONTINUOUS
 62
     7
 10
-262.9769897460938
 20
-36.98433685302734
 11
-278.4769897460938
 21
-36.98433685302734
  0
LINE
  8
0
  6
CONTINUOUS
 62
     7
 10
-228.6769866943359
 20
-29.08433532714844
 11
-237.5902252197266
 21
-29.08433532714844
  0
LINE
  8
0
  6
CENTER
 62
     7
 10
-405.4076538085938
 20
1.165664672851563
 11
-320.4623718261719
 21
1.165664672851563
  0
LINE
  8
0
  6
CONTINUOUS
 62
     7
 10
-368.0131225585938
 20
-36.98433685302734
 11
-368.0131225585938
 21
39.31566619873047
  0
LINE
  8
0
  6
CONTINUOUS
 62
     7
 10
-382.0745849609375
 20
-36.98433685302734
 11
-382.0745849609375
 21
39.31566619873047
  0
LINE
  8
0
  6
CONTINUOUS
 62
     7
 10
-382.0745849609375
 20
39.31566619873047
 11
-397.5745849609375
 21
39.31566619873047
  0
LINE
  8
0
  6
CONTINUOUS
 62
     7
 10
-372.7834167480469
 20
-36.98433685302734
 11
-373.0131225585938
 21
-36.98433685302734
  0
LINE
  8
0
  6
CONTINUOUS
 62
     7
 10
-375.0527954101563
 20
-34.93433380126953
 11
-380.5745849609375
 21
-34.93433380126953
  0
LINE
  8
0
  6
CONTINUOUS
 62
     7
 10
-398.0745849609375
 20
38.81566619873047
 11
-398.0745849609375
 21
-36.48433685302734
  0
LINE
  8
0
  6
CONTINUOUS
 62
     7
 10
-372.7834167480469
 20
-36.98433685302734
 11
-373.0131225585938
 21
-36.98433685302734
  0
LINE
  8
0
  6
CONTINUOUS
 62
     7
 10
-373.0131225585938
 20
-36.98433685302734
 11
-373.0831909179688
 21
-36.58703994750977
  0
LINE
  8
0
  6
CONTINUOUS
 62
     7
 10
-373.0131225585938
 20
-36.98433685302734
 11
-373.0131225585938
 21
39.31566619873047
  0
LINE
  8
0
  6
CONTINUOUS
 62
     7
 10
-358.6297302246094
 20
26.56489753723145
 11
-358.6297302246094
 21
37.26566314697266
  0
LINE
  8
0
  6
CONTINUOUS
 62
     7
 10
-365.9734497070313
 20
37.26566314697266
 11
-358.6297302246094
 21
37.26566314697266
  0
LINE
  8
0
  6
CONTINUOUS
 62
     7
 10
-373.0831909179688
 20
38.91836929321289
 11
-373.0131225585938
 21
39.31566619873047
  0
LINE
  8
0
  6
CONTINUOUS
 62
     7
 10
-372.8131103515625
 20
39.31566619873047
 11
-373.0131225585938
 21
39.31566619873047
  0
LINE
  8
0
  6
CONTINUOUS
 62
     7
 10
-358.6297302246094
 20
-23.50788307189941
 11
-358.6297302246094
 21
-34.93433380126953
  0
LINE
  8
0
  6
CONTINUOUS
 62
     7
 10
-365.9734497070313
 20
-34.93433380126953
 11
-358.6297302246094
 21
-34.93433380126953
  0
LINE
  8
0
  6
CONTINUOUS
 62
     7
 10
-361.0494079589844
 20
-30.80257606506348
 11
-360.1344299316406
 21
-25.61338996887207
  0
LINE
  8
0
  6
CONTINUOUS
 62
     7
 10
-368.0131225585938
 20
-36.98433685302734
 11
-367.9430847167969
 21
-36.58703994750977
  0
LINE
  8
0
  6
CONTINUOUS
 62
     7
 10
-368.0131225585938
 20
39.31566619873047
 11
-367.9430847167969
 21
38.91836929321289
  0
LINE
  8
0
  6
CONTINUOUS
 62
     7
 10
-368.0131225585938
 20
39.31566619873047
 11
-373.0131225585938
 21
39.31566619873047
  0
LINE
  8
0
  6
CONTINUOUS
 62
     7
 10
-358.6297302246094
 20
23.66566467285156
 11
-358.6297302246094
 21
-21.33433532714844
  0
LINE
  8
0
  6
CONTINUOUS
 62
     7
 10
-368.0131225585938
 20
-36.98433685302734
 11
-373.0131225585938
 21
-36.98433685302734
  0
LINE
  8
0
  6
CONTINUOUS
 62
     7
 10
-358.6297302246094
 20
-21.33433532714844
 11
-368.0131225585938
 21
-21.33433532714844
  0
LINE
  8
0
  6
CONTINUOUS
 62
     7
 10
-323.0745849609375
 20
24.96566390991211
 11
-323.0745849609375
 21
-22.63433456420898
  0
LINE
  8
0
  6
CONTINUOUS
 62
     7
 10
-344.4963989257813
 20
23.66566467285156
 11
-340.5745849609375
 21
23.66566467285156
  0
LINE
  8
0
  6
CONTINUOUS
 62
     7
 10
-339.0745849609375
 20
25.46566390991211
 11
-339.0745849609375
 21
-23.13433456420898
  0
LINE
  8
0
  6
CONTINUOUS
 62
     7
 10
-339.0745849609375
 20
-23.13433456420898
 11
-323.5745849609375
 21
-23.13433456420898
  0
LINE
  8
0
  6
CONTINUOUS
 62
     7
 10
-339.0745849609375
 20
25.46566390991211
 11
-323.5745849609375
 21
25.46566390991211
  0
LINE
  8
0
  6
CONTINUOUS
 62
     7
 10
-361.0494079589844
 20
33.13390731811523
 11
-360.4258422851563
 21
29.5974235534668
  0
LINE
  8
0
  6
CONTINUOUS
 62
     7
 10
-339.0745849609375
 20
-23.13433456420898
 11
-339.0745849609375
 21
-22.83433532714844
  0
LINE
  8
0
  6
CONTINUOUS
 62
     7
 10
-344.4963989257813
 20
-21.33433532714844
 11
-340.5745849609375
 21
-21.33433532714844
  0
LINE
  8
0
  6
CONTINUOUS
 62
     7
 10
-346.4859313964844
 20
25.46566390991211
 11
-346.4859313964844
 21
-23.13433456420898
  0
LINE
  8
0
  6
CONTINUOUS
 62
     7
 10
-339.0745849609375
 20
25.16566467285156
 11
-339.0745849609375
 21
25.46566390991211
  0
LINE
  8
0
  6
CONTINUOUS
 62
     7
 10
-357.1799926757813
 20
-23.13433456420898
 11
-346.4859313964844
 21
-23.13433456420898
  0
LINE
  8
0
  6
CONTINUOUS
 62
     7
 10
-346.4859313964844
 20
-23.13433456420898
 11
-346.4660034179688
 21
-22.98703956604004
  0
LINE
  8
0
  6
CONTINUOUS
 62
     7
 10
-346.4919738769531
 20
25.46566390991211
 11
-346.4660034179688
 21
25.31836891174316
  0
LINE
  8
0
  6
CONTINUOUS
 62
     7
 10
-382.0745849609375
 20
-36.98433685302734
 11
-397.5745849609375
 21
-36.98433685302734
  0
LINE
  8
0
  6
CONTINUOUS
 62
     7
 10
-375.0527954101563
 20
37.26566314697266
 11
-380.5745849609375
 21
37.26566314697266
  0
LINE
  8
0
  6
CONTINUOUS
 62
     7
 10
-355.5018005371094
 20
25.46566390991211
 11
-346.4919738769531
 21
25.46566390991211
  0
LINE
  8
0
  6
CONTINUOUS
 62
     7
 10
-368.0131225585938
 20
23.66566467285156
 11
-358.6297302246094
 21
23.66566467285156
  0
LINE
  8
0
  6
CONTINUOUS
 62
     7
 10
-248.9155120849609
 20
23.66566467285156
 11
-239.5321350097656
 21
23.66566467285156
  0
LINE
  8
0
  6
CONTINUOUS
 62
     7
 10
-359.9723510742188
 20
-11.78857421875
 11
-365.0335083007813
 21
-10.89615917205811
  0
LINE
  8
0
  6
CONTINUOUS
 62
     7
 10
-365.0335083007813
 20
-17.50371932983398
 11
-365.0335083007813
 21
-15.30119895935059
  0
LINE
  8
0
  6
CONTINUOUS
 62
     7
 10
-363.6179504394531
 20
-12.61410617828369
 11
-363.4924011230469
 21
-11.90207004547119
  0
LINE
  8
0
  6
CONTINUOUS
 62
     7
 10
-365.0335083007813
 20
-8.693639755249023
 11
-366.4795227050781
 21
-8.438663482666016
  0
LINE
  8
0
  6
CONTINUOUS
 62
     7
 10
-362.0889587402344
 20
-14.35205364227295
 11
-363.8690490722656
 21
-14.03817653656006
  0
LINE
  8
0
  6
CONTINUOUS
 62
     7
 10
-363.9945983886719
 20
-14.75021171569824
 11
-363.8690490722656
 21
-14.03817653656006
  0
LINE
  8
0
  6
CONTINUOUS
 62
     7
 10
-361.8378601074219
 20
-12.92798328399658
 11
-363.6179504394531
 21
-12.61410617828369
  0
LINE
  8
0
  6
CONTINUOUS
 62
     7
 10
-362.2145080566406
 20
-15.06408882141113
 11
-363.9945983886719
 21
-14.75021171569824
  0
LINE
  8
0
  6
CONTINUOUS
 62
     7
 10
-365.0335083007813
 20
-8.69364070892334
 11
-365.0335083007813
 21
-10.89616012573242
  0
LINE
  8
0
  6
CONTINUOUS
 62
     7
 10
-365.0335083007813
 20
-17.50371932983398
 11
-366.4795227050781
 21
-17.24874305725098
  0
LINE
  8
0
  6
CONTINUOUS
 62
     7
 10
-359.9723510742188
 20
-11.78857421875
 11
-359.9723510742188
 21
-16.1936149597168
  0
LINE
  8
0
  6
CONTINUOUS
 62
     7
 10
-366.4795227050781
 20
-8.438664436340332
 11
-366.4795227050781
 21
-17.24874305725098
  0
LINE
  8
0
  6
CONTINUOUS
 62
     7
 10
-359.9723510742188
 20
-16.19361305236816
 11
-365.0335083007813
 21
-15.30119895935059
  0
LINE
  8
0
  6
CONTINUOUS
 62
     7
 10
-361.7123107910156
 20
-12.2159481048584
 11
-363.4924011230469
 21
-11.90207004547119
  0
LINE
  8
0
  6
CONTINUOUS
 62
     7
 10
-244.5203399658203
 20
-12.61410617828369
 11
-244.394775390625
 21
-11.90207004547119
  0
LINE
  8
0
  6
CONTINUOUS
 62
     7
 10
-245.9358825683594
 20
-8.693639755249023
 11
-247.3819274902344
 21
-8.438663482666016
  0
LINE
  8
0
  6
CONTINUOUS
 62
     7
 10
-242.7402496337891
 20
-12.92798328399658
 11
-244.5203399658203
 21
-12.61410617828369
  0
LINE
  8
0
  6
CONTINUOUS
 62
     7
 10
-244.8969879150391
 20
-14.75021171569824
 11
-244.7714385986328
 21
-14.03817653656006
  0
LINE
  8
0
  6
CONTINUOUS
 62
     7
 10
-243.1168975830078
 20
-15.06408882141113
 11
-244.8969879150391
 21
-14.75021171569824
  0
LINE
  8
0
  6
CONTINUOUS
 62
     7
 10
-242.9913482666016
 20
-14.35205364227295
 11
-244.7714385986328
 21
-14.03817653656006
  0
LINE
  8
0
  6
CONTINUOUS
 62
     7
 10
-245.9358825683594
 20
-8.69364070892334
 11
-245.9358825683594
 21
-10.89616012573242
  0
LINE
  8
0
  6
CONTINUOUS
 62
     7
 10
-245.9358825683594
 20
-17.50371932983398
 11
-245.9358825683594
 21
-15.30119895935059
  0
LINE
  8
0
  6
CONTINUOUS
 62
     7
 10
-240.874755859375
 20
-11.78857421875
 11
-245.9358825683594
 21
-10.89615917205811
  0
LINE
  8
0
  6
CONTINUOUS
 62
     7
 10
-240.874755859375
 20
-11.78857421875
 11
-240.874755859375
 21
-16.1936149597168
  0
LINE
  8
0
  6
CONTINUOUS
 62
     7
 10
-247.3819274902344
 20
-8.438664436340332
 11
-247.3819274902344
 21
-17.24874305725098
  0
LINE
  8
0
  6
CONTINUOUS
 62
     7
 10
-240.874755859375
 20
-16.19361305236816
 11
-245.9358825683594
 21
-15.30119895935059
  0
LINE
  8
0
  6
CONTINUOUS
 62
     7
 10
-245.9358825683594
 20
-17.50371932983398
 11
-247.3819274902344
 21
-17.24874305725098
  0
LINE
  8
0
  6
CONTINUOUS
 62
     7
 10
-242.6147003173828
 20
-12.2159481048584
 11
-244.394775390625
 21
-11.90207004547119
  0
ARC
  8
0
  6
CONTINUOUS
 62
     7
 10
-8.820949554443359
 20
45.61566543579102
 40
2.000000000000002
 50
269.9999974955218
 51
350.000000290907
  0
ARC
  8
0
  6
CONTINUOUS
 62
     7
 10
-13.97246360778809
 20
45.11566543579102
 40
1.5
 50
180.0000050089564
 51
270.0000006832453
  0
ARC
  8
0
  6
CONTINUOUS
 62
     7
 10
0.2760227620601654
 20
45.61566543579102
 40
2
 50
190.0000066529676
 51
264.3565195428529
  0
ARC
  8
0
  6
CONTINUOUS
 62
     7
 10
7.827537059783936
 20
44.31566619873047
 40
4.999999999999999
 50
214.5139653954936
 51
269.9999974955218
  0
ARC
  8
0
  6
CONTINUOUS
 62
     7
 10
-0.4123438894748688
 20
38.64959335327148
 40
5.000000000000002
 50
34.51397040444996
 51
84.35652455180929
  0
ARC
  8
0
  6
CONTINUOUS
 62
     7
 10
9.867206573486328
 20
39.26566314697266
 40
2
 50
190.0000066529676
 51
269.9999974955218
  0
ARC
  8
0
  6
CONTINUOUS
 62
     7
 10
15.02753639221191
 20
38.76566314697266
 40
1.500000000000002
 50
269.9999974955218
 51
0
  0
ARC
  8
0
  6
CONTINUOUS
 62
     7
 10
0.2760227620601654
 20
-43.28433609008789
 40
2
 50
95.64348045714705
 51
169.9999933470324
  0
ARC
  8
0
  6
CONTINUOUS
 62
     7
 10
-13.97246360778809
 20
-42.78433609008789
 40
1.500000000000002
 50
90.00000250447812
 51
180.0000050089564
  0
ARC
  8
0
  6
CONTINUOUS
 62
     7
 10
-8.820949554443359
 20
-43.28433609008789
 40
2
 50
9.999999709092981
 51
90.00000250447816
  0
ARC
  8
0
  6
CONTINUOUS
 62
     7
 10
7.827537059783936
 20
-41.98433685302734
 40
4.999999999999997
 50
90.00000250447816
 51
145.4860346045064
  0
ARC
  8
0
  6
CONTINUOUS
 62
     7
 10
-0.4123438894748688
 20
-36.31826400756836
 40
5.000000000000002
 50
275.6434754481907
 51
325.48602959555
  0
ARC
  8
0
  6
CONTINUOUS
 62
     7
 10
9.867206573486328
 20
-36.93433380126953
 40
2.000000000000002
 50
90.00000250447816
 51
169.9999933470324
  0
ARC
  8
0
  6
CONTINUOUS
 62
     7
 10
15.02753639221191
 20
-36.43433380126953
 40
1.5
 50
0
 51
90.00000250447812
  0
ARC
  8
0
  6
CONTINUOUS
 62
     7
 10
112.6271438598633
 20
57.91566467285156
 40
2.000000000000002
 50
269.9999974955219
 51
350.000000290907
  0
ARC
  8
0
  6
CONTINUOUS
 62
     7
 10
121.8299179077148
 20
57.91566467285156
 40
1.999999999999998
 50
190.0000066529676
 51
269.9999974955219
  0
ARC
  8
0
  6
CONTINUOUS
 62
     7
 10
107.5285339355469
 20
57.41566467285156
 40
1.500000000000006
 50
180.0000050089564
 51
270.0000006832452
  0
ARC
  8
0
  6
CONTINUOUS
 62
     7
 10
121.8299179077148
 20
49.91566467285156
 40
6.000000000000006
 50
9.999999709092904
 51
90.0000025044782
  0
ARC
  8
0
  6
CONTINUOUS
 62
     7
 10
133.7018280029297
 20
34.41566467285156
 40
3.000000000000011
 50
190.0000066529675
 51
269.9999974955221
  0
ARC
  8
0
  6
CONTINUOUS
 62
     7
 10
148.5285339355469
 20
31.11566543579102
 40
1.500000000000002
 50
269.9999974955215
 51
0
  0
ARC
  8
0
  6
CONTINUOUS
 62
     7
 10
143.3241119384766
 20
31.61566543579102
 40
1.999999999999999
 50
190.0000066529677
 51
269.9999974955215
  0
ARC
  8
0
  6
CONTINUOUS
 62
     7
 10
121.8299179077148
 20
-55.58433532714844
 40
2.000000000000002
 50
90.00000250447806
 51
169.9999933470324
  0
ARC
  8
0
  6
CONTINUOUS
 62
     7
 10
112.6271438598633
 20
-55.58433532714844
 40
1.999999999999998
 50
9.999999709092995
 51
90.00000250447806
  0
ARC
  8
0
  6
CONTINUOUS
 62
     7
 10
107.5285339355469
 20
-55.08433532714844
 40
1.500000000000002
 50
90.00000250447792
 51
180.0000050089564
  0
ARC
  8
0
  6
CONTINUOUS
 62
     7
 10
121.8299179077148
 20
-47.58433532714844
 40
5.999999999999999
 50
269.9999974955218
 51
350.0000011446807
  0
ARC
  8
0
  6
CONTINUOUS
 62
     7
 10
133.7018280029297
 20
-32.08433532714844
 40
3
 50
90.00000250447792
 51
169.9999933470324
  0
ARC
  8
0
  6
CONTINUOUS
 62
     7
 10
143.3241119384766
 20
-29.28433609008789
 40
1.999999999999998
 50
90.00000250447846
 51
169.9999933470323
  0
ARC
  8
0
  6
CONTINUOUS
 62
     7
 10
148.5285339355469
 20
-28.78433609008789
 40
1.5
 50
0
 51
90.00000250447846
  0
ARC
  8
0
  6
CONTINUOUS
 62
     7
 10
478.4543762207031
 20
60.6734733581543
 40
2.000000000000002
 50
269.9999974955215
 51
350.0000002909071
  0
ARC
  8
0
  6
CONTINUOUS
 62
     7
 10
473.346923828125
 20
60.1734733581543
 40
1.500000000000006
 50
180.0000050089564
 51
270.0000006832452
  0
ARC
  8
0
  6
CONTINUOUS
 62
     7
 10
487.6394958496094
 20
60.6734733581543
 40
2.000000000000026
 50
190.0000066529674
 51
269.9999974955215
  0
ARC
  8
0
  6
CONTINUOUS
 62
     7
 10
509.1954345703125
 20
48.32347106933594
 40
2.000000000000026
 50
190.0000066529674
 51
269.9999974955215
  0
ARC
  8
0
  6
CONTINUOUS
 62
     7
 10
514.346923828125
 20
47.82347106933594
 40
1.500000000000002
 50
269.9999974955227
 51
0
  0
ARC
  8
0
  6
CONTINUOUS
 62
     7
 10
514.346923828125
 20
-40.0765266418457
 40
1.5
 50
0
 51
90.00000250447738
  0
ARC
  8
0
  6
CONTINUOUS
 62
     7
 10
509.1954345703125
 20
-40.5765266418457
 40
2.000000000000002
 50
90.00000250447846
 51
169.9999933470326
  0
ARC
  8
0
  6
CONTINUOUS
 62
     7
 10
487.6394958496094
 20
52.6734733581543
 40
6.000000000000011
 50
36.01551577649089
 51
90.00000250447792
  0
ARC
  8
0
  6
CONTINUOUS
 62
     7
 10
500.6936950683594
 20
53.4234733581543
 40
4.999999999999984
 50
216.0155141826294
 51
269.9999974955215
  0
ARC
  8
0
  6
CONTINUOUS
 62
     7
 10
487.6394958496094
 20
-52.92652893066406
 40
2.000000000000002
 50
90.00000250447846
 51
169.9999933470326
  0
ARC
  8
0
  6
CONTINUOUS
 62
     7
 10
487.6394958496094
 20
-44.92652893066406
 40
5.999999999999999
 50
269.9999974955221
 51
323.9844842235091
  0
ARC
  8
0
  6
CONTINUOUS
 62
     7
 10
500.6936950683594
 20
-45.67652893066406
 40
4.999999999999997
 50
90.00000250447846
 51
143.9844858173707
  0
ARC
  8
0
  6
CONTINUOUS
 62
     7
 10
478.4543762207031
 20
-52.92652893066406
 40
2.000000000000012
 50
9.999999709092926
 51
90.00000250447846
  0
ARC
  8
0
  6
CONTINUOUS
 62
     7
 10
473.346923828125
 20
-52.42652893066406
 40
1.500000000000002
 50
90.00000250447738
 51
180.0000050089564
  0
ARC
  8
0
  6
CONTINUOUS
 62
     7
 10
803.5283813476563
 20
70.20193481445313
 40
2.000000000000002
 50
269.9999974955215
 51
350.0000002909068
  0
ARC
  8
0
  6
CONTINUOUS
 62
     7
 10
798.4297485351563
 20
69.70193481445313
 40
1.500000000000006
 50
180.0000050089564
 51
270.0000006832473
  0
ARC
  8
0
  6
CONTINUOUS
 62
     7
 10
798.4297485351563
 20
-68.29806518554688
 40
1.500000000000002
 50
90.00000250447738
 51
180.0000050089564
  0
ARC
  8
0
  6
CONTINUOUS
 62
     7
 10
803.5283813476563
 20
-68.79806518554688
 40
1.999999999999956
 50
9.999999709093206
 51
90.00000250447846
  0
ARC
  8
0
  6
CONTINUOUS
 62
     7
 10
812.7311401367188
 20
70.20193481445313
 40
1.99999999999997
 50
190.0000066529677
 51
269.9999974955215
  0
ARC
  8
0
  6
CONTINUOUS
 62
     7
 10
812.7311401367188
 20
62.20193099975586
 40
6.000000000000009
 50
42.24491467692017
 51
90.00000250447846
  0
ARC
  8
0
  6
CONTINUOUS
 62
     7
 10
838.443115234375
 20
50.25193405151367
 40
4.999999999999976
 50
222.2449199132479
 51
269.9999974955222
  0
ARC
  8
0
  6
CONTINUOUS
 62
     7
 10
812.7311401367188
 20
-60.79806900024414
 40
6.000000000000006
 50
269.9999974955215
 51
317.7550853230798
  0
ARC
  8
0
  6
CONTINUOUS
 62
     7
 10
812.7311401367188
 20
-68.79806518554688
 40
2.000000000000002
 50
90.00000250447846
 51
169.9999933470323
  0
ARC
  8
0
  6
CONTINUOUS
 62
     7
 10
838.443115234375
 20
-48.84806823730469
 40
4.999999999999997
 50
90.00000250447782
 51
137.7550800867521
  0
ARC
  8
0
  6
CONTINUOUS
 62
     7
 10
847.2782592773438
 20
45.15193176269531
 40
1.99999999999997
 50
190.0000066529677
 51
269.9999974955215
  0
ARC
  8
0
  6
CONTINUOUS
 62
     7
 10
851.9297485351563
 20
45.15193176269531
 40
2.000000000000002
 50
269.9999974955215
 51
0
  0
ARC
  8
0
  6
CONTINUOUS
 62
     7
 10
847.2782592773438
 20
-43.74806594848633
 40
2.000000000000002
 50
90.00000250447846
 51
169.9999933470323
  0
ARC
  8
0
  6
CONTINUOUS
 62
     7
 10
851.9297485351563
 20
-43.74806594848633
 40
2
 50
0
 51
90.00000250447846
  0
ARC
  8
0
  6
CONTINUOUS
 62
     7
 10
-127.3649139404297
 20
-331.24853515625
 40
1.500000000000002
 50
90.00000250447792
 51
180.0000050089569
  0
ARC
  8
0
  6
CONTINUOUS
 62
     7
 10
-127.3649139404297
 20
-193.24853515625
 40
1.500000000000006
 50
180.0000050089558
 51
270.0000006832452
  0
ARC
  8
0
  6
CONTINUOUS
 62
     7
 10
-122.2662963867188
 20
-192.74853515625
 40
2.000000000000002
 50
269.9999974955219
 51
350.0000002909074
  0
ARC
  8
0
  6
CONTINUOUS
 62
     7
 10
-122.2662963867188
 20
-331.74853515625
 40
2
 50
9.999999709093396
 51
90.00000250447806
  0
ARC
  8
0
  6
CONTINUOUS
 62
     7
 10
-113.0635299682617
 20
-200.74853515625
 40
5.999999999999992
 50
63.87824455208782
 51
90.0000025044782
  0
ARC
  8
0
  6
CONTINUOUS
 62
     7
 10
-113.0635299682617
 20
-192.74853515625
 40
1.999999999999998
 50
190.0000066529676
 51
269.9999974955219
  0
ARC
  8
0
  6
CONTINUOUS
 62
     7
 10
-113.0635299682617
 20
-323.74853515625
 40
6.000000000000006
 50
269.9999974955218
 51
296.1217622781014
  0
ARC
  8
0
  6
CONTINUOUS
 62
     7
 10
-113.0635299682617
 20
-331.74853515625
 40
2.000000000000002
 50
90.00000250447806
 51
169.9999933470316
  0
ARC
  8
0
  6
CONTINUOUS
 62
     7
 10
-78.47234344482422
 20
-319.0485229492188
 40
2.000000000000002
 50
90.00000250447806
 51
169.9999933470316
  0
ARC
  8
0
  6
CONTINUOUS
 62
     7
 10
-73.36491394042969
 20
-318.5485229492188
 40
1.5
 50
0
 51
90.00000250447792
  0
ARC
  8
0
  6
CONTINUOUS
 62
     7
 10
-73.36491394042969
 20
-205.9485321044922
 40
1.500000000000002
 50
269.9999974955221
 51
0
  0
ARC
  8
0
  6
CONTINUOUS
 62
     7
 10
-78.47234344482422
 20
-205.4485321044922
 40
1.999999999999998
 50
190.0000066529676
 51
269.9999974955219
  0
ARC
  8
0
  6
CONTINUOUS
 62
     7
 10
-89.40497589111328
 20
-200.0985412597656
 40
4.999999999999991
 50
243.8782463733206
 51
269.9999974955218
  0
ARC
  8
0
  6
CONTINUOUS
 62
     7
 10
-89.40497589111328
 20
-324.3985290527344
 40
5.000000000000004
 50
90.00000250447815
 51
116.1217536266794
  0
ARC
  8
0
  6
CONTINUOUS
 62
     7
 10
125.4991073608398
 20
-218.2985382080078
 40
1.500000000000002
 50
269.9999974955221
 51
0
  0
ARC
  8
0
  6
CONTINUOUS
 62
     7
 10
120.3475875854492
 20
-306.6985473632813
 40
2.000000000000002
 50
90.00000250447806
 51
169.9999933470316
  0
ARC
  8
0
  6
CONTINUOUS
 62
     7
 10
120.3475875854492
 20
-217.7985382080078
 40
1.999999999999998
 50
190.0000066529676
 51
269.9999974955219
  0
ARC
  8
0
  6
CONTINUOUS
 62
     7
 10
125.4991073608398
 20
-306.1985473632813
 40
1.5
 50
0
 51
90.00000250447792
  0
ARC
  8
0
  6
CONTINUOUS
 62
     7
 10
72.85338592529297
 20
-180.3485412597656
 40
1.999999999999998
 50
190.0000066529676
 51
269.9999974955219
  0
ARC
  8
0
  6
CONTINUOUS
 62
     7
 10
63.96437454223633
 20
-180.8485412597656
 40
1.500000000000002
 50
269.9999974955218
 51
350.0000002909066
  0
ARC
  8
0
  6
CONTINUOUS
 62
     7
 10
58.99910354614258
 20
-180.3485412597656
 40
2
 50
180.0000050089561
 51
270.0000006832452
  0
ARC
  8
0
  6
CONTINUOUS
 62
     7
 10
63.96437454223633
 20
-343.6485290527344
 40
1.499999999999992
 50
9.99999970909235
 51
90.0000025044782
  0
ARC
  8
0
  6
CONTINUOUS
 62
     7
 10
58.99910354614258
 20
-344.1485290527344
 40
2.000000000000002
 50
90.00000250447806
 51
180.0000050089569
  0
ARC
  8
0
  6
CONTINUOUS
 62
     7
 10
72.85338592529297
 20
-188.3485412597656
 40
6.000000000000006
 50
43.78847254254594
 51
90.0000025044782
  0
ARC
  8
0
  6
CONTINUOUS
 62
     7
 10
111.4323806762695
 20
-212.6985321044922
 40
5.000000000000009
 50
223.7884743637788
 51
269.9999974955218
  0
ARC
  8
0
  6
CONTINUOUS
 62
     7
 10
72.85338592529297
 20
-344.1485290527344
 40
2.000000000000002
 50
90.00000250447806
 51
169.9999933470316
  0
ARC
  8
0
  6
CONTINUOUS
 62
     7
 10
72.85338592529297
 20
-336.1485290527344
 40
6.000000000000006
 50
269.9999974955218
 51
316.211527457454
  0
ARC
  8
0
  6
CONTINUOUS
 62
     7
 10
111.4323806762695
 20
-311.7985229492188
 40
5.000000000000004
 50
90.00000250447815
 51
136.2115256362212
  0
ARC
  8
0
  6
CONTINUOUS
 62
     7
 10
314.5954284667969
 20
-180.3485412597656
 40
2.000000000000026
 50
190.0000066529674
 51
269.9999974955215
  0
ARC
  8
0
  6
CONTINUOUS
 62
     7
 10
314.5954284667969
 20
-344.1485290527344
 40
2.000000000000002
 50
90.00000250447846
 51
169.9999933470318
  0
ARC
  8
0
  6
CONTINUOUS
 62
     7
 10
314.5954284667969
 20
-188.3485412597656
 40
5.999999999999996
 50
56.71409669770193
 51
90.00000250447792
  0
ARC
  8
0
  6
CONTINUOUS
 62
     7
 10
314.5954284667969
 20
-336.1485290527344
 40
6.000000000000006
 50
269.9999974955221
 51
303.2859033022979
  0
ARC
  8
0
  6
CONTINUOUS
 62
     7
 10
362.1336975097656
 20
-319.0485229492188
 40
2.000000000000002
 50
90.00000250447846
 51
169.9999933470318
  0
ARC
  8
0
  6
CONTINUOUS
 62
     7
 10
367.2411499023438
 20
-318.5485229492188
 40
1.5
 50
0
 51
90.00000250447738
  0
ARC
  8
0
  6
CONTINUOUS
 62
     7
 10
367.2411499023438
 20
-205.9485321044922
 40
1.500000000000002
 50
269.9999974955227
 51
0
  0
ARC
  8
0
  6
CONTINUOUS
 62
     7
 10
362.1336975097656
 20
-205.4485321044922
 40
2.000000000000026
 50
190.0000066529674
 51
269.9999974955215
  0
ARC
  8
0
  6
CONTINUOUS
 62
     7
 10
352.5357971191406
 20
-200.0985412597656
 40
4.999999999999996
 50
236.7141019340294
 51
269.9999974955215
  0
ARC
  8
0
  6
CONTINUOUS
 62
     7
 10
352.5357971191406
 20
-324.3985290527344
 40
5.000000000000004
 50
90.00000250447846
 51
123.2858980659705
  0
ARC
  8
0
  6
CONTINUOUS
 62
     7
 10
300.2411499023438
 20
-180.8485412597656
 40
1.500000000000006
 50
180.0000050089558
 51
270.0000006832452
  0
ARC
  8
0
  6
CONTINUOUS
 62
     7
 10
305.286865234375
 20
-180.3485412597656
 40
2.000000000000002
 50
269.9999974955215
 51
350.0000002909075
  0
ARC
  8
0
  6
CONTINUOUS
 62
     7
 10
305.286865234375
 20
-344.1485290527344
 40
2.000000000000014
 50
9.999999709093325
 51
90.00000250447846
  0
ARC
  8
0
  6
CONTINUOUS
 62
     7
 10
300.2411499023438
 20
-343.6485290527344
 40
1.500000000000002
 50
90.00000250447738
 51
180.0000050089569
  0
ARC
  8
0
  6
CONTINUOUS
 62
     7
 10
517.5866088867188
 20
-180.3485412597656
 40
1.99999999999997
 50
190.0000066529677
 51
269.9999974955215
  0
ARC
  8
0
  6
CONTINUOUS
 62
     7
 10
508.2780456542969
 20
-180.3485412597656
 40
2.000000000000002
 50
269.9999974955215
 51
350.0000002909075
  0
ARC
  8
0
  6
CONTINUOUS
 62
     7
 10
508.2780456542969
 20
-344.1485290527344
 40
2.000000000000014
 50
9.999999709093325
 51
90.00000250447846
  0
ARC
  8
0
  6
CONTINUOUS
 62
     7
 10
517.5866088867188
 20
-344.1485290527344
 40
2.000000000000002
 50
90.00000250447846
 51
169.9999933470315
  0
ARC
  8
0
  6
CONTINUOUS
 62
     7
 10
517.5866088867188
 20
-188.3485412597656
 40
6.000000000000028
 50
73.87800349701207
 51
90.00000250447846
  0
ARC
  8
0
  6
CONTINUOUS
 62
     7
 10
517.5866088867188
 20
-336.1485290527344
 40
6.000000000000006
 50
269.9999974955215
 51
286.1219965029869
  0
ARC
  8
0
  6
CONTINUOUS
 62
     7
 10
503.2323303222656
 20
-180.8485412597656
 40
1.500000000000006
 50
180.0000050089558
 51
270.0000006832452
  0
ARC
  8
0
  6
CONTINUOUS
 62
     7
 10
503.2323303222656
 20
-343.6485290527344
 40
1.500000000000002
 50
90.00000250447738
 51
180.0000050089569
  0
ARC
  8
0
  6
CONTINUOUS
 62
     7
 10
570.2322998046875
 20
-193.24853515625
 40
1.500000000000002
 50
269.9999974955227
 51
0
  0
ARC
  8
0
  6
CONTINUOUS
 62
     7
 10
570.2322998046875
 20
-331.24853515625
 40
1.5
 50
0
 51
90.00000250447738
  0
ARC
  8
0
  6
CONTINUOUS
 62
     7
 10
565.1337280273438
 20
-331.74853515625
 40
2.000000000000002
 50
90.00000250447846
 51
169.9999933470315
  0
ARC
  8
0
  6
CONTINUOUS
 62
     7
 10
565.1337280273438
 20
-192.74853515625
 40
1.99999999999997
 50
190.0000066529677
 51
269.9999974955215
  0
ARC
  8
0
  6
CONTINUOUS
 62
     7
 10
553.740478515625
 20
-187.3485412597656
 40
5.000000000000001
 50
253.878005318245
 51
269.9999974955222
  0
ARC
  8
0
  6
CONTINUOUS
 62
     7
 10
553.740478515625
 20
-337.1485290527344
 40
5.000000000000004
 50
90.00000250447782
 51
106.1219946817549
  0
ARC
  8
0
  6
CONTINUOUS
 62
     7
 10
-124.0542678833008
 20
45.61566543579102
 40
1.999999999999998
 50
190.0000066529676
 51
264.3565195428529
  0
ARC
  8
0
  6
CONTINUOUS
 62
     7
 10
-138.3027496337891
 20
45.11566543579102
 40
1.500000000000006
 50
180.0000050089564
 51
270.0000006832452
  0
ARC
  8
0
  6
CONTINUOUS
 62
     7
 10
-133.1512451171875
 20
45.61566543579102
 40
2.000000000000002
 50
269.9999974955215
 51
350.0000002909071
  0
ARC
  8
0
  6
CONTINUOUS
 62
     7
 10
-124.7426376342773
 20
38.64959335327148
 40
4.999999999999996
 50
3.085986615604393
 51
84.3565245518092
  0
ARC
  8
0
  6
CONTINUOUS
 62
     7
 10
-124.0542678833008
 20
-43.28433609008789
 40
2
 50
95.64348045714712
 51
169.9999933470324
  0
ARC
  8
0
  6
CONTINUOUS
 62
     7
 10
-138.3027496337891
 20
-42.78433609008789
 40
1.500000000000002
 50
90.00000250447846
 51
180.0000050089564
  0
ARC
  8
0
  6
CONTINUOUS
 62
     7
 10
-133.1512451171875
 20
-43.28433609008789
 40
2.000000000000012
 50
9.999999709092926
 51
90.00000250447846
  0
ARC
  8
0
  6
CONTINUOUS
 62
     7
 10
-124.7426376342773
 20
-36.31826400756836
 40
5.000000000000001
 50
275.6434754481906
 51
356.9140133843956
  0
ARC
  8
0
  6
CONTINUOUS
 62
     7
 10
-109.3027572631836
 20
31.11566543579102
 40
1.500000000000002
 50
269.9999974955221
 51
0
  0
ARC
  8
0
  6
CONTINUOUS
 62
     7
 10
-109.3027572631836
 20
-28.78433609008789
 40
1.5
 50
0
 51
90.00000250447792
  0
ARC
  8
0
  6
CONTINUOUS
 62
     7
 10
-114.5071640014648
 20
31.61566543579102
 40
1.999999999999999
 50
190.0000066529677
 51
269.9999974955219
  0
ARC
  8
0
  6
CONTINUOUS
 62
     7
 10
-114.5071640014648
 20
-29.28433609008789
 40
1.999999999999998
 50
90.00000250447806
 51
169.9999933470323
  0
ARC
  8
0
  6
CONTINUOUS
 62
     7
 10
-116.5027542114258
 20
34.41566467285156
 40
3
 50
183.0859837410822
 51
269.9999974955218
  0
ARC
  8
0
  6
CONTINUOUS
 62
     7
 10
-116.5027542114258
 20
-32.08433532714844
 40
3
 50
90.0000025044782
 51
176.9140162589179
  0
ARC
  8
0
  6
CONTINUOUS
 62
     7
 10
275.8788146972656
 20
60.58112335205078
 40
0.5000000000000004
 50
90.00000250447521
 51
180.0000050089561
  0
ARC
  8
0
  6
CONTINUOUS
 62
     7
 10
313.5787963867188
 20
-50.61887741088867
 40
0.5000000000000004
 50
269.9999974955248
 51
0
  0
ARC
  8
0
  6
CONTINUOUS
 62
     7
 10
313.5787963867188
 20
58.48112106323242
 40
0.5
 50
0
 51
90.00000250447521
  0
ARC
  8
0
  6
CONTINUOUS
 62
     7
 10
350.8788146972656
 20
41.58112335205078
 40
0.5
 50
0
 51
90.00000250447521
  0
ARC
  8
0
  6
CONTINUOUS
 62
     7
 10
305.3788146972656
 20
-45.11887741088867
 40
5.999999999999998
 50
280.0784128989282
 51
347.1895020983992
  0
ARC
  8
0
  6
CONTINUOUS
 62
     7
 10
292.8788146972656
 20
60.23112106323242
 40
1.500000000000006
 50
180.0000050089564
 51
270.0000006832452
  0
ARC
  8
0
  6
CONTINUOUS
 62
     7
 10
298.3565368652344
 20
60.73112106323242
 40
2.000000000000002
 50
269.9999974955215
 51
350.0000002909071
  0
ARC
  8
0
  6
CONTINUOUS
 62
     7
 10
298.3565368652344
 20
-52.86887741088867
 40
2.000000000000012
 50
9.999999709092926
 51
90.00000250447846
  0
ARC
  8
0
  6
CONTINUOUS
 62
     7
 10
292.8788146972656
 20
-52.36887741088867
 40
1.500000000000002
 50
90.00000250447738
 51
180.0000050089564
  0
ARC
  8
0
  6
CONTINUOUS
 62
     7
 10
306.7787780761719
 20
-52.99543380737305
 40
1.999999999999999
 50
100.078411077696
 51
169.9999933470326
  0
ARC
  8
0
  6
CONTINUOUS
 62
     7
 10
306.7570190429688
 20
60.98112106323242
 40
2.000000000000026
 50
190.0000066529674
 51
269.9999974955215
  0
ARC
  8
0
  6
CONTINUOUS
 62
     7
 10
305.2638549804688
 20
53.12170028686523
 40
6.000000000000004
 50
20.75955743502629
 51
79.24308976930067
  0
ARC
  8
0
  6
CONTINUOUS
 62
     7
 10
328.3658142089844
 20
-34.11887741088867
 40
2.000000000000002
 50
90.00000250447846
 51
169.9999933470326
  0
ARC
  8
0
  6
CONTINUOUS
 62
     7
 10
333.8788146972656
 20
-33.61887741088867
 40
1.5
 50
0
 51
90.00000250447738
  0
ARC
  8
0
  6
CONTINUOUS
 62
     7
 10
333.8788146972656
 20
41.53112030029297
 40
1.500000000000002
 50
269.9999974955227
 51
0
  0
ARC
  8
0
  6
CONTINUOUS
 62
     7
 10
328.3570251464844
 20
42.03112030029297
 40
2.000000000000026
 50
190.0000066529674
 51
269.9999974955215
  0
ARC
  8
0
  6
CONTINUOUS
 62
     7
 10
319.3173522949219
 20
47.08112335205078
 40
4.999999999999999
 50
200.7595626713537
 51
269.9999974955215
  0
ARC
  8
0
  6
CONTINUOUS
 62
     7
 10
319.3173522949219
 20
-39.21887969970703
 40
4.999999999999997
 50
90.00000250447846
 51
159.2404373286463
  0
ARC
  8
0
  6
CONTINUOUS
 62
     7
 10
618.5878295898438
 20
69.87150573730469
 40
0.5000000000000004
 50
90.00000250448173
 51
180.0000050089569
  0
ARC
  8
0
  6
CONTINUOUS
 62
     7
 10
648.0878295898438
 20
62.22150802612305
 40
5.99999999999999
 50
35.80525181798681
 51
79.92158710107186
  0
ARC
  8
0
  6
CONTINUOUS
 62
     7
 10
648.0878295898438
 20
-61.27849197387695
 40
5.999999999999991
 50
280.0784128989282
 51
324.1947413518244
  0
ARC
  8
0
  6
CONTINUOUS
 62
     7
 10
662.287841796875
 20
-66.77849578857422
 40
0.5000000000000004
 50
269.9999974955182
 51
0
  0
ARC
  8
0
  6
CONTINUOUS
 62
     7
 10
662.287841796875
 20
67.72150421142578
 40
0.5
 50
0
 51
90.00000250448173
  0
ARC
  8
0
  6
CONTINUOUS
 62
     7
 10
649.48779296875
 20
70.09806060791016
 40
1.99999999999997
 50
190.0000066529677
 51
259.9215889223057
  0
ARC
  8
0
  6
CONTINUOUS
 62
     7
 10
635.5878295898438
 20
-68.52849578857422
 40
1.500000000000002
 50
90.00000250447738
 51
180.0000050089564
  0
ARC
  8
0
  6
CONTINUOUS
 62
     7
 10
641.0655517578125
 20
-69.02849578857422
 40
1.999999999999956
 50
9.999999709093206
 51
90.00000250447846
  0
ARC
  8
0
  6
CONTINUOUS
 62
     7
 10
649.48779296875
 20
-69.15504455566406
 40
1.999999999999996
 50
100.0784110776943
 51
169.9999933470323
  0
ARC
  8
0
  6
CONTINUOUS
 62
     7
 10
641.0655517578125
 20
69.97150421142578
 40
2.000000000000002
 50
269.9999974955215
 51
350.0000002909068
  0
ARC
  8
0
  6
CONTINUOUS
 62
     7
 10
635.5878295898438
 20
69.47150421142578
 40
1.500000000000006
 50
180.0000050089564
 51
270.0000006832473
  0
ARC
  8
0
  6
CONTINUOUS
 62
     7
 10
684.0660400390625
 20
38.57150650024414
 40
1.99999999999997
 50
190.0000066529677
 51
269.9999974955215
  0
ARC
  8
0
  6
CONTINUOUS
 62
     7
 10
689.5878295898438
 20
38.07150650024414
 40
1.500000000000002
 50
269.9999974955227
 51
0
  0
ARC
  8
0
  6
CONTINUOUS
 62
     7
 10
706.5878295898438
 20
38.12150955200195
 40
0.5
 50
0
 51
90.00000250448173
  0
ARC
  8
0
  6
CONTINUOUS
 62
     7
 10
689.5878295898438
 20
-37.12849044799805
 40
1.5
 50
0
 51
90.00000250447738
  0
ARC
  8
0
  6
CONTINUOUS
 62
     7
 10
684.0660400390625
 20
-37.62849044799805
 40
2.000000000000002
 50
90.00000250447846
 51
169.9999933470323
  0
ARC
  8
0
  6
CONTINUOUS
 62
     7
 10
706.5878295898438
 20
-37.17849349975586
 40
0.5000000000000004
 50
269.9999974955182
 51
0
  0
ARC
  8
0
  6
CONTINUOUS
 62
     7
 10
675.0685424804688
 20
-42.67849349975586
 40
4.999999999999997
 50
90.00000250447782
 51
144.1947463607803
  0
ARC
  8
0
  6
CONTINUOUS
 62
     7
 10
675.0685424804688
 20
43.62150955200195
 40
4.999999999999982
 50
215.8052536392196
 51
269.9999974955222
  0
ARC
  8
0
  6
CONTINUOUS
 62
     7
 10
491.2652282714844
 20
-10.51009559631348
 40
0.7230195999145462
 50
259.9999926637889
 51
80.00001133311987
  0
ARC
  8
0
  6
CONTINUOUS
 62
     7
 10
491.2652282714844
 20
-10.51009559631348
 40
1.446039199829103
 50
259.9999926637867
 51
80.00001133312209
  0
ARC
  8
0
  6
CONTINUOUS
 62
     7
 10
526.4461059570313
 20
-291.1806640625
 40
2.25943636894224
 50
259.9999926637871
 51
80.0000113331222
  0
ARC
  8
0
  6
CONTINUOUS
 62
     7
 10
526.4461059570313
 20
-291.1806640625
 40
1.12971818447113
 50
259.9999926637842
 51
80.00001133311936
  0
ARC
  8
0
  6
CONTINUOUS
 62
     7
 10
323.3880310058594
 20
-291.4893188476563
 40
2.25943636894224
 50
259.9999926637871
 51
80.0000113331222
  0
ARC
  8
0
  6
CONTINUOUS
 62
     7
 10
323.3880310058594
 20
-291.4893188476563
 40
1.12971818447112
 50
259.9999926637871
 51
80.0000113331222
  0
ARC
  8
0
  6
CONTINUOUS
 62
     7
 10
81.73780822753906
 20
-289.8018798828125
 40
2.25943636894224
 50
259.9999926637871
 51
80.00001133312185
  0
ARC
  8
0
  6
CONTINUOUS
 62
     7
 10
81.73780822753906
 20
-289.8018798828125
 40
1.12971818447112
 50
259.9999926637871
 51
80.00001133312149
  0
ARC
  8
0
  6
CONTINUOUS
 62
     7
 10
-106.1566619873047
 20
-284.1292114257813
 40
2.25943636894224
 50
259.9999926637871
 51
80.00001133312185
  0
ARC
  8
0
  6
CONTINUOUS
 62
     7
 10
-106.1566619873047
 20
-284.1292114257813
 40
1.12971818447112
 50
259.9999926637871
 51
80.00001133312149
  0
ARC
  8
0
  6
CONTINUOUS
 62
     7
 10
819.7918090820313
 20
-21.20103073120117
 40
2.259436368942261
 50
259.9999926637871
 51
80.00001133312212
  0
ARC
  8
0
  6
CONTINUOUS
 62
     7
 10
819.7918090820313
 20
-21.20103073120117
 40
1.129718184471141
 50
259.9999926637843
 51
80.00001133311928
  0
ARC
  8
0
  6
CONTINUOUS
 62
     7
 10
656.873779296875
 20
-21.75671577453613
 40
2.259436368942261
 50
259.9999926637871
 51
80.00001133312212
  0
ARC
  8
0
  6
CONTINUOUS
 62
     7
 10
656.873779296875
 20
-21.75671577453613
 40
1.129718184471141
 50
259.9999926637843
 51
80.00001133311928
  0
ARC
  8
0
  6
CONTINUOUS
 62
     7
 10
310.7451477050781
 20
-10.87455940246582
 40
1.446039199829103
 50
259.9999926637867
 51
80.00001133312209
  0
ARC
  8
0
  6
CONTINUOUS
 62
     7
 10
310.7451477050781
 20
-10.87455940246582
 40
0.7230195999145462
 50
259.9999926637889
 51
80.00001133311987
  0
ARC
  8
0
  6
CONTINUOUS
 62
     7
 10
125.5189590454102
 20
-20.13136291503906
 40
0.723019599914553
 50
259.9999926637867
 51
80.00001133312209
  0
ARC
  8
0
  6
CONTINUOUS
 62
     7
 10
125.5189590454102
 20
-20.13136291503906
 40
1.4460391998291
 50
259.9999926637872
 51
80.00001133312152
  0
ARC
  8
0
  6
CONTINUOUS
 62
     7
 10
4.008339881896973
 20
-13.68845558166504
 40
1.446039199829101
 50
259.9999926637871
 51
80.00001133312171
  0
ARC
  8
0
  6
CONTINUOUS
 62
     7
 10
4.008339881896973
 20
-13.68845558166504
 40
0.7230195999145505
 50
259.9999926637871
 51
80.00001133312166
  0
ARC
  8
0
  6
CONTINUOUS
 62
     7
 10
-119.9799499511719
 20
-13.03016757965088
 40
1.4460391998291
 50
259.9999926637872
 51
80.00001133312152
  0
ARC
  8
0
  6
CONTINUOUS
 62
     7
 10
-119.9799499511719
 20
-13.03016757965088
 40
0.7230195999145512
 50
259.9999926637867
 51
80.00001133312209
  0
ARC
  8
0
  6
CONTINUOUS
 62
     7
 10
-278.4769897460938
 20
-36.48433685302734
 40
0.5000000000000019
 50
179.9999949910439
 51
269.9999974955248
  0
ARC
  8
0
  6
CONTINUOUS
 62
     7
 10
-278.4769897460938
 20
38.81566619873047
 40
0.5000000000000004
 50
90.00000250447521
 51
180.0000050089561
  0
ARC
  8
0
  6
CONTINUOUS
 62
     7
 10
-237.5902252197266
 20
-34.08433532714844
 40
5.000000000000001
 50
90.00000250447815
 51
149.9999973439412
  0
ARC
  8
0
  6
CONTINUOUS
 62
     7
 10
-246.7412261962891
 20
32.26566314697266
 40
5.000000000000006
 50
30.00000083482606
 51
90.00000250447815
  0
ARC
  8
0
  6
CONTINUOUS
 62
     7
 10
-246.8758392333984
 20
-36.93433380126953
 40
2.000000000000002
 50
90.00000250447846
 51
169.9999933470324
  0
ARC
  8
0
  6
CONTINUOUS
 62
     7
 10
-246.8758392333984
 20
39.26566314697266
 40
1.999999999999998
 50
190.0000066529676
 51
269.9999974955215
  0
ARC
  8
0
  6
CONTINUOUS
 62
     7
 10
-237.5902252197266
 20
36.41566467285156
 40
5.000000000000006
 50
210.0000026560588
 51
269.9999974955218
  0
ARC
  8
0
  6
CONTINUOUS
 62
     7
 10
-255.9551849365234
 20
39.26566314697266
 40
2.000000000000002
 50
269.9999974955215
 51
350.0000002909071
  0
ARC
  8
0
  6
CONTINUOUS
 62
     7
 10
-261.4769897460938
 20
38.76566314697266
 40
1.500000000000006
 50
179.9999949910436
 51
269.9999974955227
  0
ARC
  8
0
  6
CONTINUOUS
 62
     7
 10
-261.4769897460938
 20
-36.43433380126953
 40
1.500000000000002
 50
90.00000250447738
 51
180.0000050089564
  0
ARC
  8
0
  6
CONTINUOUS
 62
     7
 10
-255.9551849365234
 20
-36.93433380126953
 40
2.000000000000012
 50
9.999999709092926
 51
90.00000250447846
  0
ARC
  8
0
  6
CONTINUOUS
 62
     7
 10
-204.4769897460938
 20
30.91566467285156
 40
0.5
 50
0
 51
90.00000250447846
  0
ARC
  8
0
  6
CONTINUOUS
 62
     7
 10
-204.4769897460938
 20
-28.58433532714844
 40
0.5000000000000004
 50
269.9999974955215
 51
0
  0
ARC
  8
0
  6
CONTINUOUS
 62
     7
 10
-221.4769897460938
 20
31.11566543579102
 40
1.500000000000002
 50
269.9999974955215
 51
0
  0
ARC
  8
0
  6
CONTINUOUS
 62
     7
 10
-246.7412261962891
 20
-29.93433570861816
 40
4.999999999999997
 50
269.9999974955218
 51
329.999999165174
  0
ARC
  8
0
  6
CONTINUOUS
 62
     7
 10
-221.4769897460938
 20
-28.78433609008789
 40
1.5
 50
0
 51
90.00000250447846
  0
ARC
  8
0
  6
CONTINUOUS
 62
     7
 10
-226.681396484375
 20
-29.28433609008789
 40
1.999999999999998
 50
90.00000250447846
 51
169.9999933470323
  0
ARC
  8
0
  6
CONTINUOUS
 62
     7
 10
-226.681396484375
 20
31.61566543579102
 40
1.999999999999999
 50
190.0000066529677
 51
269.9999974955215
  0
ARC
  8
0
  6
CONTINUOUS
 62
     7
 10
-397.5745849609375
 20
-36.48433685302734
 40
0.5000000000000019
 50
179.9999949910439
 51
269.9999974955248
  0
ARC
  8
0
  6
CONTINUOUS
 62
     7
 10
-397.5745849609375
 20
38.81566619873047
 40
0.5000000000000004
 50
90.00000250447521
 51
180.0000050089561
  0
ARC
  8
0
  6
CONTINUOUS
 62
     7
 10
-365.9734497070313
 20
32.26566314697266
 40
5
 50
9.999999709092901
 51
90.00000250447846
  0
ARC
  8
0
  6
CONTINUOUS
 62
     7
 10
-357.1799926757813
 20
-26.13433456420898
 40
3
 50
90.00000250447846
 51
169.9999933470324
  0
ARC
  8
0
  6
CONTINUOUS
 62
     7
 10
-365.9734497070313
 20
-36.93433380126953
 40
2.000000000000002
 50
90.00000250447846
 51
169.9999933470326
  0
ARC
  8
0
  6
CONTINUOUS
 62
     7
 10
-365.9734497070313
 20
39.26566314697266
 40
2.000000000000026
 50
190.0000066529674
 51
269.9999974955215
  0
ARC
  8
0
  6
CONTINUOUS
 62
     7
 10
-375.0527954101563
 20
39.26566314697266
 40
2.000000000000002
 50
269.9999974955215
 51
350.0000002909071
  0
ARC
  8
0
  6
CONTINUOUS
 62
     7
 10
-380.5745849609375
 20
38.76566314697266
 40
1.500000000000006
 50
179.9999949910436
 51
269.9999974955227
  0
ARC
  8
0
  6
CONTINUOUS
 62
     7
 10
-380.5745849609375
 20
-36.43433380126953
 40
1.500000000000002
 50
90.00000250447738
 51
180.0000050089564
  0
ARC
  8
0
  6
CONTINUOUS
 62
     7
 10
-375.0527954101563
 20
-36.93433380126953
 40
2.000000000000012
 50
9.999999709092926
 51
90.00000250447846
  0
ARC
  8
0
  6
CONTINUOUS
 62
     7
 10
-365.9734497070313
 20
-29.93433570861816
 40
4.999999999999997
 50
269.9999974955215
 51
350.0000002909071
  0
ARC
  8
0
  6
CONTINUOUS
 62
     7
 10
-323.5745849609375
 20
-22.63433456420898
 40
0.5000000000000004
 50
269.9999974955248
 51
0
  0
ARC
  8
0
  6
CONTINUOUS
 62
     7
 10
-323.5745849609375
 20
24.96566390991211
 40
0.5
 50
0
 51
90.00000250447521
  0
ARC
  8
0
  6
CONTINUOUS
 62
     7
 10
-344.4963989257813
 20
25.66566467285156
 40
2.000000000000027
 50
190.0000066529675
 51
269.9999974955215
  0
ARC
  8
0
  6
CONTINUOUS
 62
     7
 10
-355.5018005371094
 20
30.46566390991211
 40
4.999999999999982
 50
190.0000066529677
 51
269.9999974955215
  0
ARC
  8
0
  6
CONTINUOUS
 62
     7
 10
-340.5745849609375
 20
-22.83433532714844
 40
1.5
 50
0
 51
90.00000250447738
  0
ARC
  8
0
  6
CONTINUOUS
 62
     7
 10
-340.5745849609375
 20
25.16566467285156
 40
1.500000000000002
 50
269.9999974955227
 51
0
  0
ARC
  8
0
  6
CONTINUOUS
 62
     7
 10
-344.4963989257813
 20
-23.33433532714844
 40
1.999999999999998
 50
90.00000250447846
 51
169.9999933470325
  0
ARC
  8
0
  6
CONTINUOUS
 62
     7
 10
-361.9634094238281
 20
-13.64001846313477
 40
0.7230195999145462
 50
259.9999926637889
 51
80.00001133311987
  0
ARC
  8
0
  6
CONTINUOUS
 62
     7
 10
-361.9634094238281
 20
-13.64001846313477
 40
1.446039199829103
 50
259.9999926637867
 51
80.00001133312209
  0
ARC
  8
0
  6
CONTINUOUS
 62
     7
 10
-242.8657989501953
 20
-13.64001846313477
 40
1.446039199829103
 50
259.9999926637867
 51
80.00001133312209
  0
ARC
  8
0
  6
CONTINUOUS
 62
     7
 10
-242.8657989501953
 20
-13.64001846313477
 40
0.7230195999145512
 50
259.9999926637867
 51
80.00001133312209
  0
TEXT
  8
0
  6
CONTINUOUS
 62
     7
 10
71.50661635398865
 20
-84.08487701416016
 40
10
 41
0.8455653969371324
  1
１００Ａｘ５０Ａ
  0
TEXT
  8
0
  6
CONTINUOUS
 62
     7
 10
71.50661635398865
 20
-99.08487701416016
 40
10
 41
0.8437725069428409
  1
（１００Ｓｕｘ６０Ｓｕ）
  0
TEXT
  8
0
  6
CONTINUOUS
 62
     7
 10
442.7763307094574
 20
-81.52232360839844
 40
10
 41
0.8455653969371324
  1
１００Ａｘ８０Ａ
  0
TEXT
  8
0
  6
CONTINUOUS
 62
     7
 10
442.7763307094574
 20
-96.52232360839844
 40
10
 41
0.8437725069428409
  1
（１００Ｓｕｘ８０Ｓｕ）
  0
TEXT
  8
0
  6
CONTINUOUS
 62
     7
 10
780.8285768032074
 20
-91.19757080078125
 40
10
 41
0.8455653969371324
  1
１２５Ａｘ８０Ａ
  0
TEXT
  8
0
  6
CONTINUOUS
 62
     7
 10
780.8285768032074
 20
-106.1975708007813
 40
10
 41
0.8437725069428409
  1
（１２５Ｓｕｘ８０Ｓｕ）
  0
TEXT
  8
0
  6
CONTINUOUS
 62
     7
 10
-152.1544859409332
 20
-368.8197631835938
 40
10
 41
0.8449620204967459
  1
１２５Ａｘ１００Ａ
  0
TEXT
  8
0
  6
CONTINUOUS
 62
     7
 10
-152.1544859409332
 20
-383.8197631835938
 40
10
 41
0.8435012143779151
  1
（１２５Ｓｕｘ１００Ｓｕ）
  0
TEXT
  8
0
  6
CONTINUOUS
 62
     7
 10
277.3469483852387
 20
-374.5364685058594
 40
10
 41
0.8449620204967459
  1
１５０Ａｘ１００Ａ
  0
TEXT
  8
0
  6
CONTINUOUS
 62
     7
 10
277.3469483852387
 20
-389.5364685058594
 40
10
 41
0.8435012143779151
  1
（１５０Ｓｕｘ１００Ｓｕ）
  0
TEXT
  8
0
  6
CONTINUOUS
 62
     7
 10
-48.7167227268219
 20
-82.92393493652344
 40
10
 41
0.8463497863096351
  1
８０Ａｘ６５Ａ
  0
TEXT
  8
0
  6
CONTINUOUS
 62
     7
 10
-48.7167227268219
 20
-97.92393493652344
 40
10
 41
0.8440946668636902
  1
（８０Ｓｕｘ７５Ｓｕ）
  0
TEXT
  8
0
  6
CONTINUOUS
 62
     7
 10
41.76048445701599
 20
-375.1201477050781
 40
10
 41
0.8455653969371324
  1
１５０Ａｘ８０Ａ
  0
TEXT
  8
0
  6
CONTINUOUS
 62
     7
 10
41.76048445701599
 20
-390.1201477050781
 40
10
 41
0.8437725069428409
  1
（１５０Ｓｕｘ８０Ｓｕ）
  0
TEXT
  8
0
  6
CONTINUOUS
 62
     7
 10
481.1882874965668
 20
-374.58837890625
 40
10
 41
0.8449620204967459
  1
１５０Ａｘ１２５Ａ
  0
TEXT
  8
0
  6
CONTINUOUS
 62
     7
 10
481.1882874965668
 20
-389.58837890625
 40
10
 41
0.8435012143779151
  1
（１５０Ｓｕｘ１２５Ｓｕ）
  0
TEXT
  8
0
  6
CONTINUOUS
 62
     7
 10
-170.0301115512848
 20
-83.42069244384766
 40
10
 41
0.8463497863096351
  1
８０Ａｘ５０Ａ
  0
TEXT
  8
0
  6
CONTINUOUS
 62
     7
 10
-170.0301115512848
 20
-98.42069244384766
 40
10
 41
0.8440946668636902
  1
（８０Ｓｕｘ６０Ｓｕ）
  0
TEXT
  8
0
  6
CONTINUOUS
 62
     7
 10
266.7399842739105
 20
-86.75810241699219
 40
10
 41
0.8455653969371324
  1
１００Ａｘ６５Ａ
  0
TEXT
  8
0
  6
CONTINUOUS
 62
     7
 10
266.7399842739105
 20
-101.7581024169922
 40
10
 41
0.8437725069428409
  1
（１００Ｓｕｘ７５Ｓｕ）
  0
TEXT
  8
0
  6
CONTINUOUS
 62
     7
 10
623.5382325649262
 20
-93.10118103027344
 40
10
 41
0.8455653969371324
  1
１２５Ａｘ６５Ａ
  0
TEXT
  8
0
  6
CONTINUOUS
 62
     7
 10
623.5382325649262
 20
-108.1011810302734
 40
10
 41
0.8437725069428409
  1
（１２５Ｓｕｘ７５Ｓｕ）
  0
TEXT
  8
0
  6
CONTINUOUS
 62
     7
 10
-293.2043516635895
 20
-83.42069244384766
 40
10
 41
0.8463497863096351
  1
６５Ａｘ５０Ａ
  0
TEXT
  8
0
  6
CONTINUOUS
 62
     7
 10
-293.2043516635895
 20
-98.42069244384766
 40
10
 41
0.8440946668636902
  1
（７５Ｓｕｘ６０Ｓｕ）
  0
TEXT
  8
0
  6
CONTINUOUS
 62
     7
 10
-412.3019468784332
 20
-83.42069244384766
 40
10
 41
0.8463497863096351
  1
６５Ａｘ４０Ａ
  0
TEXT
  8
0
  6
CONTINUOUS
 62
     7
 10
-412.3019468784332
 20
-98.42069244384766
 40
10
 41
0.8440946668636902
  1
（７５Ｓｕｘ５０Ｓｕ）
  0
LINE
  8
0
  6
CONTINUOUS
 62
     7
 10
491.482838814306
 20
-16.95815839066922
 11
491.574255321344
 21
-16.43970973943347
  0
LINE
  8
0
  6
CONTINUOUS
 62
     7
 10
490.4911531310868
 20
-14.85139055931136
 11
490.5764098312296
 21
-14.3678759006355
  0
POLYLINE
  8
0
  6
CONTINUOUS
 62
     7
 66
     1
 10
0
 20
0
  0
VERTEX
  8
0
  6
CONTINUOUS
 62
     7
 10
490.8086712915222
 20
-15.46384187462035
 42
0.07333214780387673
  0
VERTEX
  8
0
  6
CONTINUOUS
 62
     7
 10
490.7905608086468
 20
-15.2843376789208
 42
0.07333214780387673
  0
VERTEX
  8
0
  6
CONTINUOUS
 62
     7
 10
490.7377709909318
 20
-15.12011354056126
 42
0.07333214780387673
  0
VERTEX
  8
0
  6
CONTINUOUS
 62
     7
 10
490.6547955018178
 20
-14.98514882220209
 42
0.07333214780387673
  0
VERTEX
  8
0
  6
CONTINUOUS
 62
     7
 10
490.5486975201155
 20
-14.89093221705945
 42
0.07333214780387673
  0
VERTEX
  8
0
  6
CONTINUOUS
 62
     7
 10
490.4285084962473
 20
-14.84548378908422
 42
0.07333214780387673
  0
VERTEX
  8
0
  6
CONTINUOUS
 62
     7
 10
490.3044593619702
 20
-14.85267227562131
 42
0.07333214780387673
  0
VERTEX
  8
0
  6
CONTINUOUS
 62
     7
 10
490.1871096358369
 20
-14.91188576625801
 42
0.07333214780387673
  0
VERTEX
  8
0
  6
CONTINUOUS
 62
     7
 10
490.0864485581387
 20
-15.01808379088886
 42
0.07333214780387673
  0
VERTEX
  8
0
  6
CONTINUOUS
 62
     7
 10
490.0110447700325
 20
-15.16222638306944
 42
0.07333214780387673
  0
VERTEX
  8
0
  6
CONTINUOUS
 62
     7
 10
489.9673169192912
 20
-15.33204359520845
 42
0.07333214780387673
  0
VERTEX
  8
0
  6
CONTINUOUS
 62
     7
 10
489.9589872813973
 20
-15.51307996163451
 42
0.07333214780387673
  0
VERTEX
  8
0
  6
CONTINUOUS
 62
     7
 10
489.9867649057641
 20
-15.68992500100018
 42
0.07333214780387673
  0
VERTEX
  8
0
  6
CONTINUOUS
 62
     7
 10
490.0482852588417
 20
-15.84752501313278
 42
0.07333214780387673
  0
VERTEX
  8
0
  6
CONTINUOUS
 62
     7
 10
490.1383115019091
 20
-15.97246450535936
 42
0.07333214780387673
  0
VERTEX
  8
0
  6
CONTINUOUS
 62
     7
 10
490.2491802700471
 20
-16.05410816858416
 42
0.07333214780387673
  0
VERTEX
  8
0
  6
CONTINUOUS
 62
     7
 10
490.3714540059454
 20
-16.08550619391462
 42
-1
  0
SEQEND
  8
0
  0
POLYLINE
  8
0
  6
CONTINUOUS
 62
     7
 66
     1
 10
0
 20
0
  0
VERTEX
  8
0
  6
CONTINUOUS
 62
     7
 10
491.2734599330289
 20
-15.46384193790939
 42
0.07332668712448476
  0
VERTEX
  8
0
  6
CONTINUOUS
 62
     7
 10
491.2355727879016
 20
-15.14264705738466
 42
0.07332668712448476
  0
VERTEX
  8
0
  6
CONTINUOUS
 62
     7
 10
491.125135925724
 20
-14.84878942993132
 42
0.07332668712448476
  0
VERTEX
  8
0
  6
CONTINUOUS
 62
     7
 10
490.9515487533489
 20
-14.60727961219543
 42
0.07332668712448476
  0
VERTEX
  8
0
  6
CONTINUOUS
 62
     7
 10
490.7295854723016
 20
-14.43867277924392
 42
0.07332668712448476
  0
VERTEX
  8
0
  6
CONTINUOUS
 62
     7
 10
490.4781376296966
 20
-14.35731925025345
 42
0.07332668712448476
  0
VERTEX
  8
0
  6
CONTINUOUS
 62
     7
 10
490.2186062371922
 20
-14.37014311653586
 42
0.07332668712448476
  0
VERTEX
  8
0
  6
CONTINUOUS
 62
     7
 10
489.9730803065655
 20
-14.47605292425736
 42
0.07332668712448476
  0
VERTEX
  8
0
  6
CONTINUOUS
 62
     7
 10
489.7624568288161
 20
-14.6660345693147
 42
0.07332668712448476
  0
VERTEX
  8
0
  6
CONTINUOUS
 62
     7
 10
489.604662207512
 20
-14.92391849798015
 42
0.07332668712448476
  0
VERTEX
  8
0
  6
CONTINUOUS
 62
     7
 10
489.513126522208
 20
-15.22775591599612
 42
0.07332668712448476
  0
VERTEX
  8
0
  6
CONTINUOUS
 62
     7
 10
489.4956404791123
 20
-15.55168687539959
 42
0.07332668712448476
  0
VERTEX
  8
0
  6
CONTINUOUS
 62
     7
 10
489.5536923352257
 20
-15.86814124408346
 42
0.07332668712448476
  0
VERTEX
  8
0
  6
CONTINUOUS
 62
     7
 10
489.6823412310977
 20
-16.15018523107401
 42
0.07332668712448476
  0
VERTEX
  8
0
  6
CONTINUOUS
 62
     7
 10
489.8706377129893
 20
-16.37381375209136
 42
0.07332668712448476
  0
VERTEX
  8
0
  6
CONTINUOUS
 62
     7
 10
490.1025556533248
 20
-16.51999352955463
 42
0.07332668712448476
  0
VERTEX
  8
0
  6
CONTINUOUS
 62
     7
 10
490.3583562526244
 20
-16.57628303646846
 42
-1
  0
SEQEND
  8
0
  0
POLYLINE
  8
0
  6
CONTINUOUS
 62
     7
 66
     1
 10
0
 20
0
  0
VERTEX
  8
0
  6
CONTINUOUS
 62
     7
 10
491.2467879112686
 20
-15.68721672207588
 42
0.07459289906077718
  0
VERTEX
  8
0
  6
CONTINUOUS
 62
     7
 10
491.2571149408807
 20
-15.90038662109557
 42
0.07459289906077718
  0
VERTEX
  8
0
  6
CONTINUOUS
 62
     7
 10
491.3113423716033
 20
-16.09989890524768
 42
0.07459289906077718
  0
VERTEX
  8
0
  6
CONTINUOUS
 62
     7
 10
491.4046958511308
 20
-16.26818789013354
 42
0.07459289906077718
  0
VERTEX
  8
0
  6
CONTINUOUS
 62
     7
 10
491.5289562476646
 20
-16.39043688810487
 42
0.07459289906077718
  0
VERTEX
  8
0
  6
CONTINUOUS
 62
     7
 10
491.6731832879375
 20
-16.45588271570385
 42
0.07459289906077718
  0
VERTEX
  8
0
  6
CONTINUOUS
 62
     7
 10
491.8246787730294
 20
-16.45876331793873
 42
0.07459289906077718
  0
VERTEX
  8
0
  6
CONTINUOUS
 62
     7
 10
491.9701045674452
 20
-16.39882507759516
 42
0.07459289906077718
  0
VERTEX
  8
0
  6
CONTINUOUS
 62
     7
 10
492.0966569302073
 20
-16.28134514448755
 42
0.07459289906077718
  0
VERTEX
  8
0
  6
CONTINUOUS
 62
     7
 10
492.193193796186
 20
-16.11666681871351
 42
0.07459289906077718
  0
VERTEX
  8
0
  6
CONTINUOUS
 62
     7
 10
492.2512157583007
 20
-15.9192888942202
 42
0.07459289906077718
  0
VERTEX
  8
0
  6
CONTINUOUS
 62
     7
 10
492.265614381855
 20
-15.7065891397182
 42
0.07459289906077718
  0
VERTEX
  8
0
  6
CONTINUOUS
 62
     7
 10
492.235121967077
 20
-15.49729430566867
 42
0.07459289906077718
  0
VERTEX
  8
0
  6
CONTINUOUS
 62
     7
 10
492.1624231613647
 20
-15.30983136270559
 42
0.07459289906077718
  0
VERTEX
  8
0
  6
CONTINUOUS
 62
     7
 10
492.0539185945477
 20
-15.16070513360982
 42
0.07459289906077718
  0
VERTEX
  8
0
  6
CONTINUOUS
 62
     7
 10
491.9191613474533
 20
-15.06304515718138
 42
0.07459289906077718
  0
VERTEX
  8
0
  6
CONTINUOUS
 62
     7
 10
491.7700158688442
 20
-15.02544972265152
 42
-1
  0
SEQEND
  8
0
  0
POLYLINE
  8
0
  6
CONTINUOUS
 62
     7
 66
     1
 10
0
 20
0
  0
VERTEX
  8
0
  6
CONTINUOUS
 62
     7
 10
490.7813179274049
 20
-15.69233343313881
 42
0.07398282385211347
  0
VERTEX
  8
0
  6
CONTINUOUS
 62
     7
 10
490.8115390756228
 20
-16.05634727027362
 42
0.07398282385211347
  0
VERTEX
  8
0
  6
CONTINUOUS
 62
     7
 10
490.922996479855
 20
-16.3933003003377
 42
0.07398282385211347
  0
VERTEX
  8
0
  6
CONTINUOUS
 62
     7
 10
491.1060352020168
 20
-16.67400414715133
 42
0.07398282385211347
  0
VERTEX
  8
0
  6
CONTINUOUS
 62
     7
 10
491.3447996106069
 20
-16.87414298997729
 42
0.07398282385211347
  0
VERTEX
  8
0
  6
CONTINUOUS
 62
     7
 10
491.618606866314
 20
-16.97637990849924
 42
0.07398282385211347
  0
VERTEX
  8
0
  6
CONTINUOUS
 62
     7
 10
491.9037385619204
 20
-16.97185868428011
 42
0.07398282385211347
  0
VERTEX
  8
0
  6
CONTINUOUS
 62
     7
 10
492.1754953166533
 20
-16.86097096595199
 42
0.07398282385211347
  0
VERTEX
  8
0
  6
CONTINUOUS
 62
     7
 10
492.4103363468461
 20
-16.65332234286262
 42
0.07398282385211347
  0
VERTEX
  8
0
  6
CONTINUOUS
 62
     7
 10
492.5879186737448
 20
-16.36690026603086
 42
0.07398282385211347
  0
VERTEX
  8
0
  6
CONTINUOUS
 62
     7
 10
492.6928593231721
 20
-16.02651589481371
 42
0.07398282385211347
  0
VERTEX
  8
0
  6
CONTINUOUS
 62
     7
 10
492.7160678674462
 20
-15.66165484348477
 42
0.07398282385211347
  0
VERTEX
  8
0
  6
CONTINUOUS
 62
     7
 10
492.6555338788206
 20
-15.30392300565327
 42
0.07398282385211347
  0
VERTEX
  8
0
  6
CONTINUOUS
 62
     7
 10
492.5165010817139
 20
-14.98430871061873
 42
0.07398282385211347
  0
VERTEX
  8
0
  6
CONTINUOUS
 62
     7
 10
492.3110131178839
 20
-14.73049837590382
 42
0.07398282385211347
  0
VERTEX
  8
0
  6
CONTINUOUS
 62
     7
 10
492.0568702723957
 20
-14.56447818613064
 42
0.07398282385211347
  0
VERTEX
  8
0
  6
CONTINUOUS
 62
     7
 10
491.7760875334392
 20
-14.50062955152602
 42
-1
  0
SEQEND
  8
0
  0
LINE
  8
0
  6
CONTINUOUS
 62
     7
 10
491.482838814306
 20
-6.112863915113802
 11
491.574255321344
 21
-5.594415263878048
  0
LINE
  8
0
  6
CONTINUOUS
 62
     7
 10
490.4911531310868
 20
-4.006096083755937
 11
490.5764098312296
 21
-3.522581425080078
  0
POLYLINE
  8
0
  6
CONTINUOUS
 62
     7
 66
     1
 10
0
 20
0
  0
VERTEX
  8
0
  6
CONTINUOUS
 62
     7
 10
490.8086712915222
 20
-4.618547399064925
 42
0.07333214780387673
  0
VERTEX
  8
0
  6
CONTINUOUS
 62
     7
 10
490.7905608086468
 20
-4.439043203365383
 42
0.07333214780387673
  0
VERTEX
  8
0
  6
CONTINUOUS
 62
     7
 10
490.7377709909318
 20
-4.274819065005835
 42
0.07333214780387673
  0
VERTEX
  8
0
  6
CONTINUOUS
 62
     7
 10
490.6547955018178
 20
-4.139854346646668
 42
0.07333214780387673
  0
VERTEX
  8
0
  6
CONTINUOUS
 62
     7
 10
490.5486975201155
 20
-4.045637741504033
 42
0.07333214780387673
  0
VERTEX
  8
0
  6
CONTINUOUS
 62
     7
 10
490.4285084962473
 20
-4.000189313528797
 42
0.07333214780387673
  0
VERTEX
  8
0
  6
CONTINUOUS
 62
     7
 10
490.3044593619702
 20
-4.007377800065888
 42
0.07333214780387673
  0
VERTEX
  8
0
  6
CONTINUOUS
 62
     7
 10
490.1871096358369
 20
-4.066591290702592
 42
0.07333214780387673
  0
VERTEX
  8
0
  6
CONTINUOUS
 62
     7
 10
490.0864485581387
 20
-4.172789315333437
 42
0.07333214780387673
  0
VERTEX
  8
0
  6
CONTINUOUS
 62
     7
 10
490.0110447700325
 20
-4.316931907514021
 42
0.07333214780387673
  0
VERTEX
  8
0
  6
CONTINUOUS
 62
     7
 10
489.9673169192912
 20
-4.486749119653028
 42
0.07333214780387673
  0
VERTEX
  8
0
  6
CONTINUOUS
 62
     7
 10
489.9589872813973
 20
-4.667785486079088
 42
0.07333214780387673
  0
VERTEX
  8
0
  6
CONTINUOUS
 62
     7
 10
489.9867649057641
 20
-4.844630525444763
 42
0.07333214780387673
  0
VERTEX
  8
0
  6
CONTINUOUS
 62
     7
 10
490.0482852588417
 20
-5.002230537577362
 42
0.07333214780387673
  0
VERTEX
  8
0
  6
CONTINUOUS
 62
     7
 10
490.1383115019091
 20
-5.127170029803943
 42
0.07333214780387673
  0
VERTEX
  8
0
  6
CONTINUOUS
 62
     7
 10
490.2491802700471
 20
-5.208813693028737
 42
0.07333214780387673
  0
VERTEX
  8
0
  6
CONTINUOUS
 62
     7
 10
490.3714540059454
 20
-5.240211718359198
 42
-1
  0
SEQEND
  8
0
  0
POLYLINE
  8
0
  6
CONTINUOUS
 62
     7
 66
     1
 10
0
 20
0
  0
VERTEX
  8
0
  6
CONTINUOUS
 62
     7
 10
491.2734599330289
 20
-4.618547462353972
 42
0.07332668712448476
  0
VERTEX
  8
0
  6
CONTINUOUS
 62
     7
 10
491.2355727879016
 20
-4.297352581829242
 42
0.07332668712448476
  0
VERTEX
  8
0
  6
CONTINUOUS
 62
     7
 10
491.125135925724
 20
-4.003494954375903
 42
0.07332668712448476
  0
VERTEX
  8
0
  6
CONTINUOUS
 62
     7
 10
490.9515487533489
 20
-3.761985136640007
 42
0.07332668712448476
  0
VERTEX
  8
0
  6
CONTINUOUS
 62
     7
 10
490.7295854723016
 20
-3.593378303688504
 42
0.07332668712448476
  0
VERTEX
  8
0
  6
CONTINUOUS
 62
     7
 10
490.4781376296966
 20
-3.51202477469803
 42
0.07332668712448476
  0
VERTEX
  8
0
  6
CONTINUOUS
 62
     7
 10
490.2186062371922
 20
-3.524848640980444
 42
0.07332668712448476
  0
VERTEX
  8
0
  6
CONTINUOUS
 62
     7
 10
489.9730803065655
 20
-3.630758448701936
 42
0.07332668712448476
  0
VERTEX
  8
0
  6
CONTINUOUS
 62
     7
 10
489.7624568288161
 20
-3.820740093759282
 42
0.07332668712448476
  0
VERTEX
  8
0
  6
CONTINUOUS
 62
     7
 10
489.604662207512
 20
-4.078624022424729
 42
0.07332668712448476
  0
VERTEX
  8
0
  6
CONTINUOUS
 62
     7
 10
489.513126522208
 20
-4.382461440440697
 42
0.07332668712448476
  0
VERTEX
  8
0
  6
CONTINUOUS
 62
     7
 10
489.4956404791123
 20
-4.706392399844171
 42
0.07332668712448476
  0
VERTEX
  8
0
  6
CONTINUOUS
 62
     7
 10
489.5536923352257
 20
-5.022846768528041
 42
0.07332668712448476
  0
VERTEX
  8
0
  6
CONTINUOUS
 62
     7
 10
489.6823412310977
 20
-5.304890755518594
 42
0.07332668712448476
  0
VERTEX
  8
0
  6
CONTINUOUS
 62
     7
 10
489.8706377129893
 20
-5.528519276535942
 42
0.07332668712448476
  0
VERTEX
  8
0
  6
CONTINUOUS
 62
     7
 10
490.1025556533248
 20
-5.674699053999208
 42
0.07332668712448476
  0
VERTEX
  8
0
  6
CONTINUOUS
 62
     7
 10
490.3583562526244
 20
-5.730988560913035
 42
-1
  0
SEQEND
  8
0
  0
POLYLINE
  8
0
  6
CONTINUOUS
 62
     7
 66
     1
 10
0
 20
0
  0
VERTEX
  8
0
  6
CONTINUOUS
 62
     7
 10
491.2467879112686
 20
-4.841922246520458
 42
0.07459289906077718
  0
VERTEX
  8
0
  6
CONTINUOUS
 62
     7
 10
491.2571149408807
 20
-5.055092145540149
 42
0.07459289906077718
  0
VERTEX
  8
0
  6
CONTINUOUS
 62
     7
 10
491.3113423716033
 20
-5.25460442969226
 42
0.07459289906077718
  0
VERTEX
  8
0
  6
CONTINUOUS
 62
     7
 10
491.4046958511308
 20
-5.422893414578122
 42
0.07459289906077718
  0
VERTEX
  8
0
  6
CONTINUOUS
 62
     7
 10
491.5289562476646
 20
-5.545142412549451
 42
0.07459289906077718
  0
VERTEX
  8
0
  6
CONTINUOUS
 62
     7
 10
491.6731832879375
 20
-5.610588240148429
 42
0.07459289906077718
  0
VERTEX
  8
0
  6
CONTINUOUS
 62
     7
 10
491.8246787730294
 20
-5.613468842383308
 42
0.07459289906077718
  0
VERTEX
  8
0
  6
CONTINUOUS
 62
     7
 10
491.9701045674452
 20
-5.553530602039736
 42
0.07459289906077718
  0
VERTEX
  8
0
  6
CONTINUOUS
 62
     7
 10
492.0966569302073
 20
-5.436050668932126
 42
0.07459289906077718
  0
VERTEX
  8
0
  6
CONTINUOUS
 62
     7
 10
492.193193796186
 20
-5.271372343158091
 42
0.07459289906077718
  0
VERTEX
  8
0
  6
CONTINUOUS
 62
     7
 10
492.2512157583007
 20
-5.073994418664783
 42
0.07459289906077718
  0
VERTEX
  8
0
  6
CONTINUOUS
 62
     7
 10
492.265614381855
 20
-4.861294664162777
 42
0.07459289906077718
  0
VERTEX
  8
0
  6
CONTINUOUS
 62
     7
 10
492.235121967077
 20
-4.651999830113254
 42
0.07459289906077718
  0
VERTEX
  8
0
  6
CONTINUOUS
 62
     7
 10
492.1624231613647
 20
-4.464536887150174
 42
0.07459289906077718
  0
VERTEX
  8
0
  6
CONTINUOUS
 62
     7
 10
492.0539185945477
 20
-4.315410658054397
 42
0.07459289906077718
  0
VERTEX
  8
0
  6
CONTINUOUS
 62
     7
 10
491.9191613474533
 20
-4.217750681625963
 42
0.07459289906077718
  0
VERTEX
  8
0
  6
CONTINUOUS
 62
     7
 10
491.7700158688442
 20
-4.180155247096105
 42
-1
  0
SEQEND
  8
0
  0
POLYLINE
  8
0
  6
CONTINUOUS
 62
     7
 66
     1
 10
0
 20
0
  0
VERTEX
  8
0
  6
CONTINUOUS
 62
     7
 10
490.7813179274049
 20
-4.847038957583392
 42
0.07398282385211347
  0
VERTEX
  8
0
  6
CONTINUOUS
 62
     7
 10
490.8115390756228
 20
-5.211052794718204
 42
0.07398282385211347
  0
VERTEX
  8
0
  6
CONTINUOUS
 62
     7
 10
490.922996479855
 20
-5.548005824782283
 42
0.07398282385211347
  0
VERTEX
  8
0
  6
CONTINUOUS
 62
     7
 10
491.1060352020168
 20
-5.828709671595904
 42
0.07398282385211347
  0
VERTEX
  8
0
  6
CONTINUOUS
 62
     7
 10
491.3447996106069
 20
-6.028848514421871
 42
0.07398282385211347
  0
VERTEX
  8
0
  6
CONTINUOUS
 62
     7
 10
491.618606866314
 20
-6.131085432943818
 42
0.07398282385211347
  0
VERTEX
  8
0
  6
CONTINUOUS
 62
     7
 10
491.9037385619204
 20
-6.126564208724689
 42
0.07398282385211347
  0
VERTEX
  8
0
  6
CONTINUOUS
 62
     7
 10
492.1754953166533
 20
-6.015676490396569
 42
0.07398282385211347
  0
VERTEX
  8
0
  6
CONTINUOUS
 62
     7
 10
492.4103363468461
 20
-5.808027867307199
 42
0.07398282385211347
  0
VERTEX
  8
0
  6
CONTINUOUS
 62
     7
 10
492.5879186737448
 20
-5.52160579047544
 42
0.07398282385211347
  0
VERTEX
  8
0
  6
CONTINUOUS
 62
     7
 10
492.6928593231721
 20
-5.181221419258295
 42
0.07398282385211347
  0
VERTEX
  8
0
  6
CONTINUOUS
 62
     7
 10
492.7160678674462
 20
-4.816360367929349
 42
0.07398282385211347
  0
VERTEX
  8
0
  6
CONTINUOUS
 62
     7
 10
492.6555338788206
 20
-4.458628530097854
 42
0.07398282385211347
  0
VERTEX
  8
0
  6
CONTINUOUS
 62
     7
 10
492.5165010817139
 20
-4.139014235063312
 42
0.07398282385211347
  0
VERTEX
  8
0
  6
CONTINUOUS
 62
     7
 10
492.3110131178839
 20
-3.885203900348405
 42
0.07398282385211347
  0
VERTEX
  8
0
  6
CONTINUOUS
 62
     7
 10
492.0568702723957
 20
-3.71918371057522
 42
0.07398282385211347
  0
VERTEX
  8
0
  6
CONTINUOUS
 62
     7
 10
491.7760875334392
 20
-3.655335075970602
 42
-1
  0
SEQEND
  8
0
  0
LINE
  8
0
  6
CONTINUOUS
 62
     7
 10
526.786131939326
 20
-284.3099754592099
 11
526.9289702340849
 21
-283.4998994274073
  0
LINE
  8
0
  6
CONTINUOUS
 62
     7
 10
525.236623032045
 20
-281.0181506648203
 11
525.3698366283609
 21
-280.2626589973525
  0
POLYLINE
  8
0
  6
CONTINUOUS
 62
     7
 66
     1
 10
0
 20
0
  0
VERTEX
  8
0
  6
CONTINUOUS
 62
     7
 10
525.7327451664505
 20
-281.9751058618204
 42
0.07333214780387673
  0
VERTEX
  8
0
  6
CONTINUOUS
 62
     7
 10
525.70444753646
 20
-281.6946305511072
 42
0.07333214780387673
  0
VERTEX
  8
0
  6
CONTINUOUS
 62
     7
 10
525.6219634448297
 20
-281.4380303304076
 42
0.07333214780387673
  0
VERTEX
  8
0
  6
CONTINUOUS
 62
     7
 10
525.492314240809
 20
-281.2271479542627
 42
0.07333214780387673
  0
VERTEX
  8
0
  6
CONTINUOUS
 62
     7
 10
525.3265361414836
 20
-281.0799345061383
 42
0.07333214780387673
  0
VERTEX
  8
0
  6
CONTINUOUS
 62
     7
 10
525.1387407883867
 20
-281.0089213361781
 42
0.07333214780387673
  0
VERTEX
  8
0
  6
CONTINUOUS
 62
     7
 10
524.9449140126701
 20
-281.0201533465898
 42
0.07333214780387673
  0
VERTEX
  8
0
  6
CONTINUOUS
 62
     7
 10
524.7615550623621
 20
-281.1126744273368
 42
0.07333214780387673
  0
VERTEX
  8
0
  6
CONTINUOUS
 62
     7
 10
524.6042721256924
 20
-281.2786088437408
 42
0.07333214780387673
  0
VERTEX
  8
0
  6
CONTINUOUS
 62
     7
 10
524.4864537047046
 20
-281.5038316479839
 42
0.07333214780387673
  0
VERTEX
  8
0
  6
CONTINUOUS
 62
     7
 10
524.4181289367195
 20
-281.7691710466175
 42
0.07333214780387673
  0
VERTEX
  8
0
  6
CONTINUOUS
 62
     7
 10
524.4051138772815
 20
-282.0520403741331
 42
0.07333214780387673
  0
VERTEX
  8
0
  6
CONTINUOUS
 62
     7
 10
524.448516416118
 20
-282.3283607530016
 42
0.07333214780387673
  0
VERTEX
  8
0
  6
CONTINUOUS
 62
     7
 10
524.5446419694922
 20
-282.5746107762895
 42
0.07333214780387673
  0
VERTEX
  8
0
  6
CONTINUOUS
 62
     7
 10
524.6853079767589
 20
-282.7698287363268
 42
0.07333214780387673
  0
VERTEX
  8
0
  6
CONTINUOUS
 62
     7
 10
524.8585404300211
 20
-282.897396962359
 42
0.07333214780387673
  0
VERTEX
  8
0
  6
CONTINUOUS
 62
     7
 10
525.0495931457222
 20
-282.9464563778007
 42
-1
  0
SEQEND
  8
0
  0
POLYLINE
  8
0
  6
CONTINUOUS
 62
     7
 66
     1
 10
0
 20
0
  0
VERTEX
  8
0
  6
CONTINUOUS
 62
     7
 10
526.4589774315767
 20
-281.9751059607095
 42
0.07332668712448476
  0
VERTEX
  8
0
  6
CONTINUOUS
 62
     7
 10
526.3997787662744
 20
-281.4732389510634
 42
0.07332668712448476
  0
VERTEX
  8
0
  6
CONTINUOUS
 62
     7
 10
526.227221166087
 20
-281.0140864000925
 42
0.07332668712448476
  0
VERTEX
  8
0
  6
CONTINUOUS
 62
     7
 10
525.9559912044808
 20
-280.6367273032436
 42
0.07332668712448476
  0
VERTEX
  8
0
  6
CONTINUOUS
 62
     7
 10
525.609173571745
 20
-280.3732791221236
 42
0.07332668712448476
  0
VERTEX
  8
0
  6
CONTINUOUS
 62
     7
 10
525.2162863107651
 20
-280.2461642308404
 42
0.07332668712448476
  0
VERTEX
  8
0
  6
CONTINUOUS
 62
     7
 10
524.8107685028451
 20
-280.2662015222591
 42
0.07332668712448476
  0
VERTEX
  8
0
  6
CONTINUOUS
 62
     7
 10
524.4271342294941
 20
-280.4316855997343
 42
0.07332668712448476
  0
VERTEX
  8
0
  6
CONTINUOUS
 62
     7
 10
524.0980350397228
 20
-280.728531925357
 42
0.07332668712448476
  0
VERTEX
  8
0
  6
CONTINUOUS
 62
     7
 10
523.8514809395989
 20
-281.1314755709832
 42
0.07332668712448476
  0
VERTEX
  8
0
  6
CONTINUOUS
 62
     7
 10
523.7084564287962
 20
-281.6062215449825
 42
0.07332668712448476
  0
VERTEX
  8
0
  6
CONTINUOUS
 62
     7
 10
523.6811344859787
 20
-282.1123636779519
 42
0.07332668712448476
  0
VERTEX
  8
0
  6
CONTINUOUS
 62
     7
 10
523.7718405127511
 20
-282.6068236377165
 42
0.07332668712448476
  0
VERTEX
  8
0
  6
CONTINUOUS
 62
     7
 10
523.9728544160863
 20
-283.0475173751397
 42
0.07332668712448476
  0
VERTEX
  8
0
  6
CONTINUOUS
 62
     7
 10
524.267067674216
 20
-283.3969369453744
 42
0.07332668712448476
  0
VERTEX
  8
0
  6
CONTINUOUS
 62
     7
 10
524.6294394623634
 20
-283.6253428516777
 42
0.07332668712448476
  0
VERTEX
  8
0
  6
CONTINUOUS
 62
     7
 10
525.0291279057982
 20
-283.7132952077774
 42
-1
  0
SEQEND
  8
0
  0
POLYLINE
  8
0
  6
CONTINUOUS
 62
     7
 66
     1
 10
0
 20
0
  0
VERTEX
  8
0
  6
CONTINUOUS
 62
     7
 10
526.4173023968434
 20
-282.3241290671079
 42
0.07459289906077718
  0
VERTEX
  8
0
  6
CONTINUOUS
 62
     7
 10
526.4334383808962
 20
-282.657207040184
 42
0.07459289906077718
  0
VERTEX
  8
0
  6
CONTINUOUS
 62
     7
 10
526.5181687428903
 20
-282.9689449896542
 42
0.07459289906077718
  0
VERTEX
  8
0
  6
CONTINUOUS
 62
     7
 10
526.6640335572174
 20
-283.2318965331628
 42
0.07459289906077718
  0
VERTEX
  8
0
  6
CONTINUOUS
 62
     7
 10
526.858190430216
 20
-283.4229105958523
 42
0.07459289906077718
  0
VERTEX
  8
0
  6
CONTINUOUS
 62
     7
 10
527.0835451846058
 20
-283.5251697032742
 42
0.07459289906077718
  0
VERTEX
  8
0
  6
CONTINUOUS
 62
     7
 10
527.3202568842248
 20
-283.5296706443453
 42
0.07459289906077718
  0
VERTEX
  8
0
  6
CONTINUOUS
 62
     7
 10
527.5474846919957
 20
-283.4360171421614
 42
0.07459289906077718
  0
VERTEX
  8
0
  6
CONTINUOUS
 62
     7
 10
527.7452227622891
 20
-283.2524547434525
 42
0.07459289906077718
  0
VERTEX
  8
0
  6
CONTINUOUS
 62
     7
 10
527.8960616180337
 20
-282.9951448549053
 42
0.07459289906077718
  0
VERTEX
  8
0
  6
CONTINUOUS
 62
     7
 10
527.9867209354323
 20
-282.6867418424607
 42
0.07459289906077718
  0
VERTEX
  8
0
  6
CONTINUOUS
 62
     7
 10
528.0092187851317
 20
-282.3543984702064
 42
0.07459289906077718
  0
VERTEX
  8
0
  6
CONTINUOUS
 62
     7
 10
527.961574386203
 20
-282.0273752862527
 42
0.07459289906077718
  0
VERTEX
  8
0
  6
CONTINUOUS
 62
     7
 10
527.8479825002798
 20
-281.7344644327215
 42
0.07459289906077718
  0
VERTEX
  8
0
  6
CONTINUOUS
 62
     7
 10
527.6784441116467
 20
-281.5014546956614
 42
0.07459289906077718
  0
VERTEX
  8
0
  6
CONTINUOUS
 62
     7
 10
527.4678859093585
 20
-281.3488609798084
 42
0.07459289906077718
  0
VERTEX
  8
0
  6
CONTINUOUS
 62
     7
 10
527.2348460949334
 20
-281.2901181123223
 42
-1
  0
SEQEND
  8
0
  0
POLYLINE
  8
0
  6
CONTINUOUS
 62
     7
 66
     1
 10
0
 20
0
  0
VERTEX
  8
0
  6
CONTINUOUS
 62
     7
 10
525.6900055342657
 20
-282.3321239282844
 42
0.07398282385211347
  0
VERTEX
  8
0
  6
CONTINUOUS
 62
     7
 10
525.7372260791865
 20
-282.9008955588104
 42
0.07398282385211347
  0
VERTEX
  8
0
  6
CONTINUOUS
 62
     7
 10
525.9113782763621
 20
-283.4273846775448
 42
0.07398282385211347
  0
VERTEX
  8
0
  6
CONTINUOUS
 62
     7
 10
526.1973762847697
 20
-283.8659844459047
 42
0.07398282385211347
  0
VERTEX
  8
0
  6
CONTINUOUS
 62
     7
 10
526.5704456797528
 20
-284.17870139332
 42
0.07398282385211347
  0
VERTEX
  8
0
  6
CONTINUOUS
 62
     7
 10
526.9982695243193
 20
-284.3384465813199
 42
0.07398282385211347
  0
VERTEX
  8
0
  6
CONTINUOUS
 62
     7
 10
527.4437878065396
 20
-284.3313821683533
 42
0.07398282385211347
  0
VERTEX
  8
0
  6
CONTINUOUS
 62
     7
 10
527.8684077432775
 20
-284.1581201054185
 42
0.07398282385211347
  0
VERTEX
  8
0
  6
CONTINUOUS
 62
     7
 10
528.2353468594071
 20
-283.8336691261353
 42
0.07398282385211347
  0
VERTEX
  8
0
  6
CONTINUOUS
 62
     7
 10
528.5128192500661
 20
-283.386134623215
 42
0.07398282385211347
  0
VERTEX
  8
0
  6
CONTINUOUS
 62
     7
 10
528.67678901768
 20
-282.8542840338346
 42
0.07398282385211347
  0
VERTEX
  8
0
  6
CONTINUOUS
 62
     7
 10
528.7130523687459
 20
-282.2841886311069
 42
0.07398282385211347
  0
VERTEX
  8
0
  6
CONTINUOUS
 62
     7
 10
528.6184680098551
 20
-281.7252326246649
 42
0.07398282385211347
  0
VERTEX
  8
0
  6
CONTINUOUS
 62
     7
 10
528.4012292605553
 20
-281.2258352798906
 42
0.07398282385211347
  0
VERTEX
  8
0
  6
CONTINUOUS
 62
     7
 10
528.0801543114243
 20
-280.8292566249239
 42
0.07398282385211347
  0
VERTEX
  8
0
  6
CONTINUOUS
 62
     7
 10
527.6830561083651
 20
-280.5698500738412
 42
0.07398282385211347
  0
VERTEX
  8
0
  6
CONTINUOUS
 62
     7
 10
527.2443330710299
 20
-280.4700865805169
 42
-1
  0
SEQEND
  8
0
  0
LINE
  8
0
  6
CONTINUOUS
 62
     7
 10
526.786131939326
 20
-301.2557457228817
 11
526.9289702340849
 21
-300.4456696910792
  0
LINE
  8
0
  6
CONTINUOUS
 62
     7
 10
525.236623032045
 20
-297.9639209284921
 11
525.3698366283609
 21
-297.2084292610244
  0
POLYLINE
  8
0
  6
CONTINUOUS
 62
     7
 66
     1
 10
0
 20
0
  0
VERTEX
  8
0
  6
CONTINUOUS
 62
     7
 10
525.7327451664505
 20
-298.9208761254923
 42
0.07333214780387673
  0
VERTEX
  8
0
  6
CONTINUOUS
 62
     7
 10
525.70444753646
 20
-298.6404008147791
 42
0.07333214780387673
  0
VERTEX
  8
0
  6
CONTINUOUS
 62
     7
 10
525.6219634448297
 20
-298.3838005940795
 42
0.07333214780387673
  0
VERTEX
  8
0
  6
CONTINUOUS
 62
     7
 10
525.492314240809
 20
-298.1729182179345
 42
0.07333214780387673
  0
VERTEX
  8
0
  6
CONTINUOUS
 62
     7
 10
525.3265361414836
 20
-298.0257047698102
 42
0.07333214780387673
  0
VERTEX
  8
0
  6
CONTINUOUS
 62
     7
 10
525.1387407883867
 20
-297.9546915998499
 42
0.07333214780387673
  0
VERTEX
  8
0
  6
CONTINUOUS
 62
     7
 10
524.9449140126701
 20
-297.9659236102617
 42
0.07333214780387673
  0
VERTEX
  8
0
  6
CONTINUOUS
 62
     7
 10
524.7615550623621
 20
-298.0584446910087
 42
0.07333214780387673
  0
VERTEX
  8
0
  6
CONTINUOUS
 62
     7
 10
524.6042721256924
 20
-298.2243791074126
 42
0.07333214780387673
  0
VERTEX
  8
0
  6
CONTINUOUS
 62
     7
 10
524.4864537047046
 20
-298.4496019116558
 42
0.07333214780387673
  0
VERTEX
  8
0
  6
CONTINUOUS
 62
     7
 10
524.4181289367195
 20
-298.7149413102894
 42
0.07333214780387673
  0
VERTEX
  8
0
  6
CONTINUOUS
 62
     7
 10
524.4051138772815
 20
-298.997810637805
 42
0.07333214780387673
  0
VERTEX
  8
0
  6
CONTINUOUS
 62
     7
 10
524.448516416118
 20
-299.2741310166734
 42
0.07333214780387673
  0
VERTEX
  8
0
  6
CONTINUOUS
 62
     7
 10
524.5446419694922
 20
-299.5203810399614
 42
0.07333214780387673
  0
VERTEX
  8
0
  6
CONTINUOUS
 62
     7
 10
524.6853079767589
 20
-299.7155989999987
 42
0.07333214780387673
  0
VERTEX
  8
0
  6
CONTINUOUS
 62
     7
 10
524.8585404300211
 20
-299.8431672260309
 42
0.07333214780387673
  0
VERTEX
  8
0
  6
CONTINUOUS
 62
     7
 10
525.0495931457222
 20
-299.8922266414726
 42
-1
  0
SEQEND
  8
0
  0
POLYLINE
  8
0
  6
CONTINUOUS
 62
     7
 66
     1
 10
0
 20
0
  0
VERTEX
  8
0
  6
CONTINUOUS
 62
     7
 10
526.4589774315767
 20
-298.9208762243814
 42
0.07332668712448476
  0
VERTEX
  8
0
  6
CONTINUOUS
 62
     7
 10
526.3997787662744
 20
-298.4190092147352
 42
0.07332668712448476
  0
VERTEX
  8
0
  6
CONTINUOUS
 62
     7
 10
526.227221166087
 20
-297.9598566637644
 42
0.07332668712448476
  0
VERTEX
  8
0
  6
CONTINUOUS
 62
     7
 10
525.9559912044808
 20
-297.5824975669154
 42
0.07332668712448476
  0
VERTEX
  8
0
  6
CONTINUOUS
 62
     7
 10
525.609173571745
 20
-297.3190493857955
 42
0.07332668712448476
  0
VERTEX
  8
0
  6
CONTINUOUS
 62
     7
 10
525.2162863107651
 20
-297.1919344945123
 42
0.07332668712448476
  0
VERTEX
  8
0
  6
CONTINUOUS
 62
     7
 10
524.8107685028451
 20
-297.211971785931
 42
0.07332668712448476
  0
VERTEX
  8
0
  6
CONTINUOUS
 62
     7
 10
524.4271342294941
 20
-297.3774558634062
 42
0.07332668712448476
  0
VERTEX
  8
0
  6
CONTINUOUS
 62
     7
 10
524.0980350397228
 20
-297.6743021890288
 42
0.07332668712448476
  0
VERTEX
  8
0
  6
CONTINUOUS
 62
     7
 10
523.8514809395989
 20
-298.0772458346551
 42
0.07332668712448476
  0
VERTEX
  8
0
  6
CONTINUOUS
 62
     7
 10
523.7084564287962
 20
-298.5519918086544
 42
0.07332668712448476
  0
VERTEX
  8
0
  6
CONTINUOUS
 62
     7
 10
523.6811344859787
 20
-299.0581339416238
 42
0.07332668712448476
  0
VERTEX
  8
0
  6
CONTINUOUS
 62
     7
 10
523.7718405127511
 20
-299.5525939013883
 42
0.07332668712448476
  0
VERTEX
  8
0
  6
CONTINUOUS
 62
     7
 10
523.9728544160863
 20
-299.9932876388115
 42
0.07332668712448476
  0
VERTEX
  8
0
  6
CONTINUOUS
 62
     7
 10
524.267067674216
 20
-300.3427072090463
 42
0.07332668712448476
  0
VERTEX
  8
0
  6
CONTINUOUS
 62
     7
 10
524.6294394623634
 20
-300.5711131153496
 42
0.07332668712448476
  0
VERTEX
  8
0
  6
CONTINUOUS
 62
     7
 10
525.0291279057982
 20
-300.6590654714493
 42
-1
  0
SEQEND
  8
0
  0
POLYLINE
  8
0
  6
CONTINUOUS
 62
     7
 66
     1
 10
0
 20
0
  0
VERTEX
  8
0
  6
CONTINUOUS
 62
     7
 10
526.4173023968434
 20
-299.2698993307798
 42
0.07459289906077718
  0
VERTEX
  8
0
  6
CONTINUOUS
 62
     7
 10
526.4334383808962
 20
-299.6029773038559
 42
0.07459289906077718
  0
VERTEX
  8
0
  6
CONTINUOUS
 62
     7
 10
526.5181687428903
 20
-299.9147152533261
 42
0.07459289906077718
  0
VERTEX
  8
0
  6
CONTINUOUS
 62
     7
 10
526.6640335572174
 20
-300.1776667968347
 42
0.07459289906077718
  0
VERTEX
  8
0
  6
CONTINUOUS
 62
     7
 10
526.858190430216
 20
-300.3686808595242
 42
0.07459289906077718
  0
VERTEX
  8
0
  6
CONTINUOUS
 62
     7
 10
527.0835451846058
 20
-300.4709399669461
 42
0.07459289906077718
  0
VERTEX
  8
0
  6
CONTINUOUS
 62
     7
 10
527.3202568842248
 20
-300.4754409080172
 42
0.07459289906077718
  0
VERTEX
  8
0
  6
CONTINUOUS
 62
     7
 10
527.5474846919957
 20
-300.3817874058333
 42
0.07459289906077718
  0
VERTEX
  8
0
  6
CONTINUOUS
 62
     7
 10
527.7452227622891
 20
-300.1982250071244
 42
0.07459289906077718
  0
VERTEX
  8
0
  6
CONTINUOUS
 62
     7
 10
527.8960616180337
 20
-299.9409151185772
 42
0.07459289906077718
  0
VERTEX
  8
0
  6
CONTINUOUS
 62
     7
 10
527.9867209354323
 20
-299.6325121061325
 42
0.07459289906077718
  0
VERTEX
  8
0
  6
CONTINUOUS
 62
     7
 10
528.0092187851317
 20
-299.3001687338783
 42
0.07459289906077718
  0
VERTEX
  8
0
  6
CONTINUOUS
 62
     7
 10
527.961574386203
 20
-298.9731455499245
 42
0.07459289906077718
  0
VERTEX
  8
0
  6
CONTINUOUS
 62
     7
 10
527.8479825002798
 20
-298.6802346963934
 42
0.07459289906077718
  0
VERTEX
  8
0
  6
CONTINUOUS
 62
     7
 10
527.6784441116467
 20
-298.4472249593333
 42
0.07459289906077718
  0
VERTEX
  8
0
  6
CONTINUOUS
 62
     7
 10
527.4678859093585
 20
-298.2946312434802
 42
0.07459289906077718
  0
VERTEX
  8
0
  6
CONTINUOUS
 62
     7
 10
527.2348460949334
 20
-298.2358883759942
 42
-1
  0
SEQEND
  8
0
  0
POLYLINE
  8
0
  6
CONTINUOUS
 62
     7
 66
     1
 10
0
 20
0
  0
VERTEX
  8
0
  6
CONTINUOUS
 62
     7
 10
525.6900055342657
 20
-299.2778941919563
 42
0.07398282385211347
  0
VERTEX
  8
0
  6
CONTINUOUS
 62
     7
 10
525.7372260791865
 20
-299.8466658224823
 42
0.07398282385211347
  0
VERTEX
  8
0
  6
CONTINUOUS
 62
     7
 10
525.9113782763621
 20
-300.3731549412167
 42
0.07398282385211347
  0
VERTEX
  8
0
  6
CONTINUOUS
 62
     7
 10
526.1973762847697
 20
-300.8117547095766
 42
0.07398282385211347
  0
VERTEX
  8
0
  6
CONTINUOUS
 62
     7
 10
526.5704456797528
 20
-301.1244716569919
 42
0.07398282385211347
  0
VERTEX
  8
0
  6
CONTINUOUS
 62
     7
 10
526.9982695243193
 20
-301.2842168449918
 42
0.07398282385211347
  0
VERTEX
  8
0
  6
CONTINUOUS
 62
     7
 10
527.4437878065396
 20
-301.2771524320252
 42
0.07398282385211347
  0
VERTEX
  8
0
  6
CONTINUOUS
 62
     7
 10
527.8684077432775
 20
-301.1038903690904
 42
0.07398282385211347
  0
VERTEX
  8
0
  6
CONTINUOUS
 62
     7
 10
528.2353468594071
 20
-300.7794393898072
 42
0.07398282385211347
  0
VERTEX
  8
0
  6
CONTINUOUS
 62
     7
 10
528.5128192500661
 20
-300.3319048868868
 42
0.07398282385211347
  0
VERTEX
  8
0
  6
CONTINUOUS
 62
     7
 10
528.67678901768
 20
-299.8000542975065
 42
0.07398282385211347
  0
VERTEX
  8
0
  6
CONTINUOUS
 62
     7
 10
528.7130523687459
 20
-299.2299588947788
 42
0.07398282385211347
  0
VERTEX
  8
0
  6
CONTINUOUS
 62
     7
 10
528.6184680098551
 20
-298.6710028883368
 42
0.07398282385211347
  0
VERTEX
  8
0
  6
CONTINUOUS
 62
     7
 10
528.4012292605553
 20
-298.1716055435625
 42
0.07398282385211347
  0
VERTEX
  8
0
  6
CONTINUOUS
 62
     7
 10
528.0801543114243
 20
-297.7750268885958
 42
0.07398282385211347
  0
VERTEX
  8
0
  6
CONTINUOUS
 62
     7
 10
527.6830561083651
 20
-297.515620337513
 42
0.07398282385211347
  0
VERTEX
  8
0
  6
CONTINUOUS
 62
     7
 10
527.2443330710299
 20
-297.4158568441888
 42
-1
  0
SEQEND
  8
0
  0
LINE
  8
0
  6
CONTINUOUS
 62
     7
 10
323.7280569881541
 20
-284.6186607619442
 11
323.8708952829131
 21
-283.8085847301417
  0
LINE
  8
0
  6
CONTINUOUS
 62
     7
 10
322.1785480808732
 20
-281.3268359675546
 11
322.311761677189
 21
-280.5713443000869
  0
POLYLINE
  8
0
  6
CONTINUOUS
 62
     7
 66
     1
 10
0
 20
0
  0
VERTEX
  8
0
  6
CONTINUOUS
 62
     7
 10
322.6746702152785
 20
-282.2837911645548
 42
0.07333214780387673
  0
VERTEX
  8
0
  6
CONTINUOUS
 62
     7
 10
322.646372585288
 20
-282.0033158538416
 42
0.07333214780387673
  0
VERTEX
  8
0
  6
CONTINUOUS
 62
     7
 10
322.5638884936577
 20
-281.746715633142
 42
0.07333214780387673
  0
VERTEX
  8
0
  6
CONTINUOUS
 62
     7
 10
322.4342392896371
 20
-281.535833256997
 42
0.07333214780387673
  0
VERTEX
  8
0
  6
CONTINUOUS
 62
     7
 10
322.2684611903117
 20
-281.3886198088727
 42
0.07333214780387673
  0
VERTEX
  8
0
  6
CONTINUOUS
 62
     7
 10
322.0806658372148
 20
-281.3176066389124
 42
0.07333214780387673
  0
VERTEX
  8
0
  6
CONTINUOUS
 62
     7
 10
321.8868390614981
 20
-281.3288386493242
 42
0.07333214780387673
  0
VERTEX
  8
0
  6
CONTINUOUS
 62
     7
 10
321.7034801111901
 20
-281.4213597300712
 42
0.07333214780387673
  0
VERTEX
  8
0
  6
CONTINUOUS
 62
     7
 10
321.5461971745205
 20
-281.5872941464751
 42
0.07333214780387673
  0
VERTEX
  8
0
  6
CONTINUOUS
 62
     7
 10
321.4283787535326
 20
-281.8125169507183
 42
0.07333214780387673
  0
VERTEX
  8
0
  6
CONTINUOUS
 62
     7
 10
321.3600539855477
 20
-282.0778563493519
 42
0.07333214780387673
  0
VERTEX
  8
0
  6
CONTINUOUS
 62
     7
 10
321.3470389261096
 20
-282.3607256768675
 42
0.07333214780387673
  0
VERTEX
  8
0
  6
CONTINUOUS
 62
     7
 10
321.390441464946
 20
-282.6370460557359
 42
0.07333214780387673
  0
VERTEX
  8
0
  6
CONTINUOUS
 62
     7
 10
321.4865670183203
 20
-282.8832960790239
 42
0.07333214780387673
  0
VERTEX
  8
0
  6
CONTINUOUS
 62
     7
 10
321.6272330255869
 20
-283.0785140390612
 42
0.07333214780387673
  0
VERTEX
  8
0
  6
CONTINUOUS
 62
     7
 10
321.8004654788492
 20
-283.2060822650934
 42
0.07333214780387673
  0
VERTEX
  8
0
  6
CONTINUOUS
 62
     7
 10
321.9915181945503
 20
-283.2551416805351
 42
-1
  0
SEQEND
  8
0
  0
POLYLINE
  8
0
  6
CONTINUOUS
 62
     7
 66
     1
 10
0
 20
0
  0
VERTEX
  8
0
  6
CONTINUOUS
 62
     7
 10
323.4009024804049
 20
-282.2837912634439
 42
0.07332668712448476
  0
VERTEX
  8
0
  6
CONTINUOUS
 62
     7
 10
323.3417038151025
 20
-281.7819242537977
 42
0.07332668712448476
  0
VERTEX
  8
0
  6
CONTINUOUS
 62
     7
 10
323.1691462149151
 20
-281.3227717028269
 42
0.07332668712448476
  0
VERTEX
  8
0
  6
CONTINUOUS
 62
     7
 10
322.897916253309
 20
-280.9454126059779
 42
0.07332668712448476
  0
VERTEX
  8
0
  6
CONTINUOUS
 62
     7
 10
322.5510986205732
 20
-280.681964424858
 42
0.07332668712448476
  0
VERTEX
  8
0
  6
CONTINUOUS
 62
     7
 10
322.1582113595932
 20
-280.5548495335748
 42
0.07332668712448476
  0
VERTEX
  8
0
  6
CONTINUOUS
 62
     7
 10
321.7526935516733
 20
-280.5748868249935
 42
0.07332668712448476
  0
VERTEX
  8
0
  6
CONTINUOUS
 62
     7
 10
321.3690592783222
 20
-280.7403709024687
 42
0.07332668712448476
  0
VERTEX
  8
0
  6
CONTINUOUS
 62
     7
 10
321.039960088551
 20
-281.0372172280914
 42
0.07332668712448476
  0
VERTEX
  8
0
  6
CONTINUOUS
 62
     7
 10
320.7934059884271
 20
-281.4401608737176
 42
0.07332668712448476
  0
VERTEX
  8
0
  6
CONTINUOUS
 62
     7
 10
320.6503814776244
 20
-281.9149068477169
 42
0.07332668712448476
  0
VERTEX
  8
0
  6
CONTINUOUS
 62
     7
 10
320.6230595348068
 20
-282.4210489806863
 42
0.07332668712448476
  0
VERTEX
  8
0
  6
CONTINUOUS
 62
     7
 10
320.7137655615792
 20
-282.9155089404508
 42
0.07332668712448476
  0
VERTEX
  8
0
  6
CONTINUOUS
 62
     7
 10
320.9147794649144
 20
-283.356202677874
 42
0.07332668712448476
  0
VERTEX
  8
0
  6
CONTINUOUS
 62
     7
 10
321.2089927230442
 20
-283.7056222481088
 42
0.07332668712448476
  0
VERTEX
  8
0
  6
CONTINUOUS
 62
     7
 10
321.5713645111916
 20
-283.9340281544121
 42
0.07332668712448476
  0
VERTEX
  8
0
  6
CONTINUOUS
 62
     7
 10
321.9710529546264
 20
-284.0219805105118
 42
-1
  0
SEQEND
  8
0
  0
POLYLINE
  8
0
  6
CONTINUOUS
 62
     7
 66
     1
 10
0
 20
0
  0
VERTEX
  8
0
  6
CONTINUOUS
 62
     7
 10
323.3592274456715
 20
-282.6328143698423
 42
0.07459289906077718
  0
VERTEX
  8
0
  6
CONTINUOUS
 62
     7
 10
323.3753634297243
 20
-282.9658923429184
 42
0.07459289906077718
  0
VERTEX
  8
0
  6
CONTINUOUS
 62
     7
 10
323.4600937917185
 20
-283.2776302923886
 42
0.07459289906077718
  0
VERTEX
  8
0
  6
CONTINUOUS
 62
     7
 10
323.6059586060455
 20
-283.5405818358972
 42
0.07459289906077718
  0
VERTEX
  8
0
  6
CONTINUOUS
 62
     7
 10
323.8001154790442
 20
-283.7315958985867
 42
0.07459289906077718
  0
VERTEX
  8
0
  6
CONTINUOUS
 62
     7
 10
324.0254702334339
 20
-283.8338550060086
 42
0.07459289906077718
  0
VERTEX
  8
0
  6
CONTINUOUS
 62
     7
 10
324.2621819330529
 20
-283.8383559470797
 42
0.07459289906077718
  0
VERTEX
  8
0
  6
CONTINUOUS
 62
     7
 10
324.4894097408238
 20
-283.7447024448958
 42
0.07459289906077718
  0
VERTEX
  8
0
  6
CONTINUOUS
 62
     7
 10
324.6871478111172
 20
-283.5611400461869
 42
0.07459289906077718
  0
VERTEX
  8
0
  6
CONTINUOUS
 62
     7
 10
324.8379866668618
 20
-283.3038301576397
 42
0.07459289906077718
  0
VERTEX
  8
0
  6
CONTINUOUS
 62
     7
 10
324.9286459842605
 20
-282.995427145195
 42
0.07459289906077718
  0
VERTEX
  8
0
  6
CONTINUOUS
 62
     7
 10
324.9511438339598
 20
-282.6630837729408
 42
0.07459289906077718
  0
VERTEX
  8
0
  6
CONTINUOUS
 62
     7
 10
324.9034994350312
 20
-282.336060588987
 42
0.07459289906077718
  0
VERTEX
  8
0
  6
CONTINUOUS
 62
     7
 10
324.789907549108
 20
-282.0431497354559
 42
0.07459289906077718
  0
VERTEX
  8
0
  6
CONTINUOUS
 62
     7
 10
324.6203691604749
 20
-281.8101399983958
 42
0.07459289906077718
  0
VERTEX
  8
0
  6
CONTINUOUS
 62
     7
 10
324.4098109581867
 20
-281.6575462825427
 42
0.07459289906077718
  0
VERTEX
  8
0
  6
CONTINUOUS
 62
     7
 10
324.1767711437615
 20
-281.5988034150568
 42
-1
  0
SEQEND
  8
0
  0
POLYLINE
  8
0
  6
CONTINUOUS
 62
     7
 66
     1
 10
0
 20
0
  0
VERTEX
  8
0
  6
CONTINUOUS
 62
     7
 10
322.6319305830938
 20
-282.6408092310188
 42
0.07398282385211347
  0
VERTEX
  8
0
  6
CONTINUOUS
 62
     7
 10
322.6791511280147
 20
-283.2095808615448
 42
0.07398282385211347
  0
VERTEX
  8
0
  6
CONTINUOUS
 62
     7
 10
322.8533033251903
 20
-283.7360699802792
 42
0.07398282385211347
  0
VERTEX
  8
0
  6
CONTINUOUS
 62
     7
 10
323.1393013335978
 20
-284.1746697486391
 42
0.07398282385211347
  0
VERTEX
  8
0
  6
CONTINUOUS
 62
     7
 10
323.5123707285809
 20
-284.4873866960544
 42
0.07398282385211347
  0
VERTEX
  8
0
  6
CONTINUOUS
 62
     7
 10
323.9401945731474
 20
-284.6471318840543
 42
0.07398282385211347
  0
VERTEX
  8
0
  6
CONTINUOUS
 62
     7
 10
324.3857128553677
 20
-284.6400674710877
 42
0.07398282385211347
  0
VERTEX
  8
0
  6
CONTINUOUS
 62
     7
 10
324.8103327921056
 20
-284.4668054081529
 42
0.07398282385211347
  0
VERTEX
  8
0
  6
CONTINUOUS
 62
     7
 10
325.1772719082351
 20
-284.1423544288697
 42
0.07398282385211347
  0
VERTEX
  8
0
  6
CONTINUOUS
 62
     7
 10
325.4547442988941
 20
-283.6948199259493
 42
0.07398282385211347
  0
VERTEX
  8
0
  6
CONTINUOUS
 62
     7
 10
325.6187140665081
 20
-283.162969336569
 42
0.07398282385211347
  0
VERTEX
  8
0
  6
CONTINUOUS
 62
     7
 10
325.6549774175741
 20
-282.5928739338413
 42
0.07398282385211347
  0
VERTEX
  8
0
  6
CONTINUOUS
 62
     7
 10
325.5603930586831
 20
-282.0339179273993
 42
0.07398282385211347
  0
VERTEX
  8
0
  6
CONTINUOUS
 62
     7
 10
325.3431543093835
 20
-281.534520582625
 42
0.07398282385211347
  0
VERTEX
  8
0
  6
CONTINUOUS
 62
     7
 10
325.0220793602524
 20
-281.1379419276583
 42
0.07398282385211347
  0
VERTEX
  8
0
  6
CONTINUOUS
 62
     7
 10
324.6249811571933
 20
-280.8785353765755
 42
0.07398282385211347
  0
VERTEX
  8
0
  6
CONTINUOUS
 62
     7
 10
324.1862581198581
 20
-280.7787718832513
 42
-1
  0
SEQEND
  8
0
  0
LINE
  8
0
  6
CONTINUOUS
 62
     7
 10
323.7280569881541
 20
-301.5644310256161
 11
323.8708952829131
 21
-300.7543549938135
  0
LINE
  8
0
  6
CONTINUOUS
 62
     7
 10
322.1785480808732
 20
-298.2726062312265
 11
322.311761677189
 21
-297.5171145637588
  0
POLYLINE
  8
0
  6
CONTINUOUS
 62
     7
 66
     1
 10
0
 20
0
  0
VERTEX
  8
0
  6
CONTINUOUS
 62
     7
 10
322.6746702152785
 20
-299.2295614282267
 42
0.07333214780387673
  0
VERTEX
  8
0
  6
CONTINUOUS
 62
     7
 10
322.646372585288
 20
-298.9490861175135
 42
0.07333214780387673
  0
VERTEX
  8
0
  6
CONTINUOUS
 62
     7
 10
322.5638884936577
 20
-298.6924858968138
 42
0.07333214780387673
  0
VERTEX
  8
0
  6
CONTINUOUS
 62
     7
 10
322.4342392896371
 20
-298.4816035206689
 42
0.07333214780387673
  0
VERTEX
  8
0
  6
CONTINUOUS
 62
     7
 10
322.2684611903117
 20
-298.3343900725445
 42
0.07333214780387673
  0
VERTEX
  8
0
  6
CONTINUOUS
 62
     7
 10
322.0806658372148
 20
-298.2633769025843
 42
0.07333214780387673
  0
VERTEX
  8
0
  6
CONTINUOUS
 62
     7
 10
321.8868390614981
 20
-298.274608912996
 42
0.07333214780387673
  0
VERTEX
  8
0
  6
CONTINUOUS
 62
     7
 10
321.7034801111901
 20
-298.3671299937431
 42
0.07333214780387673
  0
VERTEX
  8
0
  6
CONTINUOUS
 62
     7
 10
321.5461971745205
 20
-298.533064410147
 42
0.07333214780387673
  0
VERTEX
  8
0
  6
CONTINUOUS
 62
     7
 10
321.4283787535326
 20
-298.7582872143901
 42
0.07333214780387673
  0
VERTEX
  8
0
  6
CONTINUOUS
 62
     7
 10
321.3600539855477
 20
-299.0236266130238
 42
0.07333214780387673
  0
VERTEX
  8
0
  6
CONTINUOUS
 62
     7
 10
321.3470389261096
 20
-299.3064959405393
 42
0.07333214780387673
  0
VERTEX
  8
0
  6
CONTINUOUS
 62
     7
 10
321.390441464946
 20
-299.5828163194078
 42
0.07333214780387673
  0
VERTEX
  8
0
  6
CONTINUOUS
 62
     7
 10
321.4865670183203
 20
-299.8290663426957
 42
0.07333214780387673
  0
VERTEX
  8
0
  6
CONTINUOUS
 62
     7
 10
321.6272330255869
 20
-300.0242843027331
 42
0.07333214780387673
  0
VERTEX
  8
0
  6
CONTINUOUS
 62
     7
 10
321.8004654788492
 20
-300.1518525287653
 42
0.07333214780387673
  0
VERTEX
  8
0
  6
CONTINUOUS
 62
     7
 10
321.9915181945503
 20
-300.200911944207
 42
-1
  0
SEQEND
  8
0
  0
POLYLINE
  8
0
  6
CONTINUOUS
 62
     7
 66
     1
 10
0
 20
0
  0
VERTEX
  8
0
  6
CONTINUOUS
 62
     7
 10
323.4009024804049
 20
-299.2295615271158
 42
0.07332668712448476
  0
VERTEX
  8
0
  6
CONTINUOUS
 62
     7
 10
323.3417038151025
 20
-298.7276945174696
 42
0.07332668712448476
  0
VERTEX
  8
0
  6
CONTINUOUS
 62
     7
 10
323.1691462149151
 20
-298.2685419664987
 42
0.07332668712448476
  0
VERTEX
  8
0
  6
CONTINUOUS
 62
     7
 10
322.897916253309
 20
-297.8911828696498
 42
0.07332668712448476
  0
VERTEX
  8
0
  6
CONTINUOUS
 62
     7
 10
322.5510986205732
 20
-297.6277346885299
 42
0.07332668712448476
  0
VERTEX
  8
0
  6
CONTINUOUS
 62
     7
 10
322.1582113595932
 20
-297.5006197972467
 42
0.07332668712448476
  0
VERTEX
  8
0
  6
CONTINUOUS
 62
     7
 10
321.7526935516733
 20
-297.5206570886654
 42
0.07332668712448476
  0
VERTEX
  8
0
  6
CONTINUOUS
 62
     7
 10
321.3690592783222
 20
-297.6861411661405
 42
0.07332668712448476
  0
VERTEX
  8
0
  6
CONTINUOUS
 62
     7
 10
321.039960088551
 20
-297.9829874917633
 42
0.07332668712448476
  0
VERTEX
  8
0
  6
CONTINUOUS
 62
     7
 10
320.7934059884271
 20
-298.3859311373895
 42
0.07332668712448476
  0
VERTEX
  8
0
  6
CONTINUOUS
 62
     7
 10
320.6503814776244
 20
-298.8606771113888
 42
0.07332668712448476
  0
VERTEX
  8
0
  6
CONTINUOUS
 62
     7
 10
320.6230595348068
 20
-299.3668192443582
 42
0.07332668712448476
  0
VERTEX
  8
0
  6
CONTINUOUS
 62
     7
 10
320.7137655615792
 20
-299.8612792041227
 42
0.07332668712448476
  0
VERTEX
  8
0
  6
CONTINUOUS
 62
     7
 10
320.9147794649144
 20
-300.3019729415459
 42
0.07332668712448476
  0
VERTEX
  8
0
  6
CONTINUOUS
 62
     7
 10
321.2089927230442
 20
-300.6513925117807
 42
0.07332668712448476
  0
VERTEX
  8
0
  6
CONTINUOUS
 62
     7
 10
321.5713645111916
 20
-300.879798418084
 42
0.07332668712448476
  0
VERTEX
  8
0
  6
CONTINUOUS
 62
     7
 10
321.9710529546264
 20
-300.9677507741836
 42
-1
  0
SEQEND
  8
0
  0
POLYLINE
  8
0
  6
CONTINUOUS
 62
     7
 66
     1
 10
0
 20
0
  0
VERTEX
  8
0
  6
CONTINUOUS
 62
     7
 10
323.3592274456715
 20
-299.5785846335141
 42
0.07459289906077718
  0
VERTEX
  8
0
  6
CONTINUOUS
 62
     7
 10
323.3753634297243
 20
-299.9116626065903
 42
0.07459289906077718
  0
VERTEX
  8
0
  6
CONTINUOUS
 62
     7
 10
323.4600937917185
 20
-300.2234005560604
 42
0.07459289906077718
  0
VERTEX
  8
0
  6
CONTINUOUS
 62
     7
 10
323.6059586060455
 20
-300.4863520995691
 42
0.07459289906077718
  0
VERTEX
  8
0
  6
CONTINUOUS
 62
     7
 10
323.8001154790442
 20
-300.6773661622586
 42
0.07459289906077718
  0
VERTEX
  8
0
  6
CONTINUOUS
 62
     7
 10
324.0254702334339
 20
-300.7796252696804
 42
0.07459289906077718
  0
VERTEX
  8
0
  6
CONTINUOUS
 62
     7
 10
324.2621819330529
 20
-300.7841262107516
 42
0.07459289906077718
  0
VERTEX
  8
0
  6
CONTINUOUS
 62
     7
 10
324.4894097408238
 20
-300.6904727085677
 42
0.07459289906077718
  0
VERTEX
  8
0
  6
CONTINUOUS
 62
     7
 10
324.6871478111172
 20
-300.5069103098588
 42
0.07459289906077718
  0
VERTEX
  8
0
  6
CONTINUOUS
 62
     7
 10
324.8379866668618
 20
-300.2496004213115
 42
0.07459289906077718
  0
VERTEX
  8
0
  6
CONTINUOUS
 62
     7
 10
324.9286459842605
 20
-299.9411974088669
 42
0.07459289906077718
  0
VERTEX
  8
0
  6
CONTINUOUS
 62
     7
 10
324.9511438339598
 20
-299.6088540366126
 42
0.07459289906077718
  0
VERTEX
  8
0
  6
CONTINUOUS
 62
     7
 10
324.9034994350312
 20
-299.2818308526589
 42
0.07459289906077718
  0
VERTEX
  8
0
  6
CONTINUOUS
 62
     7
 10
324.789907549108
 20
-298.9889199991278
 42
0.07459289906077718
  0
VERTEX
  8
0
  6
CONTINUOUS
 62
     7
 10
324.6203691604749
 20
-298.7559102620677
 42
0.07459289906077718
  0
VERTEX
  8
0
  6
CONTINUOUS
 62
     7
 10
324.4098109581867
 20
-298.6033165462146
 42
0.07459289906077718
  0
VERTEX
  8
0
  6
CONTINUOUS
 62
     7
 10
324.1767711437615
 20
-298.5445736787286
 42
-1
  0
SEQEND
  8
0
  0
POLYLINE
  8
0
  6
CONTINUOUS
 62
     7
 66
     1
 10
0
 20
0
  0
VERTEX
  8
0
  6
CONTINUOUS
 62
     7
 10
322.6319305830938
 20
-299.5865794946906
 42
0.07398282385211347
  0
VERTEX
  8
0
  6
CONTINUOUS
 62
     7
 10
322.6791511280147
 20
-300.1553511252167
 42
0.07398282385211347
  0
VERTEX
  8
0
  6
CONTINUOUS
 62
     7
 10
322.8533033251903
 20
-300.6818402439511
 42
0.07398282385211347
  0
VERTEX
  8
0
  6
CONTINUOUS
 62
     7
 10
323.1393013335978
 20
-301.120440012311
 42
0.07398282385211347
  0
VERTEX
  8
0
  6
CONTINUOUS
 62
     7
 10
323.5123707285809
 20
-301.4331569597263
 42
0.07398282385211347
  0
VERTEX
  8
0
  6
CONTINUOUS
 62
     7
 10
323.9401945731474
 20
-301.5929021477262
 42
0.07398282385211347
  0
VERTEX
  8
0
  6
CONTINUOUS
 62
     7
 10
324.3857128553677
 20
-301.5858377347596
 42
0.07398282385211347
  0
VERTEX
  8
0
  6
CONTINUOUS
 62
     7
 10
324.8103327921056
 20
-301.4125756718248
 42
0.07398282385211347
  0
VERTEX
  8
0
  6
CONTINUOUS
 62
     7
 10
325.1772719082351
 20
-301.0881246925416
 42
0.07398282385211347
  0
VERTEX
  8
0
  6
CONTINUOUS
 62
     7
 10
325.4547442988941
 20
-300.6405901896212
 42
0.07398282385211347
  0
VERTEX
  8
0
  6
CONTINUOUS
 62
     7
 10
325.6187140665081
 20
-300.1087396002408
 42
0.07398282385211347
  0
VERTEX
  8
0
  6
CONTINUOUS
 62
     7
 10
325.6549774175741
 20
-299.5386441975131
 42
0.07398282385211347
  0
VERTEX
  8
0
  6
CONTINUOUS
 62
     7
 10
325.5603930586831
 20
-298.9796881910712
 42
0.07398282385211347
  0
VERTEX
  8
0
  6
CONTINUOUS
 62
     7
 10
325.3431543093835
 20
-298.4802908462968
 42
0.07398282385211347
  0
VERTEX
  8
0
  6
CONTINUOUS
 62
     7
 10
325.0220793602524
 20
-298.0837121913302
 42
0.07398282385211347
  0
VERTEX
  8
0
  6
CONTINUOUS
 62
     7
 10
324.6249811571933
 20
-297.8243056402474
 42
0.07398282385211347
  0
VERTEX
  8
0
  6
CONTINUOUS
 62
     7
 10
324.1862581198581
 20
-297.7245421469232
 42
-1
  0
SEQEND
  8
0
  0
LINE
  8
0
  6
CONTINUOUS
 62
     7
 10
82.07784183922831
 20
-282.9311912795224
 11
82.22068013398729
 21
-282.1211152477198
  0
LINE
  8
0
  6
CONTINUOUS
 62
     7
 10
80.52833293194735
 20
-279.6393664851328
 11
80.66154652826322
 21
-278.883874817665
  0
POLYLINE
  8
0
  6
CONTINUOUS
 62
     7
 66
     1
 10
0
 20
0
  0
VERTEX
  8
0
  6
CONTINUOUS
 62
     7
 10
81.02445506635276
 20
-280.5963216821329
 42
0.07333214780387673
  0
VERTEX
  8
0
  6
CONTINUOUS
 62
     7
 10
80.99615743636225
 20
-280.3158463714197
 42
0.07333214780387673
  0
VERTEX
  8
0
  6
CONTINUOUS
 62
     7
 10
80.91367334473196
 20
-280.0592461507201
 42
0.07333214780387673
  0
VERTEX
  8
0
  6
CONTINUOUS
 62
     7
 10
80.78402414071132
 20
-279.8483637745752
 42
0.07333214780387673
  0
VERTEX
  8
0
  6
CONTINUOUS
 62
     7
 10
80.61824604138596
 20
-279.7011503264508
 42
0.07333214780387673
  0
VERTEX
  8
0
  6
CONTINUOUS
 62
     7
 10
80.43045068828901
 20
-279.6301371564906
 42
0.07333214780387673
  0
VERTEX
  8
0
  6
CONTINUOUS
 62
     7
 10
80.23662391257236
 20
-279.6413691669023
 42
0.07333214780387673
  0
VERTEX
  8
0
  6
CONTINUOUS
 62
     7
 10
80.05326496226435
 20
-279.7338902476493
 42
0.07333214780387673
  0
VERTEX
  8
0
  6
CONTINUOUS
 62
     7
 10
79.89598202559473
 20
-279.8998246640533
 42
0.07333214780387673
  0
VERTEX
  8
0
  6
CONTINUOUS
 62
     7
 10
79.77816360460685
 20
-280.1250474682964
 42
0.07333214780387673
  0
VERTEX
  8
0
  6
CONTINUOUS
 62
     7
 10
79.70983883662191
 20
-280.39038686693
 42
0.07333214780387673
  0
VERTEX
  8
0
  6
CONTINUOUS
 62
     7
 10
79.69682377718382
 20
-280.6732561944456
 42
0.07333214780387673
  0
VERTEX
  8
0
  6
CONTINUOUS
 62
     7
 10
79.7402263160203
 20
-280.9495765733141
 42
0.07333214780387673
  0
VERTEX
  8
0
  6
CONTINUOUS
 62
     7
 10
79.83635186939452
 20
-281.195826596602
 42
0.07333214780387673
  0
VERTEX
  8
0
  6
CONTINUOUS
 62
     7
 10
79.97701787666117
 20
-281.3910445566393
 42
0.07333214780387673
  0
VERTEX
  8
0
  6
CONTINUOUS
 62
     7
 10
80.15025032992344
 20
-281.5186127826715
 42
0.07333214780387673
  0
VERTEX
  8
0
  6
CONTINUOUS
 62
     7
 10
80.34130304562453
 20
-281.5676721981132
 42
-1
  0
SEQEND
  8
0
  0
POLYLINE
  8
0
  6
CONTINUOUS
 62
     7
 66
     1
 10
0
 20
0
  0
VERTEX
  8
0
  6
CONTINUOUS
 62
     7
 10
81.75068733147907
 20
-280.596321781022
 42
0.07332668712448476
  0
VERTEX
  8
0
  6
CONTINUOUS
 62
     7
 10
81.69148866617665
 20
-280.0944547713759
 42
0.07332668712448476
  0
VERTEX
  8
0
  6
CONTINUOUS
 62
     7
 10
81.51893106598928
 20
-279.635302220405
 42
0.07332668712448476
  0
VERTEX
  8
0
  6
CONTINUOUS
 62
     7
 10
81.24770110438315
 20
-279.2579431235561
 42
0.07332668712448476
  0
VERTEX
  8
0
  6
CONTINUOUS
 62
     7
 10
80.90088347164738
 20
-278.9944949424361
 42
0.07332668712448476
  0
VERTEX
  8
0
  6
CONTINUOUS
 62
     7
 10
80.50799621066743
 20
-278.8673800511529
 42
0.07332668712448476
  0
VERTEX
  8
0
  6
CONTINUOUS
 62
     7
 10
80.10247840274742
 20
-278.8874173425716
 42
0.07332668712448476
  0
VERTEX
  8
0
  6
CONTINUOUS
 62
     7
 10
79.71884412939637
 20
-279.0529014200468
 42
0.07332668712448476
  0
VERTEX
  8
0
  6
CONTINUOUS
 62
     7
 10
79.38974493962516
 20
-279.3497477456695
 42
0.07332668712448476
  0
VERTEX
  8
0
  6
CONTINUOUS
 62
     7
 10
79.14319083950126
 20
-279.7526913912957
 42
0.07332668712448476
  0
VERTEX
  8
0
  6
CONTINUOUS
 62
     7
 10
79.00016632869857
 20
-280.227437365295
 42
0.07332668712448476
  0
VERTEX
  8
0
  6
CONTINUOUS
 62
     7
 10
78.97284438588095
 20
-280.7335794982644
 42
0.07332668712448476
  0
VERTEX
  8
0
  6
CONTINUOUS
 62
     7
 10
79.06355041265339
 20
-281.228039458029
 42
0.07332668712448476
  0
VERTEX
  8
0
  6
CONTINUOUS
 62
     7
 10
79.26456431598858
 20
-281.6687331954522
 42
0.07332668712448476
  0
VERTEX
  8
0
  6
CONTINUOUS
 62
     7
 10
79.5587775741184
 20
-282.0181527656869
 42
0.07332668712448476
  0
VERTEX
  8
0
  6
CONTINUOUS
 62
     7
 10
79.92114936226574
 20
-282.2465586719902
 42
0.07332668712448476
  0
VERTEX
  8
0
  6
CONTINUOUS
 62
     7
 10
80.32083780570055
 20
-282.3345110280899
 42
-1
  0
SEQEND
  8
0
  0
POLYLINE
  8
0
  6
CONTINUOUS
 62
     7
 66
     1
 10
0
 20
0
  0
VERTEX
  8
0
  6
CONTINUOUS
 62
     7
 10
81.70901229674577
 20
-280.9453448874204
 42
0.07459289906077718
  0
VERTEX
  8
0
  6
CONTINUOUS
 62
     7
 10
81.72514828079854
 20
-281.2784228604965
 42
0.07459289906077718
  0
VERTEX
  8
0
  6
CONTINUOUS
 62
     7
 10
81.80987864279273
 20
-281.5901608099667
 42
0.07459289906077718
  0
VERTEX
  8
0
  6
CONTINUOUS
 62
     7
 10
81.95574345711975
 20
-281.8531123534753
 42
0.07459289906077718
  0
VERTEX
  8
0
  6
CONTINUOUS
 62
     7
 10
82.14990033011837
 20
-282.0441264161648
 42
0.07459289906077718
  0
VERTEX
  8
0
  6
CONTINUOUS
 62
     7
 10
82.3752550845081
 20
-282.1463855235867
 42
0.07459289906077718
  0
VERTEX
  8
0
  6
CONTINUOUS
 62
     7
 10
82.61196678412716
 20
-282.1508864646578
 42
0.07459289906077718
  0
VERTEX
  8
0
  6
CONTINUOUS
 62
     7
 10
82.83919459189806
 20
-282.0572329624739
 42
0.07459289906077718
  0
VERTEX
  8
0
  6
CONTINUOUS
 62
     7
 10
83.03693266219143
 20
-281.873670563765
 42
0.07459289906077718
  0
VERTEX
  8
0
  6
CONTINUOUS
 62
     7
 10
83.18777151793606
 20
-281.6163606752178
 42
0.07459289906077718
  0
VERTEX
  8
0
  6
CONTINUOUS
 62
     7
 10
83.27843083533467
 20
-281.3079576627732
 42
0.07459289906077718
  0
VERTEX
  8
0
  6
CONTINUOUS
 62
     7
 10
83.30092868503398
 20
-280.9756142905189
 42
0.07459289906077718
  0
VERTEX
  8
0
  6
CONTINUOUS
 62
     7
 10
83.25328428610537
 20
-280.6485911065652
 42
0.07459289906077718
  0
VERTEX
  8
0
  6
CONTINUOUS
 62
     7
 10
83.13969240018223
 20
-280.355680253034
 42
0.07459289906077718
  0
VERTEX
  8
0
  6
CONTINUOUS
 62
     7
 10
82.97015401154906
 20
-280.1226705159739
 42
0.07459289906077718
  0
VERTEX
  8
0
  6
CONTINUOUS
 62
     7
 10
82.75959580926086
 20
-279.9700768001209
 42
0.07459289906077718
  0
VERTEX
  8
0
  6
CONTINUOUS
 62
     7
 10
82.52655599483572
 20
-279.9113339326349
 42
-1
  0
SEQEND
  8
0
  0
POLYLINE
  8
0
  6
CONTINUOUS
 62
     7
 66
     1
 10
0
 20
0
  0
VERTEX
  8
0
  6
CONTINUOUS
 62
     7
 10
80.981715434168
 20
-280.9533397485969
 42
0.07398282385211347
  0
VERTEX
  8
0
  6
CONTINUOUS
 62
     7
 10
81.0289359790889
 20
-281.5221113791229
 42
0.07398282385211347
  0
VERTEX
  8
0
  6
CONTINUOUS
 62
     7
 10
81.2030881762645
 20
-282.0486004978573
 42
0.07398282385211347
  0
VERTEX
  8
0
  6
CONTINUOUS
 62
     7
 10
81.48908618467202
 20
-282.4872002662172
 42
0.07398282385211347
  0
VERTEX
  8
0
  6
CONTINUOUS
 62
     7
 10
81.86215557965514
 20
-282.7999172136325
 42
0.07398282385211347
  0
VERTEX
  8
0
  6
CONTINUOUS
 62
     7
 10
82.28997942422163
 20
-282.9596624016324
 42
0.07398282385211347
  0
VERTEX
  8
0
  6
CONTINUOUS
 62
     7
 10
82.73549770644198
 20
-282.9525979886658
 42
0.07398282385211347
  0
VERTEX
  8
0
  6
CONTINUOUS
 62
     7
 10
83.16011764317985
 20
-282.779335925731
 42
0.07398282385211347
  0
VERTEX
  8
0
  6
CONTINUOUS
 62
     7
 10
83.52705675930939
 20
-282.4548849464478
 42
0.07398282385211347
  0
VERTEX
  8
0
  6
CONTINUOUS
 62
     7
 10
83.80452914996839
 20
-282.0073504435275
 42
0.07398282385211347
  0
VERTEX
  8
0
  6
CONTINUOUS
 62
     7
 10
83.96849891758234
 20
-281.4754998541471
 42
0.07398282385211347
  0
VERTEX
  8
0
  6
CONTINUOUS
 62
     7
 10
84.00476226864829
 20
-280.9054044514194
 42
0.07398282385211347
  0
VERTEX
  8
0
  6
CONTINUOUS
 62
     7
 10
83.91017790975737
 20
-280.3464484449774
 42
0.07398282385211347
  0
VERTEX
  8
0
  6
CONTINUOUS
 62
     7
 10
83.69293916045768
 20
-279.8470511002031
 42
0.07398282385211347
  0
VERTEX
  8
0
  6
CONTINUOUS
 62
     7
 10
83.37186421132662
 20
-279.4504724452364
 42
0.07398282385211347
  0
VERTEX
  8
0
  6
CONTINUOUS
 62
     7
 10
82.97476600826748
 20
-279.1910658941537
 42
0.07398282385211347
  0
VERTEX
  8
0
  6
CONTINUOUS
 62
     7
 10
82.53604297093234
 20
-279.0913024008294
 42
-1
  0
SEQEND
  8
0
  0
LINE
  8
0
  6
CONTINUOUS
 62
     7
 10
82.07784183922831
 20
-299.8769615431942
 11
82.22068013398729
 21
-299.0668855113917
  0
LINE
  8
0
  6
CONTINUOUS
 62
     7
 10
80.52833293194735
 20
-296.5851367488046
 11
80.66154652826322
 21
-295.8296450813369
  0
POLYLINE
  8
0
  6
CONTINUOUS
 62
     7
 66
     1
 10
0
 20
0
  0
VERTEX
  8
0
  6
CONTINUOUS
 62
     7
 10
81.02445506635276
 20
-297.5420919458048
 42
0.07333214780387673
  0
VERTEX
  8
0
  6
CONTINUOUS
 62
     7
 10
80.99615743636225
 20
-297.2616166350916
 42
0.07333214780387673
  0
VERTEX
  8
0
  6
CONTINUOUS
 62
     7
 10
80.91367334473196
 20
-297.005016414392
 42
0.07333214780387673
  0
VERTEX
  8
0
  6
CONTINUOUS
 62
     7
 10
80.78402414071132
 20
-296.794134038247
 42
0.07333214780387673
  0
VERTEX
  8
0
  6
CONTINUOUS
 62
     7
 10
80.61824604138596
 20
-296.6469205901227
 42
0.07333214780387673
  0
VERTEX
  8
0
  6
CONTINUOUS
 62
     7
 10
80.43045068828901
 20
-296.5759074201624
 42
0.07333214780387673
  0
VERTEX
  8
0
  6
CONTINUOUS
 62
     7
 10
80.23662391257236
 20
-296.5871394305742
 42
0.07333214780387673
  0
VERTEX
  8
0
  6
CONTINUOUS
 62
     7
 10
80.05326496226435
 20
-296.6796605113212
 42
0.07333214780387673
  0
VERTEX
  8
0
  6
CONTINUOUS
 62
     7
 10
79.89598202559473
 20
-296.8455949277251
 42
0.07333214780387673
  0
VERTEX
  8
0
  6
CONTINUOUS
 62
     7
 10
79.77816360460685
 20
-297.0708177319683
 42
0.07333214780387673
  0
VERTEX
  8
0
  6
CONTINUOUS
 62
     7
 10
79.70983883662191
 20
-297.3361571306019
 42
0.07333214780387673
  0
VERTEX
  8
0
  6
CONTINUOUS
 62
     7
 10
79.69682377718382
 20
-297.6190264581175
 42
0.07333214780387673
  0
VERTEX
  8
0
  6
CONTINUOUS
 62
     7
 10
79.7402263160203
 20
-297.8953468369859
 42
0.07333214780387673
  0
VERTEX
  8
0
  6
CONTINUOUS
 62
     7
 10
79.83635186939452
 20
-298.1415968602739
 42
0.07333214780387673
  0
VERTEX
  8
0
  6
CONTINUOUS
 62
     7
 10
79.97701787666117
 20
-298.3368148203112
 42
0.07333214780387673
  0
VERTEX
  8
0
  6
CONTINUOUS
 62
     7
 10
80.15025032992344
 20
-298.4643830463434
 42
0.07333214780387673
  0
VERTEX
  8
0
  6
CONTINUOUS
 62
     7
 10
80.34130304562453
 20
-298.5134424617851
 42
-1
  0
SEQEND
  8
0
  0
POLYLINE
  8
0
  6
CONTINUOUS
 62
     7
 66
     1
 10
0
 20
0
  0
VERTEX
  8
0
  6
CONTINUOUS
 62
     7
 10
81.75068733147907
 20
-297.5420920446939
 42
0.07332668712448476
  0
VERTEX
  8
0
  6
CONTINUOUS
 62
     7
 10
81.69148866617665
 20
-297.0402250350477
 42
0.07332668712448476
  0
VERTEX
  8
0
  6
CONTINUOUS
 62
     7
 10
81.51893106598928
 20
-296.5810724840769
 42
0.07332668712448476
  0
VERTEX
  8
0
  6
CONTINUOUS
 62
     7
 10
81.24770110438315
 20
-296.2037133872279
 42
0.07332668712448476
  0
VERTEX
  8
0
  6
CONTINUOUS
 62
     7
 10
80.90088347164738
 20
-295.940265206108
 42
0.07332668712448476
  0
VERTEX
  8
0
  6
CONTINUOUS
 62
     7
 10
80.50799621066743
 20
-295.8131503148248
 42
0.07332668712448476
  0
VERTEX
  8
0
  6
CONTINUOUS
 62
     7
 10
80.10247840274742
 20
-295.8331876062435
 42
0.07332668712448476
  0
VERTEX
  8
0
  6
CONTINUOUS
 62
     7
 10
79.71884412939637
 20
-295.9986716837187
 42
0.07332668712448476
  0
VERTEX
  8
0
  6
CONTINUOUS
 62
     7
 10
79.38974493962516
 20
-296.2955180093413
 42
0.07332668712448476
  0
VERTEX
  8
0
  6
CONTINUOUS
 62
     7
 10
79.14319083950126
 20
-296.6984616549676
 42
0.07332668712448476
  0
VERTEX
  8
0
  6
CONTINUOUS
 62
     7
 10
79.00016632869857
 20
-297.1732076289669
 42
0.07332668712448476
  0
VERTEX
  8
0
  6
CONTINUOUS
 62
     7
 10
78.97284438588095
 20
-297.6793497619363
 42
0.07332668712448476
  0
VERTEX
  8
0
  6
CONTINUOUS
 62
     7
 10
79.06355041265339
 20
-298.1738097217008
 42
0.07332668712448476
  0
VERTEX
  8
0
  6
CONTINUOUS
 62
     7
 10
79.26456431598858
 20
-298.614503459124
 42
0.07332668712448476
  0
VERTEX
  8
0
  6
CONTINUOUS
 62
     7
 10
79.5587775741184
 20
-298.9639230293588
 42
0.07332668712448476
  0
VERTEX
  8
0
  6
CONTINUOUS
 62
     7
 10
79.92114936226574
 20
-299.1923289356621
 42
0.07332668712448476
  0
VERTEX
  8
0
  6
CONTINUOUS
 62
     7
 10
80.32083780570055
 20
-299.2802812917618
 42
-1
  0
SEQEND
  8
0
  0
POLYLINE
  8
0
  6
CONTINUOUS
 62
     7
 66
     1
 10
0
 20
0
  0
VERTEX
  8
0
  6
CONTINUOUS
 62
     7
 10
81.70901229674577
 20
-297.8911151510923
 42
0.07459289906077718
  0
VERTEX
  8
0
  6
CONTINUOUS
 62
     7
 10
81.72514828079854
 20
-298.2241931241684
 42
0.07459289906077718
  0
VERTEX
  8
0
  6
CONTINUOUS
 62
     7
 10
81.80987864279273
 20
-298.5359310736386
 42
0.07459289906077718
  0
VERTEX
  8
0
  6
CONTINUOUS
 62
     7
 10
81.95574345711975
 20
-298.7988826171472
 42
0.07459289906077718
  0
VERTEX
  8
0
  6
CONTINUOUS
 62
     7
 10
82.14990033011837
 20
-298.9898966798367
 42
0.07459289906077718
  0
VERTEX
  8
0
  6
CONTINUOUS
 62
     7
 10
82.3752550845081
 20
-299.0921557872586
 42
0.07459289906077718
  0
VERTEX
  8
0
  6
CONTINUOUS
 62
     7
 10
82.61196678412716
 20
-299.0966567283297
 42
0.07459289906077718
  0
VERTEX
  8
0
  6
CONTINUOUS
 62
     7
 10
82.83919459189806
 20
-299.0030032261458
 42
0.07459289906077718
  0
VERTEX
  8
0
  6
CONTINUOUS
 62
     7
 10
83.03693266219143
 20
-298.8194408274369
 42
0.07459289906077718
  0
VERTEX
  8
0
  6
CONTINUOUS
 62
     7
 10
83.18777151793606
 20
-298.5621309388897
 42
0.07459289906077718
  0
VERTEX
  8
0
  6
CONTINUOUS
 62
     7
 10
83.27843083533467
 20
-298.253727926445
 42
0.07459289906077718
  0
VERTEX
  8
0
  6
CONTINUOUS
 62
     7
 10
83.30092868503398
 20
-297.9213845541908
 42
0.07459289906077718
  0
VERTEX
  8
0
  6
CONTINUOUS
 62
     7
 10
83.25328428610537
 20
-297.594361370237
 42
0.07459289906077718
  0
VERTEX
  8
0
  6
CONTINUOUS
 62
     7
 10
83.13969240018223
 20
-297.3014505167059
 42
0.07459289906077718
  0
VERTEX
  8
0
  6
CONTINUOUS
 62
     7
 10
82.97015401154906
 20
-297.0684407796458
 42
0.07459289906077718
  0
VERTEX
  8
0
  6
CONTINUOUS
 62
     7
 10
82.75959580926086
 20
-296.9158470637927
 42
0.07459289906077718
  0
VERTEX
  8
0
  6
CONTINUOUS
 62
     7
 10
82.52655599483572
 20
-296.8571041963068
 42
-1
  0
SEQEND
  8
0
  0
POLYLINE
  8
0
  6
CONTINUOUS
 62
     7
 66
     1
 10
0
 20
0
  0
VERTEX
  8
0
  6
CONTINUOUS
 62
     7
 10
80.981715434168
 20
-297.8991100122688
 42
0.07398282385211347
  0
VERTEX
  8
0
  6
CONTINUOUS
 62
     7
 10
81.0289359790889
 20
-298.4678816427948
 42
0.07398282385211347
  0
VERTEX
  8
0
  6
CONTINUOUS
 62
     7
 10
81.2030881762645
 20
-298.9943707615292
 42
0.07398282385211347
  0
VERTEX
  8
0
  6
CONTINUOUS
 62
     7
 10
81.48908618467202
 20
-299.4329705298891
 42
0.07398282385211347
  0
VERTEX
  8
0
  6
CONTINUOUS
 62
     7
 10
81.86215557965514
 20
-299.7456874773044
 42
0.07398282385211347
  0
VERTEX
  8
0
  6
CONTINUOUS
 62
     7
 10
82.28997942422163
 20
-299.9054326653043
 42
0.07398282385211347
  0
VERTEX
  8
0
  6
CONTINUOUS
 62
     7
 10
82.73549770644198
 20
-299.8983682523377
 42
0.07398282385211347
  0
VERTEX
  8
0
  6
CONTINUOUS
 62
     7
 10
83.16011764317985
 20
-299.7251061894029
 42
0.07398282385211347
  0
VERTEX
  8
0
  6
CONTINUOUS
 62
     7
 10
83.52705675930939
 20
-299.4006552101197
 42
0.07398282385211347
  0
VERTEX
  8
0
  6
CONTINUOUS
 62
     7
 10
83.80452914996839
 20
-298.9531207071993
 42
0.07398282385211347
  0
VERTEX
  8
0
  6
CONTINUOUS
 62
     7
 10
83.96849891758234
 20
-298.421270117819
 42
0.07398282385211347
  0
VERTEX
  8
0
  6
CONTINUOUS
 62
     7
 10
84.00476226864829
 20
-297.8511747150913
 42
0.07398282385211347
  0
VERTEX
  8
0
  6
CONTINUOUS
 62
     7
 10
83.91017790975737
 20
-297.2922187086493
 42
0.07398282385211347
  0
VERTEX
  8
0
  6
CONTINUOUS
 62
     7
 10
83.69293916045768
 20
-296.792821363875
 42
0.07398282385211347
  0
VERTEX
  8
0
  6
CONTINUOUS
 62
     7
 10
83.37186421132662
 20
-296.3962427089083
 42
0.07398282385211347
  0
VERTEX
  8
0
  6
CONTINUOUS
 62
     7
 10
82.97476600826748
 20
-296.1368361578255
 42
0.07398282385211347
  0
VERTEX
  8
0
  6
CONTINUOUS
 62
     7
 10
82.53604297093234
 20
-296.0370726645013
 42
-1
  0
SEQEND
  8
0
  0
LINE
  8
0
  6
CONTINUOUS
 62
     7
 10
-105.8166283756154
 20
-277.2585228224911
 11
-105.6737900808565
 21
-276.4484467906885
  0
LINE
  8
0
  6
CONTINUOUS
 62
     7
 10
-107.3661372828964
 20
-273.9666980281015
 11
-107.2329236865805
 21
-273.2112063606338
  0
POLYLINE
  8
0
  6
CONTINUOUS
 62
     7
 66
     1
 10
0
 20
0
  0
VERTEX
  8
0
  6
CONTINUOUS
 62
     7
 10
-106.870015148491
 20
-274.9236532251017
 42
0.07333214780387673
  0
VERTEX
  8
0
  6
CONTINUOUS
 62
     7
 10
-106.8983127784815
 20
-274.6431779143885
 42
0.07333214780387673
  0
VERTEX
  8
0
  6
CONTINUOUS
 62
     7
 10
-106.9807968701118
 20
-274.3865776936888
 42
0.07333214780387673
  0
VERTEX
  8
0
  6
CONTINUOUS
 62
     7
 10
-107.1104460741324
 20
-274.1756953175439
 42
0.07333214780387673
  0
VERTEX
  8
0
  6
CONTINUOUS
 62
     7
 10
-107.2762241734578
 20
-274.0284818694195
 42
0.07333214780387673
  0
VERTEX
  8
0
  6
CONTINUOUS
 62
     7
 10
-107.4640195265547
 20
-273.9574686994593
 42
0.07333214780387673
  0
VERTEX
  8
0
  6
CONTINUOUS
 62
     7
 10
-107.6578463022714
 20
-273.968700709871
 42
0.07333214780387673
  0
VERTEX
  8
0
  6
CONTINUOUS
 62
     7
 10
-107.8412052525794
 20
-274.0612217906181
 42
0.07333214780387673
  0
VERTEX
  8
0
  6
CONTINUOUS
 62
     7
 10
-107.998488189249
 20
-274.227156207022
 42
0.07333214780387673
  0
VERTEX
  8
0
  6
CONTINUOUS
 62
     7
 10
-108.1163066102369
 20
-274.4523790112651
 42
0.07333214780387673
  0
VERTEX
  8
0
  6
CONTINUOUS
 62
     7
 10
-108.1846313782218
 20
-274.7177184098988
 42
0.07333214780387673
  0
VERTEX
  8
0
  6
CONTINUOUS
 62
     7
 10
-108.1976464376599
 20
-275.0005877374143
 42
0.07333214780387673
  0
VERTEX
  8
0
  6
CONTINUOUS
 62
     7
 10
-108.1542438988235
 20
-275.2769081162828
 42
0.07333214780387673
  0
VERTEX
  8
0
  6
CONTINUOUS
 62
     7
 10
-108.0581183454492
 20
-275.5231581395707
 42
0.07333214780387673
  0
VERTEX
  8
0
  6
CONTINUOUS
 62
     7
 10
-107.9174523381826
 20
-275.7183760996081
 42
0.07333214780387673
  0
VERTEX
  8
0
  6
CONTINUOUS
 62
     7
 10
-107.7442198849203
 20
-275.8459443256403
 42
0.07333214780387673
  0
VERTEX
  8
0
  6
CONTINUOUS
 62
     7
 10
-107.5531671692192
 20
-275.895003741082
 42
-1
  0
SEQEND
  8
0
  0
POLYLINE
  8
0
  6
CONTINUOUS
 62
     7
 66
     1
 10
0
 20
0
  0
VERTEX
  8
0
  6
CONTINUOUS
 62
     7
 10
-106.1437828833647
 20
-274.9236533239908
 42
0.07332668712448476
  0
VERTEX
  8
0
  6
CONTINUOUS
 62
     7
 10
-106.2029815486671
 20
-274.4217863143446
 42
0.07332668712448476
  0
VERTEX
  8
0
  6
CONTINUOUS
 62
     7
 10
-106.3755391488545
 20
-273.9626337633737
 42
0.07332668712448476
  0
VERTEX
  8
0
  6
CONTINUOUS
 62
     7
 10
-106.6467691104606
 20
-273.5852746665248
 42
0.07332668712448476
  0
VERTEX
  8
0
  6
CONTINUOUS
 62
     7
 10
-106.9935867431964
 20
-273.3218264854049
 42
0.07332668712448476
  0
VERTEX
  8
0
  6
CONTINUOUS
 62
     7
 10
-107.3864740041763
 20
-273.1947115941217
 42
0.07332668712448476
  0
VERTEX
  8
0
  6
CONTINUOUS
 62
     7
 10
-107.7919918120963
 20
-273.2147488855404
 42
0.07332668712448476
  0
VERTEX
  8
0
  6
CONTINUOUS
 62
     7
 10
-108.1756260854474
 20
-273.3802329630155
 42
0.07332668712448476
  0
VERTEX
  8
0
  6
CONTINUOUS
 62
     7
 10
-108.5047252752186
 20
-273.6770792886382
 42
0.07332668712448476
  0
VERTEX
  8
0
  6
CONTINUOUS
 62
     7
 10
-108.7512793753425
 20
-274.0800229342645
 42
0.07332668712448476
  0
VERTEX
  8
0
  6
CONTINUOUS
 62
     7
 10
-108.8943038861452
 20
-274.5547689082638
 42
0.07332668712448476
  0
VERTEX
  8
0
  6
CONTINUOUS
 62
     7
 10
-108.9216258289628
 20
-275.0609110412332
 42
0.07332668712448476
  0
VERTEX
  8
0
  6
CONTINUOUS
 62
     7
 10
-108.8309198021904
 20
-275.5553710009977
 42
0.07332668712448476
  0
VERTEX
  8
0
  6
CONTINUOUS
 62
     7
 10
-108.6299058988552
 20
-275.9960647384209
 42
0.07332668712448476
  0
VERTEX
  8
0
  6
CONTINUOUS
 62
     7
 10
-108.3356926407254
 20
-276.3454843086557
 42
0.07332668712448476
  0
VERTEX
  8
0
  6
CONTINUOUS
 62
     7
 10
-107.973320852578
 20
-276.573890214959
 42
0.07332668712448476
  0
VERTEX
  8
0
  6
CONTINUOUS
 62
     7
 10
-107.5736324091432
 20
-276.6618425710586
 42
-1
  0
SEQEND
  8
0
  0
POLYLINE
  8
0
  6
CONTINUOUS
 62
     7
 66
     1
 10
0
 20
0
  0
VERTEX
  8
0
  6
CONTINUOUS
 62
     7
 10
-106.185457918098
 20
-275.2726764303891
 42
0.07459289906077718
  0
VERTEX
  8
0
  6
CONTINUOUS
 62
     7
 10
-106.1693219340452
 20
-275.6057544034653
 42
0.07459289906077718
  0
VERTEX
  8
0
  6
CONTINUOUS
 62
     7
 10
-106.084591572051
 20
-275.9174923529354
 42
0.07459289906077718
  0
VERTEX
  8
0
  6
CONTINUOUS
 62
     7
 10
-105.938726757724
 20
-276.1804438964441
 42
0.07459289906077718
  0
VERTEX
  8
0
  6
CONTINUOUS
 62
     7
 10
-105.7445698847254
 20
-276.3714579591336
 42
0.07459289906077718
  0
VERTEX
  8
0
  6
CONTINUOUS
 62
     7
 10
-105.5192151303357
 20
-276.4737170665554
 42
0.07459289906077718
  0
VERTEX
  8
0
  6
CONTINUOUS
 62
     7
 10
-105.2825034307166
 20
-276.4782180076266
 42
0.07459289906077718
  0
VERTEX
  8
0
  6
CONTINUOUS
 62
     7
 10
-105.0552756229457
 20
-276.3845645054427
 42
0.07459289906077718
  0
VERTEX
  8
0
  6
CONTINUOUS
 62
     7
 10
-104.8575375526523
 20
-276.2010021067338
 42
0.07459289906077718
  0
VERTEX
  8
0
  6
CONTINUOUS
 62
     7
 10
-104.7066986969077
 20
-275.9436922181865
 42
0.07459289906077718
  0
VERTEX
  8
0
  6
CONTINUOUS
 62
     7
 10
-104.6160393795091
 20
-275.6352892057419
 42
0.07459289906077718
  0
VERTEX
  8
0
  6
CONTINUOUS
 62
     7
 10
-104.5935415298098
 20
-275.3029458334876
 42
0.07459289906077718
  0
VERTEX
  8
0
  6
CONTINUOUS
 62
     7
 10
-104.6411859287384
 20
-274.9759226495339
 42
0.07459289906077718
  0
VERTEX
  8
0
  6
CONTINUOUS
 62
     7
 10
-104.7547778146615
 20
-274.6830117960028
 42
0.07459289906077718
  0
VERTEX
  8
0
  6
CONTINUOUS
 62
     7
 10
-104.9243162032947
 20
-274.4500020589427
 42
0.07459289906077718
  0
VERTEX
  8
0
  6
CONTINUOUS
 62
     7
 10
-105.1348744055829
 20
-274.2974083430896
 42
0.07459289906077718
  0
VERTEX
  8
0
  6
CONTINUOUS
 62
     7
 10
-105.367914220008
 20
-274.2386654756036
 42
-1
  0
SEQEND
  8
0
  0
POLYLINE
  8
0
  6
CONTINUOUS
 62
     7
 66
     1
 10
0
 20
0
  0
VERTEX
  8
0
  6
CONTINUOUS
 62
     7
 10
-106.9127547806758
 20
-275.2806712915656
 42
0.07398282385211347
  0
VERTEX
  8
0
  6
CONTINUOUS
 62
     7
 10
-106.8655342357549
 20
-275.8494429220917
 42
0.07398282385211347
  0
VERTEX
  8
0
  6
CONTINUOUS
 62
     7
 10
-106.6913820385793
 20
-276.3759320408261
 42
0.07398282385211347
  0
VERTEX
  8
0
  6
CONTINUOUS
 62
     7
 10
-106.4053840301717
 20
-276.814531809186
 42
0.07398282385211347
  0
VERTEX
  8
0
  6
CONTINUOUS
 62
     7
 10
-106.0323146351886
 20
-277.1272487566013
 42
0.07398282385211347
  0
VERTEX
  8
0
  6
CONTINUOUS
 62
     7
 10
-105.6044907906221
 20
-277.2869939446012
 42
0.07398282385211347
  0
VERTEX
  8
0
  6
CONTINUOUS
 62
     7
 10
-105.1589725084018
 20
-277.2799295316346
 42
0.07398282385211347
  0
VERTEX
  8
0
  6
CONTINUOUS
 62
     7
 10
-104.7343525716639
 20
-277.1066674686998
 42
0.07398282385211347
  0
VERTEX
  8
0
  6
CONTINUOUS
 62
     7
 10
-104.3674134555344
 20
-276.7822164894166
 42
0.07398282385211347
  0
VERTEX
  8
0
  6
CONTINUOUS
 62
     7
 10
-104.0899410648754
 20
-276.3346819864962
 42
0.07398282385211347
  0
VERTEX
  8
0
  6
CONTINUOUS
 62
     7
 10
-103.9259712972614
 20
-275.8028313971158
 42
0.07398282385211347
  0
VERTEX
  8
0
  6
CONTINUOUS
 62
     7
 10
-103.8897079461955
 20
-275.2327359943881
 42
0.07398282385211347
  0
VERTEX
  8
0
  6
CONTINUOUS
 62
     7
 10
-103.9842923050864
 20
-274.6737799879462
 42
0.07398282385211347
  0
VERTEX
  8
0
  6
CONTINUOUS
 62
     7
 10
-104.2015310543861
 20
-274.1743826431718
 42
0.07398282385211347
  0
VERTEX
  8
0
  6
CONTINUOUS
 62
     7
 10
-104.5226060035171
 20
-273.7778039882052
 42
0.07398282385211347
  0
VERTEX
  8
0
  6
CONTINUOUS
 62
     7
 10
-104.9197042065763
 20
-273.5183974371224
 42
0.07398282385211347
  0
VERTEX
  8
0
  6
CONTINUOUS
 62
     7
 10
-105.3584272439114
 20
-273.4186339437982
 42
-1
  0
SEQEND
  8
0
  0
LINE
  8
0
  6
CONTINUOUS
 62
     7
 10
-105.8166283756154
 20
-294.204293086163
 11
-105.6737900808565
 21
-293.3942170543604
  0
LINE
  8
0
  6
CONTINUOUS
 62
     7
 10
-107.3661372828964
 20
-290.9124682917734
 11
-107.2329236865805
 21
-290.1569766243056
  0
POLYLINE
  8
0
  6
CONTINUOUS
 62
     7
 66
     1
 10
0
 20
0
  0
VERTEX
  8
0
  6
CONTINUOUS
 62
     7
 10
-106.870015148491
 20
-291.8694234887735
 42
0.07333214780387673
  0
VERTEX
  8
0
  6
CONTINUOUS
 62
     7
 10
-106.8983127784815
 20
-291.5889481780603
 42
0.07333214780387673
  0
VERTEX
  8
0
  6
CONTINUOUS
 62
     7
 10
-106.9807968701118
 20
-291.3323479573607
 42
0.07333214780387673
  0
VERTEX
  8
0
  6
CONTINUOUS
 62
     7
 10
-107.1104460741324
 20
-291.1214655812158
 42
0.07333214780387673
  0
VERTEX
  8
0
  6
CONTINUOUS
 62
     7
 10
-107.2762241734578
 20
-290.9742521330914
 42
0.07333214780387673
  0
VERTEX
  8
0
  6
CONTINUOUS
 62
     7
 10
-107.4640195265547
 20
-290.9032389631312
 42
0.07333214780387673
  0
VERTEX
  8
0
  6
CONTINUOUS
 62
     7
 10
-107.6578463022714
 20
-290.9144709735429
 42
0.07333214780387673
  0
VERTEX
  8
0
  6
CONTINUOUS
 62
     7
 10
-107.8412052525794
 20
-291.0069920542899
 42
0.07333214780387673
  0
VERTEX
  8
0
  6
CONTINUOUS
 62
     7
 10
-107.998488189249
 20
-291.1729264706939
 42
0.07333214780387673
  0
VERTEX
  8
0
  6
CONTINUOUS
 62
     7
 10
-108.1163066102369
 20
-291.398149274937
 42
0.07333214780387673
  0
VERTEX
  8
0
  6
CONTINUOUS
 62
     7
 10
-108.1846313782218
 20
-291.6634886735707
 42
0.07333214780387673
  0
VERTEX
  8
0
  6
CONTINUOUS
 62
     7
 10
-108.1976464376599
 20
-291.9463580010862
 42
0.07333214780387673
  0
VERTEX
  8
0
  6
CONTINUOUS
 62
     7
 10
-108.1542438988235
 20
-292.2226783799547
 42
0.07333214780387673
  0
VERTEX
  8
0
  6
CONTINUOUS
 62
     7
 10
-108.0581183454492
 20
-292.4689284032426
 42
0.07333214780387673
  0
VERTEX
  8
0
  6
CONTINUOUS
 62
     7
 10
-107.9174523381826
 20
-292.6641463632799
 42
0.07333214780387673
  0
VERTEX
  8
0
  6
CONTINUOUS
 62
     7
 10
-107.7442198849203
 20
-292.7917145893122
 42
0.07333214780387673
  0
VERTEX
  8
0
  6
CONTINUOUS
 62
     7
 10
-107.5531671692192
 20
-292.8407740047538
 42
-1
  0
SEQEND
  8
0
  0
POLYLINE
  8
0
  6
CONTINUOUS
 62
     7
 66
     1
 10
0
 20
0
  0
VERTEX
  8
0
  6
CONTINUOUS
 62
     7
 10
-106.1437828833647
 20
-291.8694235876627
 42
0.07332668712448476
  0
VERTEX
  8
0
  6
CONTINUOUS
 62
     7
 10
-106.2029815486671
 20
-291.3675565780165
 42
0.07332668712448476
  0
VERTEX
  8
0
  6
CONTINUOUS
 62
     7
 10
-106.3755391488545
 20
-290.9084040270456
 42
0.07332668712448476
  0
VERTEX
  8
0
  6
CONTINUOUS
 62
     7
 10
-106.6467691104606
 20
-290.5310449301967
 42
0.07332668712448476
  0
VERTEX
  8
0
  6
CONTINUOUS
 62
     7
 10
-106.9935867431964
 20
-290.2675967490767
 42
0.07332668712448476
  0
VERTEX
  8
0
  6
CONTINUOUS
 62
     7
 10
-107.3864740041763
 20
-290.1404818577935
 42
0.07332668712448476
  0
VERTEX
  8
0
  6
CONTINUOUS
 62
     7
 10
-107.7919918120963
 20
-290.1605191492122
 42
0.07332668712448476
  0
VERTEX
  8
0
  6
CONTINUOUS
 62
     7
 10
-108.1756260854474
 20
-290.3260032266874
 42
0.07332668712448476
  0
VERTEX
  8
0
  6
CONTINUOUS
 62
     7
 10
-108.5047252752186
 20
-290.6228495523101
 42
0.07332668712448476
  0
VERTEX
  8
0
  6
CONTINUOUS
 62
     7
 10
-108.7512793753425
 20
-291.0257931979364
 42
0.07332668712448476
  0
VERTEX
  8
0
  6
CONTINUOUS
 62
     7
 10
-108.8943038861452
 20
-291.5005391719357
 42
0.07332668712448476
  0
VERTEX
  8
0
  6
CONTINUOUS
 62
     7
 10
-108.9216258289628
 20
-292.006681304905
 42
0.07332668712448476
  0
VERTEX
  8
0
  6
CONTINUOUS
 62
     7
 10
-108.8309198021904
 20
-292.5011412646696
 42
0.07332668712448476
  0
VERTEX
  8
0
  6
CONTINUOUS
 62
     7
 10
-108.6299058988552
 20
-292.9418350020928
 42
0.07332668712448476
  0
VERTEX
  8
0
  6
CONTINUOUS
 62
     7
 10
-108.3356926407254
 20
-293.2912545723276
 42
0.07332668712448476
  0
VERTEX
  8
0
  6
CONTINUOUS
 62
     7
 10
-107.973320852578
 20
-293.5196604786308
 42
0.07332668712448476
  0
VERTEX
  8
0
  6
CONTINUOUS
 62
     7
 10
-107.5736324091432
 20
-293.6076128347305
 42
-1
  0
SEQEND
  8
0
  0
POLYLINE
  8
0
  6
CONTINUOUS
 62
     7
 66
     1
 10
0
 20
0
  0
VERTEX
  8
0
  6
CONTINUOUS
 62
     7
 10
-106.185457918098
 20
-292.218446694061
 42
0.07459289906077718
  0
VERTEX
  8
0
  6
CONTINUOUS
 62
     7
 10
-106.1693219340452
 20
-292.5515246671371
 42
0.07459289906077718
  0
VERTEX
  8
0
  6
CONTINUOUS
 62
     7
 10
-106.084591572051
 20
-292.8632626166073
 42
0.07459289906077718
  0
VERTEX
  8
0
  6
CONTINUOUS
 62
     7
 10
-105.938726757724
 20
-293.1262141601159
 42
0.07459289906077718
  0
VERTEX
  8
0
  6
CONTINUOUS
 62
     7
 10
-105.7445698847254
 20
-293.3172282228055
 42
0.07459289906077718
  0
VERTEX
  8
0
  6
CONTINUOUS
 62
     7
 10
-105.5192151303357
 20
-293.4194873302273
 42
0.07459289906077718
  0
VERTEX
  8
0
  6
CONTINUOUS
 62
     7
 10
-105.2825034307166
 20
-293.4239882712985
 42
0.07459289906077718
  0
VERTEX
  8
0
  6
CONTINUOUS
 62
     7
 10
-105.0552756229457
 20
-293.3303347691145
 42
0.07459289906077718
  0
VERTEX
  8
0
  6
CONTINUOUS
 62
     7
 10
-104.8575375526523
 20
-293.1467723704056
 42
0.07459289906077718
  0
VERTEX
  8
0
  6
CONTINUOUS
 62
     7
 10
-104.7066986969077
 20
-292.8894624818584
 42
0.07459289906077718
  0
VERTEX
  8
0
  6
CONTINUOUS
 62
     7
 10
-104.6160393795091
 20
-292.5810594694138
 42
0.07459289906077718
  0
VERTEX
  8
0
  6
CONTINUOUS
 62
     7
 10
-104.5935415298098
 20
-292.2487160971595
 42
0.07459289906077718
  0
VERTEX
  8
0
  6
CONTINUOUS
 62
     7
 10
-104.6411859287384
 20
-291.9216929132058
 42
0.07459289906077718
  0
VERTEX
  8
0
  6
CONTINUOUS
 62
     7
 10
-104.7547778146615
 20
-291.6287820596746
 42
0.07459289906077718
  0
VERTEX
  8
0
  6
CONTINUOUS
 62
     7
 10
-104.9243162032947
 20
-291.3957723226146
 42
0.07459289906077718
  0
VERTEX
  8
0
  6
CONTINUOUS
 62
     7
 10
-105.1348744055829
 20
-291.2431786067615
 42
0.07459289906077718
  0
VERTEX
  8
0
  6
CONTINUOUS
 62
     7
 10
-105.367914220008
 20
-291.1844357392755
 42
-1
  0
SEQEND
  8
0
  0
POLYLINE
  8
0
  6
CONTINUOUS
 62
     7
 66
     1
 10
0
 20
0
  0
VERTEX
  8
0
  6
CONTINUOUS
 62
     7
 10
-106.9127547806758
 20
-292.2264415552375
 42
0.07398282385211347
  0
VERTEX
  8
0
  6
CONTINUOUS
 62
     7
 10
-106.8655342357549
 20
-292.7952131857635
 42
0.07398282385211347
  0
VERTEX
  8
0
  6
CONTINUOUS
 62
     7
 10
-106.6913820385793
 20
-293.3217023044979
 42
0.07398282385211347
  0
VERTEX
  8
0
  6
CONTINUOUS
 62
     7
 10
-106.4053840301717
 20
-293.7603020728578
 42
0.07398282385211347
  0
VERTEX
  8
0
  6
CONTINUOUS
 62
     7
 10
-106.0323146351886
 20
-294.0730190202731
 42
0.07398282385211347
  0
VERTEX
  8
0
  6
CONTINUOUS
 62
     7
 10
-105.6044907906221
 20
-294.2327642082731
 42
0.07398282385211347
  0
VERTEX
  8
0
  6
CONTINUOUS
 62
     7
 10
-105.1589725084018
 20
-294.2256997953065
 42
0.07398282385211347
  0
VERTEX
  8
0
  6
CONTINUOUS
 62
     7
 10
-104.7343525716639
 20
-294.0524377323716
 42
0.07398282385211347
  0
VERTEX
  8
0
  6
CONTINUOUS
 62
     7
 10
-104.3674134555344
 20
-293.7279867530884
 42
0.07398282385211347
  0
VERTEX
  8
0
  6
CONTINUOUS
 62
     7
 10
-104.0899410648754
 20
-293.2804522501681
 42
0.07398282385211347
  0
VERTEX
  8
0
  6
CONTINUOUS
 62
     7
 10
-103.9259712972614
 20
-292.7486016607877
 42
0.07398282385211347
  0
VERTEX
  8
0
  6
CONTINUOUS
 62
     7
 10
-103.8897079461955
 20
-292.17850625806
 42
0.07398282385211347
  0
VERTEX
  8
0
  6
CONTINUOUS
 62
     7
 10
-103.9842923050864
 20
-291.619550251618
 42
0.07398282385211347
  0
VERTEX
  8
0
  6
CONTINUOUS
 62
     7
 10
-104.2015310543861
 20
-291.1201529068437
 42
0.07398282385211347
  0
VERTEX
  8
0
  6
CONTINUOUS
 62
     7
 10
-104.5226060035171
 20
-290.723574251877
 42
0.07398282385211347
  0
VERTEX
  8
0
  6
CONTINUOUS
 62
     7
 10
-104.9197042065763
 20
-290.4641677007943
 42
0.07398282385211347
  0
VERTEX
  8
0
  6
CONTINUOUS
 62
     7
 10
-105.3584272439114
 20
-290.3644042074701
 42
-1
  0
SEQEND
  8
0
  0
LINE
  8
0
  6
CONTINUOUS
 62
     7
 10
820.131835064326
 20
-14.33035547935144
 11
820.2746733590849
 21
-13.52027944754887
  0
LINE
  8
0
  6
CONTINUOUS
 62
     7
 10
818.582326157045
 20
-11.03853068496186
 11
818.7155397533609
 21
-10.28303901749409
  0
POLYLINE
  8
0
  6
CONTINUOUS
 62
     7
 66
     1
 10
0
 20
0
  0
VERTEX
  8
0
  6
CONTINUOUS
 62
     7
 10
819.0784482914505
 20
-11.995485881962
 42
0.07333214780387673
  0
VERTEX
  8
0
  6
CONTINUOUS
 62
     7
 10
819.05015066146
 20
-11.71501057124879
 42
0.07333214780387673
  0
VERTEX
  8
0
  6
CONTINUOUS
 62
     7
 10
818.9676665698297
 20
-11.4584103505492
 42
0.07333214780387673
  0
VERTEX
  8
0
  6
CONTINUOUS
 62
     7
 10
818.838017365809
 20
-11.24752797440423
 42
0.07333214780387673
  0
VERTEX
  8
0
  6
CONTINUOUS
 62
     7
 10
818.6722392664836
 20
-11.10031452627984
 42
0.07333214780387673
  0
VERTEX
  8
0
  6
CONTINUOUS
 62
     7
 10
818.4844439133867
 20
-11.02930135631964
 42
0.07333214780387673
  0
VERTEX
  8
0
  6
CONTINUOUS
 62
     7
 10
818.2906171376701
 20
-11.04053336673138
 42
0.07333214780387673
  0
VERTEX
  8
0
  6
CONTINUOUS
 62
     7
 10
818.1072581873621
 20
-11.13305444747838
 42
0.07333214780387673
  0
VERTEX
  8
0
  6
CONTINUOUS
 62
     7
 10
817.9499752506924
 20
-11.29898886388235
 42
0.07333214780387673
  0
VERTEX
  8
0
  6
CONTINUOUS
 62
     7
 10
817.8321568297046
 20
-11.52421166812547
 42
0.07333214780387673
  0
VERTEX
  8
0
  6
CONTINUOUS
 62
     7
 10
817.7638320617195
 20
-11.78955106675917
 42
0.07333214780387673
  0
VERTEX
  8
0
  6
CONTINUOUS
 62
     7
 10
817.7508170022815
 20
-12.07242039427467
 42
0.07333214780387673
  0
VERTEX
  8
0
  6
CONTINUOUS
 62
     7
 10
817.794219541118
 20
-12.34874077314315
 42
0.07333214780387673
  0
VERTEX
  8
0
  6
CONTINUOUS
 62
     7
 10
817.8903450944922
 20
-12.59499079643111
 42
0.07333214780387673
  0
VERTEX
  8
0
  6
CONTINUOUS
 62
     7
 10
818.0310111017589
 20
-12.79020875646842
 42
0.07333214780387673
  0
VERTEX
  8
0
  6
CONTINUOUS
 62
     7
 10
818.2042435550211
 20
-12.91777698250068
 42
0.07333214780387673
  0
VERTEX
  8
0
  6
CONTINUOUS
 62
     7
 10
818.3952962707222
 20
-12.96683639794233
 42
-1
  0
SEQEND
  8
0
  0
POLYLINE
  8
0
  6
CONTINUOUS
 62
     7
 66
     1
 10
0
 20
0
  0
VERTEX
  8
0
  6
CONTINUOUS
 62
     7
 10
819.8046805565767
 20
-11.99548598085114
 42
0.07332668712448476
  0
VERTEX
  8
0
  6
CONTINUOUS
 62
     7
 10
819.7454818912744
 20
-11.49361897120498
 42
0.07332668712448476
  0
VERTEX
  8
0
  6
CONTINUOUS
 62
     7
 10
819.572924291087
 20
-11.03446642023407
 42
0.07332668712448476
  0
VERTEX
  8
0
  6
CONTINUOUS
 62
     7
 10
819.3016943294808
 20
-10.65710732338517
 42
0.07332668712448476
  0
VERTEX
  8
0
  6
CONTINUOUS
 62
     7
 10
818.954876696745
 20
-10.39365914226521
 42
0.07332668712448476
  0
VERTEX
  8
0
  6
CONTINUOUS
 62
     7
 10
818.5619894357651
 20
-10.26654425098204
 42
0.07332668712448476
  0
VERTEX
  8
0
  6
CONTINUOUS
 62
     7
 10
818.1564716278451
 20
-10.28658154240071
 42
0.07332668712448476
  0
VERTEX
  8
0
  6
CONTINUOUS
 62
     7
 10
817.7728373544941
 20
-10.45206561987589
 42
0.07332668712448476
  0
VERTEX
  8
0
  6
CONTINUOUS
 62
     7
 10
817.4437381647228
 20
-10.74891194549859
 42
0.07332668712448476
  0
VERTEX
  8
0
  6
CONTINUOUS
 62
     7
 10
817.1971840645989
 20
-11.15185559112487
 42
0.07332668712448476
  0
VERTEX
  8
0
  6
CONTINUOUS
 62
     7
 10
817.0541595537962
 20
-11.62660156512413
 42
0.07332668712448476
  0
VERTEX
  8
0
  6
CONTINUOUS
 62
     7
 10
817.0268376109787
 20
-12.13274369809352
 42
0.07332668712448476
  0
VERTEX
  8
0
  6
CONTINUOUS
 62
     7
 10
817.1175436377511
 20
-12.62720365785807
 42
0.07332668712448476
  0
VERTEX
  8
0
  6
CONTINUOUS
 62
     7
 10
817.3185575410863
 20
-13.06789739528124
 42
0.07332668712448476
  0
VERTEX
  8
0
  6
CONTINUOUS
 62
     7
 10
817.612770799216
 20
-13.41731696551604
 42
0.07332668712448476
  0
VERTEX
  8
0
  6
CONTINUOUS
 62
     7
 10
817.9751425873634
 20
-13.64572287181934
 42
0.07332668712448476
  0
VERTEX
  8
0
  6
CONTINUOUS
 62
     7
 10
818.3748310307982
 20
-13.73367522791901
 42
-1
  0
SEQEND
  8
0
  0
POLYLINE
  8
0
  6
CONTINUOUS
 62
     7
 66
     1
 10
0
 20
0
  0
VERTEX
  8
0
  6
CONTINUOUS
 62
     7
 10
819.7630055218434
 20
-12.3445090872495
 42
0.07459289906077718
  0
VERTEX
  8
0
  6
CONTINUOUS
 62
     7
 10
819.7791415058962
 20
-12.67758706032557
 42
0.07459289906077718
  0
VERTEX
  8
0
  6
CONTINUOUS
 62
     7
 10
819.8638718678903
 20
-12.98932500979574
 42
0.07459289906077718
  0
VERTEX
  8
0
  6
CONTINUOUS
 62
     7
 10
820.0097366822174
 20
-13.2522765533044
 42
0.07459289906077718
  0
VERTEX
  8
0
  6
CONTINUOUS
 62
     7
 10
820.203893555216
 20
-13.44329061599394
 42
0.07459289906077718
  0
VERTEX
  8
0
  6
CONTINUOUS
 62
     7
 10
820.4292483096058
 20
-13.54554972341576
 42
0.07459289906077718
  0
VERTEX
  8
0
  6
CONTINUOUS
 62
     7
 10
820.6659600092248
 20
-13.55005066448692
 42
0.07459289906077718
  0
VERTEX
  8
0
  6
CONTINUOUS
 62
     7
 10
820.8931878169957
 20
-13.45639716230301
 42
0.07459289906077718
  0
VERTEX
  8
0
  6
CONTINUOUS
 62
     7
 10
821.0909258872891
 20
-13.27283476359409
 42
0.07459289906077718
  0
VERTEX
  8
0
  6
CONTINUOUS
 62
     7
 10
821.2417647430337
 20
-13.01552487504688
 42
0.07459289906077718
  0
VERTEX
  8
0
  6
CONTINUOUS
 62
     7
 10
821.3324240604323
 20
-12.70712186260224
 42
0.07459289906077718
  0
VERTEX
  8
0
  6
CONTINUOUS
 62
     7
 10
821.3549219101317
 20
-12.37477849034797
 42
0.07459289906077718
  0
VERTEX
  8
0
  6
CONTINUOUS
 62
     7
 10
821.307277511203
 20
-12.04775530639428
 42
0.07459289906077718
  0
VERTEX
  8
0
  6
CONTINUOUS
 62
     7
 10
821.1936856252798
 20
-11.75484445286308
 42
0.07459289906077718
  0
VERTEX
  8
0
  6
CONTINUOUS
 62
     7
 10
821.0241472366467
 20
-11.52183471580301
 42
0.07459289906077718
  0
VERTEX
  8
0
  6
CONTINUOUS
 62
     7
 10
820.8135890343585
 20
-11.36924099994994
 42
0.07459289906077718
  0
VERTEX
  8
0
  6
CONTINUOUS
 62
     7
 10
820.5805492199334
 20
-11.31049813246393
 42
-1
  0
SEQEND
  8
0
  0
POLYLINE
  8
0
  6
CONTINUOUS
 62
     7
 66
     1
 10
0
 20
0
  0
VERTEX
  8
0
  6
CONTINUOUS
 62
     7
 10
819.0357086592657
 20
-12.35250394842594
 42
0.07398282385211347
  0
VERTEX
  8
0
  6
CONTINUOUS
 62
     7
 10
819.0829292041865
 20
-12.921275578952
 42
0.07398282385211347
  0
VERTEX
  8
0
  6
CONTINUOUS
 62
     7
 10
819.2570814013621
 20
-13.44776469768643
 42
0.07398282385211347
  0
VERTEX
  8
0
  6
CONTINUOUS
 62
     7
 10
819.5430794097697
 20
-13.88636446604631
 42
0.07398282385211347
  0
VERTEX
  8
0
  6
CONTINUOUS
 62
     7
 10
819.9161488047528
 20
-14.1990814134616
 42
0.07398282385211347
  0
VERTEX
  8
0
  6
CONTINUOUS
 62
     7
 10
820.3439726493193
 20
-14.35882660146156
 42
0.07398282385211347
  0
VERTEX
  8
0
  6
CONTINUOUS
 62
     7
 10
820.7894909315396
 20
-14.35176218849493
 42
0.07398282385211347
  0
VERTEX
  8
0
  6
CONTINUOUS
 62
     7
 10
821.2141108682775
 20
-14.1785001255601
 42
0.07398282385211347
  0
VERTEX
  8
0
  6
CONTINUOUS
 62
     7
 10
821.5810499844071
 20
-13.85404914627688
 42
0.07398282385211347
  0
VERTEX
  8
0
  6
CONTINUOUS
 62
     7
 10
821.8585223750661
 20
-13.40651464335653
 42
0.07398282385211347
  0
VERTEX
  8
0
  6
CONTINUOUS
 62
     7
 10
822.02249214268
 20
-12.87466405397614
 42
0.07398282385211347
  0
VERTEX
  8
0
  6
CONTINUOUS
 62
     7
 10
822.0587554937459
 20
-12.30456865124847
 42
0.07398282385211347
  0
VERTEX
  8
0
  6
CONTINUOUS
 62
     7
 10
821.9641711348551
 20
-11.74561264480647
 42
0.07398282385211347
  0
VERTEX
  8
0
  6
CONTINUOUS
 62
     7
 10
821.7469323855553
 20
-11.24621530003216
 42
0.07398282385211347
  0
VERTEX
  8
0
  6
CONTINUOUS
 62
     7
 10
821.4258574364243
 20
-10.84963664506553
 42
0.07398282385211347
  0
VERTEX
  8
0
  6
CONTINUOUS
 62
     7
 10
821.0287592333651
 20
-10.59023009398278
 42
0.07398282385211347
  0
VERTEX
  8
0
  6
CONTINUOUS
 62
     7
 10
820.5900361960299
 20
-10.49046660065854
 42
-1
  0
SEQEND
  8
0
  0
LINE
  8
0
  6
CONTINUOUS
 62
     7
 10
820.131835064326
 20
-31.27612765037195
 11
820.2746733590849
 21
-30.46605161856938
  0
LINE
  8
0
  6
CONTINUOUS
 62
     7
 10
818.582326157045
 20
-27.98430285598236
 11
818.7155397533609
 21
-27.22881118851459
  0
POLYLINE
  8
0
  6
CONTINUOUS
 62
     7
 66
     1
 10
0
 20
0
  0
VERTEX
  8
0
  6
CONTINUOUS
 62
     7
 10
819.0784482914505
 20
-28.94125805298251
 42
0.07333214780387673
  0
VERTEX
  8
0
  6
CONTINUOUS
 62
     7
 10
819.05015066146
 20
-28.66078274226929
 42
0.07333214780387673
  0
VERTEX
  8
0
  6
CONTINUOUS
 62
     7
 10
818.9676665698297
 20
-28.4041825215697
 42
0.07333214780387673
  0
VERTEX
  8
0
  6
CONTINUOUS
 62
     7
 10
818.838017365809
 20
-28.19330014542474
 42
0.07333214780387673
  0
VERTEX
  8
0
  6
CONTINUOUS
 62
     7
 10
818.6722392664836
 20
-28.04608669730035
 42
0.07333214780387673
  0
VERTEX
  8
0
  6
CONTINUOUS
 62
     7
 10
818.4844439133867
 20
-27.97507352734014
 42
0.07333214780387673
  0
VERTEX
  8
0
  6
CONTINUOUS
 62
     7
 10
818.2906171376701
 20
-27.98630553775188
 42
0.07333214780387673
  0
VERTEX
  8
0
  6
CONTINUOUS
 62
     7
 10
818.1072581873621
 20
-28.07882661849889
 42
0.07333214780387673
  0
VERTEX
  8
0
  6
CONTINUOUS
 62
     7
 10
817.9499752506924
 20
-28.24476103490285
 42
0.07333214780387673
  0
VERTEX
  8
0
  6
CONTINUOUS
 62
     7
 10
817.8321568297046
 20
-28.46998383914598
 42
0.07333214780387673
  0
VERTEX
  8
0
  6
CONTINUOUS
 62
     7
 10
817.7638320617195
 20
-28.73532323777967
 42
0.07333214780387673
  0
VERTEX
  8
0
  6
CONTINUOUS
 62
     7
 10
817.7508170022815
 20
-29.01819256529518
 42
0.07333214780387673
  0
VERTEX
  8
0
  6
CONTINUOUS
 62
     7
 10
817.794219541118
 20
-29.29451294416366
 42
0.07333214780387673
  0
VERTEX
  8
0
  6
CONTINUOUS
 62
     7
 10
817.8903450944922
 20
-29.54076296745162
 42
0.07333214780387673
  0
VERTEX
  8
0
  6
CONTINUOUS
 62
     7
 10
818.0310111017589
 20
-29.73598092748892
 42
0.07333214780387673
  0
VERTEX
  8
0
  6
CONTINUOUS
 62
     7
 10
818.2042435550211
 20
-29.86354915352119
 42
0.07333214780387673
  0
VERTEX
  8
0
  6
CONTINUOUS
 62
     7
 10
818.3952962707222
 20
-29.91260856896284
 42
-1
  0
SEQEND
  8
0
  0
POLYLINE
  8
0
  6
CONTINUOUS
 62
     7
 66
     1
 10
0
 20
0
  0
VERTEX
  8
0
  6
CONTINUOUS
 62
     7
 10
819.8046805565767
 20
-28.94125815187165
 42
0.07332668712448476
  0
VERTEX
  8
0
  6
CONTINUOUS
 62
     7
 10
819.7454818912744
 20
-28.43939114222548
 42
0.07332668712448476
  0
VERTEX
  8
0
  6
CONTINUOUS
 62
     7
 10
819.572924291087
 20
-27.98023859125458
 42
0.07332668712448476
  0
VERTEX
  8
0
  6
CONTINUOUS
 62
     7
 10
819.3016943294808
 20
-27.60287949440567
 42
0.07332668712448476
  0
VERTEX
  8
0
  6
CONTINUOUS
 62
     7
 10
818.954876696745
 20
-27.33943131328572
 42
0.07332668712448476
  0
VERTEX
  8
0
  6
CONTINUOUS
 62
     7
 10
818.5619894357651
 20
-27.21231642200255
 42
0.07332668712448476
  0
VERTEX
  8
0
  6
CONTINUOUS
 62
     7
 10
818.1564716278451
 20
-27.23235371342121
 42
0.07332668712448476
  0
VERTEX
  8
0
  6
CONTINUOUS
 62
     7
 10
817.7728373544941
 20
-27.39783779089639
 42
0.07332668712448476
  0
VERTEX
  8
0
  6
CONTINUOUS
 62
     7
 10
817.4437381647228
 20
-27.6946841165191
 42
0.07332668712448476
  0
VERTEX
  8
0
  6
CONTINUOUS
 62
     7
 10
817.1971840645989
 20
-28.09762776214538
 42
0.07332668712448476
  0
VERTEX
  8
0
  6
CONTINUOUS
 62
     7
 10
817.0541595537962
 20
-28.57237373614463
 42
0.07332668712448476
  0
VERTEX
  8
0
  6
CONTINUOUS
 62
     7
 10
817.0268376109787
 20
-29.07851586911402
 42
0.07332668712448476
  0
VERTEX
  8
0
  6
CONTINUOUS
 62
     7
 10
817.1175436377511
 20
-29.57297582887857
 42
0.07332668712448476
  0
VERTEX
  8
0
  6
CONTINUOUS
 62
     7
 10
817.3185575410863
 20
-30.01366956630174
 42
0.07332668712448476
  0
VERTEX
  8
0
  6
CONTINUOUS
 62
     7
 10
817.612770799216
 20
-30.36308913653655
 42
0.07332668712448476
  0
VERTEX
  8
0
  6
CONTINUOUS
 62
     7
 10
817.9751425873634
 20
-30.59149504283985
 42
0.07332668712448476
  0
VERTEX
  8
0
  6
CONTINUOUS
 62
     7
 10
818.3748310307982
 20
-30.67944739893951
 42
-1
  0
SEQEND
  8
0
  0
POLYLINE
  8
0
  6
CONTINUOUS
 62
     7
 66
     1
 10
0
 20
0
  0
VERTEX
  8
0
  6
CONTINUOUS
 62
     7
 10
819.7630055218434
 20
-29.29028125827001
 42
0.07459289906077718
  0
VERTEX
  8
0
  6
CONTINUOUS
 62
     7
 10
819.7791415058962
 20
-29.62335923134608
 42
0.07459289906077718
  0
VERTEX
  8
0
  6
CONTINUOUS
 62
     7
 10
819.8638718678903
 20
-29.93509718081625
 42
0.07459289906077718
  0
VERTEX
  8
0
  6
CONTINUOUS
 62
     7
 10
820.0097366822174
 20
-30.19804872432491
 42
0.07459289906077718
  0
VERTEX
  8
0
  6
CONTINUOUS
 62
     7
 10
820.203893555216
 20
-30.38906278701445
 42
0.07459289906077718
  0
VERTEX
  8
0
  6
CONTINUOUS
 62
     7
 10
820.4292483096058
 20
-30.49132189443627
 42
0.07459289906077718
  0
VERTEX
  8
0
  6
CONTINUOUS
 62
     7
 10
820.6659600092248
 20
-30.49582283550743
 42
0.07459289906077718
  0
VERTEX
  8
0
  6
CONTINUOUS
 62
     7
 10
820.8931878169957
 20
-30.40216933332352
 42
0.07459289906077718
  0
VERTEX
  8
0
  6
CONTINUOUS
 62
     7
 10
821.0909258872891
 20
-30.2186069346146
 42
0.07459289906077718
  0
VERTEX
  8
0
  6
CONTINUOUS
 62
     7
 10
821.2417647430337
 20
-29.96129704606739
 42
0.07459289906077718
  0
VERTEX
  8
0
  6
CONTINUOUS
 62
     7
 10
821.3324240604323
 20
-29.65289403362275
 42
0.07459289906077718
  0
VERTEX
  8
0
  6
CONTINUOUS
 62
     7
 10
821.3549219101317
 20
-29.32055066136848
 42
0.07459289906077718
  0
VERTEX
  8
0
  6
CONTINUOUS
 62
     7
 10
821.307277511203
 20
-28.99352747741478
 42
0.07459289906077718
  0
VERTEX
  8
0
  6
CONTINUOUS
 62
     7
 10
821.1936856252798
 20
-28.70061662388359
 42
0.07459289906077718
  0
VERTEX
  8
0
  6
CONTINUOUS
 62
     7
 10
821.0241472366467
 20
-28.46760688682352
 42
0.07459289906077718
  0
VERTEX
  8
0
  6
CONTINUOUS
 62
     7
 10
820.8135890343585
 20
-28.31501317097045
 42
0.07459289906077718
  0
VERTEX
  8
0
  6
CONTINUOUS
 62
     7
 10
820.5805492199334
 20
-28.25627030348444
 42
-1
  0
SEQEND
  8
0
  0
POLYLINE
  8
0
  6
CONTINUOUS
 62
     7
 66
     1
 10
0
 20
0
  0
VERTEX
  8
0
  6
CONTINUOUS
 62
     7
 10
819.0357086592657
 20
-29.29827611944645
 42
0.07398282385211347
  0
VERTEX
  8
0
  6
CONTINUOUS
 62
     7
 10
819.0829292041865
 20
-29.86704774997251
 42
0.07398282385211347
  0
VERTEX
  8
0
  6
CONTINUOUS
 62
     7
 10
819.2570814013621
 20
-30.39353686870694
 42
0.07398282385211347
  0
VERTEX
  8
0
  6
CONTINUOUS
 62
     7
 10
819.5430794097697
 20
-30.83213663706682
 42
0.07398282385211347
  0
VERTEX
  8
0
  6
CONTINUOUS
 62
     7
 10
819.9161488047528
 20
-31.1448535844821
 42
0.07398282385211347
  0
VERTEX
  8
0
  6
CONTINUOUS
 62
     7
 10
820.3439726493193
 20
-31.30459877248207
 42
0.07398282385211347
  0
VERTEX
  8
0
  6
CONTINUOUS
 62
     7
 10
820.7894909315396
 20
-31.29753435951544
 42
0.07398282385211347
  0
VERTEX
  8
0
  6
CONTINUOUS
 62
     7
 10
821.2141108682775
 20
-31.12427229658061
 42
0.07398282385211347
  0
VERTEX
  8
0
  6
CONTINUOUS
 62
     7
 10
821.5810499844071
 20
-30.79982131729739
 42
0.07398282385211347
  0
VERTEX
  8
0
  6
CONTINUOUS
 62
     7
 10
821.8585223750661
 20
-30.35228681437703
 42
0.07398282385211347
  0
VERTEX
  8
0
  6
CONTINUOUS
 62
     7
 10
822.02249214268
 20
-29.82043622499665
 42
0.07398282385211347
  0
VERTEX
  8
0
  6
CONTINUOUS
 62
     7
 10
822.0587554937459
 20
-29.25034082226897
 42
0.07398282385211347
  0
VERTEX
  8
0
  6
CONTINUOUS
 62
     7
 10
821.9641711348551
 20
-28.69138481582697
 42
0.07398282385211347
  0
VERTEX
  8
0
  6
CONTINUOUS
 62
     7
 10
821.7469323855553
 20
-28.19198747105266
 42
0.07398282385211347
  0
VERTEX
  8
0
  6
CONTINUOUS
 62
     7
 10
821.4258574364243
 20
-27.79540881608604
 42
0.07398282385211347
  0
VERTEX
  8
0
  6
CONTINUOUS
 62
     7
 10
821.0287592333651
 20
-27.53600226500329
 42
0.07398282385211347
  0
VERTEX
  8
0
  6
CONTINUOUS
 62
     7
 10
820.5900361960299
 20
-27.43623877167904
 42
-1
  0
SEQEND
  8
0
  0
LINE
  8
0
  6
CONTINUOUS
 62
     7
 10
657.2138052791697
 20
-14.88604147636072
 11
657.3566435739286
 21
-14.07596544455815
  0
LINE
  8
0
  6
CONTINUOUS
 62
     7
 10
655.6642963718888
 20
-11.59421668197114
 11
655.7975099682046
 21
-10.83872501450336
  0
POLYLINE
  8
0
  6
CONTINUOUS
 62
     7
 66
     1
 10
0
 20
0
  0
VERTEX
  8
0
  6
CONTINUOUS
 62
     7
 10
656.1604185062943
 20
-12.55117187897128
 42
0.07333214780387673
  0
VERTEX
  8
0
  6
CONTINUOUS
 62
     7
 10
656.1321208763037
 20
-12.27069656825806
 42
0.07333214780387673
  0
VERTEX
  8
0
  6
CONTINUOUS
 62
     7
 10
656.0496367846735
 20
-12.01409634755847
 42
0.07333214780387673
  0
VERTEX
  8
0
  6
CONTINUOUS
 62
     7
 10
655.9199875806528
 20
-11.80321397141351
 42
0.07333214780387673
  0
VERTEX
  8
0
  6
CONTINUOUS
 62
     7
 10
655.7542094813274
 20
-11.65600052328912
 42
0.07333214780387673
  0
VERTEX
  8
0
  6
CONTINUOUS
 62
     7
 10
655.5664141282305
 20
-11.58498735332891
 42
0.07333214780387673
  0
VERTEX
  8
0
  6
CONTINUOUS
 62
     7
 10
655.3725873525139
 20
-11.59621936374065
 42
0.07333214780387673
  0
VERTEX
  8
0
  6
CONTINUOUS
 62
     7
 10
655.1892284022058
 20
-11.68874044448766
 42
0.07333214780387673
  0
VERTEX
  8
0
  6
CONTINUOUS
 62
     7
 10
655.0319454655362
 20
-11.85467486089162
 42
0.07333214780387673
  0
VERTEX
  8
0
  6
CONTINUOUS
 62
     7
 10
654.9141270445483
 20
-12.07989766513475
 42
0.07333214780387673
  0
VERTEX
  8
0
  6
CONTINUOUS
 62
     7
 10
654.8458022765633
 20
-12.34523706376844
 42
0.07333214780387673
  0
VERTEX
  8
0
  6
CONTINUOUS
 62
     7
 10
654.8327872171252
 20
-12.62810639128395
 42
0.07333214780387673
  0
VERTEX
  8
0
  6
CONTINUOUS
 62
     7
 10
654.8761897559617
 20
-12.90442677015243
 42
0.07333214780387673
  0
VERTEX
  8
0
  6
CONTINUOUS
 62
     7
 10
654.972315309336
 20
-13.15067679344039
 42
0.07333214780387673
  0
VERTEX
  8
0
  6
CONTINUOUS
 62
     7
 10
655.1129813166026
 20
-13.34589475347769
 42
0.07333214780387673
  0
VERTEX
  8
0
  6
CONTINUOUS
 62
     7
 10
655.2862137698648
 20
-13.47346297950996
 42
0.07333214780387673
  0
VERTEX
  8
0
  6
CONTINUOUS
 62
     7
 10
655.4772664855659
 20
-13.52252239495161
 42
-1
  0
SEQEND
  8
0
  0
POLYLINE
  8
0
  6
CONTINUOUS
 62
     7
 66
     1
 10
0
 20
0
  0
VERTEX
  8
0
  6
CONTINUOUS
 62
     7
 10
656.8866507714205
 20
-12.55117197786042
 42
0.07332668712448476
  0
VERTEX
  8
0
  6
CONTINUOUS
 62
     7
 10
656.8274521061181
 20
-12.04930496821425
 42
0.07332668712448476
  0
VERTEX
  8
0
  6
CONTINUOUS
 62
     7
 10
656.6548945059308
 20
-11.59015241724335
 42
0.07332668712448476
  0
VERTEX
  8
0
  6
CONTINUOUS
 62
     7
 10
656.3836645443246
 20
-11.21279332039445
 42
0.07332668712448476
  0
VERTEX
  8
0
  6
CONTINUOUS
 62
     7
 10
656.0368469115888
 20
-10.94934513927449
 42
0.07332668712448476
  0
VERTEX
  8
0
  6
CONTINUOUS
 62
     7
 10
655.6439596506089
 20
-10.82223024799132
 42
0.07332668712448476
  0
VERTEX
  8
0
  6
CONTINUOUS
 62
     7
 10
655.2384418426889
 20
-10.84226753940998
 42
0.07332668712448476
  0
VERTEX
  8
0
  6
CONTINUOUS
 62
     7
 10
654.8548075693378
 20
-11.00775161688516
 42
0.07332668712448476
  0
VERTEX
  8
0
  6
CONTINUOUS
 62
     7
 10
654.5257083795666
 20
-11.30459794250787
 42
0.07332668712448476
  0
VERTEX
  8
0
  6
CONTINUOUS
 62
     7
 10
654.2791542794427
 20
-11.70754158813415
 42
0.07332668712448476
  0
VERTEX
  8
0
  6
CONTINUOUS
 62
     7
 10
654.13612976864
 20
-12.1822875621334
 42
0.07332668712448476
  0
VERTEX
  8
0
  6
CONTINUOUS
 62
     7
 10
654.1088078258224
 20
-12.68842969510279
 42
0.07332668712448476
  0
VERTEX
  8
0
  6
CONTINUOUS
 62
     7
 10
654.1995138525948
 20
-13.18288965486735
 42
0.07332668712448476
  0
VERTEX
  8
0
  6
CONTINUOUS
 62
     7
 10
654.4005277559301
 20
-13.62358339229051
 42
0.07332668712448476
  0
VERTEX
  8
0
  6
CONTINUOUS
 62
     7
 10
654.6947410140598
 20
-13.97300296252532
 42
0.07332668712448476
  0
VERTEX
  8
0
  6
CONTINUOUS
 62
     7
 10
655.0571128022071
 20
-14.20140886882862
 42
0.07332668712448476
  0
VERTEX
  8
0
  6
CONTINUOUS
 62
     7
 10
655.4568012456419
 20
-14.28936122492828
 42
-1
  0
SEQEND
  8
0
  0
POLYLINE
  8
0
  6
CONTINUOUS
 62
     7
 66
     1
 10
0
 20
0
  0
VERTEX
  8
0
  6
CONTINUOUS
 62
     7
 10
656.8449757366872
 20
-12.90019508425878
 42
0.07459289906077718
  0
VERTEX
  8
0
  6
CONTINUOUS
 62
     7
 10
656.8611117207399
 20
-13.23327305733485
 42
0.07459289906077718
  0
VERTEX
  8
0
  6
CONTINUOUS
 62
     7
 10
656.9458420827341
 20
-13.54501100680502
 42
0.07459289906077718
  0
VERTEX
  8
0
  6
CONTINUOUS
 62
     7
 10
657.0917068970612
 20
-13.80796255031368
 42
0.07459289906077718
  0
VERTEX
  8
0
  6
CONTINUOUS
 62
     7
 10
657.2858637700598
 20
-13.99897661300322
 42
0.07459289906077718
  0
VERTEX
  8
0
  6
CONTINUOUS
 62
     7
 10
657.5112185244495
 20
-14.10123572042504
 42
0.07459289906077718
  0
VERTEX
  8
0
  6
CONTINUOUS
 62
     7
 10
657.7479302240686
 20
-14.1057366614962
 42
0.07459289906077718
  0
VERTEX
  8
0
  6
CONTINUOUS
 62
     7
 10
657.9751580318394
 20
-14.01208315931229
 42
0.07459289906077718
  0
VERTEX
  8
0
  6
CONTINUOUS
 62
     7
 10
658.1728961021329
 20
-13.82852076060336
 42
0.07459289906077718
  0
VERTEX
  8
0
  6
CONTINUOUS
 62
     7
 10
658.3237349578775
 20
-13.57121087205615
 42
0.07459289906077718
  0
VERTEX
  8
0
  6
CONTINUOUS
 62
     7
 10
658.4143942752761
 20
-13.26280785961152
 42
0.07459289906077718
  0
VERTEX
  8
0
  6
CONTINUOUS
 62
     7
 10
658.4368921249754
 20
-12.93046448735725
 42
0.07459289906077718
  0
VERTEX
  8
0
  6
CONTINUOUS
 62
     7
 10
658.3892477260467
 20
-12.60344130340355
 42
0.07459289906077718
  0
VERTEX
  8
0
  6
CONTINUOUS
 62
     7
 10
658.2756558401236
 20
-12.31053044987235
 42
0.07459289906077718
  0
VERTEX
  8
0
  6
CONTINUOUS
 62
     7
 10
658.1061174514905
 20
-12.07752071281229
 42
0.07459289906077718
  0
VERTEX
  8
0
  6
CONTINUOUS
 62
     7
 10
657.8955592492023
 20
-11.92492699695922
 42
0.07459289906077718
  0
VERTEX
  8
0
  6
CONTINUOUS
 62
     7
 10
657.6625194347771
 20
-11.86618412947321
 42
-1
  0
SEQEND
  8
0
  0
POLYLINE
  8
0
  6
CONTINUOUS
 62
     7
 66
     1
 10
0
 20
0
  0
VERTEX
  8
0
  6
CONTINUOUS
 62
     7
 10
656.1176788741094
 20
-12.90818994543522
 42
0.07398282385211347
  0
VERTEX
  8
0
  6
CONTINUOUS
 62
     7
 10
656.1648994190302
 20
-13.47696157596128
 42
0.07398282385211347
  0
VERTEX
  8
0
  6
CONTINUOUS
 62
     7
 10
656.3390516162059
 20
-14.0034506946957
 42
0.07398282385211347
  0
VERTEX
  8
0
  6
CONTINUOUS
 62
     7
 10
656.6250496246134
 20
-14.44205046305559
 42
0.07398282385211347
  0
VERTEX
  8
0
  6
CONTINUOUS
 62
     7
 10
656.9981190195965
 20
-14.75476741047088
 42
0.07398282385211347
  0
VERTEX
  8
0
  6
CONTINUOUS
 62
     7
 10
657.4259428641631
 20
-14.91451259847084
 42
0.07398282385211347
  0
VERTEX
  8
0
  6
CONTINUOUS
 62
     7
 10
657.8714611463834
 20
-14.90744818550421
 42
0.07398282385211347
  0
VERTEX
  8
0
  6
CONTINUOUS
 62
     7
 10
658.2960810831213
 20
-14.73418612256938
 42
0.07398282385211347
  0
VERTEX
  8
0
  6
CONTINUOUS
 62
     7
 10
658.6630201992508
 20
-14.40973514328616
 42
0.07398282385211347
  0
VERTEX
  8
0
  6
CONTINUOUS
 62
     7
 10
658.9404925899098
 20
-13.9622006403658
 42
0.07398282385211347
  0
VERTEX
  8
0
  6
CONTINUOUS
 62
     7
 10
659.1044623575237
 20
-13.43035005098542
 42
0.07398282385211347
  0
VERTEX
  8
0
  6
CONTINUOUS
 62
     7
 10
659.1407257085897
 20
-12.86025464825775
 42
0.07398282385211347
  0
VERTEX
  8
0
  6
CONTINUOUS
 62
     7
 10
659.0461413496988
 20
-12.30129864181575
 42
0.07398282385211347
  0
VERTEX
  8
0
  6
CONTINUOUS
 62
     7
 10
658.828902600399
 20
-11.80190129704143
 42
0.07398282385211347
  0
VERTEX
  8
0
  6
CONTINUOUS
 62
     7
 10
658.507827651268
 20
-11.40532264207481
 42
0.07398282385211347
  0
VERTEX
  8
0
  6
CONTINUOUS
 62
     7
 10
658.1107294482089
 20
-11.14591609099206
 42
0.07398282385211347
  0
VERTEX
  8
0
  6
CONTINUOUS
 62
     7
 10
657.6720064108737
 20
-11.04615259766781
 42
-1
  0
SEQEND
  8
0
  0
LINE
  8
0
  6
CONTINUOUS
 62
     7
 10
657.2138052791697
 20
-31.83181460105554
 11
657.3566435739286
 21
-31.02173856925297
  0
LINE
  8
0
  6
CONTINUOUS
 62
     7
 10
655.6642963718888
 20
-28.53998980666596
 11
655.7975099682046
 21
-27.78449813919819
  0
POLYLINE
  8
0
  6
CONTINUOUS
 62
     7
 66
     1
 10
0
 20
0
  0
VERTEX
  8
0
  6
CONTINUOUS
 62
     7
 10
656.1604185062943
 20
-29.49694500366611
 42
0.07333214780387673
  0
VERTEX
  8
0
  6
CONTINUOUS
 62
     7
 10
656.1321208763037
 20
-29.21646969295289
 42
0.07333214780387673
  0
VERTEX
  8
0
  6
CONTINUOUS
 62
     7
 10
656.0496367846735
 20
-28.9598694722533
 42
0.07333214780387673
  0
VERTEX
  8
0
  6
CONTINUOUS
 62
     7
 10
655.9199875806528
 20
-28.74898709610833
 42
0.07333214780387673
  0
VERTEX
  8
0
  6
CONTINUOUS
 62
     7
 10
655.7542094813274
 20
-28.60177364798394
 42
0.07333214780387673
  0
VERTEX
  8
0
  6
CONTINUOUS
 62
     7
 10
655.5664141282305
 20
-28.53076047802374
 42
0.07333214780387673
  0
VERTEX
  8
0
  6
CONTINUOUS
 62
     7
 10
655.3725873525139
 20
-28.54199248843548
 42
0.07333214780387673
  0
VERTEX
  8
0
  6
CONTINUOUS
 62
     7
 10
655.1892284022058
 20
-28.63451356918248
 42
0.07333214780387673
  0
VERTEX
  8
0
  6
CONTINUOUS
 62
     7
 10
655.0319454655362
 20
-28.80044798558645
 42
0.07333214780387673
  0
VERTEX
  8
0
  6
CONTINUOUS
 62
     7
 10
654.9141270445483
 20
-29.02567078982958
 42
0.07333214780387673
  0
VERTEX
  8
0
  6
CONTINUOUS
 62
     7
 10
654.8458022765633
 20
-29.29101018846327
 42
0.07333214780387673
  0
VERTEX
  8
0
  6
CONTINUOUS
 62
     7
 10
654.8327872171252
 20
-29.57387951597877
 42
0.07333214780387673
  0
VERTEX
  8
0
  6
CONTINUOUS
 62
     7
 10
654.8761897559617
 20
-29.85019989484725
 42
0.07333214780387673
  0
VERTEX
  8
0
  6
CONTINUOUS
 62
     7
 10
654.972315309336
 20
-30.09644991813521
 42
0.07333214780387673
  0
VERTEX
  8
0
  6
CONTINUOUS
 62
     7
 10
655.1129813166026
 20
-30.29166787817252
 42
0.07333214780387673
  0
VERTEX
  8
0
  6
CONTINUOUS
 62
     7
 10
655.2862137698648
 20
-30.41923610420479
 42
0.07333214780387673
  0
VERTEX
  8
0
  6
CONTINUOUS
 62
     7
 10
655.4772664855659
 20
-30.46829551964643
 42
-1
  0
SEQEND
  8
0
  0
POLYLINE
  8
0
  6
CONTINUOUS
 62
     7
 66
     1
 10
0
 20
0
  0
VERTEX
  8
0
  6
CONTINUOUS
 62
     7
 10
656.8866507714205
 20
-29.49694510255524
 42
0.07332668712448476
  0
VERTEX
  8
0
  6
CONTINUOUS
 62
     7
 10
656.8274521061181
 20
-28.99507809290908
 42
0.07332668712448476
  0
VERTEX
  8
0
  6
CONTINUOUS
 62
     7
 10
656.6548945059308
 20
-28.53592554193817
 42
0.07332668712448476
  0
VERTEX
  8
0
  6
CONTINUOUS
 62
     7
 10
656.3836645443246
 20
-28.15856644508927
 42
0.07332668712448476
  0
VERTEX
  8
0
  6
CONTINUOUS
 62
     7
 10
656.0368469115888
 20
-27.89511826396931
 42
0.07332668712448476
  0
VERTEX
  8
0
  6
CONTINUOUS
 62
     7
 10
655.6439596506089
 20
-27.76800337268614
 42
0.07332668712448476
  0
VERTEX
  8
0
  6
CONTINUOUS
 62
     7
 10
655.2384418426889
 20
-27.78804066410481
 42
0.07332668712448476
  0
VERTEX
  8
0
  6
CONTINUOUS
 62
     7
 10
654.8548075693378
 20
-27.95352474157999
 42
0.07332668712448476
  0
VERTEX
  8
0
  6
CONTINUOUS
 62
     7
 10
654.5257083795666
 20
-28.25037106720269
 42
0.07332668712448476
  0
VERTEX
  8
0
  6
CONTINUOUS
 62
     7
 10
654.2791542794427
 20
-28.65331471282897
 42
0.07332668712448476
  0
VERTEX
  8
0
  6
CONTINUOUS
 62
     7
 10
654.13612976864
 20
-29.12806068682822
 42
0.07332668712448476
  0
VERTEX
  8
0
  6
CONTINUOUS
 62
     7
 10
654.1088078258224
 20
-29.63420281979762
 42
0.07332668712448476
  0
VERTEX
  8
0
  6
CONTINUOUS
 62
     7
 10
654.1995138525948
 20
-30.12866277956217
 42
0.07332668712448476
  0
VERTEX
  8
0
  6
CONTINUOUS
 62
     7
 10
654.4005277559301
 20
-30.56935651698533
 42
0.07332668712448476
  0
VERTEX
  8
0
  6
CONTINUOUS
 62
     7
 10
654.6947410140598
 20
-30.91877608722014
 42
0.07332668712448476
  0
VERTEX
  8
0
  6
CONTINUOUS
 62
     7
 10
655.0571128022071
 20
-31.14718199352344
 42
0.07332668712448476
  0
VERTEX
  8
0
  6
CONTINUOUS
 62
     7
 10
655.4568012456419
 20
-31.23513434962311
 42
-1
  0
SEQEND
  8
0
  0
POLYLINE
  8
0
  6
CONTINUOUS
 62
     7
 66
     1
 10
0
 20
0
  0
VERTEX
  8
0
  6
CONTINUOUS
 62
     7
 10
656.8449757366872
 20
-29.84596820895361
 42
0.07459289906077718
  0
VERTEX
  8
0
  6
CONTINUOUS
 62
     7
 10
656.8611117207399
 20
-30.17904618202968
 42
0.07459289906077718
  0
VERTEX
  8
0
  6
CONTINUOUS
 62
     7
 10
656.9458420827341
 20
-30.49078413149985
 42
0.07459289906077718
  0
VERTEX
  8
0
  6
CONTINUOUS
 62
     7
 10
657.0917068970612
 20
-30.7537356750085
 42
0.07459289906077718
  0
VERTEX
  8
0
  6
CONTINUOUS
 62
     7
 10
657.2858637700598
 20
-30.94474973769805
 42
0.07459289906077718
  0
VERTEX
  8
0
  6
CONTINUOUS
 62
     7
 10
657.5112185244495
 20
-31.04700884511987
 42
0.07459289906077718
  0
VERTEX
  8
0
  6
CONTINUOUS
 62
     7
 10
657.7479302240686
 20
-31.05150978619102
 42
0.07459289906077718
  0
VERTEX
  8
0
  6
CONTINUOUS
 62
     7
 10
657.9751580318394
 20
-30.95785628400712
 42
0.07459289906077718
  0
VERTEX
  8
0
  6
CONTINUOUS
 62
     7
 10
658.1728961021329
 20
-30.77429388529819
 42
0.07459289906077718
  0
VERTEX
  8
0
  6
CONTINUOUS
 62
     7
 10
658.3237349578775
 20
-30.51698399675098
 42
0.07459289906077718
  0
VERTEX
  8
0
  6
CONTINUOUS
 62
     7
 10
658.4143942752761
 20
-30.20858098430634
 42
0.07459289906077718
  0
VERTEX
  8
0
  6
CONTINUOUS
 62
     7
 10
658.4368921249754
 20
-29.87623761205208
 42
0.07459289906077718
  0
VERTEX
  8
0
  6
CONTINUOUS
 62
     7
 10
658.3892477260467
 20
-29.54921442809838
 42
0.07459289906077718
  0
VERTEX
  8
0
  6
CONTINUOUS
 62
     7
 10
658.2756558401236
 20
-29.25630357456718
 42
0.07459289906077718
  0
VERTEX
  8
0
  6
CONTINUOUS
 62
     7
 10
658.1061174514905
 20
-29.02329383750712
 42
0.07459289906077718
  0
VERTEX
  8
0
  6
CONTINUOUS
 62
     7
 10
657.8955592492023
 20
-28.87070012165404
 42
0.07459289906077718
  0
VERTEX
  8
0
  6
CONTINUOUS
 62
     7
 10
657.6625194347771
 20
-28.81195725416803
 42
-1
  0
SEQEND
  8
0
  0
POLYLINE
  8
0
  6
CONTINUOUS
 62
     7
 66
     1
 10
0
 20
0
  0
VERTEX
  8
0
  6
CONTINUOUS
 62
     7
 10
656.1176788741094
 20
-29.85396307013004
 42
0.07398282385211347
  0
VERTEX
  8
0
  6
CONTINUOUS
 62
     7
 10
656.1648994190302
 20
-30.4227347006561
 42
0.07398282385211347
  0
VERTEX
  8
0
  6
CONTINUOUS
 62
     7
 10
656.3390516162059
 20
-30.94922381939053
 42
0.07398282385211347
  0
VERTEX
  8
0
  6
CONTINUOUS
 62
     7
 10
656.6250496246134
 20
-31.38782358775041
 42
0.07398282385211347
  0
VERTEX
  8
0
  6
CONTINUOUS
 62
     7
 10
656.9981190195965
 20
-31.7005405351657
 42
0.07398282385211347
  0
VERTEX
  8
0
  6
CONTINUOUS
 62
     7
 10
657.4259428641631
 20
-31.86028572316566
 42
0.07398282385211347
  0
VERTEX
  8
0
  6
CONTINUOUS
 62
     7
 10
657.8714611463834
 20
-31.85322131019903
 42
0.07398282385211347
  0
VERTEX
  8
0
  6
CONTINUOUS
 62
     7
 10
658.2960810831213
 20
-31.6799592472642
 42
0.07398282385211347
  0
VERTEX
  8
0
  6
CONTINUOUS
 62
     7
 10
658.6630201992508
 20
-31.35550826798098
 42
0.07398282385211347
  0
VERTEX
  8
0
  6
CONTINUOUS
 62
     7
 10
658.9404925899098
 20
-30.90797376506063
 42
0.07398282385211347
  0
VERTEX
  8
0
  6
CONTINUOUS
 62
     7
 10
659.1044623575237
 20
-30.37612317568024
 42
0.07398282385211347
  0
VERTEX
  8
0
  6
CONTINUOUS
 62
     7
 10
659.1407257085897
 20
-29.80602777295257
 42
0.07398282385211347
  0
VERTEX
  8
0
  6
CONTINUOUS
 62
     7
 10
659.0461413496988
 20
-29.24707176651057
 42
0.07398282385211347
  0
VERTEX
  8
0
  6
CONTINUOUS
 62
     7
 10
658.828902600399
 20
-28.74767442173626
 42
0.07398282385211347
  0
VERTEX
  8
0
  6
CONTINUOUS
 62
     7
 10
658.507827651268
 20
-28.35109576676963
 42
0.07398282385211347
  0
VERTEX
  8
0
  6
CONTINUOUS
 62
     7
 10
658.1107294482089
 20
-28.09168921568688
 42
0.07398282385211347
  0
VERTEX
  8
0
  6
CONTINUOUS
 62
     7
 10
657.6720064108737
 20
-27.99192572236264
 42
-1
  0
SEQEND
  8
0
  0
LINE
  8
0
  6
CONTINUOUS
 62
     7
 10
310.9627582478998
 20
-6.477327244428987
 11
311.0541747549378
 21
-5.958878593193234
  0
LINE
  8
0
  6
CONTINUOUS
 62
     7
 10
309.9710725646806
 20
-4.370559413071122
 11
310.0563292648234
 21
-3.887044754395264
  0
POLYLINE
  8
0
  6
CONTINUOUS
 62
     7
 66
     1
 10
0
 20
0
  0
VERTEX
  8
0
  6
CONTINUOUS
 62
     7
 10
310.2885907251159
 20
-4.98301072838011
 42
0.07333214780387673
  0
VERTEX
  8
0
  6
CONTINUOUS
 62
     7
 10
310.2704802422405
 20
-4.803506532680569
 42
0.07333214780387673
  0
VERTEX
  8
0
  6
CONTINUOUS
 62
     7
 10
310.2176904245255
 20
-4.639282394321021
 42
0.07333214780387673
  0
VERTEX
  8
0
  6
CONTINUOUS
 62
     7
 10
310.1347149354116
 20
-4.504317675961854
 42
0.07333214780387673
  0
VERTEX
  8
0
  6
CONTINUOUS
 62
     7
 10
310.0286169537093
 20
-4.410101070819219
 42
0.07333214780387673
  0
VERTEX
  8
0
  6
CONTINUOUS
 62
     7
 10
309.908427929841
 20
-4.364652642843983
 42
0.07333214780387673
  0
VERTEX
  8
0
  6
CONTINUOUS
 62
     7
 10
309.784378795564
 20
-4.371841129381074
 42
0.07333214780387673
  0
VERTEX
  8
0
  6
CONTINUOUS
 62
     7
 10
309.6670290694307
 20
-4.431054620017777
 42
0.07333214780387673
  0
VERTEX
  8
0
  6
CONTINUOUS
 62
     7
 10
309.5663679917324
 20
-4.537252644648622
 42
0.07333214780387673
  0
VERTEX
  8
0
  6
CONTINUOUS
 62
     7
 10
309.4909642036263
 20
-4.681395236829206
 42
0.07333214780387673
  0
VERTEX
  8
0
  6
CONTINUOUS
 62
     7
 10
309.4472363528849
 20
-4.851212448968213
 42
0.07333214780387673
  0
VERTEX
  8
0
  6
CONTINUOUS
 62
     7
 10
309.4389067149911
 20
-5.032248815394273
 42
0.07333214780387673
  0
VERTEX
  8
0
  6
CONTINUOUS
 62
     7
 10
309.4666843393579
 20
-5.209093854759948
 42
0.07333214780387673
  0
VERTEX
  8
0
  6
CONTINUOUS
 62
     7
 10
309.5282046924355
 20
-5.366693866892548
 42
0.07333214780387673
  0
VERTEX
  8
0
  6
CONTINUOUS
 62
     7
 10
309.6182309355028
 20
-5.491633359119128
 42
0.07333214780387673
  0
VERTEX
  8
0
  6
CONTINUOUS
 62
     7
 10
309.7290997036408
 20
-5.573277022343922
 42
0.07333214780387673
  0
VERTEX
  8
0
  6
CONTINUOUS
 62
     7
 10
309.8513734395392
 20
-5.604675047674384
 42
-1
  0
SEQEND
  8
0
  0
POLYLINE
  8
0
  6
CONTINUOUS
 62
     7
 66
     1
 10
0
 20
0
  0
VERTEX
  8
0
  6
CONTINUOUS
 62
     7
 10
310.7533793666226
 20
-4.983010791669157
 42
0.07332668712448476
  0
VERTEX
  8
0
  6
CONTINUOUS
 62
     7
 10
310.7154922214954
 20
-4.661815911144427
 42
0.07332668712448476
  0
VERTEX
  8
0
  6
CONTINUOUS
 62
     7
 10
310.6050553593177
 20
-4.367958283691088
 42
0.07332668712448476
  0
VERTEX
  8
0
  6
CONTINUOUS
 62
     7
 10
310.4314681869426
 20
-4.126448465955193
 42
0.07332668712448476
  0
VERTEX
  8
0
  6
CONTINUOUS
 62
     7
 10
310.2095049058954
 20
-3.95784163300369
 42
0.07332668712448476
  0
VERTEX
  8
0
  6
CONTINUOUS
 62
     7
 10
309.9580570632904
 20
-3.876488104013216
 42
0.07332668712448476
  0
VERTEX
  8
0
  6
CONTINUOUS
 62
     7
 10
309.6985256707859
 20
-3.889311970295629
 42
0.07332668712448476
  0
VERTEX
  8
0
  6
CONTINUOUS
 62
     7
 10
309.4529997401593
 20
-3.995221778017121
 42
0.07332668712448476
  0
VERTEX
  8
0
  6
CONTINUOUS
 62
     7
 10
309.2423762624099
 20
-4.185203423074468
 42
0.07332668712448476
  0
VERTEX
  8
0
  6
CONTINUOUS
 62
     7
 10
309.0845816411057
 20
-4.443087351739915
 42
0.07332668712448476
  0
VERTEX
  8
0
  6
CONTINUOUS
 62
     7
 10
308.9930459558018
 20
-4.746924769755883
 42
0.07332668712448476
  0
VERTEX
  8
0
  6
CONTINUOUS
 62
     7
 10
308.9755599127061
 20
-5.070855729159357
 42
0.07332668712448476
  0
VERTEX
  8
0
  6
CONTINUOUS
 62
     7
 10
309.0336117688195
 20
-5.387310097843226
 42
0.07332668712448476
  0
VERTEX
  8
0
  6
CONTINUOUS
 62
     7
 10
309.1622606646915
 20
-5.669354084833779
 42
0.07332668712448476
  0
VERTEX
  8
0
  6
CONTINUOUS
 62
     7
 10
309.350557146583
 20
-5.892982605851127
 42
0.07332668712448476
  0
VERTEX
  8
0
  6
CONTINUOUS
 62
     7
 10
309.5824750869186
 20
-6.039162383314394
 42
0.07332668712448476
  0
VERTEX
  8
0
  6
CONTINUOUS
 62
     7
 10
309.8382756862181
 20
-6.095451890228221
 42
-1
  0
SEQEND
  8
0
  0
POLYLINE
  8
0
  6
CONTINUOUS
 62
     7
 66
     1
 10
0
 20
0
  0
VERTEX
  8
0
  6
CONTINUOUS
 62
     7
 10
310.7267073448624
 20
-5.206385575835643
 42
0.07459289906077718
  0
VERTEX
  8
0
  6
CONTINUOUS
 62
     7
 10
310.7370343744745
 20
-5.419555474855335
 42
0.07459289906077718
  0
VERTEX
  8
0
  6
CONTINUOUS
 62
     7
 10
310.7912618051971
 20
-5.619067759007446
 42
0.07459289906077718
  0
VERTEX
  8
0
  6
CONTINUOUS
 62
     7
 10
310.8846152847246
 20
-5.787356743893308
 42
0.07459289906077718
  0
VERTEX
  8
0
  6
CONTINUOUS
 62
     7
 10
311.0088756812583
 20
-5.909605741864636
 42
0.07459289906077718
  0
VERTEX
  8
0
  6
CONTINUOUS
 62
     7
 10
311.1531027215312
 20
-5.975051569463615
 42
0.07459289906077718
  0
VERTEX
  8
0
  6
CONTINUOUS
 62
     7
 10
311.3045982066231
 20
-5.977932171698494
 42
0.07459289906077718
  0
VERTEX
  8
0
  6
CONTINUOUS
 62
     7
 10
311.4500240010389
 20
-5.917993931354921
 42
0.07459289906077718
  0
VERTEX
  8
0
  6
CONTINUOUS
 62
     7
 10
311.576576363801
 20
-5.800513998247312
 42
0.07459289906077718
  0
VERTEX
  8
0
  6
CONTINUOUS
 62
     7
 10
311.6731132297797
 20
-5.635835672473276
 42
0.07459289906077718
  0
VERTEX
  8
0
  6
CONTINUOUS
 62
     7
 10
311.7311351918945
 20
-5.438457747979968
 42
0.07459289906077718
  0
VERTEX
  8
0
  6
CONTINUOUS
 62
     7
 10
311.7455338154488
 20
-5.225757993477963
 42
0.07459289906077718
  0
VERTEX
  8
0
  6
CONTINUOUS
 62
     7
 10
311.7150414006707
 20
-5.016463159428439
 42
0.07459289906077718
  0
VERTEX
  8
0
  6
CONTINUOUS
 62
     7
 10
311.6423425949585
 20
-4.829000216465359
 42
0.07459289906077718
  0
VERTEX
  8
0
  6
CONTINUOUS
 62
     7
 10
311.5338380281415
 20
-4.679873987369582
 42
0.07459289906077718
  0
VERTEX
  8
0
  6
CONTINUOUS
 62
     7
 10
311.399080781047
 20
-4.582214010941149
 42
0.07459289906077718
  0
VERTEX
  8
0
  6
CONTINUOUS
 62
     7
 10
311.2499353024379
 20
-4.54461857641129
 42
-1
  0
SEQEND
  8
0
  0
POLYLINE
  8
0
  6
CONTINUOUS
 62
     7
 66
     1
 10
0
 20
0
  0
VERTEX
  8
0
  6
CONTINUOUS
 62
     7
 10
310.2612373609987
 20
-5.211502286898577
 42
0.07398282385211347
  0
VERTEX
  8
0
  6
CONTINUOUS
 62
     7
 10
310.2914585092166
 20
-5.575516124033389
 42
0.07398282385211347
  0
VERTEX
  8
0
  6
CONTINUOUS
 62
     7
 10
310.4029159134488
 20
-5.912469154097469
 42
0.07398282385211347
  0
VERTEX
  8
0
  6
CONTINUOUS
 62
     7
 10
310.5859546356105
 20
-6.19317300091109
 42
0.07398282385211347
  0
VERTEX
  8
0
  6
CONTINUOUS
 62
     7
 10
310.8247190442006
 20
-6.393311843737057
 42
0.07398282385211347
  0
VERTEX
  8
0
  6
CONTINUOUS
 62
     7
 10
311.0985262999078
 20
-6.495548762259004
 42
0.07398282385211347
  0
VERTEX
  8
0
  6
CONTINUOUS
 62
     7
 10
311.3836579955142
 20
-6.491027538039875
 42
0.07398282385211347
  0
VERTEX
  8
0
  6
CONTINUOUS
 62
     7
 10
311.6554147502471
 20
-6.380139819711754
 42
0.07398282385211347
  0
VERTEX
  8
0
  6
CONTINUOUS
 62
     7
 10
311.8902557804398
 20
-6.172491196622384
 42
0.07398282385211347
  0
VERTEX
  8
0
  6
CONTINUOUS
 62
     7
 10
312.0678381073385
 20
-5.886069119790625
 42
0.07398282385211347
  0
VERTEX
  8
0
  6
CONTINUOUS
 62
     7
 10
312.1727787567658
 20
-5.54568474857348
 42
0.07398282385211347
  0
VERTEX
  8
0
  6
CONTINUOUS
 62
     7
 10
312.1959873010399
 20
-5.180823697244534
 42
0.07398282385211347
  0
VERTEX
  8
0
  6
CONTINUOUS
 62
     7
 10
312.1354533124143
 20
-4.823091859413039
 42
0.07398282385211347
  0
VERTEX
  8
0
  6
CONTINUOUS
 62
     7
 10
311.9964205153077
 20
-4.503477564378498
 42
0.07398282385211347
  0
VERTEX
  8
0
  6
CONTINUOUS
 62
     7
 10
311.7909325514777
 20
-4.249667229663591
 42
0.07398282385211347
  0
VERTEX
  8
0
  6
CONTINUOUS
 62
     7
 10
311.5367897059894
 20
-4.083647039890406
 42
0.07398282385211347
  0
VERTEX
  8
0
  6
CONTINUOUS
 62
     7
 10
311.256006967033
 20
-4.019798405285788
 42
-1
  0
SEQEND
  8
0
  0
LINE
  8
0
  6
CONTINUOUS
 62
     7
 10
310.9627582478998
 20
-17.32262219682157
 11
311.0541747549378
 21
-16.80417354558581
  0
LINE
  8
0
  6
CONTINUOUS
 62
     7
 10
309.9710725646806
 20
-15.2158543654637
 11
310.0563292648234
 21
-14.73233970678784
  0
POLYLINE
  8
0
  6
CONTINUOUS
 62
     7
 66
     1
 10
0
 20
0
  0
VERTEX
  8
0
  6
CONTINUOUS
 62
     7
 10
310.2885907251159
 20
-15.82830568077269
 42
0.07333214780387673
  0
VERTEX
  8
0
  6
CONTINUOUS
 62
     7
 10
310.2704802422405
 20
-15.64880148507315
 42
0.07333214780387673
  0
VERTEX
  8
0
  6
CONTINUOUS
 62
     7
 10
310.2176904245255
 20
-15.4845773467136
 42
0.07333214780387673
  0
VERTEX
  8
0
  6
CONTINUOUS
 62
     7
 10
310.1347149354116
 20
-15.34961262835443
 42
0.07333214780387673
  0
VERTEX
  8
0
  6
CONTINUOUS
 62
     7
 10
310.0286169537093
 20
-15.2553960232118
 42
0.07333214780387673
  0
VERTEX
  8
0
  6
CONTINUOUS
 62
     7
 10
309.908427929841
 20
-15.20994759523656
 42
0.07333214780387673
  0
VERTEX
  8
0
  6
CONTINUOUS
 62
     7
 10
309.784378795564
 20
-15.21713608177365
 42
0.07333214780387673
  0
VERTEX
  8
0
  6
CONTINUOUS
 62
     7
 10
309.6670290694307
 20
-15.27634957241036
 42
0.07333214780387673
  0
VERTEX
  8
0
  6
CONTINUOUS
 62
     7
 10
309.5663679917324
 20
-15.3825475970412
 42
0.07333214780387673
  0
VERTEX
  8
0
  6
CONTINUOUS
 62
     7
 10
309.4909642036263
 20
-15.52669018922178
 42
0.07333214780387673
  0
VERTEX
  8
0
  6
CONTINUOUS
 62
     7
 10
309.4472363528849
 20
-15.69650740136079
 42
0.07333214780387673
  0
VERTEX
  8
0
  6
CONTINUOUS
 62
     7
 10
309.4389067149911
 20
-15.87754376778685
 42
0.07333214780387673
  0
VERTEX
  8
0
  6
CONTINUOUS
 62
     7
 10
309.4666843393579
 20
-16.05438880715253
 42
0.07333214780387673
  0
VERTEX
  8
0
  6
CONTINUOUS
 62
     7
 10
309.5282046924355
 20
-16.21198881928513
 42
0.07333214780387673
  0
VERTEX
  8
0
  6
CONTINUOUS
 62
     7
 10
309.6182309355028
 20
-16.33692831151171
 42
0.07333214780387673
  0
VERTEX
  8
0
  6
CONTINUOUS
 62
     7
 10
309.7290997036408
 20
-16.4185719747365
 42
0.07333214780387673
  0
VERTEX
  8
0
  6
CONTINUOUS
 62
     7
 10
309.8513734395392
 20
-16.44997000006696
 42
-1
  0
SEQEND
  8
0
  0
POLYLINE
  8
0
  6
CONTINUOUS
 62
     7
 66
     1
 10
0
 20
0
  0
VERTEX
  8
0
  6
CONTINUOUS
 62
     7
 10
310.7533793666226
 20
-15.82830574406174
 42
0.07332668712448476
  0
VERTEX
  8
0
  6
CONTINUOUS
 62
     7
 10
310.7154922214954
 20
-15.50711086353701
 42
0.07332668712448476
  0
VERTEX
  8
0
  6
CONTINUOUS
 62
     7
 10
310.6050553593177
 20
-15.21325323608367
 42
0.07332668712448476
  0
VERTEX
  8
0
  6
CONTINUOUS
 62
     7
 10
310.4314681869426
 20
-14.97174341834777
 42
0.07332668712448476
  0
VERTEX
  8
0
  6
CONTINUOUS
 62
     7
 10
310.2095049058954
 20
-14.80313658539627
 42
0.07332668712448476
  0
VERTEX
  8
0
  6
CONTINUOUS
 62
     7
 10
309.9580570632904
 20
-14.72178305640579
 42
0.07332668712448476
  0
VERTEX
  8
0
  6
CONTINUOUS
 62
     7
 10
309.6985256707859
 20
-14.73460692268821
 42
0.07332668712448476
  0
VERTEX
  8
0
  6
CONTINUOUS
 62
     7
 10
309.4529997401593
 20
-14.8405167304097
 42
0.07332668712448476
  0
VERTEX
  8
0
  6
CONTINUOUS
 62
     7
 10
309.2423762624099
 20
-15.03049837546705
 42
0.07332668712448476
  0
VERTEX
  8
0
  6
CONTINUOUS
 62
     7
 10
309.0845816411057
 20
-15.28838230413249
 42
0.07332668712448476
  0
VERTEX
  8
0
  6
CONTINUOUS
 62
     7
 10
308.9930459558018
 20
-15.59221972214846
 42
0.07332668712448476
  0
VERTEX
  8
0
  6
CONTINUOUS
 62
     7
 10
308.9755599127061
 20
-15.91615068155194
 42
0.07332668712448476
  0
VERTEX
  8
0
  6
CONTINUOUS
 62
     7
 10
309.0336117688195
 20
-16.2326050502358
 42
0.07332668712448476
  0
VERTEX
  8
0
  6
CONTINUOUS
 62
     7
 10
309.1622606646915
 20
-16.51464903722636
 42
0.07332668712448476
  0
VERTEX
  8
0
  6
CONTINUOUS
 62
     7
 10
309.350557146583
 20
-16.73827755824371
 42
0.07332668712448476
  0
VERTEX
  8
0
  6
CONTINUOUS
 62
     7
 10
309.5824750869186
 20
-16.88445733570697
 42
0.07332668712448476
  0
VERTEX
  8
0
  6
CONTINUOUS
 62
     7
 10
309.8382756862181
 20
-16.9407468426208
 42
-1
  0
SEQEND
  8
0
  0
POLYLINE
  8
0
  6
CONTINUOUS
 62
     7
 66
     1
 10
0
 20
0
  0
VERTEX
  8
0
  6
CONTINUOUS
 62
     7
 10
310.7267073448624
 20
-16.05168052822822
 42
0.07459289906077718
  0
VERTEX
  8
0
  6
CONTINUOUS
 62
     7
 10
310.7370343744745
 20
-16.26485042724791
 42
0.07459289906077718
  0
VERTEX
  8
0
  6
CONTINUOUS
 62
     7
 10
310.7912618051971
 20
-16.46436271140003
 42
0.07459289906077718
  0
VERTEX
  8
0
  6
CONTINUOUS
 62
     7
 10
310.8846152847246
 20
-16.63265169628589
 42
0.07459289906077718
  0
VERTEX
  8
0
  6
CONTINUOUS
 62
     7
 10
311.0088756812583
 20
-16.75490069425722
 42
0.07459289906077718
  0
VERTEX
  8
0
  6
CONTINUOUS
 62
     7
 10
311.1531027215312
 20
-16.82034652185619
 42
0.07459289906077718
  0
VERTEX
  8
0
  6
CONTINUOUS
 62
     7
 10
311.3045982066231
 20
-16.82322712409107
 42
0.07459289906077718
  0
VERTEX
  8
0
  6
CONTINUOUS
 62
     7
 10
311.4500240010389
 20
-16.7632888837475
 42
0.07459289906077718
  0
VERTEX
  8
0
  6
CONTINUOUS
 62
     7
 10
311.576576363801
 20
-16.64580895063989
 42
0.07459289906077718
  0
VERTEX
  8
0
  6
CONTINUOUS
 62
     7
 10
311.6731132297797
 20
-16.48113062486586
 42
0.07459289906077718
  0
VERTEX
  8
0
  6
CONTINUOUS
 62
     7
 10
311.7311351918945
 20
-16.28375270037255
 42
0.07459289906077718
  0
VERTEX
  8
0
  6
CONTINUOUS
 62
     7
 10
311.7455338154488
 20
-16.07105294587054
 42
0.07459289906077718
  0
VERTEX
  8
0
  6
CONTINUOUS
 62
     7
 10
311.7150414006707
 20
-15.86175811182102
 42
0.07459289906077718
  0
VERTEX
  8
0
  6
CONTINUOUS
 62
     7
 10
311.6423425949585
 20
-15.67429516885794
 42
0.07459289906077718
  0
VERTEX
  8
0
  6
CONTINUOUS
 62
     7
 10
311.5338380281415
 20
-15.52516893976216
 42
0.07459289906077718
  0
VERTEX
  8
0
  6
CONTINUOUS
 62
     7
 10
311.399080781047
 20
-15.42750896333373
 42
0.07459289906077718
  0
VERTEX
  8
0
  6
CONTINUOUS
 62
     7
 10
311.2499353024379
 20
-15.38991352880387
 42
-1
  0
SEQEND
  8
0
  0
POLYLINE
  8
0
  6
CONTINUOUS
 62
     7
 66
     1
 10
0
 20
0
  0
VERTEX
  8
0
  6
CONTINUOUS
 62
     7
 10
310.2612373609987
 20
-16.05679723929115
 42
0.07398282385211347
  0
VERTEX
  8
0
  6
CONTINUOUS
 62
     7
 10
310.2914585092166
 20
-16.42081107642597
 42
0.07398282385211347
  0
VERTEX
  8
0
  6
CONTINUOUS
 62
     7
 10
310.4029159134488
 20
-16.75776410649005
 42
0.07398282385211347
  0
VERTEX
  8
0
  6
CONTINUOUS
 62
     7
 10
310.5859546356105
 20
-17.03846795330367
 42
0.07398282385211347
  0
VERTEX
  8
0
  6
CONTINUOUS
 62
     7
 10
310.8247190442006
 20
-17.23860679612963
 42
0.07398282385211347
  0
VERTEX
  8
0
  6
CONTINUOUS
 62
     7
 10
311.0985262999078
 20
-17.34084371465158
 42
0.07398282385211347
  0
VERTEX
  8
0
  6
CONTINUOUS
 62
     7
 10
311.3836579955142
 20
-17.33632249043246
 42
0.07398282385211347
  0
VERTEX
  8
0
  6
CONTINUOUS
 62
     7
 10
311.6554147502471
 20
-17.22543477210433
 42
0.07398282385211347
  0
VERTEX
  8
0
  6
CONTINUOUS
 62
     7
 10
311.8902557804398
 20
-17.01778614901496
 42
0.07398282385211347
  0
VERTEX
  8
0
  6
CONTINUOUS
 62
     7
 10
312.0678381073385
 20
-16.7313640721832
 42
0.07398282385211347
  0
VERTEX
  8
0
  6
CONTINUOUS
 62
     7
 10
312.1727787567658
 20
-16.39097970096606
 42
0.07398282385211347
  0
VERTEX
  8
0
  6
CONTINUOUS
 62
     7
 10
312.1959873010399
 20
-16.02611864963711
 42
0.07398282385211347
  0
VERTEX
  8
0
  6
CONTINUOUS
 62
     7
 10
312.1354533124143
 20
-15.66838681180562
 42
0.07398282385211347
  0
VERTEX
  8
0
  6
CONTINUOUS
 62
     7
 10
311.9964205153077
 20
-15.34877251677108
 42
0.07398282385211347
  0
VERTEX
  8
0
  6
CONTINUOUS
 62
     7
 10
311.7909325514777
 20
-15.09496218205617
 42
0.07398282385211347
  0
VERTEX
  8
0
  6
CONTINUOUS
 62
     7
 10
311.5367897059894
 20
-14.92894199228298
 42
0.07398282385211347
  0
VERTEX
  8
0
  6
CONTINUOUS
 62
     7
 10
311.256006967033
 20
-14.86509335767837
 42
-1
  0
SEQEND
  8
0
  0
LINE
  8
0
  6
CONTINUOUS
 62
     7
 10
125.7365848470209
 20
-26.57942380204618
 11
125.8280013540589
 21
-26.06097515081042
  0
LINE
  8
0
  6
CONTINUOUS
 62
     7
 10
124.7448991638017
 20
-24.47265597068831
 11
124.8301558639444
 21
-23.98914131201245
  0
POLYLINE
  8
0
  6
CONTINUOUS
 62
     7
 66
     1
 10
0
 20
0
  0
VERTEX
  8
0
  6
CONTINUOUS
 62
     7
 10
125.062417324237
 20
-25.0851072859973
 42
0.07333214780387673
  0
VERTEX
  8
0
  6
CONTINUOUS
 62
     7
 10
125.0443068413616
 20
-24.90560309029776
 42
0.07333214780387673
  0
VERTEX
  8
0
  6
CONTINUOUS
 62
     7
 10
124.9915170236466
 20
-24.74137895193821
 42
0.07333214780387673
  0
VERTEX
  8
0
  6
CONTINUOUS
 62
     7
 10
124.9085415345327
 20
-24.60641423357904
 42
0.07333214780387673
  0
VERTEX
  8
0
  6
CONTINUOUS
 62
     7
 10
124.8024435528304
 20
-24.51219762843641
 42
0.07333214780387673
  0
VERTEX
  8
0
  6
CONTINUOUS
 62
     7
 10
124.6822545289621
 20
-24.46674920046117
 42
0.07333214780387673
  0
VERTEX
  8
0
  6
CONTINUOUS
 62
     7
 10
124.5582053946851
 20
-24.47393768699826
 42
0.07333214780387673
  0
VERTEX
  8
0
  6
CONTINUOUS
 62
     7
 10
124.4408556685518
 20
-24.53315117763496
 42
0.07333214780387673
  0
VERTEX
  8
0
  6
CONTINUOUS
 62
     7
 10
124.3401945908535
 20
-24.63934920226581
 42
0.07333214780387673
  0
VERTEX
  8
0
  6
CONTINUOUS
 62
     7
 10
124.2647908027474
 20
-24.78349179444639
 42
0.07333214780387673
  0
VERTEX
  8
0
  6
CONTINUOUS
 62
     7
 10
124.2210629520061
 20
-24.9533090065854
 42
0.07333214780387673
  0
VERTEX
  8
0
  6
CONTINUOUS
 62
     7
 10
124.2127333141122
 20
-25.13434537301146
 42
0.07333214780387673
  0
VERTEX
  8
0
  6
CONTINUOUS
 62
     7
 10
124.240510938479
 20
-25.31119041237713
 42
0.07333214780387673
  0
VERTEX
  8
0
  6
CONTINUOUS
 62
     7
 10
124.3020312915566
 20
-25.46879042450973
 42
0.07333214780387673
  0
VERTEX
  8
0
  6
CONTINUOUS
 62
     7
 10
124.3920575346239
 20
-25.59372991673632
 42
0.07333214780387673
  0
VERTEX
  8
0
  6
CONTINUOUS
 62
     7
 10
124.5029263027619
 20
-25.67537357996111
 42
0.07333214780387673
  0
VERTEX
  8
0
  6
CONTINUOUS
 62
     7
 10
124.6252000386602
 20
-25.70677160529157
 42
-1
  0
SEQEND
  8
0
  0
POLYLINE
  8
0
  6
CONTINUOUS
 62
     7
 66
     1
 10
0
 20
0
  0
VERTEX
  8
0
  6
CONTINUOUS
 62
     7
 10
125.5272059657437
 20
-25.08510734928634
 42
0.07332668712448476
  0
VERTEX
  8
0
  6
CONTINUOUS
 62
     7
 10
125.4893188206164
 20
-24.76391246876161
 42
0.07332668712448476
  0
VERTEX
  8
0
  6
CONTINUOUS
 62
     7
 10
125.3788819584388
 20
-24.47005484130827
 42
0.07332668712448476
  0
VERTEX
  8
0
  6
CONTINUOUS
 62
     7
 10
125.2052947860637
 20
-24.22854502357238
 42
0.07332668712448476
  0
VERTEX
  8
0
  6
CONTINUOUS
 62
     7
 10
124.9833315050164
 20
-24.05993819062087
 42
0.07332668712448476
  0
VERTEX
  8
0
  6
CONTINUOUS
 62
     7
 10
124.7318836624115
 20
-23.9785846616304
 42
0.07332668712448476
  0
VERTEX
  8
0
  6
CONTINUOUS
 62
     7
 10
124.472352269907
 20
-23.99140852791281
 42
0.07332668712448476
  0
VERTEX
  8
0
  6
CONTINUOUS
 62
     7
 10
124.2268263392804
 20
-24.09731833563431
 42
0.07332668712448476
  0
VERTEX
  8
0
  6
CONTINUOUS
 62
     7
 10
124.016202861531
 20
-24.28729998069165
 42
0.07332668712448476
  0
VERTEX
  8
0
  6
CONTINUOUS
 62
     7
 10
123.8584082402268
 20
-24.5451839093571
 42
0.07332668712448476
  0
VERTEX
  8
0
  6
CONTINUOUS
 62
     7
 10
123.7668725549229
 20
-24.84902132737307
 42
0.07332668712448476
  0
VERTEX
  8
0
  6
CONTINUOUS
 62
     7
 10
123.7493865118272
 20
-25.17295228677654
 42
0.07332668712448476
  0
VERTEX
  8
0
  6
CONTINUOUS
 62
     7
 10
123.8074383679406
 20
-25.48940665546041
 42
0.07332668712448476
  0
VERTEX
  8
0
  6
CONTINUOUS
 62
     7
 10
123.9360872638126
 20
-25.77145064245097
 42
0.07332668712448476
  0
VERTEX
  8
0
  6
CONTINUOUS
 62
     7
 10
124.1243837457041
 20
-25.99507916346832
 42
0.07332668712448476
  0
VERTEX
  8
0
  6
CONTINUOUS
 62
     7
 10
124.3563016860397
 20
-26.14125894093158
 42
0.07332668712448476
  0
VERTEX
  8
0
  6
CONTINUOUS
 62
     7
 10
124.6121022853392
 20
-26.19754844784541
 42
-1
  0
SEQEND
  8
0
  0
POLYLINE
  8
0
  6
CONTINUOUS
 62
     7
 66
     1
 10
0
 20
0
  0
VERTEX
  8
0
  6
CONTINUOUS
 62
     7
 10
125.5005339439834
 20
-25.30848213345283
 42
0.07459289906077718
  0
VERTEX
  8
0
  6
CONTINUOUS
 62
     7
 10
125.5108609735956
 20
-25.52165203247252
 42
0.07459289906077718
  0
VERTEX
  8
0
  6
CONTINUOUS
 62
     7
 10
125.5650884043182
 20
-25.72116431662463
 42
0.07459289906077718
  0
VERTEX
  8
0
  6
CONTINUOUS
 62
     7
 10
125.6584418838457
 20
-25.88945330151049
 42
0.07459289906077718
  0
VERTEX
  8
0
  6
CONTINUOUS
 62
     7
 10
125.7827022803794
 20
-26.01170229948182
 42
0.07459289906077718
  0
VERTEX
  8
0
  6
CONTINUOUS
 62
     7
 10
125.9269293206524
 20
-26.0771481270808
 42
0.07459289906077718
  0
VERTEX
  8
0
  6
CONTINUOUS
 62
     7
 10
126.0784248057442
 20
-26.08002872931568
 42
0.07459289906077718
  0
VERTEX
  8
0
  6
CONTINUOUS
 62
     7
 10
126.22385060016
 20
-26.02009048897211
 42
0.07459289906077718
  0
VERTEX
  8
0
  6
CONTINUOUS
 62
     7
 10
126.3504029629221
 20
-25.9026105558645
 42
0.07459289906077718
  0
VERTEX
  8
0
  6
CONTINUOUS
 62
     7
 10
126.4469398289009
 20
-25.73793223009046
 42
0.07459289906077718
  0
VERTEX
  8
0
  6
CONTINUOUS
 62
     7
 10
126.5049617910156
 20
-25.54055430559716
 42
0.07459289906077718
  0
VERTEX
  8
0
  6
CONTINUOUS
 62
     7
 10
126.5193604145699
 20
-25.32785455109515
 42
0.07459289906077718
  0
VERTEX
  8
0
  6
CONTINUOUS
 62
     7
 10
126.4888679997919
 20
-25.11855971704563
 42
0.07459289906077718
  0
VERTEX
  8
0
  6
CONTINUOUS
 62
     7
 10
126.4161691940796
 20
-24.93109677408255
 42
0.07459289906077718
  0
VERTEX
  8
0
  6
CONTINUOUS
 62
     7
 10
126.3076646272626
 20
-24.78197054498677
 42
0.07459289906077718
  0
VERTEX
  8
0
  6
CONTINUOUS
 62
     7
 10
126.1729073801681
 20
-24.68431056855834
 42
0.07459289906077718
  0
VERTEX
  8
0
  6
CONTINUOUS
 62
     7
 10
126.0237619015591
 20
-24.64671513402848
 42
-1
  0
SEQEND
  8
0
  0
POLYLINE
  8
0
  6
CONTINUOUS
 62
     7
 66
     1
 10
0
 20
0
  0
VERTEX
  8
0
  6
CONTINUOUS
 62
     7
 10
125.0350639601198
 20
-25.31359884451576
 42
0.07398282385211347
  0
VERTEX
  8
0
  6
CONTINUOUS
 62
     7
 10
125.0652851083377
 20
-25.67761268165058
 42
0.07398282385211347
  0
VERTEX
  8
0
  6
CONTINUOUS
 62
     7
 10
125.1767425125699
 20
-26.01456571171465
 42
0.07398282385211347
  0
VERTEX
  8
0
  6
CONTINUOUS
 62
     7
 10
125.3597812347316
 20
-26.29526955852828
 42
0.07398282385211347
  0
VERTEX
  8
0
  6
CONTINUOUS
 62
     7
 10
125.5985456433217
 20
-26.49540840135424
 42
0.07398282385211347
  0
VERTEX
  8
0
  6
CONTINUOUS
 62
     7
 10
125.8723528990288
 20
-26.59764531987619
 42
0.07398282385211347
  0
VERTEX
  8
0
  6
CONTINUOUS
 62
     7
 10
126.1574845946353
 20
-26.59312409565706
 42
0.07398282385211347
  0
VERTEX
  8
0
  6
CONTINUOUS
 62
     7
 10
126.4292413493682
 20
-26.48223637732894
 42
0.07398282385211347
  0
VERTEX
  8
0
  6
CONTINUOUS
 62
     7
 10
126.664082379561
 20
-26.27458775423957
 42
0.07398282385211347
  0
VERTEX
  8
0
  6
CONTINUOUS
 62
     7
 10
126.8416647064596
 20
-25.98816567740781
 42
0.07398282385211347
  0
VERTEX
  8
0
  6
CONTINUOUS
 62
     7
 10
126.946605355887
 20
-25.64778130619067
 42
0.07398282385211347
  0
VERTEX
  8
0
  6
CONTINUOUS
 62
     7
 10
126.969813900161
 20
-25.28292025486172
 42
0.07398282385211347
  0
VERTEX
  8
0
  6
CONTINUOUS
 62
     7
 10
126.9092799115354
 20
-24.92518841703023
 42
0.07398282385211347
  0
VERTEX
  8
0
  6
CONTINUOUS
 62
     7
 10
126.7702471144288
 20
-24.60557412199569
 42
0.07398282385211347
  0
VERTEX
  8
0
  6
CONTINUOUS
 62
     7
 10
126.5647591505988
 20
-24.35176378728078
 42
0.07398282385211347
  0
VERTEX
  8
0
  6
CONTINUOUS
 62
     7
 10
126.3106163051105
 20
-24.1857435975076
 42
0.07398282385211347
  0
VERTEX
  8
0
  6
CONTINUOUS
 62
     7
 10
126.0298335661541
 20
-24.12189496290298
 42
-1
  0
SEQEND
  8
0
  0
LINE
  8
0
  6
CONTINUOUS
 62
     7
 10
125.7365848470209
 20
-15.73412980332791
 11
125.8280013540589
 21
-15.21568115209216
  0
LINE
  8
0
  6
CONTINUOUS
 62
     7
 10
124.7448991638017
 20
-13.62736197197005
 11
124.8301558639444
 21
-13.14384731329419
  0
POLYLINE
  8
0
  6
CONTINUOUS
 62
     7
 66
     1
 10
0
 20
0
  0
VERTEX
  8
0
  6
CONTINUOUS
 62
     7
 10
125.062417324237
 20
-14.23981328727904
 42
0.07333214780387673
  0
VERTEX
  8
0
  6
CONTINUOUS
 62
     7
 10
125.0443068413616
 20
-14.06030909157949
 42
0.07333214780387673
  0
VERTEX
  8
0
  6
CONTINUOUS
 62
     7
 10
124.9915170236466
 20
-13.89608495321995
 42
0.07333214780387673
  0
VERTEX
  8
0
  6
CONTINUOUS
 62
     7
 10
124.9085415345327
 20
-13.76112023486078
 42
0.07333214780387673
  0
VERTEX
  8
0
  6
CONTINUOUS
 62
     7
 10
124.8024435528304
 20
-13.66690362971815
 42
0.07333214780387673
  0
VERTEX
  8
0
  6
CONTINUOUS
 62
     7
 10
124.6822545289621
 20
-13.62145520174291
 42
0.07333214780387673
  0
VERTEX
  8
0
  6
CONTINUOUS
 62
     7
 10
124.5582053946851
 20
-13.62864368828
 42
0.07333214780387673
  0
VERTEX
  8
0
  6
CONTINUOUS
 62
     7
 10
124.4408556685518
 20
-13.6878571789167
 42
0.07333214780387673
  0
VERTEX
  8
0
  6
CONTINUOUS
 62
     7
 10
124.3401945908535
 20
-13.79405520354755
 42
0.07333214780387673
  0
VERTEX
  8
0
  6
CONTINUOUS
 62
     7
 10
124.2647908027474
 20
-13.93819779572813
 42
0.07333214780387673
  0
VERTEX
  8
0
  6
CONTINUOUS
 62
     7
 10
124.2210629520061
 20
-14.10801500786714
 42
0.07333214780387673
  0
VERTEX
  8
0
  6
CONTINUOUS
 62
     7
 10
124.2127333141122
 20
-14.2890513742932
 42
0.07333214780387673
  0
VERTEX
  8
0
  6
CONTINUOUS
 62
     7
 10
124.240510938479
 20
-14.46589641365887
 42
0.07333214780387673
  0
VERTEX
  8
0
  6
CONTINUOUS
 62
     7
 10
124.3020312915566
 20
-14.62349642579147
 42
0.07333214780387673
  0
VERTEX
  8
0
  6
CONTINUOUS
 62
     7
 10
124.3920575346239
 20
-14.74843591801806
 42
0.07333214780387673
  0
VERTEX
  8
0
  6
CONTINUOUS
 62
     7
 10
124.5029263027619
 20
-14.83007958124285
 42
0.07333214780387673
  0
VERTEX
  8
0
  6
CONTINUOUS
 62
     7
 10
124.6252000386602
 20
-14.86147760657331
 42
-1
  0
SEQEND
  8
0
  0
POLYLINE
  8
0
  6
CONTINUOUS
 62
     7
 66
     1
 10
0
 20
0
  0
VERTEX
  8
0
  6
CONTINUOUS
 62
     7
 10
125.5272059657437
 20
-14.23981335056808
 42
0.07332668712448476
  0
VERTEX
  8
0
  6
CONTINUOUS
 62
     7
 10
125.4893188206164
 20
-13.91861847004335
 42
0.07332668712448476
  0
VERTEX
  8
0
  6
CONTINUOUS
 62
     7
 10
125.3788819584388
 20
-13.62476084259001
 42
0.07332668712448476
  0
VERTEX
  8
0
  6
CONTINUOUS
 62
     7
 10
125.2052947860637
 20
-13.38325102485412
 42
0.07332668712448476
  0
VERTEX
  8
0
  6
CONTINUOUS
 62
     7
 10
124.9833315050164
 20
-13.21464419190261
 42
0.07332668712448476
  0
VERTEX
  8
0
  6
CONTINUOUS
 62
     7
 10
124.7318836624115
 20
-13.13329066291214
 42
0.07332668712448476
  0
VERTEX
  8
0
  6
CONTINUOUS
 62
     7
 10
124.472352269907
 20
-13.14611452919455
 42
0.07332668712448476
  0
VERTEX
  8
0
  6
CONTINUOUS
 62
     7
 10
124.2268263392804
 20
-13.25202433691604
 42
0.07332668712448476
  0
VERTEX
  8
0
  6
CONTINUOUS
 62
     7
 10
124.016202861531
 20
-13.44200598197339
 42
0.07332668712448476
  0
VERTEX
  8
0
  6
CONTINUOUS
 62
     7
 10
123.8584082402268
 20
-13.69988991063884
 42
0.07332668712448476
  0
VERTEX
  8
0
  6
CONTINUOUS
 62
     7
 10
123.7668725549229
 20
-14.00372732865481
 42
0.07332668712448476
  0
VERTEX
  8
0
  6
CONTINUOUS
 62
     7
 10
123.7493865118272
 20
-14.32765828805828
 42
0.07332668712448476
  0
VERTEX
  8
0
  6
CONTINUOUS
 62
     7
 10
123.8074383679406
 20
-14.64411265674215
 42
0.07332668712448476
  0
VERTEX
  8
0
  6
CONTINUOUS
 62
     7
 10
123.9360872638126
 20
-14.92615664373271
 42
0.07332668712448476
  0
VERTEX
  8
0
  6
CONTINUOUS
 62
     7
 10
124.1243837457041
 20
-15.14978516475006
 42
0.07332668712448476
  0
VERTEX
  8
0
  6
CONTINUOUS
 62
     7
 10
124.3563016860397
 20
-15.29596494221332
 42
0.07332668712448476
  0
VERTEX
  8
0
  6
CONTINUOUS
 62
     7
 10
124.6121022853392
 20
-15.35225444912715
 42
-1
  0
SEQEND
  8
0
  0
POLYLINE
  8
0
  6
CONTINUOUS
 62
     7
 66
     1
 10
0
 20
0
  0
VERTEX
  8
0
  6
CONTINUOUS
 62
     7
 10
125.5005339439834
 20
-14.46318813473457
 42
0.07459289906077718
  0
VERTEX
  8
0
  6
CONTINUOUS
 62
     7
 10
125.5108609735956
 20
-14.67635803375426
 42
0.07459289906077718
  0
VERTEX
  8
0
  6
CONTINUOUS
 62
     7
 10
125.5650884043182
 20
-14.87587031790637
 42
0.07459289906077718
  0
VERTEX
  8
0
  6
CONTINUOUS
 62
     7
 10
125.6584418838457
 20
-15.04415930279223
 42
0.07459289906077718
  0
VERTEX
  8
0
  6
CONTINUOUS
 62
     7
 10
125.7827022803794
 20
-15.16640830076356
 42
0.07459289906077718
  0
VERTEX
  8
0
  6
CONTINUOUS
 62
     7
 10
125.9269293206524
 20
-15.23185412836254
 42
0.07459289906077718
  0
VERTEX
  8
0
  6
CONTINUOUS
 62
     7
 10
126.0784248057442
 20
-15.23473473059742
 42
0.07459289906077718
  0
VERTEX
  8
0
  6
CONTINUOUS
 62
     7
 10
126.22385060016
 20
-15.17479649025384
 42
0.07459289906077718
  0
VERTEX
  8
0
  6
CONTINUOUS
 62
     7
 10
126.3504029629221
 20
-15.05731655714624
 42
0.07459289906077718
  0
VERTEX
  8
0
  6
CONTINUOUS
 62
     7
 10
126.4469398289009
 20
-14.8926382313722
 42
0.07459289906077718
  0
VERTEX
  8
0
  6
CONTINUOUS
 62
     7
 10
126.5049617910156
 20
-14.69526030687889
 42
0.07459289906077718
  0
VERTEX
  8
0
  6
CONTINUOUS
 62
     7
 10
126.5193604145699
 20
-14.48256055237689
 42
0.07459289906077718
  0
VERTEX
  8
0
  6
CONTINUOUS
 62
     7
 10
126.4888679997919
 20
-14.27326571832737
 42
0.07459289906077718
  0
VERTEX
  8
0
  6
CONTINUOUS
 62
     7
 10
126.4161691940796
 20
-14.08580277536429
 42
0.07459289906077718
  0
VERTEX
  8
0
  6
CONTINUOUS
 62
     7
 10
126.3076646272626
 20
-13.93667654626851
 42
0.07459289906077718
  0
VERTEX
  8
0
  6
CONTINUOUS
 62
     7
 10
126.1729073801681
 20
-13.83901656984008
 42
0.07459289906077718
  0
VERTEX
  8
0
  6
CONTINUOUS
 62
     7
 10
126.0237619015591
 20
-13.80142113531022
 42
-1
  0
SEQEND
  8
0
  0
POLYLINE
  8
0
  6
CONTINUOUS
 62
     7
 66
     1
 10
0
 20
0
  0
VERTEX
  8
0
  6
CONTINUOUS
 62
     7
 10
125.0350639601198
 20
-14.4683048457975
 42
0.07398282385211347
  0
VERTEX
  8
0
  6
CONTINUOUS
 62
     7
 10
125.0652851083377
 20
-14.83231868293231
 42
0.07398282385211347
  0
VERTEX
  8
0
  6
CONTINUOUS
 62
     7
 10
125.1767425125699
 20
-15.16927171299639
 42
0.07398282385211347
  0
VERTEX
  8
0
  6
CONTINUOUS
 62
     7
 10
125.3597812347316
 20
-15.44997555981001
 42
0.07398282385211347
  0
VERTEX
  8
0
  6
CONTINUOUS
 62
     7
 10
125.5985456433217
 20
-15.65011440263598
 42
0.07398282385211347
  0
VERTEX
  8
0
  6
CONTINUOUS
 62
     7
 10
125.8723528990288
 20
-15.75235132115792
 42
0.07398282385211347
  0
VERTEX
  8
0
  6
CONTINUOUS
 62
     7
 10
126.1574845946353
 20
-15.7478300969388
 42
0.07398282385211347
  0
VERTEX
  8
0
  6
CONTINUOUS
 62
     7
 10
126.4292413493682
 20
-15.63694237861068
 42
0.07398282385211347
  0
VERTEX
  8
0
  6
CONTINUOUS
 62
     7
 10
126.664082379561
 20
-15.42929375552131
 42
0.07398282385211347
  0
VERTEX
  8
0
  6
CONTINUOUS
 62
     7
 10
126.8416647064596
 20
-15.14287167868955
 42
0.07398282385211347
  0
VERTEX
  8
0
  6
CONTINUOUS
 62
     7
 10
126.946605355887
 20
-14.8024873074724
 42
0.07398282385211347
  0
VERTEX
  8
0
  6
CONTINUOUS
 62
     7
 10
126.969813900161
 20
-14.43762625614346
 42
0.07398282385211347
  0
VERTEX
  8
0
  6
CONTINUOUS
 62
     7
 10
126.9092799115354
 20
-14.07989441831197
 42
0.07398282385211347
  0
VERTEX
  8
0
  6
CONTINUOUS
 62
     7
 10
126.7702471144288
 20
-13.76028012327743
 42
0.07398282385211347
  0
VERTEX
  8
0
  6
CONTINUOUS
 62
     7
 10
126.5647591505988
 20
-13.50646978856252
 42
0.07398282385211347
  0
VERTEX
  8
0
  6
CONTINUOUS
 62
     7
 10
126.3106163051105
 20
-13.34044959878934
 42
0.07398282385211347
  0
VERTEX
  8
0
  6
CONTINUOUS
 62
     7
 10
126.0298335661541
 20
-13.27660096418472
 42
-1
  0
SEQEND
  8
0
  0
LINE
  8
0
  6
CONTINUOUS
 62
     7
 10
4.22595996146177
 20
-9.291223423628205
 11
4.31737646849978
 21
-8.772774772392452
  0
LINE
  8
0
  6
CONTINUOUS
 62
     7
 10
3.234274278242608
 20
-7.184455592270341
 11
3.319530978385362
 21
-6.700940933594483
  0
POLYLINE
  8
0
  6
CONTINUOUS
 62
     7
 66
     1
 10
0
 20
0
  0
VERTEX
  8
0
  6
CONTINUOUS
 62
     7
 10
3.551792438677917
 20
-7.796906907579329
 42
0.07333214780387673
  0
VERTEX
  8
0
  6
CONTINUOUS
 62
     7
 10
3.533681955802503
 20
-7.617402711879787
 42
0.07333214780387673
  0
VERTEX
  8
0
  6
CONTINUOUS
 62
     7
 10
3.480892138087522
 20
-7.453178573520241
 42
0.07333214780387673
  0
VERTEX
  8
0
  6
CONTINUOUS
 62
     7
 10
3.397916648973593
 20
-7.318213855161073
 42
0.07333214780387673
  0
VERTEX
  8
0
  6
CONTINUOUS
 62
     7
 10
3.291818667271293
 20
-7.223997250018439
 42
0.07333214780387673
  0
VERTEX
  8
0
  6
CONTINUOUS
 62
     7
 10
3.171629643402998
 20
-7.178548822043203
 42
0.07333214780387673
  0
VERTEX
  8
0
  6
CONTINUOUS
 62
     7
 10
3.047580509125977
 20
-7.185737308580293
 42
0.07333214780387673
  0
VERTEX
  8
0
  6
CONTINUOUS
 62
     7
 10
2.930230782992666
 20
-7.244950799216996
 42
0.07333214780387673
  0
VERTEX
  8
0
  6
CONTINUOUS
 62
     7
 10
2.829569705294422
 20
-7.351148823847841
 42
0.07333214780387673
  0
VERTEX
  8
0
  6
CONTINUOUS
 62
     7
 10
2.754165917188298
 20
-7.495291416028425
 42
0.07333214780387673
  0
VERTEX
  8
0
  6
CONTINUOUS
 62
     7
 10
2.710438066446978
 20
-7.665108628167433
 42
0.07333214780387673
  0
VERTEX
  8
0
  6
CONTINUOUS
 62
     7
 10
2.702108428553094
 20
-7.846144994593492
 42
0.07333214780387673
  0
VERTEX
  8
0
  6
CONTINUOUS
 62
     7
 10
2.729886052919915
 20
-8.022990033959166
 42
0.07333214780387673
  0
VERTEX
  8
0
  6
CONTINUOUS
 62
     7
 10
2.79140640599746
 20
-8.180590046091766
 42
0.07333214780387673
  0
VERTEX
  8
0
  6
CONTINUOUS
 62
     7
 10
2.881432649064839
 20
-8.305529538318346
 42
0.07333214780387673
  0
VERTEX
  8
0
  6
CONTINUOUS
 62
     7
 10
2.992301417202849
 20
-8.38717320154314
 42
0.07333214780387673
  0
VERTEX
  8
0
  6
CONTINUOUS
 62
     7
 10
3.114575153101136
 20
-8.418571226873601
 42
-1
  0
SEQEND
  8
0
  0
POLYLINE
  8
0
  6
CONTINUOUS
 62
     7
 66
     1
 10
0
 20
0
  0
VERTEX
  8
0
  6
CONTINUOUS
 62
     7
 10
4.016581080184574
 20
-7.796906970868376
 42
0.07332668712448476
  0
VERTEX
  8
0
  6
CONTINUOUS
 62
     7
 10
3.978693935057344
 20
-7.475712090343645
 42
0.07332668712448476
  0
VERTEX
  8
0
  6
CONTINUOUS
 62
     7
 10
3.868257072879668
 20
-7.181854462890306
 42
0.07332668712448476
  0
VERTEX
  8
0
  6
CONTINUOUS
 62
     7
 10
3.6946699005046
 20
-6.94034464515441
 42
0.07332668712448476
  0
VERTEX
  8
0
  6
CONTINUOUS
 62
     7
 10
3.472706619457346
 20
-6.771737812202906
 42
0.07332668712448476
  0
VERTEX
  8
0
  6
CONTINUOUS
 62
     7
 10
3.221258776852359
 20
-6.690384283212433
 42
0.07332668712448476
  0
VERTEX
  8
0
  6
CONTINUOUS
 62
     7
 10
2.961727384347906
 20
-6.703208149494846
 42
0.07332668712448476
  0
VERTEX
  8
0
  6
CONTINUOUS
 62
     7
 10
2.716201453721271
 20
-6.809117957216338
 42
0.07332668712448476
  0
VERTEX
  8
0
  6
CONTINUOUS
 62
     7
 10
2.505577975971905
 20
-6.999099602273684
 42
0.07332668712448476
  0
VERTEX
  8
0
  6
CONTINUOUS
 62
     7
 10
2.347783354667723
 20
-7.256983530939133
 42
0.07332668712448476
  0
VERTEX
  8
0
  6
CONTINUOUS
 62
     7
 10
2.256247669363824
 20
-7.560820948955102
 42
0.07332668712448476
  0
VERTEX
  8
0
  6
CONTINUOUS
 62
     7
 10
2.23876162626807
 20
-7.884751908358576
 42
0.07332668712448476
  0
VERTEX
  8
0
  6
CONTINUOUS
 62
     7
 10
2.296813482381485
 20
-8.201206277042445
 42
0.07332668712448476
  0
VERTEX
  8
0
  6
CONTINUOUS
 62
     7
 10
2.425462378253471
 20
-8.483250264033
 42
0.07332668712448476
  0
VERTEX
  8
0
  6
CONTINUOUS
 62
     7
 10
2.613758860145008
 20
-8.706878785050348
 42
0.07332668712448476
  0
VERTEX
  8
0
  6
CONTINUOUS
 62
     7
 10
2.845676800480598
 20
-8.853058562513615
 42
0.07332668712448476
  0
VERTEX
  8
0
  6
CONTINUOUS
 62
     7
 10
3.101477399780141
 20
-8.909348069427441
 42
-1
  0
SEQEND
  8
0
  0
POLYLINE
  8
0
  6
CONTINUOUS
 62
     7
 66
     1
 10
0
 20
0
  0
VERTEX
  8
0
  6
CONTINUOUS
 62
     7
 10
3.989909058424341
 20
-8.020281755034864
 42
0.07459289906077718
  0
VERTEX
  8
0
  6
CONTINUOUS
 62
     7
 10
4.000236088036489
 20
-8.233451654054553
 42
0.07459289906077718
  0
VERTEX
  8
0
  6
CONTINUOUS
 62
     7
 10
4.054463518759083
 20
-8.432963938206664
 42
0.07459289906077718
  0
VERTEX
  8
0
  6
CONTINUOUS
 62
     7
 10
4.147816998286587
 20
-8.601252923092524
 42
0.07459289906077718
  0
VERTEX
  8
0
  6
CONTINUOUS
 62
     7
 10
4.272077394820346
 20
-8.723501921063853
 42
0.07459289906077718
  0
VERTEX
  8
0
  6
CONTINUOUS
 62
     7
 10
4.416304435093267
 20
-8.78894774866283
 42
0.07459289906077718
  0
VERTEX
  8
0
  6
CONTINUOUS
 62
     7
 10
4.567799920185144
 20
-8.79182835089771
 42
0.07459289906077718
  0
VERTEX
  8
0
  6
CONTINUOUS
 62
     7
 10
4.713225714600933
 20
-8.731890110554138
 42
0.07459289906077718
  0
VERTEX
  8
0
  6
CONTINUOUS
 62
     7
 10
4.83977807736303
 20
-8.61441017744653
 42
0.07459289906077718
  0
VERTEX
  8
0
  6
CONTINUOUS
 62
     7
 10
4.936314943341801
 20
-8.449731851672494
 42
0.07459289906077718
  0
VERTEX
  8
0
  6
CONTINUOUS
 62
     7
 10
4.994336905456493
 20
-8.252353927179188
 42
0.07459289906077718
  0
VERTEX
  8
0
  6
CONTINUOUS
 62
     7
 10
5.008735529010821
 20
-8.039654172677183
 42
0.07459289906077718
  0
VERTEX
  8
0
  6
CONTINUOUS
 62
     7
 10
4.978243114232784
 20
-7.830359338627661
 42
0.07459289906077718
  0
VERTEX
  8
0
  6
CONTINUOUS
 62
     7
 10
4.905544308520515
 20
-7.642896395664582
 42
0.07459289906077718
  0
VERTEX
  8
0
  6
CONTINUOUS
 62
     7
 10
4.797039741703544
 20
-7.493770166568806
 42
0.07459289906077718
  0
VERTEX
  8
0
  6
CONTINUOUS
 62
     7
 10
4.662282494609055
 20
-7.396110190140372
 42
0.07459289906077718
  0
VERTEX
  8
0
  6
CONTINUOUS
 62
     7
 10
4.513137015999964
 20
-7.358514755610513
 42
-1
  0
SEQEND
  8
0
  0
POLYLINE
  8
0
  6
CONTINUOUS
 62
     7
 66
     1
 10
0
 20
0
  0
VERTEX
  8
0
  6
CONTINUOUS
 62
     7
 10
3.524439074560727
 20
-8.025398466097796
 42
0.07398282385211347
  0
VERTEX
  8
0
  6
CONTINUOUS
 62
     7
 10
3.554660222778609
 20
-8.389412303232607
 42
0.07398282385211347
  0
VERTEX
  8
0
  6
CONTINUOUS
 62
     7
 10
3.666117627010806
 20
-8.726365333296686
 42
0.07398282385211347
  0
VERTEX
  8
0
  6
CONTINUOUS
 62
     7
 10
3.849156349172546
 20
-9.007069180110305
 42
0.07398282385211347
  0
VERTEX
  8
0
  6
CONTINUOUS
 62
     7
 10
4.087920757762614
 20
-9.207208022936273
 42
0.07398282385211347
  0
VERTEX
  8
0
  6
CONTINUOUS
 62
     7
 10
4.361728013469754
 20
-9.309444941458219
 42
0.07398282385211347
  0
VERTEX
  8
0
  6
CONTINUOUS
 62
     7
 10
4.646859709076201
 20
-9.30492371723909
 42
0.07398282385211347
  0
VERTEX
  8
0
  6
CONTINUOUS
 62
     7
 10
4.918616463809089
 20
-9.19403599891097
 42
0.07398282385211347
  0
VERTEX
  8
0
  6
CONTINUOUS
 62
     7
 10
5.153457494001872
 20
-8.9863873758216
 42
0.07398282385211347
  0
VERTEX
  8
0
  6
CONTINUOUS
 62
     7
 10
5.331039820900513
 20
-8.699965298989842
 42
0.07398282385211347
  0
VERTEX
  8
0
  6
CONTINUOUS
 62
     7
 10
5.435980470327863
 20
-8.359580927772697
 42
0.07398282385211347
  0
VERTEX
  8
0
  6
CONTINUOUS
 62
     7
 10
5.459189014601912
 20
-7.994719876443753
 42
0.07398282385211347
  0
VERTEX
  8
0
  6
CONTINUOUS
 62
     7
 10
5.398655025976321
 20
-7.63698803861226
 42
0.07398282385211347
  0
VERTEX
  8
0
  6
CONTINUOUS
 62
     7
 10
5.259622228869674
 20
-7.317373743577719
 42
0.07398282385211347
  0
VERTEX
  8
0
  6
CONTINUOUS
 62
     7
 10
5.054134265039686
 20
-7.063563408862812
 42
0.07398282385211347
  0
VERTEX
  8
0
  6
CONTINUOUS
 62
     7
 10
4.799991419551415
 20
-6.897543219089628
 42
0.07398282385211347
  0
VERTEX
  8
0
  6
CONTINUOUS
 62
     7
 10
4.519208680595019
 20
-6.83369458448501
 42
-1
  0
SEQEND
  8
0
  0
LINE
  8
0
  6
CONTINUOUS
 62
     7
 10
4.22595996146177
 20
-20.13651837602079
 11
4.31737646849978
 21
-19.61806972478503
  0
LINE
  8
0
  6
CONTINUOUS
 62
     7
 10
3.234274278242608
 20
-18.02975054466292
 11
3.319530978385362
 21
-17.54623588598706
  0
POLYLINE
  8
0
  6
CONTINUOUS
 62
     7
 66
     1
 10
0
 20
0
  0
VERTEX
  8
0
  6
CONTINUOUS
 62
     7
 10
3.551792438677916
 20
-18.64220185997191
 42
0.07333214780387673
  0
VERTEX
  8
0
  6
CONTINUOUS
 62
     7
 10
3.533681955802503
 20
-18.46269766427237
 42
0.07333214780387673
  0
VERTEX
  8
0
  6
CONTINUOUS
 62
     7
 10
3.480892138087522
 20
-18.29847352591282
 42
0.07333214780387673
  0
VERTEX
  8
0
  6
CONTINUOUS
 62
     7
 10
3.397916648973593
 20
-18.16350880755365
 42
0.07333214780387673
  0
VERTEX
  8
0
  6
CONTINUOUS
 62
     7
 10
3.291818667271293
 20
-18.06929220241102
 42
0.07333214780387673
  0
VERTEX
  8
0
  6
CONTINUOUS
 62
     7
 10
3.171629643402998
 20
-18.02384377443578
 42
0.07333214780387673
  0
VERTEX
  8
0
  6
CONTINUOUS
 62
     7
 10
3.047580509125977
 20
-18.03103226097287
 42
0.07333214780387673
  0
VERTEX
  8
0
  6
CONTINUOUS
 62
     7
 10
2.930230782992666
 20
-18.09024575160957
 42
0.07333214780387673
  0
VERTEX
  8
0
  6
CONTINUOUS
 62
     7
 10
2.829569705294422
 20
-18.19644377624042
 42
0.07333214780387673
  0
VERTEX
  8
0
  6
CONTINUOUS
 62
     7
 10
2.754165917188298
 20
-18.340586368421
 42
0.07333214780387673
  0
VERTEX
  8
0
  6
CONTINUOUS
 62
     7
 10
2.710438066446978
 20
-18.51040358056001
 42
0.07333214780387673
  0
VERTEX
  8
0
  6
CONTINUOUS
 62
     7
 10
2.702108428553094
 20
-18.69143994698607
 42
0.07333214780387673
  0
VERTEX
  8
0
  6
CONTINUOUS
 62
     7
 10
2.729886052919915
 20
-18.86828498635174
 42
0.07333214780387673
  0
VERTEX
  8
0
  6
CONTINUOUS
 62
     7
 10
2.79140640599746
 20
-19.02588499848434
 42
0.07333214780387673
  0
VERTEX
  8
0
  6
CONTINUOUS
 62
     7
 10
2.881432649064839
 20
-19.15082449071092
 42
0.07333214780387673
  0
VERTEX
  8
0
  6
CONTINUOUS
 62
     7
 10
2.992301417202849
 20
-19.23246815393572
 42
0.07333214780387673
  0
VERTEX
  8
0
  6
CONTINUOUS
 62
     7
 10
3.114575153101136
 20
-19.26386617926618
 42
-1
  0
SEQEND
  8
0
  0
POLYLINE
  8
0
  6
CONTINUOUS
 62
     7
 66
     1
 10
0
 20
0
  0
VERTEX
  8
0
  6
CONTINUOUS
 62
     7
 10
4.016581080184574
 20
-18.64220192326095
 42
0.07332668712448476
  0
VERTEX
  8
0
  6
CONTINUOUS
 62
     7
 10
3.978693935057344
 20
-18.32100704273622
 42
0.07332668712448476
  0
VERTEX
  8
0
  6
CONTINUOUS
 62
     7
 10
3.868257072879668
 20
-18.02714941528288
 42
0.07332668712448476
  0
VERTEX
  8
0
  6
CONTINUOUS
 62
     7
 10
3.6946699005046
 20
-17.78563959754699
 42
0.07332668712448476
  0
VERTEX
  8
0
  6
CONTINUOUS
 62
     7
 10
3.472706619457346
 20
-17.61703276459548
 42
0.07332668712448476
  0
VERTEX
  8
0
  6
CONTINUOUS
 62
     7
 10
3.221258776852359
 20
-17.53567923560501
 42
0.07332668712448476
  0
VERTEX
  8
0
  6
CONTINUOUS
 62
     7
 10
2.961727384347906
 20
-17.54850310188742
 42
0.07332668712448476
  0
VERTEX
  8
0
  6
CONTINUOUS
 62
     7
 10
2.716201453721272
 20
-17.65441290960892
 42
0.07332668712448476
  0
VERTEX
  8
0
  6
CONTINUOUS
 62
     7
 10
2.505577975971905
 20
-17.84439455466626
 42
0.07332668712448476
  0
VERTEX
  8
0
  6
CONTINUOUS
 62
     7
 10
2.347783354667723
 20
-18.10227848333171
 42
0.07332668712448476
  0
VERTEX
  8
0
  6
CONTINUOUS
 62
     7
 10
2.256247669363825
 20
-18.40611590134768
 42
0.07332668712448476
  0
VERTEX
  8
0
  6
CONTINUOUS
 62
     7
 10
2.238761626268071
 20
-18.73004686075115
 42
0.07332668712448476
  0
VERTEX
  8
0
  6
CONTINUOUS
 62
     7
 10
2.296813482381485
 20
-19.04650122943502
 42
0.07332668712448476
  0
VERTEX
  8
0
  6
CONTINUOUS
 62
     7
 10
2.425462378253471
 20
-19.32854521642557
 42
0.07332668712448476
  0
VERTEX
  8
0
  6
CONTINUOUS
 62
     7
 10
2.613758860145008
 20
-19.55217373744292
 42
0.07332668712448476
  0
VERTEX
  8
0
  6
CONTINUOUS
 62
     7
 10
2.845676800480598
 20
-19.69835351490619
 42
0.07332668712448476
  0
VERTEX
  8
0
  6
CONTINUOUS
 62
     7
 10
3.101477399780141
 20
-19.75464302182002
 42
-1
  0
SEQEND
  8
0
  0
POLYLINE
  8
0
  6
CONTINUOUS
 62
     7
 66
     1
 10
0
 20
0
  0
VERTEX
  8
0
  6
CONTINUOUS
 62
     7
 10
3.989909058424341
 20
-18.86557670742744
 42
0.07459289906077718
  0
VERTEX
  8
0
  6
CONTINUOUS
 62
     7
 10
4.000236088036489
 20
-19.07874660644713
 42
0.07459289906077718
  0
VERTEX
  8
0
  6
CONTINUOUS
 62
     7
 10
4.054463518759082
 20
-19.27825889059924
 42
0.07459289906077718
  0
VERTEX
  8
0
  6
CONTINUOUS
 62
     7
 10
4.147816998286587
 20
-19.4465478754851
 42
0.07459289906077718
  0
VERTEX
  8
0
  6
CONTINUOUS
 62
     7
 10
4.272077394820346
 20
-19.56879687345643
 42
0.07459289906077718
  0
VERTEX
  8
0
  6
CONTINUOUS
 62
     7
 10
4.416304435093267
 20
-19.63424270105541
 42
0.07459289906077718
  0
VERTEX
  8
0
  6
CONTINUOUS
 62
     7
 10
4.567799920185144
 20
-19.63712330329029
 42
0.07459289906077718
  0
VERTEX
  8
0
  6
CONTINUOUS
 62
     7
 10
4.713225714600933
 20
-19.57718506294672
 42
0.07459289906077718
  0
VERTEX
  8
0
  6
CONTINUOUS
 62
     7
 10
4.83977807736303
 20
-19.45970512983911
 42
0.07459289906077718
  0
VERTEX
  8
0
  6
CONTINUOUS
 62
     7
 10
4.936314943341801
 20
-19.29502680406507
 42
0.07459289906077718
  0
VERTEX
  8
0
  6
CONTINUOUS
 62
     7
 10
4.994336905456494
 20
-19.09764887957176
 42
0.07459289906077718
  0
VERTEX
  8
0
  6
CONTINUOUS
 62
     7
 10
5.008735529010822
 20
-18.88494912506976
 42
0.07459289906077718
  0
VERTEX
  8
0
  6
CONTINUOUS
 62
     7
 10
4.978243114232784
 20
-18.67565429102024
 42
0.07459289906077718
  0
VERTEX
  8
0
  6
CONTINUOUS
 62
     7
 10
4.905544308520515
 20
-18.48819134805716
 42
0.07459289906077718
  0
VERTEX
  8
0
  6
CONTINUOUS
 62
     7
 10
4.797039741703544
 20
-18.33906511896138
 42
0.07459289906077718
  0
VERTEX
  8
0
  6
CONTINUOUS
 62
     7
 10
4.662282494609055
 20
-18.24140514253295
 42
0.07459289906077718
  0
VERTEX
  8
0
  6
CONTINUOUS
 62
     7
 10
4.513137015999964
 20
-18.20380970800309
 42
-1
  0
SEQEND
  8
0
  0
POLYLINE
  8
0
  6
CONTINUOUS
 62
     7
 66
     1
 10
0
 20
0
  0
VERTEX
  8
0
  6
CONTINUOUS
 62
     7
 10
3.524439074560727
 20
-18.87069341849037
 42
0.07398282385211347
  0
VERTEX
  8
0
  6
CONTINUOUS
 62
     7
 10
3.554660222778609
 20
-19.23470725562519
 42
0.07398282385211347
  0
VERTEX
  8
0
  6
CONTINUOUS
 62
     7
 10
3.666117627010806
 20
-19.57166028568927
 42
0.07398282385211347
  0
VERTEX
  8
0
  6
CONTINUOUS
 62
     7
 10
3.849156349172546
 20
-19.85236413250289
 42
0.07398282385211347
  0
VERTEX
  8
0
  6
CONTINUOUS
 62
     7
 10
4.087920757762614
 20
-20.05250297532885
 42
0.07398282385211347
  0
VERTEX
  8
0
  6
CONTINUOUS
 62
     7
 10
4.361728013469754
 20
-20.1547398938508
 42
0.07398282385211347
  0
VERTEX
  8
0
  6
CONTINUOUS
 62
     7
 10
4.646859709076201
 20
-20.15021866963167
 42
0.07398282385211347
  0
VERTEX
  8
0
  6
CONTINUOUS
 62
     7
 10
4.918616463809089
 20
-20.03933095130355
 42
0.07398282385211347
  0
VERTEX
  8
0
  6
CONTINUOUS
 62
     7
 10
5.153457494001872
 20
-19.83168232821418
 42
0.07398282385211347
  0
VERTEX
  8
0
  6
CONTINUOUS
 62
     7
 10
5.331039820900513
 20
-19.54526025138242
 42
0.07398282385211347
  0
VERTEX
  8
0
  6
CONTINUOUS
 62
     7
 10
5.435980470327863
 20
-19.20487588016528
 42
0.07398282385211347
  0
VERTEX
  8
0
  6
CONTINUOUS
 62
     7
 10
5.459189014601912
 20
-18.84001482883633
 42
0.07398282385211347
  0
VERTEX
  8
0
  6
CONTINUOUS
 62
     7
 10
5.398655025976321
 20
-18.48228299100484
 42
0.07398282385211347
  0
VERTEX
  8
0
  6
CONTINUOUS
 62
     7
 10
5.259622228869674
 20
-18.1626686959703
 42
0.07398282385211347
  0
VERTEX
  8
0
  6
CONTINUOUS
 62
     7
 10
5.054134265039686
 20
-17.90885836125539
 42
0.07398282385211347
  0
VERTEX
  8
0
  6
CONTINUOUS
 62
     7
 10
4.799991419551415
 20
-17.74283817148221
 42
0.07398282385211347
  0
VERTEX
  8
0
  6
CONTINUOUS
 62
     7
 10
4.519208680595019
 20
-17.67898953687759
 42
-1
  0
SEQEND
  8
0
  0
LINE
  8
0
  6
CONTINUOUS
 62
     7
 10
-119.7623317789557
 20
-8.632935421614045
 11
-119.6709152719177
 21
-8.114486770378292
  0
LINE
  8
0
  6
CONTINUOUS
 62
     7
 10
-120.7540174621749
 20
-6.526167590256181
 11
-120.6687607620321
 21
-6.042652931580323
  0
POLYLINE
  8
0
  6
CONTINUOUS
 62
     7
 66
     1
 10
0
 20
0
  0
VERTEX
  8
0
  6
CONTINUOUS
 62
     7
 10
-120.4364993017396
 20
-7.138618905565169
 42
0.07333214780387673
  0
VERTEX
  8
0
  6
CONTINUOUS
 62
     7
 10
-120.454609784615
 20
-6.959114709865627
 42
0.07333214780387673
  0
VERTEX
  8
0
  6
CONTINUOUS
 62
     7
 10
-120.50739960233
 20
-6.794890571506079
 42
0.07333214780387673
  0
VERTEX
  8
0
  6
CONTINUOUS
 62
     7
 10
-120.5903750914439
 20
-6.659925853146913
 42
0.07333214780387673
  0
VERTEX
  8
0
  6
CONTINUOUS
 62
     7
 10
-120.6964730731462
 20
-6.565709248004279
 42
0.07333214780387673
  0
VERTEX
  8
0
  6
CONTINUOUS
 62
     7
 10
-120.8166620970145
 20
-6.520260820029042
 42
0.07333214780387673
  0
VERTEX
  8
0
  6
CONTINUOUS
 62
     7
 10
-120.9407112312915
 20
-6.527449306566132
 42
0.07333214780387673
  0
VERTEX
  8
0
  6
CONTINUOUS
 62
     7
 10
-121.0580609574248
 20
-6.586662797202836
 42
0.07333214780387673
  0
VERTEX
  8
0
  6
CONTINUOUS
 62
     7
 10
-121.1587220351231
 20
-6.692860821833681
 42
0.07333214780387673
  0
VERTEX
  8
0
  6
CONTINUOUS
 62
     7
 10
-121.2341258232292
 20
-6.837003414014265
 42
0.07333214780387673
  0
VERTEX
  8
0
  6
CONTINUOUS
 62
     7
 10
-121.2778536739705
 20
-7.006820626153273
 42
0.07333214780387673
  0
VERTEX
  8
0
  6
CONTINUOUS
 62
     7
 10
-121.2861833118644
 20
-7.187856992579332
 42
0.07333214780387673
  0
VERTEX
  8
0
  6
CONTINUOUS
 62
     7
 10
-121.2584056874976
 20
-7.364702031945007
 42
0.07333214780387673
  0
VERTEX
  8
0
  6
CONTINUOUS
 62
     7
 10
-121.19688533442
 20
-7.522302044077606
 42
0.07333214780387673
  0
VERTEX
  8
0
  6
CONTINUOUS
 62
     7
 10
-121.1068590913527
 20
-7.647241536304187
 42
0.07333214780387673
  0
VERTEX
  8
0
  6
CONTINUOUS
 62
     7
 10
-120.9959903232146
 20
-7.728885199528981
 42
0.07333214780387673
  0
VERTEX
  8
0
  6
CONTINUOUS
 62
     7
 10
-120.8737165873164
 20
-7.760283224859442
 42
-1
  0
SEQEND
  8
0
  0
POLYLINE
  8
0
  6
CONTINUOUS
 62
     7
 66
     1
 10
0
 20
0
  0
VERTEX
  8
0
  6
CONTINUOUS
 62
     7
 10
-119.9717106602329
 20
-7.138618968854216
 42
0.07332668712448476
  0
VERTEX
  8
0
  6
CONTINUOUS
 62
     7
 10
-120.0095978053601
 20
-6.817424088329485
 42
0.07332668712448476
  0
VERTEX
  8
0
  6
CONTINUOUS
 62
     7
 10
-120.1200346675378
 20
-6.523566460876145
 42
0.07332668712448476
  0
VERTEX
  8
0
  6
CONTINUOUS
 62
     7
 10
-120.2936218399129
 20
-6.282056643140249
 42
0.07332668712448476
  0
VERTEX
  8
0
  6
CONTINUOUS
 62
     7
 10
-120.5155851209601
 20
-6.113449810188746
 42
0.07332668712448476
  0
VERTEX
  8
0
  6
CONTINUOUS
 62
     7
 10
-120.7670329635651
 20
-6.032096281198272
 42
0.07332668712448476
  0
VERTEX
  8
0
  6
CONTINUOUS
 62
     7
 10
-121.0265643560696
 20
-6.044920147480686
 42
0.07332668712448476
  0
VERTEX
  8
0
  6
CONTINUOUS
 62
     7
 10
-121.2720902866962
 20
-6.150829955202178
 42
0.07332668712448476
  0
VERTEX
  8
0
  6
CONTINUOUS
 62
     7
 10
-121.4827137644456
 20
-6.340811600259524
 42
0.07332668712448476
  0
VERTEX
  8
0
  6
CONTINUOUS
 62
     7
 10
-121.6405083857498
 20
-6.598695528924973
 42
0.07332668712448476
  0
VERTEX
  8
0
  6
CONTINUOUS
 62
     7
 10
-121.7320440710537
 20
-6.902532946940942
 42
0.07332668712448476
  0
VERTEX
  8
0
  6
CONTINUOUS
 62
     7
 10
-121.7495301141494
 20
-7.226463906344416
 42
0.07332668712448476
  0
VERTEX
  8
0
  6
CONTINUOUS
 62
     7
 10
-121.691478258036
 20
-7.542918275028286
 42
0.07332668712448476
  0
VERTEX
  8
0
  6
CONTINUOUS
 62
     7
 10
-121.562829362164
 20
-7.824962262018839
 42
0.07332668712448476
  0
VERTEX
  8
0
  6
CONTINUOUS
 62
     7
 10
-121.3745328802725
 20
-8.048590783036188
 42
0.07332668712448476
  0
VERTEX
  8
0
  6
CONTINUOUS
 62
     7
 10
-121.1426149399369
 20
-8.194770560499455
 42
0.07332668712448476
  0
VERTEX
  8
0
  6
CONTINUOUS
 62
     7
 10
-120.8868143406373
 20
-8.251060067413283
 42
-1
  0
SEQEND
  8
0
  0
POLYLINE
  8
0
  6
CONTINUOUS
 62
     7
 66
     1
 10
0
 20
0
  0
VERTEX
  8
0
  6
CONTINUOUS
 62
     7
 10
-119.9983826819931
 20
-7.361993753020702
 42
0.07459289906077718
  0
VERTEX
  8
0
  6
CONTINUOUS
 62
     7
 10
-119.988055652381
 20
-7.575163652040392
 42
0.07459289906077718
  0
VERTEX
  8
0
  6
CONTINUOUS
 62
     7
 10
-119.9338282216584
 20
-7.774675936192502
 42
0.07459289906077718
  0
VERTEX
  8
0
  6
CONTINUOUS
 62
     7
 10
-119.8404747421309
 20
-7.942964921078363
 42
0.07459289906077718
  0
VERTEX
  8
0
  6
CONTINUOUS
 62
     7
 10
-119.7162143455971
 20
-8.065213919049691
 42
0.07459289906077718
  0
VERTEX
  8
0
  6
CONTINUOUS
 62
     7
 10
-119.5719873053242
 20
-8.130659746648668
 42
0.07459289906077718
  0
VERTEX
  8
0
  6
CONTINUOUS
 62
     7
 10
-119.4204918202323
 20
-8.133540348883548
 42
0.07459289906077718
  0
VERTEX
  8
0
  6
CONTINUOUS
 62
     7
 10
-119.2750660258165
 20
-8.073602108539976
 42
0.07459289906077718
  0
VERTEX
  8
0
  6
CONTINUOUS
 62
     7
 10
-119.1485136630544
 20
-7.956122175432367
 42
0.07459289906077718
  0
VERTEX
  8
0
  6
CONTINUOUS
 62
     7
 10
-119.0519767970757
 20
-7.791443849658332
 42
0.07459289906077718
  0
VERTEX
  8
0
  6
CONTINUOUS
 62
     7
 10
-118.993954834961
 20
-7.594065925165026
 42
0.07459289906077718
  0
VERTEX
  8
0
  6
CONTINUOUS
 62
     7
 10
-118.9795562114067
 20
-7.381366170663022
 42
0.07459289906077718
  0
VERTEX
  8
0
  6
CONTINUOUS
 62
     7
 10
-119.0100486261847
 20
-7.1720713366135
 42
0.07459289906077718
  0
VERTEX
  8
0
  6
CONTINUOUS
 62
     7
 10
-119.082747431897
 20
-6.984608393650421
 42
0.07459289906077718
  0
VERTEX
  8
0
  6
CONTINUOUS
 62
     7
 10
-119.1912519987139
 20
-6.835482164554645
 42
0.07459289906077718
  0
VERTEX
  8
0
  6
CONTINUOUS
 62
     7
 10
-119.3260092458084
 20
-6.737822188126213
 42
0.07459289906077718
  0
VERTEX
  8
0
  6
CONTINUOUS
 62
     7
 10
-119.4751547244175
 20
-6.700226753596353
 42
-1
  0
SEQEND
  8
0
  0
POLYLINE
  8
0
  6
CONTINUOUS
 62
     7
 66
     1
 10
0
 20
0
  0
VERTEX
  8
0
  6
CONTINUOUS
 62
     7
 10
-120.4638526658568
 20
-7.367110464083636
 42
0.07398282385211347
  0
VERTEX
  8
0
  6
CONTINUOUS
 62
     7
 10
-120.4336315176389
 20
-7.731124301218447
 42
0.07398282385211347
  0
VERTEX
  8
0
  6
CONTINUOUS
 62
     7
 10
-120.3221741134067
 20
-8.068077331282526
 42
0.07398282385211347
  0
VERTEX
  8
0
  6
CONTINUOUS
 62
     7
 10
-120.1391353912449
 20
-8.348781178096145
 42
0.07398282385211347
  0
VERTEX
  8
0
  6
CONTINUOUS
 62
     7
 10
-119.9003709826549
 20
-8.548920020922111
 42
0.07398282385211347
  0
VERTEX
  8
0
  6
CONTINUOUS
 62
     7
 10
-119.6265637269477
 20
-8.651156939444057
 42
0.07398282385211347
  0
VERTEX
  8
0
  6
CONTINUOUS
 62
     7
 10
-119.3414320313413
 20
-8.646635715224928
 42
0.07398282385211347
  0
VERTEX
  8
0
  6
CONTINUOUS
 62
     7
 10
-119.0696752766084
 20
-8.535747996896809
 42
0.07398282385211347
  0
VERTEX
  8
0
  6
CONTINUOUS
 62
     7
 10
-118.8348342464156
 20
-8.328099373807438
 42
0.07398282385211347
  0
VERTEX
  8
0
  6
CONTINUOUS
 62
     7
 10
-118.657251919517
 20
-8.041677296975681
 42
0.07398282385211347
  0
VERTEX
  8
0
  6
CONTINUOUS
 62
     7
 10
-118.5523112700896
 20
-7.701292925758537
 42
0.07398282385211347
  0
VERTEX
  8
0
  6
CONTINUOUS
 62
     7
 10
-118.5291027258156
 20
-7.336431874429593
 42
0.07398282385211347
  0
VERTEX
  8
0
  6
CONTINUOUS
 62
     7
 10
-118.5896367144412
 20
-6.9787000365981
 42
0.07398282385211347
  0
VERTEX
  8
0
  6
CONTINUOUS
 62
     7
 10
-118.7286695115478
 20
-6.65908574156356
 42
0.07398282385211347
  0
VERTEX
  8
0
  6
CONTINUOUS
 62
     7
 10
-118.9341574753778
 20
-6.405275406848653
 42
0.07398282385211347
  0
VERTEX
  8
0
  6
CONTINUOUS
 62
     7
 10
-119.1883003208661
 20
-6.239255217075469
 42
0.07398282385211347
  0
VERTEX
  8
0
  6
CONTINUOUS
 62
     7
 10
-119.4690830598225
 20
-6.175406582470851
 42
-1
  0
SEQEND
  8
0
  0
LINE
  8
0
  6
CONTINUOUS
 62
     7
 10
-119.7623317789557
 20
-19.47822942033231
 11
-119.6709152719177
 21
-18.95978076909655
  0
LINE
  8
0
  6
CONTINUOUS
 62
     7
 10
-120.7540174621749
 20
-17.37146158897444
 11
-120.6687607620321
 21
-16.88794693029858
  0
POLYLINE
  8
0
  6
CONTINUOUS
 62
     7
 66
     1
 10
0
 20
0
  0
VERTEX
  8
0
  6
CONTINUOUS
 62
     7
 10
-120.4364993017396
 20
-17.98391290428343
 42
0.07333214780387673
  0
VERTEX
  8
0
  6
CONTINUOUS
 62
     7
 10
-120.454609784615
 20
-17.80440870858389
 42
0.07333214780387673
  0
VERTEX
  8
0
  6
CONTINUOUS
 62
     7
 10
-120.50739960233
 20
-17.64018457022434
 42
0.07333214780387673
  0
VERTEX
  8
0
  6
CONTINUOUS
 62
     7
 10
-120.5903750914439
 20
-17.50521985186517
 42
0.07333214780387673
  0
VERTEX
  8
0
  6
CONTINUOUS
 62
     7
 10
-120.6964730731462
 20
-17.41100324672254
 42
0.07333214780387673
  0
VERTEX
  8
0
  6
CONTINUOUS
 62
     7
 10
-120.8166620970145
 20
-17.3655548187473
 42
0.07333214780387673
  0
VERTEX
  8
0
  6
CONTINUOUS
 62
     7
 10
-120.9407112312915
 20
-17.3727433052844
 42
0.07333214780387673
  0
VERTEX
  8
0
  6
CONTINUOUS
 62
     7
 10
-121.0580609574248
 20
-17.4319567959211
 42
0.07333214780387673
  0
VERTEX
  8
0
  6
CONTINUOUS
 62
     7
 10
-121.1587220351231
 20
-17.53815482055194
 42
0.07333214780387673
  0
VERTEX
  8
0
  6
CONTINUOUS
 62
     7
 10
-121.2341258232292
 20
-17.68229741273252
 42
0.07333214780387673
  0
VERTEX
  8
0
  6
CONTINUOUS
 62
     7
 10
-121.2778536739705
 20
-17.85211462487153
 42
0.07333214780387673
  0
VERTEX
  8
0
  6
CONTINUOUS
 62
     7
 10
-121.2861833118644
 20
-18.03315099129759
 42
0.07333214780387673
  0
VERTEX
  8
0
  6
CONTINUOUS
 62
     7
 10
-121.2584056874976
 20
-18.20999603066327
 42
0.07333214780387673
  0
VERTEX
  8
0
  6
CONTINUOUS
 62
     7
 10
-121.19688533442
 20
-18.36759604279587
 42
0.07333214780387673
  0
VERTEX
  8
0
  6
CONTINUOUS
 62
     7
 10
-121.1068590913527
 20
-18.49253553502245
 42
0.07333214780387673
  0
VERTEX
  8
0
  6
CONTINUOUS
 62
     7
 10
-120.9959903232146
 20
-18.57417919824724
 42
0.07333214780387673
  0
VERTEX
  8
0
  6
CONTINUOUS
 62
     7
 10
-120.8737165873164
 20
-18.6055772235777
 42
-1
  0
SEQEND
  8
0
  0
POLYLINE
  8
0
  6
CONTINUOUS
 62
     7
 66
     1
 10
0
 20
0
  0
VERTEX
  8
0
  6
CONTINUOUS
 62
     7
 10
-119.9717106602329
 20
-17.98391296757248
 42
0.07332668712448476
  0
VERTEX
  8
0
  6
CONTINUOUS
 62
     7
 10
-120.0095978053601
 20
-17.66271808704775
 42
0.07332668712448476
  0
VERTEX
  8
0
  6
CONTINUOUS
 62
     7
 10
-120.1200346675378
 20
-17.36886045959441
 42
0.07332668712448476
  0
VERTEX
  8
0
  6
CONTINUOUS
 62
     7
 10
-120.2936218399129
 20
-17.12735064185851
 42
0.07332668712448476
  0
VERTEX
  8
0
  6
CONTINUOUS
 62
     7
 10
-120.5155851209601
 20
-16.95874380890701
 42
0.07332668712448476
  0
VERTEX
  8
0
  6
CONTINUOUS
 62
     7
 10
-120.7670329635651
 20
-16.87739027991653
 42
0.07332668712448476
  0
VERTEX
  8
0
  6
CONTINUOUS
 62
     7
 10
-121.0265643560696
 20
-16.89021414619895
 42
0.07332668712448476
  0
VERTEX
  8
0
  6
CONTINUOUS
 62
     7
 10
-121.2720902866962
 20
-16.99612395392044
 42
0.07332668712448476
  0
VERTEX
  8
0
  6
CONTINUOUS
 62
     7
 10
-121.4827137644456
 20
-17.18610559897779
 42
0.07332668712448476
  0
VERTEX
  8
0
  6
CONTINUOUS
 62
     7
 10
-121.6405083857498
 20
-17.44398952764323
 42
0.07332668712448476
  0
VERTEX
  8
0
  6
CONTINUOUS
 62
     7
 10
-121.7320440710537
 20
-17.7478269456592
 42
0.07332668712448476
  0
VERTEX
  8
0
  6
CONTINUOUS
 62
     7
 10
-121.7495301141494
 20
-18.07175790506268
 42
0.07332668712448476
  0
VERTEX
  8
0
  6
CONTINUOUS
 62
     7
 10
-121.691478258036
 20
-18.38821227374655
 42
0.07332668712448476
  0
VERTEX
  8
0
  6
CONTINUOUS
 62
     7
 10
-121.562829362164
 20
-18.6702562607371
 42
0.07332668712448476
  0
VERTEX
  8
0
  6
CONTINUOUS
 62
     7
 10
-121.3745328802725
 20
-18.89388478175445
 42
0.07332668712448476
  0
VERTEX
  8
0
  6
CONTINUOUS
 62
     7
 10
-121.1426149399369
 20
-19.04006455921772
 42
0.07332668712448476
  0
VERTEX
  8
0
  6
CONTINUOUS
 62
     7
 10
-120.8868143406373
 20
-19.09635406613154
 42
-1
  0
SEQEND
  8
0
  0
POLYLINE
  8
0
  6
CONTINUOUS
 62
     7
 66
     1
 10
0
 20
0
  0
VERTEX
  8
0
  6
CONTINUOUS
 62
     7
 10
-119.9983826819931
 20
-18.20728775173896
 42
0.07459289906077718
  0
VERTEX
  8
0
  6
CONTINUOUS
 62
     7
 10
-119.988055652381
 20
-18.42045765075866
 42
0.07459289906077718
  0
VERTEX
  8
0
  6
CONTINUOUS
 62
     7
 10
-119.9338282216584
 20
-18.61996993491076
 42
0.07459289906077718
  0
VERTEX
  8
0
  6
CONTINUOUS
 62
     7
 10
-119.8404747421309
 20
-18.78825891979663
 42
0.07459289906077718
  0
VERTEX
  8
0
  6
CONTINUOUS
 62
     7
 10
-119.7162143455971
 20
-18.91050791776796
 42
0.07459289906077718
  0
VERTEX
  8
0
  6
CONTINUOUS
 62
     7
 10
-119.5719873053242
 20
-18.97595374536693
 42
0.07459289906077718
  0
VERTEX
  8
0
  6
CONTINUOUS
 62
     7
 10
-119.4204918202323
 20
-18.97883434760181
 42
0.07459289906077718
  0
VERTEX
  8
0
  6
CONTINUOUS
 62
     7
 10
-119.2750660258165
 20
-18.91889610725824
 42
0.07459289906077718
  0
VERTEX
  8
0
  6
CONTINUOUS
 62
     7
 10
-119.1485136630544
 20
-18.80141617415063
 42
0.07459289906077718
  0
VERTEX
  8
0
  6
CONTINUOUS
 62
     7
 10
-119.0519767970757
 20
-18.63673784837659
 42
0.07459289906077718
  0
VERTEX
  8
0
  6
CONTINUOUS
 62
     7
 10
-118.993954834961
 20
-18.43935992388329
 42
0.07459289906077718
  0
VERTEX
  8
0
  6
CONTINUOUS
 62
     7
 10
-118.9795562114067
 20
-18.22666016938128
 42
0.07459289906077718
  0
VERTEX
  8
0
  6
CONTINUOUS
 62
     7
 10
-119.0100486261847
 20
-18.01736533533176
 42
0.07459289906077718
  0
VERTEX
  8
0
  6
CONTINUOUS
 62
     7
 10
-119.082747431897
 20
-17.82990239236868
 42
0.07459289906077718
  0
VERTEX
  8
0
  6
CONTINUOUS
 62
     7
 10
-119.1912519987139
 20
-17.68077616327291
 42
0.07459289906077718
  0
VERTEX
  8
0
  6
CONTINUOUS
 62
     7
 10
-119.3260092458084
 20
-17.58311618684448
 42
0.07459289906077718
  0
VERTEX
  8
0
  6
CONTINUOUS
 62
     7
 10
-119.4751547244175
 20
-17.54552075231462
 42
-1
  0
SEQEND
  8
0
  0
POLYLINE
  8
0
  6
CONTINUOUS
 62
     7
 66
     1
 10
0
 20
0
  0
VERTEX
  8
0
  6
CONTINUOUS
 62
     7
 10
-120.4638526658568
 20
-18.2124044628019
 42
0.07398282385211347
  0
VERTEX
  8
0
  6
CONTINUOUS
 62
     7
 10
-120.4336315176389
 20
-18.57641829993671
 42
0.07398282385211347
  0
VERTEX
  8
0
  6
CONTINUOUS
 62
     7
 10
-120.3221741134067
 20
-18.91337133000079
 42
0.07398282385211347
  0
VERTEX
  8
0
  6
CONTINUOUS
 62
     7
 10
-120.1391353912449
 20
-19.19407517681441
 42
0.07398282385211347
  0
VERTEX
  8
0
  6
CONTINUOUS
 62
     7
 10
-119.9003709826549
 20
-19.39421401964037
 42
0.07398282385211347
  0
VERTEX
  8
0
  6
CONTINUOUS
 62
     7
 10
-119.6265637269477
 20
-19.49645093816232
 42
0.07398282385211347
  0
VERTEX
  8
0
  6
CONTINUOUS
 62
     7
 10
-119.3414320313413
 20
-19.49192971394319
 42
0.07398282385211347
  0
VERTEX
  8
0
  6
CONTINUOUS
 62
     7
 10
-119.0696752766084
 20
-19.38104199561507
 42
0.07398282385211347
  0
VERTEX
  8
0
  6
CONTINUOUS
 62
     7
 10
-118.8348342464156
 20
-19.1733933725257
 42
0.07398282385211347
  0
VERTEX
  8
0
  6
CONTINUOUS
 62
     7
 10
-118.657251919517
 20
-18.88697129569394
 42
0.07398282385211347
  0
VERTEX
  8
0
  6
CONTINUOUS
 62
     7
 10
-118.5523112700896
 20
-18.5465869244768
 42
0.07398282385211347
  0
VERTEX
  8
0
  6
CONTINUOUS
 62
     7
 10
-118.5291027258156
 20
-18.18172587314786
 42
0.07398282385211347
  0
VERTEX
  8
0
  6
CONTINUOUS
 62
     7
 10
-118.5896367144412
 20
-17.82399403531636
 42
0.07398282385211347
  0
VERTEX
  8
0
  6
CONTINUOUS
 62
     7
 10
-118.7286695115478
 20
-17.50437974028182
 42
0.07398282385211347
  0
VERTEX
  8
0
  6
CONTINUOUS
 62
     7
 10
-118.9341574753778
 20
-17.25056940556691
 42
0.07398282385211347
  0
VERTEX
  8
0
  6
CONTINUOUS
 62
     7
 10
-119.1883003208661
 20
-17.08454921579373
 42
0.07398282385211347
  0
VERTEX
  8
0
  6
CONTINUOUS
 62
     7
 10
-119.4690830598225
 20
-17.02070058118911
 42
-1
  0
SEQEND
  8
0
  0
LINE
  8
0
  6
CONTINUOUS
 62
     7
 10
-361.7457988810065
 20
-20.08808125749051
 11
-361.6543823739685
 21
-19.56963260625476
  0
LINE
  8
0
  6
CONTINUOUS
 62
     7
 10
-362.7374845642257
 20
-17.98131342613265
 11
-362.6522278640829
 21
-17.49779876745679
  0
POLYLINE
  8
0
  6
CONTINUOUS
 62
     7
 66
     1
 10
0
 20
0
  0
VERTEX
  8
0
  6
CONTINUOUS
 62
     7
 10
-362.4199664037903
 20
-18.59376474144163
 42
0.07333214780387673
  0
VERTEX
  8
0
  6
CONTINUOUS
 62
     7
 10
-362.4380768866657
 20
-18.41426054574209
 42
0.07333214780387673
  0
VERTEX
  8
0
  6
CONTINUOUS
 62
     7
 10
-362.4908667043807
 20
-18.25003640738254
 42
0.07333214780387673
  0
VERTEX
  8
0
  6
CONTINUOUS
 62
     7
 10
-362.5738421934947
 20
-18.11507168902338
 42
0.07333214780387673
  0
VERTEX
  8
0
  6
CONTINUOUS
 62
     7
 10
-362.679940175197
 20
-18.02085508388074
 42
0.07333214780387673
  0
VERTEX
  8
0
  6
CONTINUOUS
 62
     7
 10
-362.8001291990652
 20
-17.97540665590551
 42
0.07333214780387673
  0
VERTEX
  8
0
  6
CONTINUOUS
 62
     7
 10
-362.9241783333423
 20
-17.9825951424426
 42
0.07333214780387673
  0
VERTEX
  8
0
  6
CONTINUOUS
 62
     7
 10
-363.0415280594756
 20
-18.0418086330793
 42
0.07333214780387673
  0
VERTEX
  8
0
  6
CONTINUOUS
 62
     7
 10
-363.1421891371738
 20
-18.14800665771015
 42
0.07333214780387673
  0
VERTEX
  8
0
  6
CONTINUOUS
 62
     7
 10
-363.21759292528
 20
-18.29214924989073
 42
0.07333214780387673
  0
VERTEX
  8
0
  6
CONTINUOUS
 62
     7
 10
-363.2613207760213
 20
-18.46196646202974
 42
0.07333214780387673
  0
VERTEX
  8
0
  6
CONTINUOUS
 62
     7
 10
-363.2696504139152
 20
-18.6430028284558
 42
0.07333214780387673
  0
VERTEX
  8
0
  6
CONTINUOUS
 62
     7
 10
-363.2418727895484
 20
-18.81984786782147
 42
0.07333214780387673
  0
VERTEX
  8
0
  6
CONTINUOUS
 62
     7
 10
-363.1803524364708
 20
-18.97744787995407
 42
0.07333214780387673
  0
VERTEX
  8
0
  6
CONTINUOUS
 62
     7
 10
-363.0903261934034
 20
-19.10238737218065
 42
0.07333214780387673
  0
VERTEX
  8
0
  6
CONTINUOUS
 62
     7
 10
-362.9794574252654
 20
-19.18403103540544
 42
0.07333214780387673
  0
VERTEX
  8
0
  6
CONTINUOUS
 62
     7
 10
-362.8571836893671
 20
-19.2154290607359
 42
-1
  0
SEQEND
  8
0
  0
POLYLINE
  8
0
  6
CONTINUOUS
 62
     7
 66
     1
 10
0
 20
0
  0
VERTEX
  8
0
  6
CONTINUOUS
 62
     7
 10
-361.9551777622837
 20
-18.59376480473068
 42
0.07332668712448476
  0
VERTEX
  8
0
  6
CONTINUOUS
 62
     7
 10
-361.9930649074109
 20
-18.27256992420595
 42
0.07332668712448476
  0
VERTEX
  8
0
  6
CONTINUOUS
 62
     7
 10
-362.1035017695886
 20
-17.97871229675261
 42
0.07332668712448476
  0
VERTEX
  8
0
  6
CONTINUOUS
 62
     7
 10
-362.2770889419637
 20
-17.73720247901672
 42
0.07332668712448476
  0
VERTEX
  8
0
  6
CONTINUOUS
 62
     7
 10
-362.4990522230109
 20
-17.56859564606521
 42
0.07332668712448476
  0
VERTEX
  8
0
  6
CONTINUOUS
 62
     7
 10
-362.7505000656159
 20
-17.48724211707474
 42
0.07332668712448476
  0
VERTEX
  8
0
  6
CONTINUOUS
 62
     7
 10
-363.0100314581204
 20
-17.50006598335715
 42
0.07332668712448476
  0
VERTEX
  8
0
  6
CONTINUOUS
 62
     7
 10
-363.255557388747
 20
-17.60597579107864
 42
0.07332668712448476
  0
VERTEX
  8
0
  6
CONTINUOUS
 62
     7
 10
-363.4661808664964
 20
-17.79595743613599
 42
0.07332668712448476
  0
VERTEX
  8
0
  6
CONTINUOUS
 62
     7
 10
-363.6239754878005
 20
-18.05384136480144
 42
0.07332668712448476
  0
VERTEX
  8
0
  6
CONTINUOUS
 62
     7
 10
-363.7155111731045
 20
-18.35767878281741
 42
0.07332668712448476
  0
VERTEX
  8
0
  6
CONTINUOUS
 62
     7
 10
-363.7329972162002
 20
-18.68160974222088
 42
0.07332668712448476
  0
VERTEX
  8
0
  6
CONTINUOUS
 62
     7
 10
-363.6749453600868
 20
-18.99806411090475
 42
0.07332668712448476
  0
VERTEX
  8
0
  6
CONTINUOUS
 62
     7
 10
-363.5462964642148
 20
-19.2801080978953
 42
0.07332668712448476
  0
VERTEX
  8
0
  6
CONTINUOUS
 62
     7
 10
-363.3579999823232
 20
-19.50373661891265
 42
0.07332668712448476
  0
VERTEX
  8
0
  6
CONTINUOUS
 62
     7
 10
-363.1260820419877
 20
-19.64991639637591
 42
0.07332668712448476
  0
VERTEX
  8
0
  6
CONTINUOUS
 62
     7
 10
-362.8702814426881
 20
-19.70620590328974
 42
-1
  0
SEQEND
  8
0
  0
POLYLINE
  8
0
  6
CONTINUOUS
 62
     7
 66
     1
 10
0
 20
0
  0
VERTEX
  8
0
  6
CONTINUOUS
 62
     7
 10
-361.9818497840439
 20
-18.81713958889717
 42
0.07459289906077718
  0
VERTEX
  8
0
  6
CONTINUOUS
 62
     7
 10
-361.9715227544318
 20
-19.03030948791686
 42
0.07459289906077718
  0
VERTEX
  8
0
  6
CONTINUOUS
 62
     7
 10
-361.9172953237092
 20
-19.22982177206897
 42
0.07459289906077718
  0
VERTEX
  8
0
  6
CONTINUOUS
 62
     7
 10
-361.8239418441817
 20
-19.39811075695483
 42
0.07459289906077718
  0
VERTEX
  8
0
  6
CONTINUOUS
 62
     7
 10
-361.699681447648
 20
-19.52035975492616
 42
0.07459289906077718
  0
VERTEX
  8
0
  6
CONTINUOUS
 62
     7
 10
-361.555454407375
 20
-19.58580558252514
 42
0.07459289906077718
  0
VERTEX
  8
0
  6
CONTINUOUS
 62
     7
 10
-361.4039589222832
 20
-19.58868618476002
 42
0.07459289906077718
  0
VERTEX
  8
0
  6
CONTINUOUS
 62
     7
 10
-361.2585331278673
 20
-19.52874794441645
 42
0.07459289906077718
  0
VERTEX
  8
0
  6
CONTINUOUS
 62
     7
 10
-361.1319807651053
 20
-19.41126801130884
 42
0.07459289906077718
  0
VERTEX
  8
0
  6
CONTINUOUS
 62
     7
 10
-361.0354438991265
 20
-19.2465896855348
 42
0.07459289906077718
  0
VERTEX
  8
0
  6
CONTINUOUS
 62
     7
 10
-360.9774219370118
 20
-19.04921176104149
 42
0.07459289906077718
  0
VERTEX
  8
0
  6
CONTINUOUS
 62
     7
 10
-360.9630233134575
 20
-18.83651200653949
 42
0.07459289906077718
  0
VERTEX
  8
0
  6
CONTINUOUS
 62
     7
 10
-360.9935157282355
 20
-18.62721717248996
 42
0.07459289906077718
  0
VERTEX
  8
0
  6
CONTINUOUS
 62
     7
 10
-361.0662145339478
 20
-18.43975422952688
 42
0.07459289906077718
  0
VERTEX
  8
0
  6
CONTINUOUS
 62
     7
 10
-361.1747191007648
 20
-18.29062800043111
 42
0.07459289906077718
  0
VERTEX
  8
0
  6
CONTINUOUS
 62
     7
 10
-361.3094763478592
 20
-18.19296802400267
 42
0.07459289906077718
  0
VERTEX
  8
0
  6
CONTINUOUS
 62
     7
 10
-361.4586218264684
 20
-18.15537258947281
 42
-1
  0
SEQEND
  8
0
  0
POLYLINE
  8
0
  6
CONTINUOUS
 62
     7
 66
     1
 10
0
 20
0
  0
VERTEX
  8
0
  6
CONTINUOUS
 62
     7
 10
-362.4473197679076
 20
-18.8222562999601
 42
0.07398282385211347
  0
VERTEX
  8
0
  6
CONTINUOUS
 62
     7
 10
-362.4170986196897
 20
-19.18627013709491
 42
0.07398282385211347
  0
VERTEX
  8
0
  6
CONTINUOUS
 62
     7
 10
-362.3056412154575
 20
-19.52322316715899
 42
0.07398282385211347
  0
VERTEX
  8
0
  6
CONTINUOUS
 62
     7
 10
-362.1226024932957
 20
-19.80392701397262
 42
0.07398282385211347
  0
VERTEX
  8
0
  6
CONTINUOUS
 62
     7
 10
-361.8838380847056
 20
-20.00406585679858
 42
0.07398282385211347
  0
VERTEX
  8
0
  6
CONTINUOUS
 62
     7
 10
-361.6100308289985
 20
-20.10630277532053
 42
0.07398282385211347
  0
VERTEX
  8
0
  6
CONTINUOUS
 62
     7
 10
-361.3248991333921
 20
-20.1017815511014
 42
0.07398282385211347
  0
VERTEX
  8
0
  6
CONTINUOUS
 62
     7
 10
-361.0531423786592
 20
-19.99089383277328
 42
0.07398282385211347
  0
VERTEX
  8
0
  6
CONTINUOUS
 62
     7
 10
-360.8183013484664
 20
-19.78324520968391
 42
0.07398282385211347
  0
VERTEX
  8
0
  6
CONTINUOUS
 62
     7
 10
-360.6407190215678
 20
-19.49682313285215
 42
0.07398282385211347
  0
VERTEX
  8
0
  6
CONTINUOUS
 62
     7
 10
-360.5357783721404
 20
-19.156438761635
 42
0.07398282385211347
  0
VERTEX
  8
0
  6
CONTINUOUS
 62
     7
 10
-360.5125698278663
 20
-18.79157771030606
 42
0.07398282385211347
  0
VERTEX
  8
0
  6
CONTINUOUS
 62
     7
 10
-360.5731038164919
 20
-18.43384587247456
 42
0.07398282385211347
  0
VERTEX
  8
0
  6
CONTINUOUS
 62
     7
 10
-360.7121366135986
 20
-18.11423157744002
 42
0.07398282385211347
  0
VERTEX
  8
0
  6
CONTINUOUS
 62
     7
 10
-360.9176245774286
 20
-17.86042124272511
 42
0.07398282385211347
  0
VERTEX
  8
0
  6
CONTINUOUS
 62
     7
 10
-361.1717674229168
 20
-17.69440105295193
 42
0.07398282385211347
  0
VERTEX
  8
0
  6
CONTINUOUS
 62
     7
 10
-361.4525501618733
 20
-17.63055241834731
 42
-1
  0
SEQEND
  8
0
  0
LINE
  8
0
  6
CONTINUOUS
 62
     7
 10
-361.7457988810065
 20
-9.242786305097932
 11
-361.6543823739685
 21
-8.724337653862179
  0
LINE
  8
0
  6
CONTINUOUS
 62
     7
 10
-362.7374845642257
 20
-7.136018473740068
 11
-362.6522278640829
 21
-6.652503815064209
  0
POLYLINE
  8
0
  6
CONTINUOUS
 62
     7
 66
     1
 10
0
 20
0
  0
VERTEX
  8
0
  6
CONTINUOUS
 62
     7
 10
-362.4199664037903
 20
-7.748469789049056
 42
0.07333214780387673
  0
VERTEX
  8
0
  6
CONTINUOUS
 62
     7
 10
-362.4380768866657
 20
-7.568965593349514
 42
0.07333214780387673
  0
VERTEX
  8
0
  6
CONTINUOUS
 62
     7
 10
-362.4908667043807
 20
-7.404741454989966
 42
0.07333214780387673
  0
VERTEX
  8
0
  6
CONTINUOUS
 62
     7
 10
-362.5738421934947
 20
-7.269776736630799
 42
0.07333214780387673
  0
VERTEX
  8
0
  6
CONTINUOUS
 62
     7
 10
-362.679940175197
 20
-7.175560131488165
 42
0.07333214780387673
  0
VERTEX
  8
0
  6
CONTINUOUS
 62
     7
 10
-362.8001291990652
 20
-7.130111703512929
 42
0.07333214780387673
  0
VERTEX
  8
0
  6
CONTINUOUS
 62
     7
 10
-362.9241783333423
 20
-7.137300190050019
 42
0.07333214780387673
  0
VERTEX
  8
0
  6
CONTINUOUS
 62
     7
 10
-363.0415280594756
 20
-7.196513680686723
 42
0.07333214780387673
  0
VERTEX
  8
0
  6
CONTINUOUS
 62
     7
 10
-363.1421891371738
 20
-7.302711705317567
 42
0.07333214780387673
  0
VERTEX
  8
0
  6
CONTINUOUS
 62
     7
 10
-363.21759292528
 20
-7.446854297498152
 42
0.07333214780387673
  0
VERTEX
  8
0
  6
CONTINUOUS
 62
     7
 10
-363.2613207760213
 20
-7.616671509637159
 42
0.07333214780387673
  0
VERTEX
  8
0
  6
CONTINUOUS
 62
     7
 10
-363.2696504139152
 20
-7.797707876063218
 42
0.07333214780387673
  0
VERTEX
  8
0
  6
CONTINUOUS
 62
     7
 10
-363.2418727895484
 20
-7.974552915428894
 42
0.07333214780387673
  0
VERTEX
  8
0
  6
CONTINUOUS
 62
     7
 10
-363.1803524364708
 20
-8.132152927561494
 42
0.07333214780387673
  0
VERTEX
  8
0
  6
CONTINUOUS
 62
     7
 10
-363.0903261934034
 20
-8.257092419788075
 42
0.07333214780387673
  0
VERTEX
  8
0
  6
CONTINUOUS
 62
     7
 10
-362.9794574252654
 20
-8.338736083012869
 42
0.07333214780387673
  0
VERTEX
  8
0
  6
CONTINUOUS
 62
     7
 10
-362.8571836893671
 20
-8.370134108343329
 42
-1
  0
SEQEND
  8
0
  0
POLYLINE
  8
0
  6
CONTINUOUS
 62
     7
 66
     1
 10
0
 20
0
  0
VERTEX
  8
0
  6
CONTINUOUS
 62
     7
 10
-361.9551777622837
 20
-7.748469852338102
 42
0.07332668712448476
  0
VERTEX
  8
0
  6
CONTINUOUS
 62
     7
 10
-361.9930649074109
 20
-7.427274971813373
 42
0.07332668712448476
  0
VERTEX
  8
0
  6
CONTINUOUS
 62
     7
 10
-362.1035017695886
 20
-7.133417344360034
 42
0.07332668712448476
  0
VERTEX
  8
0
  6
CONTINUOUS
 62
     7
 10
-362.2770889419637
 20
-6.891907526624138
 42
0.07332668712448476
  0
VERTEX
  8
0
  6
CONTINUOUS
 62
     7
 10
-362.4990522230109
 20
-6.723300693672635
 42
0.07332668712448476
  0
VERTEX
  8
0
  6
CONTINUOUS
 62
     7
 10
-362.7505000656159
 20
-6.641947164682161
 42
0.07332668712448476
  0
VERTEX
  8
0
  6
CONTINUOUS
 62
     7
 10
-363.0100314581204
 20
-6.654771030964575
 42
0.07332668712448476
  0
VERTEX
  8
0
  6
CONTINUOUS
 62
     7
 10
-363.255557388747
 20
-6.760680838686066
 42
0.07332668712448476
  0
VERTEX
  8
0
  6
CONTINUOUS
 62
     7
 10
-363.4661808664964
 20
-6.950662483743413
 42
0.07332668712448476
  0
VERTEX
  8
0
  6
CONTINUOUS
 62
     7
 10
-363.6239754878005
 20
-7.20854641240886
 42
0.07332668712448476
  0
VERTEX
  8
0
  6
CONTINUOUS
 62
     7
 10
-363.7155111731045
 20
-7.512383830424828
 42
0.07332668712448476
  0
VERTEX
  8
0
  6
CONTINUOUS
 62
     7
 10
-363.7329972162002
 20
-7.836314789828302
 42
0.07332668712448476
  0
VERTEX
  8
0
  6
CONTINUOUS
 62
     7
 10
-363.6749453600868
 20
-8.152769158512172
 42
0.07332668712448476
  0
VERTEX
  8
0
  6
CONTINUOUS
 62
     7
 10
-363.5462964642148
 20
-8.434813145502725
 42
0.07332668712448476
  0
VERTEX
  8
0
  6
CONTINUOUS
 62
     7
 10
-363.3579999823232
 20
-8.658441666520073
 42
0.07332668712448476
  0
VERTEX
  8
0
  6
CONTINUOUS
 62
     7
 10
-363.1260820419877
 20
-8.80462144398334
 42
0.07332668712448476
  0
VERTEX
  8
0
  6
CONTINUOUS
 62
     7
 10
-362.8702814426881
 20
-8.860910950897166
 42
-1
  0
SEQEND
  8
0
  0
POLYLINE
  8
0
  6
CONTINUOUS
 62
     7
 66
     1
 10
0
 20
0
  0
VERTEX
  8
0
  6
CONTINUOUS
 62
     7
 10
-361.9818497840439
 20
-7.971844636504589
 42
0.07459289906077718
  0
VERTEX
  8
0
  6
CONTINUOUS
 62
     7
 10
-361.9715227544318
 20
-8.185014535524282
 42
0.07459289906077718
  0
VERTEX
  8
0
  6
CONTINUOUS
 62
     7
 10
-361.9172953237092
 20
-8.384526819676392
 42
0.07459289906077718
  0
VERTEX
  8
0
  6
CONTINUOUS
 62
     7
 10
-361.8239418441817
 20
-8.552815804562254
 42
0.07459289906077718
  0
VERTEX
  8
0
  6
CONTINUOUS
 62
     7
 10
-361.699681447648
 20
-8.675064802533584
 42
0.07459289906077718
  0
VERTEX
  8
0
  6
CONTINUOUS
 62
     7
 10
-361.555454407375
 20
-8.740510630132562
 42
0.07459289906077718
  0
VERTEX
  8
0
  6
CONTINUOUS
 62
     7
 10
-361.4039589222832
 20
-8.74339123236744
 42
0.07459289906077718
  0
VERTEX
  8
0
  6
CONTINUOUS
 62
     7
 10
-361.2585331278673
 20
-8.683452992023868
 42
0.07459289906077718
  0
VERTEX
  8
0
  6
CONTINUOUS
 62
     7
 10
-361.1319807651053
 20
-8.565973058916258
 42
0.07459289906077718
  0
VERTEX
  8
0
  6
CONTINUOUS
 62
     7
 10
-361.0354438991265
 20
-8.401294733142223
 42
0.07459289906077718
  0
VERTEX
  8
0
  6
CONTINUOUS
 62
     7
 10
-360.9774219370118
 20
-8.203916808648915
 42
0.07459289906077718
  0
VERTEX
  8
0
  6
CONTINUOUS
 62
     7
 10
-360.9630233134575
 20
-7.991217054146909
 42
0.07459289906077718
  0
VERTEX
  8
0
  6
CONTINUOUS
 62
     7
 10
-360.9935157282355
 20
-7.781922220097385
 42
0.07459289906077718
  0
VERTEX
  8
0
  6
CONTINUOUS
 62
     7
 10
-361.0662145339478
 20
-7.594459277134305
 42
0.07459289906077718
  0
VERTEX
  8
0
  6
CONTINUOUS
 62
     7
 10
-361.1747191007648
 20
-7.445333048038529
 42
0.07459289906077718
  0
VERTEX
  8
0
  6
CONTINUOUS
 62
     7
 10
-361.3094763478592
 20
-7.347673071610095
 42
0.07459289906077718
  0
VERTEX
  8
0
  6
CONTINUOUS
 62
     7
 10
-361.4586218264684
 20
-7.310077637080235
 42
-1
  0
SEQEND
  8
0
  0
POLYLINE
  8
0
  6
CONTINUOUS
 62
     7
 66
     1
 10
0
 20
0
  0
VERTEX
  8
0
  6
CONTINUOUS
 62
     7
 10
-362.4473197679076
 20
-7.976961347567523
 42
0.07398282385211347
  0
VERTEX
  8
0
  6
CONTINUOUS
 62
     7
 10
-362.4170986196897
 20
-8.340975184702334
 42
0.07398282385211347
  0
VERTEX
  8
0
  6
CONTINUOUS
 62
     7
 10
-362.3056412154575
 20
-8.677928214766414
 42
0.07398282385211347
  0
VERTEX
  8
0
  6
CONTINUOUS
 62
     7
 10
-362.1226024932957
 20
-8.958632061580035
 42
0.07398282385211347
  0
VERTEX
  8
0
  6
CONTINUOUS
 62
     7
 10
-361.8838380847056
 20
-9.158770904406003
 42
0.07398282385211347
  0
VERTEX
  8
0
  6
CONTINUOUS
 62
     7
 10
-361.6100308289985
 20
-9.261007822927949
 42
0.07398282385211347
  0
VERTEX
  8
0
  6
CONTINUOUS
 62
     7
 10
-361.3248991333921
 20
-9.25648659870882
 42
0.07398282385211347
  0
VERTEX
  8
0
  6
CONTINUOUS
 62
     7
 10
-361.0531423786592
 20
-9.1455988803807
 42
0.07398282385211347
  0
VERTEX
  8
0
  6
CONTINUOUS
 62
     7
 10
-360.8183013484664
 20
-8.937950257291329
 42
0.07398282385211347
  0
VERTEX
  8
0
  6
CONTINUOUS
 62
     7
 10
-360.6407190215678
 20
-8.651528180459572
 42
0.07398282385211347
  0
VERTEX
  8
0
  6
CONTINUOUS
 62
     7
 10
-360.5357783721404
 20
-8.311143809242426
 42
0.07398282385211347
  0
VERTEX
  8
0
  6
CONTINUOUS
 62
     7
 10
-360.5125698278663
 20
-7.94628275791348
 42
0.07398282385211347
  0
VERTEX
  8
0
  6
CONTINUOUS
 62
     7
 10
-360.5731038164919
 20
-7.588550920081985
 42
0.07398282385211347
  0
VERTEX
  8
0
  6
CONTINUOUS
 62
     7
 10
-360.7121366135986
 20
-7.268936625047443
 42
0.07398282385211347
  0
VERTEX
  8
0
  6
CONTINUOUS
 62
     7
 10
-360.9176245774286
 20
-7.015126290332535
 42
0.07398282385211347
  0
VERTEX
  8
0
  6
CONTINUOUS
 62
     7
 10
-361.1717674229168
 20
-6.849106100559351
 42
0.07398282385211347
  0
VERTEX
  8
0
  6
CONTINUOUS
 62
     7
 10
-361.4525501618733
 20
-6.785257465954732
 42
-1
  0
SEQEND
  8
0
  0
LINE
  8
0
  6
CONTINUOUS
 62
     7
 10
-242.6481731485846
 20
-9.242786305097932
 11
-242.5567566415466
 21
-8.724337653862179
  0
LINE
  8
0
  6
CONTINUOUS
 62
     7
 10
-243.6398588318038
 20
-7.136018473740068
 11
-243.554602131661
 21
-6.652503815064209
  0
POLYLINE
  8
0
  6
CONTINUOUS
 62
     7
 66
     1
 10
0
 20
0
  0
VERTEX
  8
0
  6
CONTINUOUS
 62
     7
 10
-243.3223406713685
 20
-7.748469789049056
 42
0.07333214780387673
  0
VERTEX
  8
0
  6
CONTINUOUS
 62
     7
 10
-243.3404511542439
 20
-7.568965593349515
 42
0.07333214780387673
  0
VERTEX
  8
0
  6
CONTINUOUS
 62
     7
 10
-243.3932409719589
 20
-7.404741454989968
 42
0.07333214780387673
  0
VERTEX
  8
0
  6
CONTINUOUS
 62
     7
 10
-243.4762164610728
 20
-7.269776736630801
 42
0.07333214780387673
  0
VERTEX
  8
0
  6
CONTINUOUS
 62
     7
 10
-243.5823144427751
 20
-7.175560131488167
 42
0.07333214780387673
  0
VERTEX
  8
0
  6
CONTINUOUS
 62
     7
 10
-243.7025034666434
 20
-7.130111703512931
 42
0.07333214780387673
  0
VERTEX
  8
0
  6
CONTINUOUS
 62
     7
 10
-243.8265526009204
 20
-7.137300190050022
 42
0.07333214780387673
  0
VERTEX
  8
0
  6
CONTINUOUS
 62
     7
 10
-243.9439023270537
 20
-7.196513680686724
 42
0.07333214780387673
  0
VERTEX
  8
0
  6
CONTINUOUS
 62
     7
 10
-244.044563404752
 20
-7.302711705317569
 42
0.07333214780387673
  0
VERTEX
  8
0
  6
CONTINUOUS
 62
     7
 10
-244.1199671928581
 20
-7.446854297498152
 42
0.07333214780387673
  0
VERTEX
  8
0
  6
CONTINUOUS
 62
     7
 10
-244.1636950435994
 20
-7.616671509637159
 42
0.07333214780387673
  0
VERTEX
  8
0
  6
CONTINUOUS
 62
     7
 10
-244.1720246814933
 20
-7.797707876063218
 42
0.07333214780387673
  0
VERTEX
  8
0
  6
CONTINUOUS
 62
     7
 10
-244.1442470571265
 20
-7.974552915428893
 42
0.07333214780387673
  0
VERTEX
  8
0
  6
CONTINUOUS
 62
     7
 10
-244.0827267040489
 20
-8.132152927561492
 42
0.07333214780387673
  0
VERTEX
  8
0
  6
CONTINUOUS
 62
     7
 10
-243.9927004609816
 20
-8.257092419788073
 42
0.07333214780387673
  0
VERTEX
  8
0
  6
CONTINUOUS
 62
     7
 10
-243.8818316928435
 20
-8.338736083012865
 42
0.07333214780387673
  0
VERTEX
  8
0
  6
CONTINUOUS
 62
     7
 10
-243.7595579569452
 20
-8.370134108343326
 42
-1
  0
SEQEND
  8
0
  0
POLYLINE
  8
0
  6
CONTINUOUS
 62
     7
 66
     1
 10
0
 20
0
  0
VERTEX
  8
0
  6
CONTINUOUS
 62
     7
 10
-242.8575520298618
 20
-7.748469852338102
 42
0.07332668712448476
  0
VERTEX
  8
0
  6
CONTINUOUS
 62
     7
 10
-242.8954391749891
 20
-7.427274971813372
 42
0.07332668712448476
  0
VERTEX
  8
0
  6
CONTINUOUS
 62
     7
 10
-243.0058760371667
 20
-7.133417344360032
 42
0.07332668712448476
  0
VERTEX
  8
0
  6
CONTINUOUS
 62
     7
 10
-243.1794632095418
 20
-6.891907526624136
 42
0.07332668712448476
  0
VERTEX
  8
0
  6
CONTINUOUS
 62
     7
 10
-243.4014264905891
 20
-6.723300693672632
 42
0.07332668712448476
  0
VERTEX
  8
0
  6
CONTINUOUS
 62
     7
 10
-243.652874333194
 20
-6.641947164682159
 42
0.07332668712448476
  0
VERTEX
  8
0
  6
CONTINUOUS
 62
     7
 10
-243.9124057256985
 20
-6.654771030964573
 42
0.07332668712448476
  0
VERTEX
  8
0
  6
CONTINUOUS
 62
     7
 10
-244.1579316563251
 20
-6.760680838686064
 42
0.07332668712448476
  0
VERTEX
  8
0
  6
CONTINUOUS
 62
     7
 10
-244.3685551340745
 20
-6.950662483743411
 42
0.07332668712448476
  0
VERTEX
  8
0
  6
CONTINUOUS
 62
     7
 10
-244.5263497553787
 20
-7.208546412408859
 42
0.07332668712448476
  0
VERTEX
  8
0
  6
CONTINUOUS
 62
     7
 10
-244.6178854406826
 20
-7.512383830424828
 42
0.07332668712448476
  0
VERTEX
  8
0
  6
CONTINUOUS
 62
     7
 10
-244.6353714837783
 20
-7.836314789828303
 42
0.07332668712448476
  0
VERTEX
  8
0
  6
CONTINUOUS
 62
     7
 10
-244.5773196276649
 20
-8.152769158512172
 42
0.07332668712448476
  0
VERTEX
  8
0
  6
CONTINUOUS
 62
     7
 10
-244.4486707317929
 20
-8.434813145502726
 42
0.07332668712448476
  0
VERTEX
  8
0
  6
CONTINUOUS
 62
     7
 10
-244.2603742499014
 20
-8.658441666520075
 42
0.07332668712448476
  0
VERTEX
  8
0
  6
CONTINUOUS
 62
     7
 10
-244.0284563095658
 20
-8.804621443983342
 42
0.07332668712448476
  0
VERTEX
  8
0
  6
CONTINUOUS
 62
     7
 10
-243.7726557102663
 20
-8.86091095089717
 42
-1
  0
SEQEND
  8
0
  0
POLYLINE
  8
0
  6
CONTINUOUS
 62
     7
 66
     1
 10
0
 20
0
  0
VERTEX
  8
0
  6
CONTINUOUS
 62
     7
 10
-242.884224051622
 20
-7.971844636504589
 42
0.07459289906077718
  0
VERTEX
  8
0
  6
CONTINUOUS
 62
     7
 10
-242.8738970220099
 20
-8.18501453552428
 42
0.07459289906077718
  0
VERTEX
  8
0
  6
CONTINUOUS
 62
     7
 10
-242.8196695912873
 20
-8.38452681967639
 42
0.07459289906077718
  0
VERTEX
  8
0
  6
CONTINUOUS
 62
     7
 10
-242.7263161117598
 20
-8.55281580456225
 42
0.07459289906077718
  0
VERTEX
  8
0
  6
CONTINUOUS
 62
     7
 10
-242.602055715226
 20
-8.675064802533578
 42
0.07459289906077718
  0
VERTEX
  8
0
  6
CONTINUOUS
 62
     7
 10
-242.4578286749531
 20
-8.740510630132556
 42
0.07459289906077718
  0
VERTEX
  8
0
  6
CONTINUOUS
 62
     7
 10
-242.3063331898613
 20
-8.743391232367435
 42
0.07459289906077718
  0
VERTEX
  8
0
  6
CONTINUOUS
 62
     7
 10
-242.1609073954455
 20
-8.683452992023863
 42
0.07459289906077718
  0
VERTEX
  8
0
  6
CONTINUOUS
 62
     7
 10
-242.0343550326834
 20
-8.565973058916255
 42
0.07459289906077718
  0
VERTEX
  8
0
  6
CONTINUOUS
 62
     7
 10
-241.9378181667046
 20
-8.401294733142219
 42
0.07459289906077718
  0
VERTEX
  8
0
  6
CONTINUOUS
 62
     7
 10
-241.8797962045899
 20
-8.203916808648913
 42
0.07459289906077718
  0
VERTEX
  8
0
  6
CONTINUOUS
 62
     7
 10
-241.8653975810356
 20
-7.99121705414691
 42
0.07459289906077718
  0
VERTEX
  8
0
  6
CONTINUOUS
 62
     7
 10
-241.8958899958136
 20
-7.781922220097387
 42
0.07459289906077718
  0
VERTEX
  8
0
  6
CONTINUOUS
 62
     7
 10
-241.9685888015259
 20
-7.594459277134309
 42
0.07459289906077718
  0
VERTEX
  8
0
  6
CONTINUOUS
 62
     7
 10
-242.0770933683428
 20
-7.445333048038532
 42
0.07459289906077718
  0
VERTEX
  8
0
  6
CONTINUOUS
 62
     7
 10
-242.2118506154373
 20
-7.3476730716101
 42
0.07459289906077718
  0
VERTEX
  8
0
  6
CONTINUOUS
 62
     7
 10
-242.3609960940464
 20
-7.310077637080241
 42
-1
  0
SEQEND
  8
0
  0
POLYLINE
  8
0
  6
CONTINUOUS
 62
     7
 66
     1
 10
0
 20
0
  0
VERTEX
  8
0
  6
CONTINUOUS
 62
     7
 10
-243.3496940354857
 20
-7.976961347567523
 42
0.07398282385211347
  0
VERTEX
  8
0
  6
CONTINUOUS
 62
     7
 10
-243.3194728872678
 20
-8.340975184702334
 42
0.07398282385211347
  0
VERTEX
  8
0
  6
CONTINUOUS
 62
     7
 10
-243.2080154830356
 20
-8.677928214766412
 42
0.07398282385211347
  0
VERTEX
  8
0
  6
CONTINUOUS
 62
     7
 10
-243.0249767608738
 20
-8.958632061580031
 42
0.07398282385211347
  0
VERTEX
  8
0
  6
CONTINUOUS
 62
     7
 10
-242.7862123522838
 20
-9.158770904405998
 42
0.07398282385211347
  0
VERTEX
  8
0
  6
CONTINUOUS
 62
     7
 10
-242.5124050965766
 20
-9.261007822927944
 42
0.07398282385211347
  0
VERTEX
  8
0
  6
CONTINUOUS
 62
     7
 10
-242.2272734009702
 20
-9.256486598708815
 42
0.07398282385211347
  0
VERTEX
  8
0
  6
CONTINUOUS
 62
     7
 10
-241.9555166462373
 20
-9.145598880380696
 42
0.07398282385211347
  0
VERTEX
  8
0
  6
CONTINUOUS
 62
     7
 10
-241.7206756160445
 20
-8.937950257291325
 42
0.07398282385211347
  0
VERTEX
  8
0
  6
CONTINUOUS
 62
     7
 10
-241.5430932891459
 20
-8.651528180459568
 42
0.07398282385211347
  0
VERTEX
  8
0
  6
CONTINUOUS
 62
     7
 10
-241.4381526397185
 20
-8.311143809242424
 42
0.07398282385211347
  0
VERTEX
  8
0
  6
CONTINUOUS
 62
     7
 10
-241.4149440954445
 20
-7.94628275791348
 42
0.07398282385211347
  0
VERTEX
  8
0
  6
CONTINUOUS
 62
     7
 10
-241.4754780840701
 20
-7.588550920081986
 42
0.07398282385211347
  0
VERTEX
  8
0
  6
CONTINUOUS
 62
     7
 10
-241.6145108811767
 20
-7.268936625047447
 42
0.07398282385211347
  0
VERTEX
  8
0
  6
CONTINUOUS
 62
     7
 10
-241.8199988450067
 20
-7.01512629033254
 42
0.07398282385211347
  0
VERTEX
  8
0
  6
CONTINUOUS
 62
     7
 10
-242.074141690495
 20
-6.849106100559355
 42
0.07398282385211347
  0
VERTEX
  8
0
  6
CONTINUOUS
 62
     7
 10
-242.3549244294514
 20
-6.785257465954738
 42
-1
  0
SEQEND
  8
0
  0
LINE
  8
0
  6
CONTINUOUS
 62
     7
 10
-242.6481731485846
 20
-20.08808125749051
 11
-242.5567566415466
 21
-19.56963260625476
  0
LINE
  8
0
  6
CONTINUOUS
 62
     7
 10
-243.6398588318038
 20
-17.98131342613265
 11
-243.554602131661
 21
-17.49779876745679
  0
POLYLINE
  8
0
  6
CONTINUOUS
 62
     7
 66
     1
 10
0
 20
0
  0
VERTEX
  8
0
  6
CONTINUOUS
 62
     7
 10
-243.3223406713685
 20
-18.59376474144163
 42
0.07333214780387673
  0
VERTEX
  8
0
  6
CONTINUOUS
 62
     7
 10
-243.3404511542439
 20
-18.41426054574209
 42
0.07333214780387673
  0
VERTEX
  8
0
  6
CONTINUOUS
 62
     7
 10
-243.3932409719589
 20
-18.25003640738255
 42
0.07333214780387673
  0
VERTEX
  8
0
  6
CONTINUOUS
 62
     7
 10
-243.4762164610728
 20
-18.11507168902338
 42
0.07333214780387673
  0
VERTEX
  8
0
  6
CONTINUOUS
 62
     7
 10
-243.5823144427751
 20
-18.02085508388074
 42
0.07333214780387673
  0
VERTEX
  8
0
  6
CONTINUOUS
 62
     7
 10
-243.7025034666434
 20
-17.97540665590551
 42
0.07333214780387673
  0
VERTEX
  8
0
  6
CONTINUOUS
 62
     7
 10
-243.8265526009204
 20
-17.9825951424426
 42
0.07333214780387673
  0
VERTEX
  8
0
  6
CONTINUOUS
 62
     7
 10
-243.9439023270537
 20
-18.0418086330793
 42
0.07333214780387673
  0
VERTEX
  8
0
  6
CONTINUOUS
 62
     7
 10
-244.044563404752
 20
-18.14800665771015
 42
0.07333214780387673
  0
VERTEX
  8
0
  6
CONTINUOUS
 62
     7
 10
-244.1199671928581
 20
-18.29214924989073
 42
0.07333214780387673
  0
VERTEX
  8
0
  6
CONTINUOUS
 62
     7
 10
-244.1636950435994
 20
-18.46196646202974
 42
0.07333214780387673
  0
VERTEX
  8
0
  6
CONTINUOUS
 62
     7
 10
-244.1720246814933
 20
-18.6430028284558
 42
0.07333214780387673
  0
VERTEX
  8
0
  6
CONTINUOUS
 62
     7
 10
-244.1442470571265
 20
-18.81984786782147
 42
0.07333214780387673
  0
VERTEX
  8
0
  6
CONTINUOUS
 62
     7
 10
-244.0827267040489
 20
-18.97744787995407
 42
0.07333214780387673
  0
VERTEX
  8
0
  6
CONTINUOUS
 62
     7
 10
-243.9927004609816
 20
-19.10238737218065
 42
0.07333214780387673
  0
VERTEX
  8
0
  6
CONTINUOUS
 62
     7
 10
-243.8818316928435
 20
-19.18403103540544
 42
0.07333214780387673
  0
VERTEX
  8
0
  6
CONTINUOUS
 62
     7
 10
-243.7595579569452
 20
-19.2154290607359
 42
-1
  0
SEQEND
  8
0
  0
POLYLINE
  8
0
  6
CONTINUOUS
 62
     7
 66
     1
 10
0
 20
0
  0
VERTEX
  8
0
  6
CONTINUOUS
 62
     7
 10
-242.8575520298618
 20
-18.59376480473068
 42
0.07332668712448476
  0
VERTEX
  8
0
  6
CONTINUOUS
 62
     7
 10
-242.8954391749891
 20
-18.27256992420595
 42
0.07332668712448476
  0
VERTEX
  8
0
  6
CONTINUOUS
 62
     7
 10
-243.0058760371667
 20
-17.97871229675261
 42
0.07332668712448476
  0
VERTEX
  8
0
  6
CONTINUOUS
 62
     7
 10
-243.1794632095418
 20
-17.73720247901671
 42
0.07332668712448476
  0
VERTEX
  8
0
  6
CONTINUOUS
 62
     7
 10
-243.4014264905891
 20
-17.56859564606521
 42
0.07332668712448476
  0
VERTEX
  8
0
  6
CONTINUOUS
 62
     7
 10
-243.652874333194
 20
-17.48724211707474
 42
0.07332668712448476
  0
VERTEX
  8
0
  6
CONTINUOUS
 62
     7
 10
-243.9124057256985
 20
-17.50006598335715
 42
0.07332668712448476
  0
VERTEX
  8
0
  6
CONTINUOUS
 62
     7
 10
-244.1579316563251
 20
-17.60597579107864
 42
0.07332668712448476
  0
VERTEX
  8
0
  6
CONTINUOUS
 62
     7
 10
-244.3685551340745
 20
-17.79595743613599
 42
0.07332668712448476
  0
VERTEX
  8
0
  6
CONTINUOUS
 62
     7
 10
-244.5263497553787
 20
-18.05384136480144
 42
0.07332668712448476
  0
VERTEX
  8
0
  6
CONTINUOUS
 62
     7
 10
-244.6178854406826
 20
-18.35767878281741
 42
0.07332668712448476
  0
VERTEX
  8
0
  6
CONTINUOUS
 62
     7
 10
-244.6353714837783
 20
-18.68160974222088
 42
0.07332668712448476
  0
VERTEX
  8
0
  6
CONTINUOUS
 62
     7
 10
-244.5773196276649
 20
-18.99806411090475
 42
0.07332668712448476
  0
VERTEX
  8
0
  6
CONTINUOUS
 62
     7
 10
-244.4486707317929
 20
-19.2801080978953
 42
0.07332668712448476
  0
VERTEX
  8
0
  6
CONTINUOUS
 62
     7
 10
-244.2603742499014
 20
-19.50373661891265
 42
0.07332668712448476
  0
VERTEX
  8
0
  6
CONTINUOUS
 62
     7
 10
-244.0284563095658
 20
-19.64991639637592
 42
0.07332668712448476
  0
VERTEX
  8
0
  6
CONTINUOUS
 62
     7
 10
-243.7726557102663
 20
-19.70620590328975
 42
-1
  0
SEQEND
  8
0
  0
POLYLINE
  8
0
  6
CONTINUOUS
 62
     7
 66
     1
 10
0
 20
0
  0
VERTEX
  8
0
  6
CONTINUOUS
 62
     7
 10
-242.884224051622
 20
-18.81713958889717
 42
0.07459289906077718
  0
VERTEX
  8
0
  6
CONTINUOUS
 62
     7
 10
-242.8738970220099
 20
-19.03030948791686
 42
0.07459289906077718
  0
VERTEX
  8
0
  6
CONTINUOUS
 62
     7
 10
-242.8196695912873
 20
-19.22982177206897
 42
0.07459289906077718
  0
VERTEX
  8
0
  6
CONTINUOUS
 62
     7
 10
-242.7263161117598
 20
-19.39811075695483
 42
0.07459289906077718
  0
VERTEX
  8
0
  6
CONTINUOUS
 62
     7
 10
-242.602055715226
 20
-19.52035975492616
 42
0.07459289906077718
  0
VERTEX
  8
0
  6
CONTINUOUS
 62
     7
 10
-242.4578286749531
 20
-19.58580558252513
 42
0.07459289906077718
  0
VERTEX
  8
0
  6
CONTINUOUS
 62
     7
 10
-242.3063331898613
 20
-19.58868618476001
 42
0.07459289906077718
  0
VERTEX
  8
0
  6
CONTINUOUS
 62
     7
 10
-242.1609073954455
 20
-19.52874794441644
 42
0.07459289906077718
  0
VERTEX
  8
0
  6
CONTINUOUS
 62
     7
 10
-242.0343550326834
 20
-19.41126801130884
 42
0.07459289906077718
  0
VERTEX
  8
0
  6
CONTINUOUS
 62
     7
 10
-241.9378181667046
 20
-19.2465896855348
 42
0.07459289906077718
  0
VERTEX
  8
0
  6
CONTINUOUS
 62
     7
 10
-241.8797962045899
 20
-19.04921176104149
 42
0.07459289906077718
  0
VERTEX
  8
0
  6
CONTINUOUS
 62
     7
 10
-241.8653975810356
 20
-18.83651200653949
 42
0.07459289906077718
  0
VERTEX
  8
0
  6
CONTINUOUS
 62
     7
 10
-241.8958899958136
 20
-18.62721717248996
 42
0.07459289906077718
  0
VERTEX
  8
0
  6
CONTINUOUS
 62
     7
 10
-241.9685888015259
 20
-18.43975422952689
 42
0.07459289906077718
  0
VERTEX
  8
0
  6
CONTINUOUS
 62
     7
 10
-242.0770933683428
 20
-18.29062800043111
 42
0.07459289906077718
  0
VERTEX
  8
0
  6
CONTINUOUS
 62
     7
 10
-242.2118506154373
 20
-18.19296802400268
 42
0.07459289906077718
  0
VERTEX
  8
0
  6
CONTINUOUS
 62
     7
 10
-242.3609960940464
 20
-18.15537258947282
 42
-1
  0
SEQEND
  8
0
  0
POLYLINE
  8
0
  6
CONTINUOUS
 62
     7
 66
     1
 10
0
 20
0
  0
VERTEX
  8
0
  6
CONTINUOUS
 62
     7
 10
-243.3496940354857
 20
-18.8222562999601
 42
0.07398282385211347
  0
VERTEX
  8
0
  6
CONTINUOUS
 62
     7
 10
-243.3194728872678
 20
-19.18627013709491
 42
0.07398282385211347
  0
VERTEX
  8
0
  6
CONTINUOUS
 62
     7
 10
-243.2080154830356
 20
-19.52322316715899
 42
0.07398282385211347
  0
VERTEX
  8
0
  6
CONTINUOUS
 62
     7
 10
-243.0249767608738
 20
-19.80392701397261
 42
0.07398282385211347
  0
VERTEX
  8
0
  6
CONTINUOUS
 62
     7
 10
-242.7862123522838
 20
-20.00406585679858
 42
0.07398282385211347
  0
VERTEX
  8
0
  6
CONTINUOUS
 62
     7
 10
-242.5124050965766
 20
-20.10630277532052
 42
0.07398282385211347
  0
VERTEX
  8
0
  6
CONTINUOUS
 62
     7
 10
-242.2272734009702
 20
-20.10178155110139
 42
0.07398282385211347
  0
VERTEX
  8
0
  6
CONTINUOUS
 62
     7
 10
-241.9555166462373
 20
-19.99089383277327
 42
0.07398282385211347
  0
VERTEX
  8
0
  6
CONTINUOUS
 62
     7
 10
-241.7206756160445
 20
-19.78324520968391
 42
0.07398282385211347
  0
VERTEX
  8
0
  6
CONTINUOUS
 62
     7
 10
-241.5430932891459
 20
-19.49682313285215
 42
0.07398282385211347
  0
VERTEX
  8
0
  6
CONTINUOUS
 62
     7
 10
-241.4381526397185
 20
-19.156438761635
 42
0.07398282385211347
  0
VERTEX
  8
0
  6
CONTINUOUS
 62
     7
 10
-241.4149440954445
 20
-18.79157771030606
 42
0.07398282385211347
  0
VERTEX
  8
0
  6
CONTINUOUS
 62
     7
 10
-241.4754780840701
 20
-18.43384587247456
 42
0.07398282385211347
  0
VERTEX
  8
0
  6
CONTINUOUS
 62
     7
 10
-241.6145108811767
 20
-18.11423157744002
 42
0.07398282385211347
  0
VERTEX
  8
0
  6
CONTINUOUS
 62
     7
 10
-241.8199988450067
 20
-17.86042124272512
 42
0.07398282385211347
  0
VERTEX
  8
0
  6
CONTINUOUS
 62
     7
 10
-242.074141690495
 20
-17.69440105295194
 42
0.07398282385211347
  0
VERTEX
  8
0
  6
CONTINUOUS
 62
     7
 10
-242.3549244294514
 20
-17.63055241834731
 42
-1
  0
SEQEND
  8
0
  0
ENDSEC
  0
EOF
