  0
SECTION
  2
HEADER
  9
$EXTMAX
 10
208.5
 20
148.5
  9
$EXTMIN
 10
-208.5
 20
-148.5
  0
ENDSEC
  0
SECTION
  2
TABLES
  0
TABLE
  2
LTYPE
 70
    22
  0
LTYPE
  2
CONTINUOUS
 70
    64
  3
Solid line
 72
    65
 73
     0
 40
0.000000
  0
LTYPE
  2
DASHED
 70
    64
  3
__ __ __ __ __ __ __ __ __ __ __ __ __ __ __
 72
    65
 73
     2
 40
3.500000
 49
2.000000
 49
-1.500000
  0
LTYPE
  2
CENTER
 70
    64
  3
____ _ ____ _ ____ _ ____ _ ____ _ ____ _ ____
 72
    65
 73
     4
 40
17.500000
 49
13.000000
 49
-1.500000
 49
1.500000
 49
-1.500000
  0
LTYPE
  2
PHANTOM
 70
    64
  3
_____ _ _ _____ _ _ _____ _ _ _____ _ _ ____  
 72
    65
 73
     6
 40
15.500000
 49
8.000000
 49
-1.500000
 49
1.500000
 49
-1.500000
 49
1.500000
 49
-1.500000
  0
LTYPE
  2
DOT
 70
    64
  3
. . . . . . . . . . . . . . . . . . . . . . . .
 72
    65
 73
     2
 40
0.25
 49
0.0
 49
-0.25
  0
ENDTAB
  0
TABLE
  2
LAYER
 70
     2
  0
LAYER
  2
0
 70
     0
 62
     7
  6
CONTINUOUS
  0
LAYER
  2
1
 70
     0
 62
     7
  6
CONTINUOUS
  0
ENDTAB
  0
TABLE
  2
STYLE
 70
     1
  0
STYLE
  2
STANDARD
 70
     0
 40
0.000000
 41
1.000000
 50
0.000000
 71
     0
 42
0.200000
  3
txt
  4
BIGFONT
  0
ENDTAB
  0
TABLE
  2
VIEW
 70
     0
  0
ENDTAB
  0
ENDSEC
  0
SECTION
  2
BLOCKS
  0
ENDSEC
  0
SECTION
  2
ENTITIES
  0
POINT
  8
0
  6
CONTINUOUS
 62
     7
 10
-117.4717636108398
 20
39.80210113525391
  0
POINT
  8
0
  6
CONTINUOUS
 62
     7
 10
119.4570159912109
 20
39.96454238891602
  0
POINT
  8
0
  6
CONTINUOUS
 62
     7
 10
347.7676086425781
 20
39.80210113525391
  0
POINT
  8
0
  6
CONTINUOUS
 62
     7
 10
468.7055053710938
 20
-257.9956970214844
  0
POINT
  8
0
  6
CONTINUOUS
 62
     7
 10
176.8509979248047
 20
-256.7745666503906
  0
POINT
  8
0
  6
CONTINUOUS
 62
     7
 10
-96.39199066162109
 20
-253.7333984375
  0
LINE
  8
0
  6
CENTER
 62
     7
 10
-152.8591156005859
 20
39.80210113525391
 11
-19.88496208190918
 21
39.80210113525391
  0
LINE
  8
0
  6
CENTER
 62
     7
 10
-117.4717636108398
 20
76.5989990234375
 11
-117.4717636108398
 21
-54.76655197143555
  0
LINE
  8
0
  6
CONTINUOUS
 62
     7
 10
-147.2217559814453
 20
-43.19789886474609
 11
-87.72176361083984
 21
-43.19789886474609
  0
LINE
  8
0
  6
CONTINUOUS
 62
     7
 10
-34.47176361083984
 20
69.55210113525391
 11
-34.47176361083984
 21
10.05210018157959
  0
LINE
  8
0
  6
CONTINUOUS
 62
     7
 10
-87.22176361083984
 20
-13.49790000915527
 11
-87.22176361083984
 21
-18.49790000915527
  0
LINE
  8
0
  6
CONTINUOUS
 62
     7
 10
-147.7217559814453
 20
-13.49790000915527
 11
-147.7217559814453
 21
-18.49790000915527
  0
LINE
  8
0
  6
CONTINUOUS
 62
     7
 10
-64.17176055908203
 20
70.05210113525391
 11
-59.17176055908203
 21
70.05210113525391
  0
LINE
  8
0
  6
CONTINUOUS
 62
     7
 10
-64.17176055908203
 20
9.55210018157959
 11
-59.17176055908203
 21
9.55210018157959
  0
LINE
  8
0
  6
CONTINUOUS
 62
     7
 10
-147.7217559814453
 20
-27.19789886474609
 11
-147.4217681884766
 21
-27.19789886474609
  0
LINE
  8
0
  6
CONTINUOUS
 62
     7
 10
-50.47176361083984
 20
70.05210113525391
 11
-50.47176361083984
 21
69.75209808349609
  0
LINE
  8
0
  6
CONTINUOUS
 62
     7
 10
-147.7217559814453
 20
-18.49790000915527
 11
-147.4217681884766
 21
-18.49790000915527
  0
LINE
  8
0
  6
CONTINUOUS
 62
     7
 10
-147.7217559814453
 20
-13.49790000915527
 11
-147.4217681884766
 21
-13.49790000915527
  0
LINE
  8
0
  6
CONTINUOUS
 62
     7
 10
-147.7217559814453
 20
-27.19789886474609
 11
-147.7217559814453
 21
-42.69789886474609
  0
LINE
  8
0
  6
CONTINUOUS
 62
     7
 10
-87.22176361083984
 20
-27.19789886474609
 11
-87.22176361083984
 21
-42.69789886474609
  0
LINE
  8
0
  6
CONTINUOUS
 62
     7
 10
-87.52175903320313
 20
-27.19789886474609
 11
-87.22176361083984
 21
-27.19789886474609
  0
LINE
  8
0
  6
CONTINUOUS
 62
     7
 10
-147.7217559814453
 20
-18.49790000915527
 11
-87.22176361083984
 21
-18.49790000915527
  0
LINE
  8
0
  6
CONTINUOUS
 62
     7
 10
-147.7217559814453
 20
-27.19789886474609
 11
-87.22176361083984
 21
-27.19789886474609
  0
LINE
  8
0
  6
CONTINUOUS
 62
     7
 10
-147.7217559814453
 20
-13.49790000915527
 11
-87.22176361083984
 21
-13.49790000915527
  0
LINE
  8
0
  6
CONTINUOUS
 62
     7
 10
-59.17176055908203
 20
70.05210113525391
 11
-59.17176055908203
 21
69.75209808349609
  0
LINE
  8
0
  6
CONTINUOUS
 62
     7
 10
-64.17176055908203
 20
70.05210113525391
 11
-64.17176055908203
 21
69.75209808349609
  0
LINE
  8
0
  6
CONTINUOUS
 62
     7
 10
-50.47176361083984
 20
70.05210113525391
 11
-34.97176361083984
 21
70.05210113525391
  0
LINE
  8
0
  6
CONTINUOUS
 62
     7
 10
-50.47176361083984
 20
9.55210018157959
 11
-34.97176361083984
 21
9.55210018157959
  0
LINE
  8
0
  6
CONTINUOUS
 62
     7
 10
-67.47176361083984
 20
68.25209808349609
 11
-66.16735076904297
 21
68.25209808349609
  0
LINE
  8
0
  6
CONTINUOUS
 62
     7
 10
-57.17617416381836
 20
68.25209808349609
 11
-51.97176361083984
 21
68.25209808349609
  0
LINE
  8
0
  6
CONTINUOUS
 62
     7
 10
-50.47176361083984
 20
70.05210113525391
 11
-50.47176361083984
 21
9.55210018157959
  0
LINE
  8
0
  6
CONTINUOUS
 62
     7
 10
-59.17176055908203
 20
70.05210113525391
 11
-59.17176055908203
 21
9.55210018157959
  0
LINE
  8
0
  6
CONTINUOUS
 62
     7
 10
-64.17176055908203
 20
70.05210113525391
 11
-64.17176055908203
 21
9.55210018157959
  0
LINE
  8
0
  6
CONTINUOUS
 62
     7
 10
-50.47176361083984
 20
9.852100372314453
 11
-50.47176361083984
 21
9.55210018157959
  0
LINE
  8
0
  6
CONTINUOUS
 62
     7
 10
-79.30324554443359
 20
70.04471588134766
 11
-109.3032455444336
 21
59.1256103515625
  0
LINE
  8
0
  6
CENTER
 62
     7
 10
74.95314788818359
 20
39.96454238891602
 11
224.9228515625
 21
39.96454238891602
  0
LINE
  8
0
  6
CENTER
 62
     7
 10
119.4570159912109
 20
77.98258972167969
 11
119.4570159912109
 21
-67.24031829833984
  0
LINE
  8
0
  6
CONTINUOUS
 62
     7
 10
184.7570190429688
 20
1.814542293548584
 11
189.7570190429688
 21
1.814542293548584
  0
LINE
  8
0
  6
CONTINUOUS
 62
     7
 10
184.7570190429688
 20
78.11454010009766
 11
189.7570190429688
 21
78.11454010009766
  0
LINE
  8
0
  6
CONTINUOUS
 62
     7
 10
214.4570159912109
 20
77.61454010009766
 11
214.4570159912109
 21
2.314542293548584
  0
LINE
  8
0
  6
CONTINUOUS
 62
     7
 10
198.4570159912109
 20
78.11454010009766
 11
198.4570159912109
 21
77.56454467773438
  0
LINE
  8
0
  6
CONTINUOUS
 62
     7
 10
189.7570190429688
 20
78.11454010009766
 11
189.7570190429688
 21
78.06454467773438
  0
LINE
  8
0
  6
CONTINUOUS
 62
     7
 10
184.7570190429688
 20
78.11454010009766
 11
184.7570190429688
 21
78.06454467773438
  0
LINE
  8
0
  6
CONTINUOUS
 62
     7
 10
181.4570159912109
 20
76.06454467773438
 11
182.7173461914063
 21
76.06454467773438
  0
LINE
  8
0
  6
CONTINUOUS
 62
     7
 10
198.4570159912109
 20
78.11454010009766
 11
213.9570159912109
 21
78.11454010009766
  0
LINE
  8
0
  6
CONTINUOUS
 62
     7
 10
191.7966918945313
 20
76.06454467773438
 11
196.9570159912109
 21
76.06454467773438
  0
LINE
  8
0
  6
CONTINUOUS
 62
     7
 10
198.4570159912109
 20
1.814542293548584
 11
213.9570159912109
 21
1.814542293548584
  0
LINE
  8
0
  6
CONTINUOUS
 62
     7
 10
198.4570159912109
 20
78.11454010009766
 11
198.4570159912109
 21
1.814542293548584
  0
LINE
  8
0
  6
CONTINUOUS
 62
     7
 10
198.4570159912109
 20
2.364542245864868
 11
198.4570159912109
 21
1.814542293548584
  0
LINE
  8
0
  6
CONTINUOUS
 62
     7
 10
189.7570190429688
 20
1.864542245864868
 11
189.7570190429688
 21
1.814542293548584
  0
LINE
  8
0
  6
CONTINUOUS
 62
     7
 10
184.7570190429688
 20
1.864542245864868
 11
184.7570190429688
 21
1.814542293548584
  0
LINE
  8
0
  6
CONTINUOUS
 62
     7
 10
184.7570190429688
 20
78.11454010009766
 11
184.7570190429688
 21
1.814542293548584
  0
LINE
  8
0
  6
CONTINUOUS
 62
     7
 10
189.7570190429688
 20
78.11454010009766
 11
189.7570190429688
 21
1.814542293548584
  0
LINE
  8
0
  6
CONTINUOUS
 62
     7
 10
81.35701751708984
 20
-25.33545684814453
 11
81.30701446533203
 21
-25.33545684814453
  0
LINE
  8
0
  6
CONTINUOUS
 62
     7
 10
157.6070098876953
 20
-30.33545684814453
 11
81.30701446533203
 21
-30.33545684814453
  0
LINE
  8
0
  6
CONTINUOUS
 62
     7
 10
157.6070098876953
 20
-39.03545761108398
 11
81.30701446533203
 21
-39.03545761108398
  0
LINE
  8
0
  6
CONTINUOUS
 62
     7
 10
81.35701751708984
 20
-30.33545684814453
 11
81.30701446533203
 21
-30.33545684814453
  0
LINE
  8
0
  6
CONTINUOUS
 62
     7
 10
81.30701446533203
 20
-39.03545761108398
 11
81.30701446533203
 21
-54.53545761108398
  0
LINE
  8
0
  6
CONTINUOUS
 62
     7
 10
81.85701751708984
 20
-39.03545761108398
 11
81.30701446533203
 21
-39.03545761108398
  0
LINE
  8
0
  6
CONTINUOUS
 62
     7
 10
157.6070098876953
 20
-39.03545761108398
 11
157.6070098876953
 21
-54.53545761108398
  0
LINE
  8
0
  6
CONTINUOUS
 62
     7
 10
157.6070098876953
 20
-30.33545684814453
 11
157.5570220947266
 21
-30.33545684814453
  0
LINE
  8
0
  6
CONTINUOUS
 62
     7
 10
157.6070098876953
 20
-25.33545684814453
 11
157.5570220947266
 21
-25.33545684814453
  0
LINE
  8
0
  6
CONTINUOUS
 62
     7
 10
157.6070098876953
 20
-39.03545761108398
 11
157.0570220947266
 21
-39.03545761108398
  0
LINE
  8
0
  6
CONTINUOUS
 62
     7
 10
81.30701446533203
 20
-25.33545684814453
 11
81.30701446533203
 21
-30.33545684814453
  0
LINE
  8
0
  6
CONTINUOUS
 62
     7
 10
157.6070098876953
 20
-25.33545684814453
 11
81.30701446533203
 21
-25.33545684814453
  0
LINE
  8
0
  6
CONTINUOUS
 62
     7
 10
157.6070098876953
 20
-25.33545684814453
 11
157.6070098876953
 21
-30.33545684814453
  0
LINE
  8
0
  6
CONTINUOUS
 62
     7
 10
157.1070098876953
 20
-55.03545761108398
 11
81.80701446533203
 21
-55.03545761108398
  0
LINE
  8
0
  6
CONTINUOUS
 62
     7
 10
171.0668640136719
 20
77.77638244628906
 11
141.0668640136719
 21
69.73790740966797
  0
LINE
  8
0
  6
CENTER
 62
     7
 10
309.9562072753906
 20
39.80210113525391
 11
471.8442687988281
 21
39.80210113525391
  0
LINE
  8
0
  6
CENTER
 62
     7
 10
347.7676086425781
 20
75.37785339355469
 11
347.7676086425781
 21
-85.52935791015625
  0
LINE
  8
0
  6
CONTINUOUS
 62
     7
 10
426.0675964355469
 20
84.35209655761719
 11
431.0675964355469
 21
84.35209655761719
  0
LINE
  8
0
  6
CONTINUOUS
 62
     7
 10
426.0675964355469
 20
-4.747899532318115
 11
431.0675964355469
 21
-4.747899532318115
  0
LINE
  8
0
  6
CONTINUOUS
 62
     7
 10
455.7676086425781
 20
83.85209655761719
 11
455.7676086425781
 21
-4.247899532318115
  0
LINE
  8
0
  6
CONTINUOUS
 62
     7
 10
439.7676086425781
 20
84.35209655761719
 11
439.7676086425781
 21
83.75209808349609
  0
LINE
  8
0
  6
CONTINUOUS
 62
     7
 10
431.0675964355469
 20
84.35209655761719
 11
431.0675964355469
 21
84.25209808349609
  0
LINE
  8
0
  6
CONTINUOUS
 62
     7
 10
426.0675964355469
 20
84.35209655761719
 11
426.0675964355469
 21
84.25209808349609
  0
LINE
  8
0
  6
CONTINUOUS
 62
     7
 10
422.7676086425781
 20
82.25209808349609
 11
424.0191345214844
 21
82.25209808349609
  0
LINE
  8
0
  6
CONTINUOUS
 62
     7
 10
439.7676086425781
 20
84.35209655761719
 11
455.2676086425781
 21
84.35209655761719
  0
LINE
  8
0
  6
CONTINUOUS
 62
     7
 10
439.7676086425781
 20
-4.747899532318115
 11
455.2676086425781
 21
-4.747899532318115
  0
LINE
  8
0
  6
CONTINUOUS
 62
     7
 10
433.1160888671875
 20
82.25209808349609
 11
438.2676086425781
 21
82.25209808349609
  0
LINE
  8
0
  6
CONTINUOUS
 62
     7
 10
426.0675964355469
 20
84.35209655761719
 11
426.0675964355469
 21
-4.747899532318115
  0
LINE
  8
0
  6
CONTINUOUS
 62
     7
 10
431.0675964355469
 20
84.35209655761719
 11
431.0675964355469
 21
-4.747899532318115
  0
LINE
  8
0
  6
CONTINUOUS
 62
     7
 10
439.7676086425781
 20
84.35209655761719
 11
439.7676086425781
 21
-4.747899532318115
  0
LINE
  8
0
  6
CONTINUOUS
 62
     7
 10
439.7676086425781
 20
-4.147899627685547
 11
439.7676086425781
 21
-4.747899532318115
  0
LINE
  8
0
  6
CONTINUOUS
 62
     7
 10
431.0675964355469
 20
-4.647899627685547
 11
431.0675964355469
 21
-4.747899532318115
  0
LINE
  8
0
  6
CONTINUOUS
 62
     7
 10
426.0675964355469
 20
-4.647899627685547
 11
426.0675964355469
 21
-4.747899532318115
  0
LINE
  8
0
  6
CONTINUOUS
 62
     7
 10
391.8175964355469
 20
-68.19789886474609
 11
303.7176208496094
 21
-68.19789886474609
  0
LINE
  8
0
  6
CONTINUOUS
 62
     7
 10
303.2176208496094
 20
-38.49789810180664
 11
303.2176208496094
 21
-43.49789810180664
  0
LINE
  8
0
  6
CONTINUOUS
 62
     7
 10
392.3175964355469
 20
-38.49789810180664
 11
392.3175964355469
 21
-43.49789810180664
  0
LINE
  8
0
  6
CONTINUOUS
 62
     7
 10
392.3175964355469
 20
-38.49789810180664
 11
392.2176208496094
 21
-38.49789810180664
  0
LINE
  8
0
  6
CONTINUOUS
 62
     7
 10
392.3175964355469
 20
-52.19789886474609
 11
391.7176208496094
 21
-52.19789886474609
  0
LINE
  8
0
  6
CONTINUOUS
 62
     7
 10
392.3175964355469
 20
-43.49789810180664
 11
392.2176208496094
 21
-43.49789810180664
  0
LINE
  8
0
  6
CONTINUOUS
 62
     7
 10
303.2176208496094
 20
-52.19789886474609
 11
303.2176208496094
 21
-67.69789886474609
  0
LINE
  8
0
  6
CONTINUOUS
 62
     7
 10
392.3175964355469
 20
-52.19789886474609
 11
392.3175964355469
 21
-67.69789886474609
  0
LINE
  8
0
  6
CONTINUOUS
 62
     7
 10
303.3175964355469
 20
-38.49789810180664
 11
303.2176208496094
 21
-38.49789810180664
  0
LINE
  8
0
  6
CONTINUOUS
 62
     7
 10
303.3175964355469
 20
-43.49789810180664
 11
303.2176208496094
 21
-43.49789810180664
  0
LINE
  8
0
  6
CONTINUOUS
 62
     7
 10
303.8175964355469
 20
-52.19789886474609
 11
303.2176208496094
 21
-52.19789886474609
  0
LINE
  8
0
  6
CONTINUOUS
 62
     7
 10
392.3175964355469
 20
-52.19789886474609
 11
303.2176208496094
 21
-52.19789886474609
  0
LINE
  8
0
  6
CONTINUOUS
 62
     7
 10
392.3175964355469
 20
-43.49789810180664
 11
303.2176208496094
 21
-43.49789810180664
  0
LINE
  8
0
  6
CONTINUOUS
 62
     7
 10
392.3175964355469
 20
-38.49789810180664
 11
303.2176208496094
 21
-38.49789810180664
  0
LINE
  8
0
  6
CONTINUOUS
 62
     7
 10
-108.4254684448242
 20
56.71395492553711
 11
-109.3032455444336
 21
59.1256103515625
  0
LINE
  8
0
  6
CONTINUOUS
 62
     7
 10
-78.37372589111328
 20
67.49089813232422
 11
-79.30324554443359
 21
70.04471588134766
  0
LINE
  8
0
  6
CONTINUOUS
 62
     7
 10
-134.3836212158203
 20
30.75580978393555
 11
-136.7952728271484
 21
31.63358116149902
  0
LINE
  8
0
  6
CONTINUOUS
 62
     7
 10
-147.7143859863281
 20
1.633580446243286
 11
-136.7952728271484
 21
31.63358116149902
  0
LINE
  8
0
  6
CONTINUOUS
 62
     7
 10
-145.1605682373047
 20
0.7040669322013855
 11
-147.7143859863281
 21
1.633580446243286
  0
LINE
  8
0
  6
CONTINUOUS
 62
     7
 10
141.6348114013672
 20
67.61833190917969
 11
141.0668640136719
 21
69.73790740966797
  0
LINE
  8
0
  6
CONTINUOUS
 62
     7
 10
171.6570434570313
 20
75.57381439208984
 11
171.0668640136719
 21
77.77638244628906
  0
LINE
  8
0
  6
CONTINUOUS
 62
     7
 10
81.64517974853516
 20
-11.64530944824219
 11
89.68365478515625
 21
18.35469055175781
  0
LINE
  8
0
  6
CONTINUOUS
 62
     7
 10
83.84774017333984
 20
-12.23548412322998
 11
81.64517974853516
 21
-11.64530944824219
  0
LINE
  8
0
  6
CONTINUOUS
 62
     7
 10
91.80323028564453
 20
17.78675270080566
 11
89.68365478515625
 21
18.35469055175781
  0
LINE
  8
0
  6
CONTINUOUS
 62
     7
 10
407.5973510742188
 20
85.33243560791016
 11
357.5973510742188
 21
67.13391876220703
  0
LINE
  8
0
  6
CONTINUOUS
 62
     7
 10
358.9547729492188
 20
63.40444564819336
 11
357.5973510742188
 21
67.13391876220703
  0
LINE
  8
0
  6
CONTINUOUS
 62
     7
 10
409.0126647949219
 20
81.44387817382813
 11
407.5973510742188
 21
85.33243560791016
  0
LINE
  8
0
  6
CONTINUOUS
 62
     7
 10
302.2372741699219
 20
-20.02763366699219
 11
320.435791015625
 21
29.97236633300781
  0
LINE
  8
0
  6
CONTINUOUS
 62
     7
 10
306.1258239746094
 20
-21.44295310974121
 11
302.2372741699219
 21
-20.02763366699219
  0
LINE
  8
0
  6
CONTINUOUS
 62
     7
 10
324.1652526855469
 20
28.61494827270508
 11
320.435791015625
 21
29.97236633300781
  0
LINE
  8
0
  6
CENTER
 62
     7
 10
-151.6379699707031
 20
-253.7333984375
 11
50.75050735473633
 21
-253.7333984375
  0
LINE
  8
0
  6
CENTER
 62
     7
 10
-96.39199066162109
 20
-199.3805847167969
 11
-96.39199066162109
 21
-400.7825927734375
  0
LINE
  8
0
  6
CONTINUOUS
 62
     7
 10
30.60800743103027
 20
-196.5833892822266
 11
30.60800743103027
 21
-310.8833923339844
  0
LINE
  8
0
  6
CONTINUOUS
 62
     7
 10
0.9080082774162293
 20
-196.5833892822266
 11
5.908008098602295
 21
-196.5833892822266
  0
LINE
  8
0
  6
CONTINUOUS
 62
     7
 10
0.9080082774162293
 20
-310.8833923339844
 11
5.908008098602295
 21
-310.8833923339844
  0
LINE
  8
0
  6
CONTINUOUS
 62
     7
 10
14.60800838470459
 20
-196.5833892822266
 11
14.60800838470459
 21
-197.4333953857422
  0
LINE
  8
0
  6
CONTINUOUS
 62
     7
 10
5.908008098602295
 20
-196.5833892822266
 11
5.908008098602295
 21
-310.8833923339844
  0
LINE
  8
0
  6
CONTINUOUS
 62
     7
 10
0.9080082774162293
 20
-196.5833892822266
 11
0.9080082774162293
 21
-310.8833923339844
  0
LINE
  8
0
  6
CONTINUOUS
 62
     7
 10
14.60800838470459
 20
-196.5833892822266
 11
30.60800743103027
 21
-196.5833892822266
  0
LINE
  8
0
  6
CONTINUOUS
 62
     7
 10
14.60800838470459
 20
-310.8833923339844
 11
30.60800743103027
 21
-310.8833923339844
  0
LINE
  8
0
  6
CONTINUOUS
 62
     7
 10
-4.39199161529541
 20
-198.9333953857422
 11
-1.184559464454651
 21
-198.9333953857422
  0
LINE
  8
0
  6
CONTINUOUS
 62
     7
 10
-4.39199161529541
 20
-308.5333862304688
 11
-1.184559464454651
 21
-308.5333862304688
  0
LINE
  8
0
  6
CONTINUOUS
 62
     7
 10
8.000576019287109
 20
-198.9333953857422
 11
13.10800838470459
 21
-198.9333953857422
  0
LINE
  8
0
  6
CONTINUOUS
 62
     7
 10
8.000576019287109
 20
-308.5333862304688
 11
13.10800838470459
 21
-308.5333862304688
  0
LINE
  8
0
  6
CONTINUOUS
 62
     7
 10
-64.19773101806641
 20
69.90480041503906
 11
-64.17176055908203
 21
70.05210113525391
  0
LINE
  8
0
  6
CONTINUOUS
 62
     7
 10
-59.14579010009766
 20
69.90480041503906
 11
-59.17176055908203
 21
70.05210113525391
  0
LINE
  8
0
  6
CONTINUOUS
 62
     7
 10
-57.17617416381836
 20
11.35210037231445
 11
-51.97176361083984
 21
11.35210037231445
  0
LINE
  8
0
  6
CONTINUOUS
 62
     7
 10
-67.47176361083984
 20
11.35210037231445
 11
-66.16735076904297
 21
11.35210037231445
  0
LINE
  8
0
  6
CONTINUOUS
 62
     7
 10
-59.14579010009766
 20
9.699396133422852
 11
-59.17176055908203
 21
9.55210018157959
  0
LINE
  8
0
  6
CONTINUOUS
 62
     7
 10
-64.19773101806641
 20
9.699396133422852
 11
-64.17176055908203
 21
9.55210018157959
  0
LINE
  8
0
  6
CONTINUOUS
 62
     7
 10
-89.02175903320313
 20
-10.19789981842041
 11
-89.02175903320313
 21
-11.50231170654297
  0
LINE
  8
0
  6
CONTINUOUS
 62
     7
 10
-87.36905670166016
 20
-13.47192764282227
 11
-87.22176361083984
 21
-13.49790000915527
  0
LINE
  8
0
  6
CONTINUOUS
 62
     7
 10
-87.36905670166016
 20
-18.52387237548828
 11
-87.22176361083984
 21
-18.49790000915527
  0
LINE
  8
0
  6
CONTINUOUS
 62
     7
 10
-145.9217681884766
 20
-20.49348831176758
 11
-145.9217681884766
 21
-25.69789886474609
  0
LINE
  8
0
  6
CONTINUOUS
 62
     7
 10
-145.9217681884766
 20
-10.19789981842041
 11
-145.9217681884766
 21
-11.50231170654297
  0
LINE
  8
0
  6
CONTINUOUS
 62
     7
 10
-89.02175903320313
 20
-20.49348831176758
 11
-89.02175903320313
 21
-25.69789886474609
  0
LINE
  8
0
  6
CONTINUOUS
 62
     7
 10
-147.574462890625
 20
-18.52387237548828
 11
-147.7217559814453
 21
-18.49790000915527
  0
LINE
  8
0
  6
CONTINUOUS
 62
     7
 10
-147.574462890625
 20
-13.47192764282227
 11
-147.7217559814453
 21
-13.49790000915527
  0
LINE
  8
0
  6
CONTINUOUS
 62
     7
 10
184.6869659423828
 20
77.71724700927734
 11
184.7570190429688
 21
78.11454010009766
  0
LINE
  8
0
  6
CONTINUOUS
 62
     7
 10
189.8270721435547
 20
77.71724700927734
 11
189.7570190429688
 21
78.11454010009766
  0
LINE
  8
0
  6
CONTINUOUS
 62
     7
 10
189.8270721435547
 20
2.211838722229004
 11
189.7570190429688
 21
1.814542293548584
  0
LINE
  8
0
  6
CONTINUOUS
 62
     7
 10
184.6869659423828
 20
2.211838722229004
 11
184.7570190429688
 21
1.814542293548584
  0
LINE
  8
0
  6
CONTINUOUS
 62
     7
 10
191.7966918945313
 20
3.864542245864868
 11
196.9570159912109
 21
3.864542245864868
  0
LINE
  8
0
  6
CONTINUOUS
 62
     7
 10
181.4570159912109
 20
3.864542245864868
 11
182.7173461914063
 21
3.864542245864868
  0
LINE
  8
0
  6
CONTINUOUS
 62
     7
 10
81.70431518554688
 20
-30.4055118560791
 11
81.30701446533203
 21
-30.33545684814453
  0
LINE
  8
0
  6
CONTINUOUS
 62
     7
 10
155.5570220947266
 20
-22.03545761108398
 11
155.5570220947266
 21
-23.2957878112793
  0
LINE
  8
0
  6
CONTINUOUS
 62
     7
 10
81.70431518554688
 20
-25.26540374755859
 11
81.30701446533203
 21
-25.33545684814453
  0
LINE
  8
0
  6
CONTINUOUS
 62
     7
 10
157.209716796875
 20
-25.26540374755859
 11
157.6070098876953
 21
-25.33545684814453
  0
LINE
  8
0
  6
CONTINUOUS
 62
     7
 10
157.209716796875
 20
-30.4055118560791
 11
157.6070098876953
 21
-30.33545684814453
  0
LINE
  8
0
  6
CONTINUOUS
 62
     7
 10
83.35701751708984
 20
-32.37512588500977
 11
83.35701751708984
 21
-37.53545761108398
  0
LINE
  8
0
  6
CONTINUOUS
 62
     7
 10
83.35701751708984
 20
-22.03545761108398
 11
83.35701751708984
 21
-23.2957878112793
  0
LINE
  8
0
  6
CONTINUOUS
 62
     7
 10
155.5570220947266
 20
-32.37512588500977
 11
155.5570220947266
 21
-37.53545761108398
  0
LINE
  8
0
  6
CONTINUOUS
 62
     7
 10
425.9887390136719
 20
83.90480041503906
 11
426.0675964355469
 21
84.35209655761719
  0
LINE
  8
0
  6
CONTINUOUS
 62
     7
 10
431.146484375
 20
83.90480041503906
 11
431.0675964355469
 21
84.35209655761719
  0
LINE
  8
0
  6
CONTINUOUS
 62
     7
 10
433.1160888671875
 20
-2.647899866104126
 11
438.2676086425781
 21
-2.647899866104126
  0
LINE
  8
0
  6
CONTINUOUS
 62
     7
 10
422.7676086425781
 20
-2.647899866104126
 11
424.0191345214844
 21
-2.647899866104126
  0
LINE
  8
0
  6
CONTINUOUS
 62
     7
 10
431.146484375
 20
-4.30060338973999
 11
431.0675964355469
 21
-4.747899532318115
  0
LINE
  8
0
  6
CONTINUOUS
 62
     7
 10
425.9887390136719
 20
-4.30060338973999
 11
426.0675964355469
 21
-4.747899532318115
  0
LINE
  8
0
  6
CONTINUOUS
 62
     7
 10
305.3175964355469
 20
-45.54638671875
 11
305.3175964355469
 21
-50.69789886474609
  0
LINE
  8
0
  6
CONTINUOUS
 62
     7
 10
390.2176208496094
 20
-45.54638671875
 11
390.2176208496094
 21
-50.69789886474609
  0
LINE
  8
0
  6
CONTINUOUS
 62
     7
 10
305.3175964355469
 20
-35.19789886474609
 11
305.3175964355469
 21
-36.44941329956055
  0
LINE
  8
0
  6
CONTINUOUS
 62
     7
 10
303.6649169921875
 20
-43.5767707824707
 11
303.2176208496094
 21
-43.49789810180664
  0
LINE
  8
0
  6
CONTINUOUS
 62
     7
 10
390.2176208496094
 20
-35.19789886474609
 11
390.2176208496094
 21
-36.44941329956055
  0
LINE
  8
0
  6
CONTINUOUS
 62
     7
 10
303.6649169921875
 20
-38.41902923583984
 11
303.2176208496094
 21
-38.49789810180664
  0
LINE
  8
0
  6
CONTINUOUS
 62
     7
 10
391.8703002929688
 20
-43.5767707824707
 11
392.3175964355469
 21
-43.49789810180664
  0
LINE
  8
0
  6
CONTINUOUS
 62
     7
 10
391.8703002929688
 20
-38.41902923583984
 11
392.3175964355469
 21
-38.49789810180664
  0
LINE
  8
0
  6
CONTINUOUS
 62
     7
 10
0.7850561141967773
 20
-197.2806854248047
 11
0.9080082774162293
 21
-196.5833892822266
  0
LINE
  8
0
  6
CONTINUOUS
 62
     7
 10
6.030960559844971
 20
-197.2806854248047
 11
5.908008098602295
 21
-196.5833892822266
  0
LINE
  8
0
  6
CONTINUOUS
 62
     7
 10
14.60800838470459
 20
-197.4333953857422
 11
14.60800838470459
 21
-310.0333862304688
  0
LINE
  8
0
  6
CONTINUOUS
 62
     7
 10
14.60800838470459
 20
-310.0333862304688
 11
14.60800838470459
 21
-310.8833923339844
  0
LINE
  8
0
  6
CONTINUOUS
 62
     7
 10
0.7850561141967773
 20
-310.1860961914063
 11
0.9080082774162293
 21
-310.8833923339844
  0
LINE
  8
0
  6
CONTINUOUS
 62
     7
 10
6.030960559844971
 20
-310.1860961914063
 11
5.908008098602295
 21
-310.8833923339844
  0
LINE
  8
0
  6
CONTINUOUS
 62
     7
 10
-153.5419921875
 20
-380.7333984375
 11
-39.24199295043945
 21
-380.7333984375
  0
LINE
  8
0
  6
CONTINUOUS
 62
     7
 10
-153.5419921875
 20
-351.0333862304688
 11
-153.5419921875
 21
-356.0333862304688
  0
LINE
  8
0
  6
CONTINUOUS
 62
     7
 10
-39.24199295043945
 20
-351.0333862304688
 11
-39.24199295043945
 21
-356.0333862304688
  0
LINE
  8
0
  6
CONTINUOUS
 62
     7
 10
-153.5419921875
 20
-364.7333984375
 11
-153.5419921875
 21
-380.7333984375
  0
LINE
  8
0
  6
CONTINUOUS
 62
     7
 10
-153.5419921875
 20
-351.0333862304688
 11
-39.24199295043945
 21
-351.0333862304688
  0
LINE
  8
0
  6
CONTINUOUS
 62
     7
 10
-153.5419921875
 20
-356.0333862304688
 11
-39.24199295043945
 21
-356.0333862304688
  0
LINE
  8
0
  6
CONTINUOUS
 62
     7
 10
-153.5419921875
 20
-364.7333984375
 11
-152.6919860839844
 21
-364.7333984375
  0
LINE
  8
0
  6
CONTINUOUS
 62
     7
 10
-39.24199295043945
 20
-364.7333984375
 11
-39.24199295043945
 21
-380.7333984375
  0
LINE
  8
0
  6
CONTINUOUS
 62
     7
 10
-41.59199142456055
 20
-345.7333984375
 11
-41.59199142456055
 21
-348.9408264160156
  0
LINE
  8
0
  6
CONTINUOUS
 62
     7
 10
-151.1919860839844
 20
-345.7333984375
 11
-151.1919860839844
 21
-348.9408264160156
  0
LINE
  8
0
  6
CONTINUOUS
 62
     7
 10
-151.1919860839844
 20
-358.1259460449219
 11
-151.1919860839844
 21
-363.2333984375
  0
LINE
  8
0
  6
CONTINUOUS
 62
     7
 10
-41.59199142456055
 20
-358.1259460449219
 11
-41.59199142456055
 21
-363.2333984375
  0
LINE
  8
0
  6
CONTINUOUS
 62
     7
 10
-152.8446960449219
 20
-350.9104309082031
 11
-153.5419921875
 21
-351.0333862304688
  0
LINE
  8
0
  6
CONTINUOUS
 62
     7
 10
-152.8446960449219
 20
-356.1563415527344
 11
-153.5419921875
 21
-356.0333862304688
  0
LINE
  8
0
  6
CONTINUOUS
 62
     7
 10
-152.6919860839844
 20
-364.7333984375
 11
-40.09199142456055
 21
-364.7333984375
  0
LINE
  8
0
  6
CONTINUOUS
 62
     7
 10
-40.09199142456055
 20
-364.7333984375
 11
-39.24199295043945
 21
-364.7333984375
  0
LINE
  8
0
  6
CONTINUOUS
 62
     7
 10
-39.93928909301758
 20
-356.1563415527344
 11
-39.24199295043945
 21
-356.0333862304688
  0
LINE
  8
0
  6
CONTINUOUS
 62
     7
 10
-39.93928909301758
 20
-350.9104309082031
 11
-39.24199295043945
 21
-351.0333862304688
  0
LINE
  8
0
  6
CONTINUOUS
 62
     7
 10
-17.38662719726563
 20
-196.2014770507813
 11
-67.38662719726563
 21
-209.5989379882813
  0
LINE
  8
0
  6
CONTINUOUS
 62
     7
 10
-66.54498291015625
 20
-212.739990234375
 11
-67.38662719726563
 21
-209.5989379882813
  0
LINE
  8
0
  6
CONTINUOUS
 62
     7
 10
-16.5201416015625
 20
-199.4352416992188
 11
-17.38662719726563
 21
-196.2014770507813
  0
LINE
  8
0
  6
CONTINUOUS
 62
     7
 10
-153.9239044189453
 20
-332.73876953125
 11
-140.5264434814453
 21
-282.73876953125
  0
LINE
  8
0
  6
CONTINUOUS
 62
     7
 10
-137.3853912353516
 20
-283.5804138183594
 11
-140.5264434814453
 21
-282.73876953125
  0
LINE
  8
0
  6
CONTINUOUS
 62
     7
 10
-150.6901397705078
 20
-333.6052551269531
 11
-153.9239044189453
 21
-332.73876953125
  0
LINE
  8
0
  6
CENTER
 62
     7
 10
98.4012451171875
 20
-256.7745666503906
 11
344.5887756347656
 21
-256.7745666503906
  0
LINE
  8
0
  6
CENTER
 62
     7
 10
176.8509979248047
 20
-180.4410705566406
 11
176.8509979248047
 21
-422.4599609375
  0
LINE
  8
0
  6
CONTINUOUS
 62
     7
 10
287.1510009765625
 20
-326.674560546875
 11
292.1510009765625
 21
-326.674560546875
  0
LINE
  8
0
  6
CONTINUOUS
 62
     7
 10
287.1510009765625
 20
-186.8745574951172
 11
292.1510009765625
 21
-186.8745574951172
  0
LINE
  8
0
  6
CONTINUOUS
 62
     7
 10
316.8510131835938
 20
-186.8745574951172
 11
316.8510131835938
 21
-326.674560546875
  0
LINE
  8
0
  6
CONTINUOUS
 62
     7
 10
300.8510131835938
 20
-186.8745574951172
 11
300.8510131835938
 21
-187.7745666503906
  0
LINE
  8
0
  6
CONTINUOUS
 62
     7
 10
292.1510009765625
 20
-186.8745574951172
 11
292.1510009765625
 21
-326.674560546875
  0
LINE
  8
0
  6
CONTINUOUS
 62
     7
 10
287.1510009765625
 20
-186.8745574951172
 11
287.1510009765625
 21
-326.674560546875
  0
LINE
  8
0
  6
CONTINUOUS
 62
     7
 10
278.8510131835938
 20
-324.2745666503906
 11
285.0496215820313
 21
-324.2745666503906
  0
LINE
  8
0
  6
CONTINUOUS
 62
     7
 10
278.8510131835938
 20
-189.2745666503906
 11
285.0496215820313
 21
-189.2745666503906
  0
LINE
  8
0
  6
CONTINUOUS
 62
     7
 10
300.8510131835938
 20
-186.8745574951172
 11
316.8510131835938
 21
-186.8745574951172
  0
LINE
  8
0
  6
CONTINUOUS
 62
     7
 10
294.2523803710938
 20
-189.2745666503906
 11
299.3510131835938
 21
-189.2745666503906
  0
LINE
  8
0
  6
CONTINUOUS
 62
     7
 10
294.2523803710938
 20
-324.2745666503906
 11
299.3510131835938
 21
-324.2745666503906
  0
LINE
  8
0
  6
CONTINUOUS
 62
     7
 10
300.8510131835938
 20
-326.674560546875
 11
316.8510131835938
 21
-326.674560546875
  0
LINE
  8
0
  6
CONTINUOUS
 62
     7
 10
287.0192260742188
 20
-187.6218566894531
 11
287.1510009765625
 21
-186.8745574951172
  0
LINE
  8
0
  6
CONTINUOUS
 62
     7
 10
292.2827758789063
 20
-187.6218566894531
 11
292.1510009765625
 21
-186.8745574951172
  0
LINE
  8
0
  6
CONTINUOUS
 62
     7
 10
300.8510131835938
 20
-187.7745666503906
 11
300.8510131835938
 21
-326.674560546875
  0
LINE
  8
0
  6
CONTINUOUS
 62
     7
 10
292.2827758789063
 20
-325.9272766113281
 11
292.1510009765625
 21
-326.674560546875
  0
LINE
  8
0
  6
CONTINUOUS
 62
     7
 10
287.0192260742188
 20
-325.9272766113281
 11
287.1510009765625
 21
-326.674560546875
  0
LINE
  8
0
  6
CONTINUOUS
 62
     7
 10
246.7510070800781
 20
-367.0745544433594
 11
246.7510070800781
 21
-372.0745544433594
  0
LINE
  8
0
  6
CONTINUOUS
 62
     7
 10
106.9510040283203
 20
-367.0745544433594
 11
106.9510040283203
 21
-372.0745544433594
  0
LINE
  8
0
  6
CONTINUOUS
 62
     7
 10
106.9510040283203
 20
-396.7745666503906
 11
246.7510070800781
 21
-396.7745666503906
  0
LINE
  8
0
  6
CONTINUOUS
 62
     7
 10
244.3509979248047
 20
-358.7745666503906
 11
244.3509979248047
 21
-364.9731750488281
  0
LINE
  8
0
  6
CONTINUOUS
 62
     7
 10
106.9510040283203
 20
-367.0745544433594
 11
246.7510070800781
 21
-367.0745544433594
  0
LINE
  8
0
  6
CONTINUOUS
 62
     7
 10
106.9510040283203
 20
-372.0745544433594
 11
246.7510070800781
 21
-372.0745544433594
  0
LINE
  8
0
  6
CONTINUOUS
 62
     7
 10
106.9510040283203
 20
-380.7745666503906
 11
107.8509979248047
 21
-380.7745666503906
  0
LINE
  8
0
  6
CONTINUOUS
 62
     7
 10
109.3509979248047
 20
-358.7745666503906
 11
109.3509979248047
 21
-364.9731750488281
  0
LINE
  8
0
  6
CONTINUOUS
 62
     7
 10
106.9510040283203
 20
-380.7745666503906
 11
106.9510040283203
 21
-396.7745666503906
  0
LINE
  8
0
  6
CONTINUOUS
 62
     7
 10
109.3509979248047
 20
-374.1759338378906
 11
109.3509979248047
 21
-379.2745666503906
  0
LINE
  8
0
  6
CONTINUOUS
 62
     7
 10
244.3509979248047
 20
-374.1759338378906
 11
244.3509979248047
 21
-379.2745666503906
  0
LINE
  8
0
  6
CONTINUOUS
 62
     7
 10
246.7510070800781
 20
-380.7745666503906
 11
246.7510070800781
 21
-396.7745666503906
  0
LINE
  8
0
  6
CONTINUOUS
 62
     7
 10
246.0037078857422
 20
-372.2063293457031
 11
246.7510070800781
 21
-372.0745544433594
  0
LINE
  8
0
  6
CONTINUOUS
 62
     7
 10
107.8509979248047
 20
-380.7745666503906
 11
246.7510070800781
 21
-380.7745666503906
  0
LINE
  8
0
  6
CONTINUOUS
 62
     7
 10
107.6982955932617
 20
-372.2063293457031
 11
106.9510040283203
 21
-372.0745544433594
  0
LINE
  8
0
  6
CONTINUOUS
 62
     7
 10
107.6982955932617
 20
-366.9428100585938
 11
106.9510040283203
 21
-367.0745544433594
  0
LINE
  8
0
  6
CONTINUOUS
 62
     7
 10
246.0037078857422
 20
-366.9428100585938
 11
246.7510070800781
 21
-367.0745544433594
  0
LINE
  8
0
  6
CONTINUOUS
 62
     7
 10
274.4176330566406
 20
-186.4260559082031
 11
224.4176330566406
 21
-195.2424011230469
  0
LINE
  8
0
  6
CONTINUOUS
 62
     7
 10
224.9186401367188
 20
-198.0837097167969
 11
224.4176330566406
 21
-195.2424011230469
  0
LINE
  8
0
  6
CONTINUOUS
 62
     7
 10
274.9279174804688
 20
-189.3199768066406
 11
274.4176330566406
 21
-186.4260559082031
  0
LINE
  8
0
  6
CONTINUOUS
 62
     7
 10
118.1601486206055
 20
-304.8421936035156
 11
115.3188323974609
 21
-304.3411865234375
  0
LINE
  8
0
  6
CONTINUOUS
 62
     7
 10
109.3964080810547
 20
-354.8514709472656
 11
106.5024871826172
 21
-354.3411865234375
  0
LINE
  8
0
  6
CONTINUOUS
 62
     7
 10
106.5024871826172
 20
-354.3411865234375
 11
115.3188323974609
 21
-304.3411865234375
  0
LINE
  8
0
  6
CENTER
 62
     7
 10
392.23388671875
 20
-257.9956970214844
 11
655.603515625
 21
-257.9956970214844
  0
LINE
  8
0
  6
CENTER
 62
     7
 10
468.7055053710938
 20
-184.1045227050781
 11
468.7055053710938
 21
-445.0977783203125
  0
LINE
  8
0
  6
CONTINUOUS
 62
     7
 10
633.7055053710938
 20
-175.3957061767578
 11
633.7055053710938
 21
-340.595703125
  0
LINE
  8
0
  6
CONTINUOUS
 62
     7
 10
604.0054931640625
 20
-175.3957061767578
 11
609.0054931640625
 21
-175.3957061767578
  0
LINE
  8
0
  6
CONTINUOUS
 62
     7
 10
604.0054931640625
 20
-340.595703125
 11
609.0054931640625
 21
-340.595703125
  0
LINE
  8
0
  6
CONTINUOUS
 62
     7
 10
617.7055053710938
 20
-175.3957061767578
 11
617.7055053710938
 21
-176.5957183837891
  0
LINE
  8
0
  6
CONTINUOUS
 62
     7
 10
609.0054931640625
 20
-175.3957061767578
 11
609.0054931640625
 21
-340.595703125
  0
LINE
  8
0
  6
CONTINUOUS
 62
     7
 10
604.0054931640625
 20
-175.3957061767578
 11
604.0054931640625
 21
-340.595703125
  0
LINE
  8
0
  6
CONTINUOUS
 62
     7
 10
595.7055053710938
 20
-337.8957214355469
 11
601.8512573242188
 21
-337.8957214355469
  0
LINE
  8
0
  6
CONTINUOUS
 62
     7
 10
595.7055053710938
 20
-178.0957183837891
 11
601.8512573242188
 21
-178.0957183837891
  0
LINE
  8
0
  6
CONTINUOUS
 62
     7
 10
617.7055053710938
 20
-175.3957061767578
 11
633.7055053710938
 21
-175.3957061767578
  0
LINE
  8
0
  6
CONTINUOUS
 62
     7
 10
611.1597900390625
 20
-178.0957183837891
 11
616.2055053710938
 21
-178.0957183837891
  0
LINE
  8
0
  6
CONTINUOUS
 62
     7
 10
611.1597900390625
 20
-337.8957214355469
 11
616.2055053710938
 21
-337.8957214355469
  0
LINE
  8
0
  6
CONTINUOUS
 62
     7
 10
617.7055053710938
 20
-340.595703125
 11
633.7055053710938
 21
-340.595703125
  0
LINE
  8
0
  6
CONTINUOUS
 62
     7
 10
603.8208618164063
 20
-176.4430084228516
 11
604.0054931640625
 21
-175.3957061767578
  0
LINE
  8
0
  6
CONTINUOUS
 62
     7
 10
609.190185546875
 20
-176.4430084228516
 11
609.0054931640625
 21
-175.3957061767578
  0
LINE
  8
0
  6
CONTINUOUS
 62
     7
 10
617.7055053710938
 20
-176.5957183837891
 11
617.7055053710938
 21
-340.595703125
  0
LINE
  8
0
  6
CONTINUOUS
 62
     7
 10
609.190185546875
 20
-339.5484008789063
 11
609.0054931640625
 21
-340.595703125
  0
LINE
  8
0
  6
CONTINUOUS
 62
     7
 10
603.8208618164063
 20
-339.5484008789063
 11
604.0054931640625
 21
-340.595703125
  0
LINE
  8
0
  6
CONTINUOUS
 62
     7
 10
386.1054992675781
 20
-422.9956970214844
 11
551.3055419921875
 21
-422.9956970214844
  0
LINE
  8
0
  6
CONTINUOUS
 62
     7
 10
386.1054992675781
 20
-393.2957153320313
 11
386.1054992675781
 21
-398.2957153320313
  0
LINE
  8
0
  6
CONTINUOUS
 62
     7
 10
551.3055419921875
 20
-393.2957153320313
 11
551.3055419921875
 21
-398.2957153320313
  0
LINE
  8
0
  6
CONTINUOUS
 62
     7
 10
388.8055114746094
 20
-400.4499816894531
 11
388.8055114746094
 21
-405.4956970214844
  0
LINE
  8
0
  6
CONTINUOUS
 62
     7
 10
386.1054992675781
 20
-406.9956970214844
 11
386.1054992675781
 21
-422.9956970214844
  0
LINE
  8
0
  6
CONTINUOUS
 62
     7
 10
388.8055114746094
 20
-384.9956970214844
 11
388.8055114746094
 21
-391.1414184570313
  0
LINE
  8
0
  6
CONTINUOUS
 62
     7
 10
548.6055297851563
 20
-384.9956970214844
 11
548.6055297851563
 21
-391.1414184570313
  0
LINE
  8
0
  6
CONTINUOUS
 62
     7
 10
386.1054992675781
 20
-393.2957153320313
 11
551.3055419921875
 21
-393.2957153320313
  0
LINE
  8
0
  6
CONTINUOUS
 62
     7
 10
386.1054992675781
 20
-398.2957153320313
 11
551.3055419921875
 21
-398.2957153320313
  0
LINE
  8
0
  6
CONTINUOUS
 62
     7
 10
386.1054992675781
 20
-406.9956970214844
 11
387.3055114746094
 21
-406.9956970214844
  0
LINE
  8
0
  6
CONTINUOUS
 62
     7
 10
387.3055114746094
 20
-406.9956970214844
 11
551.3055419921875
 21
-406.9956970214844
  0
LINE
  8
0
  6
CONTINUOUS
 62
     7
 10
548.6055297851563
 20
-400.4499816894531
 11
548.6055297851563
 21
-405.4956970214844
  0
LINE
  8
0
  6
CONTINUOUS
 62
     7
 10
551.3055419921875
 20
-406.9956970214844
 11
551.3055419921875
 21
-422.9956970214844
  0
LINE
  8
0
  6
CONTINUOUS
 62
     7
 10
550.2582397460938
 20
-398.4803771972656
 11
551.3055419921875
 21
-398.2957153320313
  0
LINE
  8
0
  6
CONTINUOUS
 62
     7
 10
387.1528015136719
 20
-398.4803771972656
 11
386.1054992675781
 21
-398.2957153320313
  0
LINE
  8
0
  6
CONTINUOUS
 62
     7
 10
387.1528015136719
 20
-393.1110534667969
 11
386.1054992675781
 21
-393.2957153320313
  0
LINE
  8
0
  6
CONTINUOUS
 62
     7
 10
550.2582397460938
 20
-393.1110534667969
 11
551.3055419921875
 21
-393.2957153320313
  0
LINE
  8
0
  6
CONTINUOUS
 62
     7
 10
534.7777099609375
 20
-184.6317291259766
 11
584.7777099609375
 21
-175.8153839111328
  0
LINE
  8
0
  6
CONTINUOUS
 62
     7
 10
534.7777099609375
 20
-184.6317291259766
 11
535.2190551757813
 21
-187.1346588134766
  0
LINE
  8
0
  6
CONTINUOUS
 62
     7
 10
584.7777099609375
 20
-175.8153839111328
 11
585.2266235351563
 21
-178.3612518310547
  0
LINE
  8
0
  6
CONTINUOUS
 62
     7
 10
395.3415222167969
 20
-324.0679016113281
 11
386.5251770019531
 21
-374.0679016113281
  0
LINE
  8
0
  6
CONTINUOUS
 62
     7
 10
386.5251770019531
 20
-374.0679016113281
 11
389.071044921875
 21
-374.5168151855469
  0
LINE
  8
0
  6
CONTINUOUS
 62
     7
 10
395.3415222167969
 20
-324.0679016113281
 11
397.8444519042969
 21
-324.5092468261719
  0
LINE
  8
0
  6
CONTINUOUS
 62
     7
 10
-97.12110137939453
 20
22.58906555175781
 11
-102.8783950805664
 21
30.81132507324219
  0
LINE
  8
0
  6
CONTINUOUS
 62
     7
 10
-112.0038833618164
 20
21.68583679199219
 11
-108.9620513916016
 21
24.72766494750977
  0
LINE
  8
0
  6
CONTINUOUS
 62
     7
 10
-103.2960205078125
 20
26.48374938964844
 11
-102.1392593383789
 21
27.29372406005859
  0
LINE
  8
0
  6
CONTINUOUS
 62
     7
 10
-99.83656311035156
 20
33.8531494140625
 11
-101.4814987182617
 21
36.20236587524414
  0
LINE
  8
0
  6
CONTINUOUS
 62
     7
 10
-103.5846099853516
 20
21.97189140319824
 11
-105.6095504760742
 21
24.86380004882813
  0
LINE
  8
0
  6
CONTINUOUS
 62
     7
 10
-106.7663116455078
 20
24.05382537841797
 11
-105.6095504760742
 21
24.86380004882813
  0
LINE
  8
0
  6
CONTINUOUS
 62
     7
 10
-101.2710800170898
 20
23.59184074401856
 11
-103.2960205078125
 21
26.48374938964844
  0
LINE
  8
0
  6
CONTINUOUS
 62
     7
 10
-104.7413711547852
 20
21.16191673278809
 11
-106.7663116455078
 21
24.05382537841797
  0
LINE
  8
0
  6
CONTINUOUS
 62
     7
 10
-99.83656311035156
 20
33.85315322875977
 11
-102.8783950805664
 21
30.81132316589356
  0
LINE
  8
0
  6
CONTINUOUS
 62
     7
 10
-112.0038833618164
 20
21.68583679199219
 11
-113.6488189697266
 21
24.03505325317383
  0
LINE
  8
0
  6
CONTINUOUS
 62
     7
 10
-97.12110137939453
 20
22.58906364440918
 11
-103.2047653198242
 21
16.50540351867676
  0
LINE
  8
0
  6
CONTINUOUS
 62
     7
 10
-101.4815063476563
 20
36.20236968994141
 11
-113.6488189697266
 21
24.03505325317383
  0
LINE
  8
0
  6
CONTINUOUS
 62
     7
 10
-103.2047653198242
 20
16.50540542602539
 11
-108.9620513916016
 21
24.72766494750977
  0
LINE
  8
0
  6
CONTINUOUS
 62
     7
 10
-100.1143188476563
 20
24.40181541442871
 11
-102.1392593383789
 21
27.29372406005859
  0
LINE
  8
0
  6
CONTINUOUS
 62
     7
 10
138.7404937744141
 20
20.64623641967773
 11
136.7155609130859
 21
23.53814506530762
  0
LINE
  8
0
  6
CONTINUOUS
 62
     7
 10
135.6500549316406
 20
12.74982738494873
 11
129.8927612304688
 21
20.97208595275879
  0
LINE
  8
0
  6
CONTINUOUS
 62
     7
 10
137.3733062744141
 20
32.4467887878418
 11
125.2059936523438
 21
20.27947425842285
  0
LINE
  8
0
  6
CONTINUOUS
 62
     7
 10
141.7337188720703
 20
18.8334846496582
 11
135.6500549316406
 21
12.7498254776001
  0
LINE
  8
0
  6
CONTINUOUS
 62
     7
 10
126.8509368896484
 20
17.93025779724121
 11
125.2059936523438
 21
20.27947425842285
  0
LINE
  8
0
  6
CONTINUOUS
 62
     7
 10
139.0182495117188
 20
30.09757423400879
 11
135.9764251708984
 21
27.05574417114258
  0
LINE
  8
0
  6
CONTINUOUS
 62
     7
 10
134.1134490966797
 20
17.40633773803711
 11
132.0885009765625
 21
20.29824638366699
  0
LINE
  8
0
  6
CONTINUOUS
 62
     7
 10
137.583740234375
 20
19.83626174926758
 11
135.5587921142578
 21
22.72817039489746
  0
LINE
  8
0
  6
CONTINUOUS
 62
     7
 10
132.0885009765625
 20
20.29824638366699
 11
133.2452697753906
 21
21.10822105407715
  0
LINE
  8
0
  6
CONTINUOUS
 62
     7
 10
135.2702026367188
 20
18.21631240844727
 11
133.2452697753906
 21
21.10822105407715
  0
LINE
  8
0
  6
CONTINUOUS
 62
     7
 10
139.0182647705078
 20
30.09757041931152
 11
137.3733215332031
 21
32.4467887878418
  0
LINE
  8
0
  6
CONTINUOUS
 62
     7
 10
135.5587921142578
 20
22.72817039489746
 11
136.7155609130859
 21
23.53814506530762
  0
LINE
  8
0
  6
CONTINUOUS
 62
     7
 10
126.8509368896484
 20
17.93025779724121
 11
129.8927612304688
 21
20.97208595275879
  0
LINE
  8
0
  6
CONTINUOUS
 62
     7
 10
141.7337188720703
 20
18.83348655700684
 11
135.9764251708984
 21
27.05574607849121
  0
LINE
  8
0
  6
CONTINUOUS
 62
     7
 10
372.3262634277344
 20
12.82455921173096
 11
366.5689697265625
 21
21.04681968688965
  0
LINE
  8
0
  6
CONTINUOUS
 62
     7
 10
357.4434814453125
 20
11.92133140563965
 11
360.4853210449219
 21
14.96316051483154
  0
LINE
  8
0
  6
CONTINUOUS
 62
     7
 10
366.1513366699219
 20
16.7192440032959
 11
367.30810546875
 21
17.52921867370606
  0
LINE
  8
0
  6
CONTINUOUS
 62
     7
 10
369.6108093261719
 20
24.08864402770996
 11
367.9658508300781
 21
26.4378604888916
  0
LINE
  8
0
  6
CONTINUOUS
 62
     7
 10
365.8627624511719
 20
12.2073860168457
 11
363.8377990722656
 21
15.0992956161499
  0
LINE
  8
0
  6
CONTINUOUS
 62
     7
 10
362.6810607910156
 20
14.28932094573975
 11
363.8377990722656
 21
15.0992956161499
  0
LINE
  8
0
  6
CONTINUOUS
 62
     7
 10
368.17626953125
 20
13.82733535766602
 11
366.1513366699219
 21
16.7192440032959
  0
LINE
  8
0
  6
CONTINUOUS
 62
     7
 10
364.7059936523438
 20
11.39741134643555
 11
362.6810607910156
 21
14.28932094573975
  0
LINE
  8
0
  6
CONTINUOUS
 62
     7
 10
369.6108093261719
 20
24.08864784240723
 11
366.5689697265625
 21
21.04681777954102
  0
LINE
  8
0
  6
CONTINUOUS
 62
     7
 10
357.4434814453125
 20
11.92133140563965
 11
355.7985534667969
 21
14.27054882049561
  0
LINE
  8
0
  6
CONTINUOUS
 62
     7
 10
372.3262634277344
 20
12.82455921173096
 11
366.2425842285156
 21
6.740899085998535
  0
LINE
  8
0
  6
CONTINUOUS
 62
     7
 10
367.9658508300781
 20
26.43786430358887
 11
355.7985534667969
 21
14.27054882049561
  0
LINE
  8
0
  6
CONTINUOUS
 62
     7
 10
366.2425842285156
 20
6.740901470184326
 11
360.4853210449219
 21
14.96316051483154
  0
LINE
  8
0
  6
CONTINUOUS
 62
     7
 10
369.3330383300781
 20
14.63731002807617
 11
367.30810546875
 21
17.52921867370606
  0
LINE
  8
0
  6
CONTINUOUS
 62
     7
 10
-71.57192230224609
 20
-287.3112182617188
 11
-73.59685516357422
 21
-284.4193115234375
  0
LINE
  8
0
  6
CONTINUOUS
 62
     7
 10
-74.66236877441406
 20
-295.2076416015625
 11
-80.41965484619141
 21
-286.9853820800781
  0
LINE
  8
0
  6
CONTINUOUS
 62
     7
 10
-72.93910217285156
 20
-275.5106811523438
 11
-85.10642242431641
 21
-287.677978515625
  0
LINE
  8
0
  6
CONTINUOUS
 62
     7
 10
-68.57870483398438
 20
-289.1239929199219
 11
-74.66236877441406
 21
-295.2076416015625
  0
LINE
  8
0
  6
CONTINUOUS
 62
     7
 10
-83.46147918701172
 20
-290.0272216796875
 11
-85.10642242431641
 21
-287.677978515625
  0
LINE
  8
0
  6
CONTINUOUS
 62
     7
 10
-71.29416656494141
 20
-277.8598937988281
 11
-74.33599853515625
 21
-280.9017333984375
  0
LINE
  8
0
  6
CONTINUOUS
 62
     7
 10
-76.198974609375
 20
-290.5511169433594
 11
-78.22391510009766
 21
-287.6592102050781
  0
LINE
  8
0
  6
CONTINUOUS
 62
     7
 10
-72.72868347167969
 20
-288.1212158203125
 11
-74.75362396240234
 21
-285.2293090820313
  0
LINE
  8
0
  6
CONTINUOUS
 62
     7
 10
-78.22391510009766
 20
-287.6592102050781
 11
-77.06714630126953
 21
-286.8492431640625
  0
LINE
  8
0
  6
CONTINUOUS
 62
     7
 10
-75.04221343994141
 20
-289.7411499023438
 11
-77.06714630126953
 21
-286.8492431640625
  0
LINE
  8
0
  6
CONTINUOUS
 62
     7
 10
-71.29415893554688
 20
-277.8598937988281
 11
-72.93910217285156
 21
-275.5106811523438
  0
LINE
  8
0
  6
CONTINUOUS
 62
     7
 10
-74.75362396240234
 20
-285.2293090820313
 11
-73.59685516357422
 21
-284.4193115234375
  0
LINE
  8
0
  6
CONTINUOUS
 62
     7
 10
-83.46147918701172
 20
-290.0272216796875
 11
-80.41965484619141
 21
-286.9853820800781
  0
LINE
  8
0
  6
CONTINUOUS
 62
     7
 10
-68.57870483398438
 20
-289.1239929199219
 11
-74.33599090576172
 21
-280.9017333984375
  0
LINE
  8
0
  6
CONTINUOUS
 62
     7
 10
209.3453826904297
 20
-286.5601196289063
 11
207.3204498291016
 21
-283.668212890625
  0
LINE
  8
0
  6
CONTINUOUS
 62
     7
 10
206.2549285888672
 20
-294.4565124511719
 11
200.4976501464844
 21
-286.2342529296875
  0
LINE
  8
0
  6
CONTINUOUS
 62
     7
 10
207.9781951904297
 20
-274.7595520019531
 11
195.8108825683594
 21
-286.9268798828125
  0
LINE
  8
0
  6
CONTINUOUS
 62
     7
 10
212.3385925292969
 20
-288.3728637695313
 11
206.2549285888672
 21
-294.4565124511719
  0
LINE
  8
0
  6
CONTINUOUS
 62
     7
 10
197.4558258056641
 20
-289.2760925292969
 11
195.8108825683594
 21
-286.9268798828125
  0
LINE
  8
0
  6
CONTINUOUS
 62
     7
 10
209.6231384277344
 20
-277.1087646484375
 11
206.581298828125
 21
-280.1506042480469
  0
LINE
  8
0
  6
CONTINUOUS
 62
     7
 10
204.7183227539063
 20
-289.8000183105469
 11
202.6933898925781
 21
-286.9081115722656
  0
LINE
  8
0
  6
CONTINUOUS
 62
     7
 10
208.1886138916016
 20
-287.3700866699219
 11
206.1636810302734
 21
-284.4781799316406
  0
LINE
  8
0
  6
CONTINUOUS
 62
     7
 10
202.6933898925781
 20
-286.9081115722656
 11
203.8501586914063
 21
-286.09814453125
  0
LINE
  8
0
  6
CONTINUOUS
 62
     7
 10
205.8750915527344
 20
-288.9900512695313
 11
203.8501586914063
 21
-286.09814453125
  0
LINE
  8
0
  6
CONTINUOUS
 62
     7
 10
209.6231384277344
 20
-277.1087951660156
 11
207.9781951904297
 21
-274.7595520019531
  0
LINE
  8
0
  6
CONTINUOUS
 62
     7
 10
206.1636810302734
 20
-284.4781799316406
 11
207.3204498291016
 21
-283.668212890625
  0
LINE
  8
0
  6
CONTINUOUS
 62
     7
 10
197.4558258056641
 20
-289.2760925292969
 11
200.4976501464844
 21
-286.2342529296875
  0
LINE
  8
0
  6
CONTINUOUS
 62
     7
 10
212.3385925292969
 20
-288.3728637695313
 11
206.5813140869141
 21
-280.1506042480469
  0
LINE
  8
0
  6
CONTINUOUS
 62
     7
 10
507.538330078125
 20
-295.5735168457031
 11
505.5133972167969
 21
-292.6816101074219
  0
LINE
  8
0
  6
CONTINUOUS
 62
     7
 10
504.4479064941406
 20
-303.4699096679688
 11
498.6906127929688
 21
-295.2476501464844
  0
LINE
  8
0
  6
CONTINUOUS
 62
     7
 10
506.1711730957031
 20
-283.77294921875
 11
494.0038452148438
 21
-295.9402770996094
  0
LINE
  8
0
  6
CONTINUOUS
 62
     7
 10
510.5315551757813
 20
-297.3862609863281
 11
504.4479064941406
 21
-303.4699096679688
  0
LINE
  8
0
  6
CONTINUOUS
 62
     7
 10
495.6487731933594
 20
-298.2894897460938
 11
494.0038452148438
 21
-295.9402770996094
  0
LINE
  8
0
  6
CONTINUOUS
 62
     7
 10
507.8161010742188
 20
-286.1221618652344
 11
504.7742614746094
 21
-289.1640014648438
  0
LINE
  8
0
  6
CONTINUOUS
 62
     7
 10
502.9112854003906
 20
-298.8134155273438
 11
500.8863525390625
 21
-295.9215087890625
  0
LINE
  8
0
  6
CONTINUOUS
 62
     7
 10
506.381591796875
 20
-296.3834838867188
 11
504.3566284179688
 21
-293.4915771484375
  0
LINE
  8
0
  6
CONTINUOUS
 62
     7
 10
500.8863525390625
 20
-295.9215087890625
 11
502.0431213378906
 21
-295.1115112304688
  0
LINE
  8
0
  6
CONTINUOUS
 62
     7
 10
504.0680541992188
 20
-298.00341796875
 11
502.0431213378906
 21
-295.1115112304688
  0
LINE
  8
0
  6
CONTINUOUS
 62
     7
 10
507.8161010742188
 20
-286.1221618652344
 11
506.1711730957031
 21
-283.77294921875
  0
LINE
  8
0
  6
CONTINUOUS
 62
     7
 10
504.3566284179688
 20
-293.4915771484375
 11
505.5133972167969
 21
-292.6816101074219
  0
LINE
  8
0
  6
CONTINUOUS
 62
     7
 10
495.6487731933594
 20
-298.2894897460938
 11
498.6906127929688
 21
-295.2476501464844
  0
LINE
  8
0
  6
CONTINUOUS
 62
     7
 10
510.5315551757813
 20
-297.3862609863281
 11
504.7742614746094
 21
-289.1640014648438
  0
ARC
  8
0
  6
CONTINUOUS
 62
     7
 10
-87.52175903320313
 20
-25.69789886474609
 40
1.500000000000006
 50
180.0000050089562
 51
270.0000006832452
  0
ARC
  8
0
  6
CONTINUOUS
 62
     7
 10
-147.4217681884766
 20
-25.69789886474609
 40
1.500000000000002
 50
269.9999974955215
 51
0
  0
ARC
  8
0
  6
CONTINUOUS
 62
     7
 10
-67.47176361083984
 20
-10.19789981842041
 40
78.44999694824219
 50
90.00000250447816
 51
180.0000050089563
  0
ARC
  8
0
  6
CONTINUOUS
 62
     7
 10
-67.47176361083984
 20
-10.19789981842041
 40
21.54999923706055
 50
90.00000250447815
 51
180.0000050089563
  0
ARC
  8
0
  6
CONTINUOUS
 62
     7
 10
-51.97176361083984
 20
69.75209808349609
 40
1.500000000000002
 50
269.9999974955218
 51
0
  0
ARC
  8
0
  6
CONTINUOUS
 62
     7
 10
-51.97176361083984
 20
9.852100372314453
 40
1.5
 50
0
 51
90.0000025044782
  0
ARC
  8
0
  6
CONTINUOUS
 62
     7
 10
-34.97176361083984
 20
69.55210113525391
 40
0.5
 50
0
 51
90.00000250447846
  0
ARC
  8
0
  6
CONTINUOUS
 62
     7
 10
-34.97176361083984
 20
10.05210018157959
 40
0.5000000000000004
 50
269.9999974955215
 51
0
  0
ARC
  8
0
  6
CONTINUOUS
 62
     7
 10
-147.2217559814453
 20
-42.69789886474609
 40
0.5000000000000019
 50
180.0000050089561
 51
270.0000006832462
  0
ARC
  8
0
  6
CONTINUOUS
 62
     7
 10
-87.72176361083984
 20
-42.69789886474609
 40
0.5000000000000004
 50
269.9999974955215
 51
0
  0
ARC
  8
0
  6
CONTINUOUS
 62
     7
 10
213.9570159912109
 20
77.61454010009766
 40
0.5
 50
0
 51
90.00000250447846
  0
ARC
  8
0
  6
CONTINUOUS
 62
     7
 10
213.9570159912109
 20
2.314542293548584
 40
0.5
 50
269.9999974955215
 51
0
  0
ARC
  8
0
  6
CONTINUOUS
 62
     7
 10
196.9570159912109
 20
2.364542245864868
 40
1.5
 50
0
 51
90.00000250447846
  0
ARC
  8
0
  6
CONTINUOUS
 62
     7
 10
196.9570159912109
 20
77.56454467773438
 40
1.500000000000002
 50
269.9999974955215
 51
0
  0
ARC
  8
0
  6
CONTINUOUS
 62
     7
 10
157.0570220947266
 20
-37.53545761108398
 40
1.500000000000006
 50
180.0000050089564
 51
270.0000006832452
  0
ARC
  8
0
  6
CONTINUOUS
 62
     7
 10
81.85701751708984
 20
-37.53545761108398
 40
1.500000000000002
 50
269.9999974955221
 51
0
  0
ARC
  8
0
  6
CONTINUOUS
 62
     7
 10
157.1070098876953
 20
-54.53545761108398
 40
0.5000000000000004
 50
269.9999974955215
 51
0
  0
ARC
  8
0
  6
CONTINUOUS
 62
     7
 10
81.80701446533203
 20
-54.53545761108398
 40
0.5000000000000019
 50
180.0000050089561
 51
270.0000006832446
  0
ARC
  8
0
  6
CONTINUOUS
 62
     7
 10
181.4570159912109
 20
-22.03545761108398
 40
98.09999847412108
 50
90.00000250447816
 51
180.0000050089563
  0
ARC
  8
0
  6
CONTINUOUS
 62
     7
 10
181.4570159912109
 20
-22.03545761108398
 40
25.89999961853027
 50
90.00000250447819
 51
180.0000050089563
  0
ARC
  8
0
  6
CONTINUOUS
 62
     7
 10
438.2676086425781
 20
83.75209808349609
 40
1.500000000000002
 50
269.9999974955227
 51
0
  0
ARC
  8
0
  6
CONTINUOUS
 62
     7
 10
438.2676086425781
 20
-4.147899627685547
 40
1.5
 50
0
 51
90.00000250447738
  0
ARC
  8
0
  6
CONTINUOUS
 62
     7
 10
422.7676086425781
 20
-35.19789886474609
 40
117.4499969482422
 50
90.00000250447816
 51
180.0000050089563
  0
ARC
  8
0
  6
CONTINUOUS
 62
     7
 10
422.7676086425781
 20
-35.19789886474609
 40
32.54999923706055
 50
90.00000250447819
 51
180.0000050089563
  0
ARC
  8
0
  6
CONTINUOUS
 62
     7
 10
391.7176208496094
 20
-50.69789886474609
 40
1.500000000000006
 50
180.0000050089564
 51
270.0000006832452
  0
ARC
  8
0
  6
CONTINUOUS
 62
     7
 10
303.8175964355469
 20
-50.69789886474609
 40
1.500000000000002
 50
269.9999974955227
 51
0
  0
ARC
  8
0
  6
CONTINUOUS
 62
     7
 10
455.2676086425781
 20
83.85209655761719
 40
0.5
 50
0
 51
90.00000250447521
  0
ARC
  8
0
  6
CONTINUOUS
 62
     7
 10
455.2676086425781
 20
-4.247899532318115
 40
0.4999999999999996
 50
269.9999974955248
 51
0
  0
ARC
  8
0
  6
CONTINUOUS
 62
     7
 10
303.7176208496094
 20
-67.69789886474609
 40
0.5000000000000019
 50
180.0000050089569
 51
270.000000683243
  0
ARC
  8
0
  6
CONTINUOUS
 62
     7
 10
391.8175964355469
 20
-67.69789886474609
 40
0.5000000000000004
 50
269.9999974955248
 51
0
  0
ARC
  8
0
  6
CONTINUOUS
 62
     7
 10
-57.17617416381836
 20
70.25209808349609
 40
1.999999999999998
 50
190.0000066529676
 51
269.9999974955217
  0
ARC
  8
0
  6
CONTINUOUS
 62
     7
 10
-66.16735076904297
 20
70.25209808349609
 40
2.000000000000002
 50
269.9999974955219
 51
350.000000290907
  0
ARC
  8
0
  6
CONTINUOUS
 62
     7
 10
-57.17617416381836
 20
9.352100372314453
 40
2
 50
90.00000250447806
 51
169.9999933470324
  0
ARC
  8
0
  6
CONTINUOUS
 62
     7
 10
-66.16735076904297
 20
9.352100372314453
 40
1.999999999999997
 50
9.999999709092945
 51
90.00000250447806
  0
ARC
  8
0
  6
CONTINUOUS
 62
     7
 10
-147.9217681884766
 20
-20.49348831176758
 40
2
 50
0
 51
79.99999767274296
  0
ARC
  8
0
  6
CONTINUOUS
 62
     7
 10
-87.02175903320313
 20
-11.50231170654297
 40
1.999999999999993
 50
180.0000050089563
 51
260.0000026816996
  0
ARC
  8
0
  6
CONTINUOUS
 62
     7
 10
-87.02175903320313
 20
-20.49348831176758
 40
2.000000000000002
 50
100.0000005060239
 51
180.0000050089563
  0
ARC
  8
0
  6
CONTINUOUS
 62
     7
 10
-147.9217681884766
 20
-11.50231170654297
 40
1.999999999999997
 50
280.0000023272563
 51
0
  0
ARC
  8
0
  6
CONTINUOUS
 62
     7
 10
191.7966918945313
 20
78.06454467773438
 40
1.999999999999998
 50
190.0000066529676
 51
269.9999974955215
  0
ARC
  8
0
  6
CONTINUOUS
 62
     7
 10
182.7173461914063
 20
78.06454467773438
 40
2.000000000000002
 50
269.9999974955215
 51
350.0000002909071
  0
ARC
  8
0
  6
CONTINUOUS
 62
     7
 10
191.7966918945313
 20
1.864542245864868
 40
2
 50
90.00000250447846
 51
169.9999933470324
  0
ARC
  8
0
  6
CONTINUOUS
 62
     7
 10
182.7173461914063
 20
1.864542245864868
 40
2.000000000000011
 50
9.999999709092862
 51
90.00000250447846
  0
ARC
  8
0
  6
CONTINUOUS
 62
     7
 10
157.5570220947266
 20
-23.2957878112793
 40
2.000000000000008
 50
180.0000050089563
 51
260.0000026817
  0
ARC
  8
0
  6
CONTINUOUS
 62
     7
 10
81.35701751708984
 20
-32.37512588500977
 40
2
 50
0
 51
79.99999767274336
  0
ARC
  8
0
  6
CONTINUOUS
 62
     7
 10
81.35701751708984
 20
-23.2957878112793
 40
1.999999999999998
 50
280.0000023272567
 51
0
  0
ARC
  8
0
  6
CONTINUOUS
 62
     7
 10
157.5570220947266
 20
-32.37512588500977
 40
1.999999999999999
 50
100.0000005060235
 51
180.0000050089563
  0
ARC
  8
0
  6
CONTINUOUS
 62
     7
 10
424.0191345214844
 20
84.25209808349609
 40
2.000000000000002
 50
269.9999974955215
 51
350.0000002909071
  0
ARC
  8
0
  6
CONTINUOUS
 62
     7
 10
433.1160888671875
 20
84.25209808349609
 40
2.000000000000026
 50
190.0000066529674
 51
269.9999974955215
  0
ARC
  8
0
  6
CONTINUOUS
 62
     7
 10
424.0191345214844
 20
-4.647899627685547
 40
2.000000000000011
 50
9.999999709092874
 51
90.00000250447846
  0
ARC
  8
0
  6
CONTINUOUS
 62
     7
 10
433.1160888671875
 20
-4.647899627685547
 40
2
 50
90.00000250447846
 51
169.9999933470325
  0
ARC
  8
0
  6
CONTINUOUS
 62
     7
 10
303.3175964355469
 20
-36.44941329956055
 40
1.999999999999996
 50
280.0000023272563
 51
0
  0
ARC
  8
0
  6
CONTINUOUS
 62
     7
 10
303.3175964355469
 20
-45.54638671875
 40
2
 50
0
 51
79.99999767274377
  0
ARC
  8
0
  6
CONTINUOUS
 62
     7
 10
392.2176208496094
 20
-45.54638671875
 40
2
 50
100.0000005060243
 51
180.0000050089563
  0
ARC
  8
0
  6
CONTINUOUS
 62
     7
 10
392.2176208496094
 20
-36.44941329956055
 40
2.000000000000008
 50
180.0000050089563
 51
260.0000026816992
  0
ARC
  8
0
  6
CONTINUOUS
 62
     7
 10
8.000576019287109
 20
-196.9333953857422
 40
2
 50
190.0000066529676
 51
269.9999974955218
  0
ARC
  8
0
  6
CONTINUOUS
 62
     7
 10
-1.184559464454651
 20
-196.9333953857422
 40
2.000000000000002
 50
269.9999974955218
 51
350.0000002909075
  0
ARC
  8
0
  6
CONTINUOUS
 62
     7
 10
13.10800838470459
 20
-197.4333953857422
 40
1.500000000000002
 50
269.9999974955218
 51
0
  0
ARC
  8
0
  6
CONTINUOUS
 62
     7
 10
13.10800838470459
 20
-310.0333862304688
 40
1.5
 50
0
 51
90.00000250447812
  0
ARC
  8
0
  6
CONTINUOUS
 62
     7
 10
-1.184559464454651
 20
-310.5333862304688
 40
2.000000000000003
 50
9.999999709093382
 51
90.00000250447815
  0
ARC
  8
0
  6
CONTINUOUS
 62
     7
 10
8.000576019287109
 20
-310.5333862304688
 40
2.000000000000002
 50
90.00000250447816
 51
169.9999933470316
  0
ARC
  8
0
  6
CONTINUOUS
 62
     7
 10
-4.39199161529541
 20
-345.7333984375
 40
146.8000030517578
 50
90.00000250447816
 51
180.0000050089563
  0
ARC
  8
0
  6
CONTINUOUS
 62
     7
 10
-4.39199161529541
 20
-345.7333984375
 40
37.20000076293943
 50
90.00000250447816
 51
180.0000050089564
  0
ARC
  8
0
  6
CONTINUOUS
 62
     7
 10
-40.09199142456055
 20
-363.2333984375
 40
1.499999999999999
 50
180.0000050089569
 51
270.0000006832455
  0
ARC
  8
0
  6
CONTINUOUS
 62
     7
 10
-153.1919860839844
 20
-348.9408264160156
 40
1.999999999999975
 50
280.0000023272563
 51
0
  0
ARC
  8
0
  6
CONTINUOUS
 62
     7
 10
-153.1919860839844
 20
-358.1259460449219
 40
2
 50
0
 51
79.99999767274287
  0
ARC
  8
0
  6
CONTINUOUS
 62
     7
 10
-152.6919860839844
 20
-363.2333984375
 40
1.500000000000002
 50
269.9999974955215
 51
0
  0
ARC
  8
0
  6
CONTINUOUS
 62
     7
 10
-39.59199142456055
 20
-348.9408264160156
 40
2
 50
180.0000050089569
 51
260.0000026816998
  0
ARC
  8
0
  6
CONTINUOUS
 62
     7
 10
-39.59199142456055
 20
-358.1259460449219
 40
2.000000000000026
 50
100.0000005060237
 51
180.0000050089569
  0
ARC
  8
0
  6
CONTINUOUS
 62
     7
 10
299.3510131835938
 20
-187.7745666503906
 40
1.500000000000002
 50
269.9999974955227
 51
0
  0
ARC
  8
0
  6
CONTINUOUS
 62
     7
 10
294.2523803710938
 20
-187.2745666503906
 40
2.000000000000026
 50
190.0000066529674
 51
269.9999974955215
  0
ARC
  8
0
  6
CONTINUOUS
 62
     7
 10
285.0496215820313
 20
-187.2745666503906
 40
2.000000000000002
 50
269.9999974955215
 51
350.0000002909075
  0
ARC
  8
0
  6
CONTINUOUS
 62
     7
 10
285.0496215820313
 20
-326.2745666503906
 40
2.000000000000014
 50
9.999999709093325
 51
90.00000250447846
  0
ARC
  8
0
  6
CONTINUOUS
 62
     7
 10
299.3510131835938
 20
-325.7745666503906
 40
1.5
 50
0
 51
90.00000250447738
  0
ARC
  8
0
  6
CONTINUOUS
 62
     7
 10
294.2523803710938
 20
-326.2745666503906
 40
2.000000000000002
 50
90.00000250447846
 51
169.9999933470318
  0
ARC
  8
0
  6
CONTINUOUS
 62
     7
 10
278.8510131835938
 20
-358.7745666503906
 40
169.5
 50
90.00000250447815
 51
180.0000050089563
  0
ARC
  8
0
  6
CONTINUOUS
 62
     7
 10
278.8510131835938
 20
-358.7745666503906
 40
34.49999999999998
 50
90.00000250447815
 51
180.0000050089563
  0
ARC
  8
0
  6
CONTINUOUS
 62
     7
 10
246.3509979248047
 20
-364.9731750488281
 40
2.000000000000008
 50
180.0000050089569
 51
260.0000026817002
  0
ARC
  8
0
  6
CONTINUOUS
 62
     7
 10
107.3509979248047
 20
-364.9731750488281
 40
1.999999999999977
 50
280.0000023272568
 51
0
  0
ARC
  8
0
  6
CONTINUOUS
 62
     7
 10
107.8509979248047
 20
-379.2745666503906
 40
1.500000000000002
 50
269.9999974955221
 51
0
  0
ARC
  8
0
  6
CONTINUOUS
 62
     7
 10
107.3509979248047
 20
-374.1759338378906
 40
2
 50
0
 51
79.99999767274326
  0
ARC
  8
0
  6
CONTINUOUS
 62
     7
 10
246.3509979248047
 20
-374.1759338378906
 40
2.000000000000024
 50
100.0000005060233
 51
180.0000050089569
  0
ARC
  8
0
  6
CONTINUOUS
 62
     7
 10
245.8509979248047
 20
-379.2745666503906
 40
1.500000000000006
 50
180.0000050089569
 51
270.0000006832452
  0
ARC
  8
0
  6
CONTINUOUS
 62
     7
 10
611.1597900390625
 20
-176.0957183837891
 40
1.99999999999997
 50
190.0000066529677
 51
269.9999974955215
  0
ARC
  8
0
  6
CONTINUOUS
 62
     7
 10
601.8512573242188
 20
-176.0957183837891
 40
2.000000000000002
 50
269.9999974955215
 51
350.0000002909072
  0
ARC
  8
0
  6
CONTINUOUS
 62
     7
 10
616.2055053710938
 20
-176.5957183837891
 40
1.500000000000002
 50
269.9999974955227
 51
0
  0
ARC
  8
0
  6
CONTINUOUS
 62
     7
 10
616.2055053710938
 20
-339.3957214355469
 40
1.5
 50
0
 51
90.00000250447738
  0
ARC
  8
0
  6
CONTINUOUS
 62
     7
 10
611.1597900390625
 20
-339.8957214355469
 40
2.000000000000002
 50
90.00000250447846
 51
169.9999933470315
  0
ARC
  8
0
  6
CONTINUOUS
 62
     7
 10
601.8512573242188
 20
-339.8957214355469
 40
1.999999999999958
 50
9.999999709093608
 51
90.00000250447846
  0
ARC
  8
0
  6
CONTINUOUS
 62
     7
 10
595.7055053710938
 20
-384.9956970214844
 40
206.8999938964844
 50
90.00000250447815
 51
180.0000050089563
  0
ARC
  8
0
  6
CONTINUOUS
 62
     7
 10
595.7055053710938
 20
-384.9956970214844
 40
47.09999847412108
 50
90.00000250447823
 51
180.0000050089564
  0
ARC
  8
0
  6
CONTINUOUS
 62
     7
 10
550.6055297851563
 20
-391.1414184570313
 40
2.000000000000008
 50
180.0000050089569
 51
260.000002681701
  0
ARC
  8
0
  6
CONTINUOUS
 62
     7
 10
550.6055297851563
 20
-400.4499816894531
 40
2.000000000000019
 50
100.0000005060225
 51
180.0000050089569
  0
ARC
  8
0
  6
CONTINUOUS
 62
     7
 10
387.3055114746094
 20
-405.4956970214844
 40
1.500000000000002
 50
269.9999974955227
 51
0
  0
ARC
  8
0
  6
CONTINUOUS
 62
     7
 10
386.8055114746094
 20
-400.4499816894531
 40
2
 50
0
 51
79.99999767274366
  0
ARC
  8
0
  6
CONTINUOUS
 62
     7
 10
386.8055114746094
 20
-391.1414184570313
 40
1.999999999999975
 50
280.0000023272563
 51
0
  0
ARC
  8
0
  6
CONTINUOUS
 62
     7
 10
550.1055297851563
 20
-405.4956970214844
 40
1.500000000000006
 50
180.0000050089569
 51
270.0000006832473
  0
ARC
  8
0
  6
CONTINUOUS
 62
     7
 10
-102.427848815918
 20
22.78186988830566
 40
1.412147641181943
 50
214.9999879964535
 51
35.00001349597721
  0
ARC
  8
0
  6
CONTINUOUS
 62
     7
 10
-102.427848815918
 20
22.78186988830566
 40
2.824295282363885
 50
214.9999879964534
 51
35.00001349597726
  0
ARC
  8
0
  6
CONTINUOUS
 62
     7
 10
136.4269714355469
 20
19.02629089355469
 40
2.824295282363885
 50
214.9999879964534
 51
35.00001349597726
  0
ARC
  8
0
  6
CONTINUOUS
 62
     7
 10
136.4269714355469
 20
19.02629089355469
 40
1.412147641181943
 50
214.9999879964535
 51
35.00001349597721
  0
ARC
  8
0
  6
CONTINUOUS
 62
     7
 10
367.0195007324219
 20
13.01736545562744
 40
1.412147641181943
 50
214.9999879964534
 51
35.00001349597661
  0
ARC
  8
0
  6
CONTINUOUS
 62
     7
 10
367.0195007324219
 20
13.01736545562744
 40
2.824295282363886
 50
214.9999879964534
 51
35.00001349597724
  0
ARC
  8
0
  6
CONTINUOUS
 62
     7
 10
-73.88545227050781
 20
-288.9311828613281
 40
2.824295282363871
 50
214.999987996453
 51
35.00001349597768
  0
ARC
  8
0
  6
CONTINUOUS
 62
     7
 10
-73.88545227050781
 20
-288.9311828613281
 40
1.412147641181935
 50
214.999987996453
 51
35.00001349597675
  0
ARC
  8
0
  6
CONTINUOUS
 62
     7
 10
207.0318450927734
 20
-288.1800537109375
 40
2.824295282363871
 50
214.999987996453
 51
35.00001349597768
  0
ARC
  8
0
  6
CONTINUOUS
 62
     7
 10
207.0318450927734
 20
-288.1800537109375
 40
1.412147641181935
 50
214.999987996453
 51
35.00001349597675
  0
ARC
  8
0
  6
CONTINUOUS
 62
     7
 10
505.2248229980469
 20
-297.1934509277344
 40
2.824295282363871
 50
214.999987996453
 51
35.00001349597768
  0
ARC
  8
0
  6
CONTINUOUS
 62
     7
 10
505.2248229980469
 20
-297.1934509277344
 40
1.412147641181935
 50
214.999987996453
 51
35.00001349597608
  0
TEXT
  8
0
  6
CONTINUOUS
 62
     7
 10
-181.4357054233551
 20
-72.20720672607422
 40
10
 41
0.8512700469189696
  1
　５０Ａ
  0
TEXT
  8
0
  6
CONTINUOUS
 62
     7
 10
-181.4357054233551
 20
-87.20720672607422
 40
10
 41
0.8474110189900798
  1
（６０Ｓｕ）
  0
TEXT
  8
0
  6
CONTINUOUS
 62
     7
 10
52.45234084129334
 20
-89.37329864501953
 40
10
 41
0.8512700469189696
  1
　６５Ａ
  0
TEXT
  8
0
  6
CONTINUOUS
 62
     7
 10
52.45234084129334
 20
-104.3732986450195
 40
10
 41
0.8474110189900798
  1
（７５Ｓｕ）
  0
TEXT
  8
0
  6
CONTINUOUS
 62
     7
 10
277.7573487758637
 20
-102.2478713989258
 40
10
 41
0.8512700469189696
  1
　８０Ａ
  0
TEXT
  8
0
  6
CONTINUOUS
 62
     7
 10
277.7573487758637
 20
-117.2478713989258
 40
10
 41
0.8474110189900798
  1
（８０Ｓｕ）
  0
TEXT
  8
0
  6
CONTINUOUS
 62
     7
 10
-172.852667093277
 20
-413.3833618164063
 40
10
 41
0.8489270656764293
  1
　１００Ａ
  0
TEXT
  8
0
  6
CONTINUOUS
 62
     7
 10
-172.852667093277
 20
-428.3833618164063
 40
10
 41
0.8463497863096351
  1
（１００Ｓｕ）
  0
TEXT
  8
0
  6
CONTINUOUS
 62
     7
 10
95.36757826805115
 20
-429.4765625
 40
10
 41
0.8489270656764293
  1
　１２５Ａ
  0
TEXT
  8
0
  6
CONTINUOUS
 62
     7
 10
95.36757826805115
 20
-444.4765625
 40
10
 41
0.8463497863096351
  1
（１２５Ｓｕ）
  0
TEXT
  8
0
  6
CONTINUOUS
 62
     7
 10
382.8996827602387
 20
-446.6426696777344
 40
10
 41
0.8489270656764293
  1
　１５０Ａ
  0
TEXT
  8
0
  6
CONTINUOUS
 62
     7
 10
382.8996827602387
 20
-461.6426696777344
 40
10
 41
0.8463497863096351
  1
（１５０Ｓｕ）
  0
LINE
  8
0
  6
CONTINUOUS
 62
     7
 10
-111.0325189325713
 20
13.5761107100462
 11
-110.1902536954816
 21
14.16587117462673
  0
LINE
  8
0
  6
CONTINUOUS
 62
     7
 10
-109.4925148128973
 20
17.85528579177647
 11
-108.7070029060667
 21
18.40530714693378
  0
POLYLINE
  8
0
  6
CONTINUOUS
 62
     7
 66
     1
 10
0
 20
0
  0
VERTEX
  8
0
  6
CONTINUOUS
 62
     7
 10
-109.2728472027159
 20
17.15859274148374
 42
0.07333214780387673
  0
VERTEX
  8
0
  6
CONTINUOUS
 62
     7
 10
-109.3245448726222
 20
17.39847286987918
 42
0.07333214780387673
  0
VERTEX
  8
0
  6
CONTINUOUS
 62
     7
 10
-109.4752371865389
 20
17.61793351948569
 42
0.07333214780387673
  0
VERTEX
  8
0
  6
CONTINUOUS
 62
     7
 10
-109.7120966604711
 20
17.79829339265011
 42
0.07333214780387673
  0
VERTEX
  8
0
  6
CONTINUOUS
 62
     7
 10
-110.0149609448476
 20
17.92419959361951
 42
0.07333214780387673
  0
VERTEX
  8
0
  6
CONTINUOUS
 62
     7
 10
-110.3580491178715
 20
17.98493452349446
 42
0.07333214780387673
  0
VERTEX
  8
0
  6
CONTINUOUS
 62
     7
 10
-110.7121562524045
 20
17.97532820166579
 42
0.07333214780387673
  0
VERTEX
  8
0
  6
CONTINUOUS
 62
     7
 10
-111.0471394467772
 20
17.89619835357884
 42
0.07333214780387673
  0
VERTEX
  8
0
  6
CONTINUOUS
 62
     7
 10
-111.3344836994434
 20
17.75428080293602
 42
0.07333214780387673
  0
VERTEX
  8
0
  6
CONTINUOUS
 62
     7
 10
-111.549729210787
 20
17.56165609360943
 42
0.07333214780387673
  0
VERTEX
  8
0
  6
CONTINUOUS
 62
     7
 10
-111.6745534912266
 20
17.33472114931518
 42
0.07333214780387673
  0
VERTEX
  8
0
  6
CONTINUOUS
 62
     7
 10
-111.6983310389176
 20
17.09279350716015
 42
0.07333214780387673
  0
VERTEX
  8
0
  6
CONTINUOUS
 62
     7
 10
-111.6190378215486
 20
16.85646693783506
 42
0.07333214780387673
  0
VERTEX
  8
0
  6
CONTINUOUS
 62
     7
 10
-111.4434235694161
 20
16.64585842811103
 42
0.07333214780387673
  0
VERTEX
  8
0
  6
CONTINUOUS
 62
     7
 10
-111.1864372135568
 20
16.47889574893702
 42
0.07333214780387673
  0
VERTEX
  8
0
  6
CONTINUOUS
 62
     7
 10
-110.8699543777567
 20
16.36979137763966
 42
0.07333214780387673
  0
VERTEX
  8
0
  6
CONTINUOUS
 62
     7
 10
-110.5209152449975
 20
16.32783267958092
 42
-1
  0
SEQEND
  8
0
  0
POLYLINE
  8
0
  6
CONTINUOUS
 62
     7
 66
     1
 10
0
 20
0
  0
VERTEX
  8
0
  6
CONTINUOUS
 62
     7
 10
-108.3139148256338
 20
17.15859290024497
 42
0.07332668712448476
  0
VERTEX
  8
0
  6
CONTINUOUS
 62
     7
 10
-108.4064127456541
 20
17.66045989592482
 42
0.07332668712448476
  0
VERTEX
  8
0
  6
CONTINUOUS
 62
     7
 10
-108.6760340119357
 20
18.11961243411809
 42
0.07332668712448476
  0
VERTEX
  8
0
  6
CONTINUOUS
 62
     7
 10
-109.0998308520769
 20
18.49697152046558
 42
0.07332668712448476
  0
VERTEX
  8
0
  6
CONTINUOUS
 62
     7
 10
-109.641733435362
 20
18.7604196942541
 42
0.07332668712448476
  0
VERTEX
  8
0
  6
CONTINUOUS
 62
     7
 10
-110.2556198170473
 20
18.88753458199983
 42
0.07332668712448476
  0
VERTEX
  8
0
  6
CONTINUOUS
 62
     7
 10
-110.8892414294968
 20
18.86749729113878
 42
0.07332668712448476
  0
VERTEX
  8
0
  6
CONTINUOUS
 62
     7
 10
-111.4886700171546
 20
18.70201321826881
 42
0.07332668712448476
  0
VERTEX
  8
0
  6
CONTINUOUS
 62
     7
 10
-112.0028875316658
 20
18.40516690090696
 42
0.07332668712448476
  0
VERTEX
  8
0
  6
CONTINUOUS
 62
     7
 10
-112.3881283359546
 20
18.00222326649408
 42
0.07332668712448476
  0
VERTEX
  8
0
  6
CONTINUOUS
 62
     7
 10
-112.6116041473362
 20
17.5274773057064
 42
0.07332668712448476
  0
VERTEX
  8
0
  6
CONTINUOUS
 62
     7
 10
-112.6542946855203
 20
17.0213351868223
 42
0.07332668712448476
  0
VERTEX
  8
0
  6
CONTINUOUS
 62
     7
 10
-112.5125665102837
 20
16.52687524081794
 42
0.07332668712448476
  0
VERTEX
  8
0
  6
CONTINUOUS
 62
     7
 10
-112.198482267697
 20
16.08618151565872
 42
0.07332668712448476
  0
VERTEX
  8
0
  6
CONTINUOUS
 62
     7
 10
-111.7387740246079
 20
15.73676195514781
 42
0.07332668712448476
  0
VERTEX
  8
0
  6
CONTINUOUS
 62
     7
 10
-111.172568072051
 20
15.50835605520075
 42
0.07332668712448476
  0
VERTEX
  8
0
  6
CONTINUOUS
 62
     7
 10
-110.5480548421498
 20
15.42040370154869
 42
-1
  0
SEQEND
  8
0
  0
POLYLINE
  8
0
  6
CONTINUOUS
 62
     7
 66
     1
 10
0
 20
0
  0
VERTEX
  8
0
  6
CONTINUOUS
 62
     7
 10
-110.3823909640914
 20
14.95469918659804
 42
0.07459289906077718
  0
VERTEX
  8
0
  6
CONTINUOUS
 62
     7
 10
-110.3539461357918
 20
14.65947091706909
 42
0.07459289906077718
  0
VERTEX
  8
0
  6
CONTINUOUS
 62
     7
 10
-110.2045817963873
 20
14.38315767269984
 42
0.07459289906077718
  0
VERTEX
  8
0
  6
CONTINUOUS
 62
     7
 10
-109.9474484486527
 20
14.15008693420854
 42
0.07459289906077718
  0
VERTEX
  8
0
  6
CONTINUOUS
 62
     7
 10
-109.6051849153247
 20
13.98077897708749
 42
0.07459289906077718
  0
VERTEX
  8
0
  6
CONTINUOUS
 62
     7
 10
-109.2079251464663
 20
13.89014020248193
 42
0.07459289906077718
  0
VERTEX
  8
0
  6
CONTINUOUS
 62
     7
 10
-108.7906451324218
 20
13.88615073109354
 42
0.07459289906077718
  0
VERTEX
  8
0
  6
CONTINUOUS
 62
     7
 10
-108.3900835084272
 20
13.96916180843898
 42
0.07459289906077718
  0
VERTEX
  8
0
  6
CONTINUOUS
 62
     7
 10
-108.0415069704616
 20
14.13186488009795
 42
0.07459289906077718
  0
VERTEX
  8
0
  6
CONTINUOUS
 62
     7
 10
-107.7756052852265
 20
14.35993505966257
 42
0.07459289906077718
  0
VERTEX
  8
0
  6
CONTINUOUS
 62
     7
 10
-107.6157892672678
 20
14.63329233646079
 42
0.07459289906077718
  0
VERTEX
  8
0
  6
CONTINUOUS
 62
     7
 10
-107.5761296177718
 20
14.92786948238822
 42
0.07459289906077718
  0
VERTEX
  8
0
  6
CONTINUOUS
 62
     7
 10
-107.6601180961024
 20
15.21773100581129
 42
0.07459289906077718
  0
VERTEX
  8
0
  6
CONTINUOUS
 62
     7
 10
-107.8603600944052
 20
15.47735659322446
 42
0.07459289906077718
  0
VERTEX
  8
0
  6
CONTINUOUS
 62
     7
 10
-108.1592256819692
 20
15.68388799732883
 42
0.07459289906077718
  0
VERTEX
  8
0
  6
CONTINUOUS
 62
     7
 10
-108.5304017993702
 20
15.81914154849058
 42
0.07459289906077718
  0
VERTEX
  8
0
  6
CONTINUOUS
 62
     7
 10
-108.9412089423748
 20
15.87120910178718
 42
-1
  0
SEQEND
  8
0
  0
POLYLINE
  8
0
  6
CONTINUOUS
 62
     7
 66
     1
 10
0
 20
0
  0
VERTEX
  8
0
  6
CONTINUOUS
 62
     7
 10
-111.4147726033339
 20
14.96349201928814
 42
0.07398282385211347
  0
VERTEX
  8
0
  6
CONTINUOUS
 62
     7
 10
-111.3389963486068
 20
14.40968827642588
 42
0.07398282385211347
  0
VERTEX
  8
0
  6
CONTINUOUS
 62
     7
 10
-111.0595289837857
 20
13.897054331829
 42
0.07398282385211347
  0
VERTEX
  8
0
  6
CONTINUOUS
 62
     7
 10
-110.6005792200159
 20
13.46999682702419
 42
0.07398282385211347
  0
VERTEX
  8
0
  6
CONTINUOUS
 62
     7
 10
-110.0019033353459
 20
13.16550939016861
 42
0.07398282385211347
  0
VERTEX
  8
0
  6
CONTINUOUS
 62
     7
 10
-109.3153613083851
 20
13.00996808277818
 42
0.07398282385211347
  0
VERTEX
  8
0
  6
CONTINUOUS
 62
     7
 10
-108.6004244753677
 20
13.01684658749267
 42
0.07398282385211347
  0
VERTEX
  8
0
  6
CONTINUOUS
 62
     7
 10
-107.9190238574302
 20
13.18554905751671
 42
0.07398282385211347
  0
VERTEX
  8
0
  6
CONTINUOUS
 62
     7
 10
-107.3301854189975
 20
13.50146173152997
 42
0.07398282385211347
  0
VERTEX
  8
0
  6
CONTINUOUS
 62
     7
 10
-106.8849169751553
 20
13.93721884295281
 42
0.07398282385211347
  0
VERTEX
  8
0
  6
CONTINUOUS
 62
     7
 10
-106.621789666924
 20
14.45507316485337
 42
0.07398282385211347
  0
VERTEX
  8
0
  6
CONTINUOUS
 62
     7
 10
-106.5635967567779
 20
15.01016584331052
 42
0.07398282385211347
  0
VERTEX
  8
0
  6
CONTINUOUS
 62
     7
 10
-106.7153791744633
 20
15.55441227166458
 42
0.07398282385211347
  0
VERTEX
  8
0
  6
CONTINUOUS
 62
     7
 10
-107.0639888491526
 20
16.04066739387538
 42
0.07398282385211347
  0
VERTEX
  8
0
  6
CONTINUOUS
 62
     7
 10
-107.5792276540541
 20
16.42680961981
 42
0.07398282385211347
  0
VERTEX
  8
0
  6
CONTINUOUS
 62
     7
 10
-108.216463303009
 20
16.67938958548048
 42
0.07398282385211347
  0
VERTEX
  8
0
  6
CONTINUOUS
 62
     7
 10
-108.9204955984312
 20
16.77652768632577
 42
-1
  0
SEQEND
  8
0
  0
LINE
  8
0
  6
CONTINUOUS
 62
     7
 10
-96.05443055366506
 20
28.55419908895245
 11
-95.21216531657538
 21
29.14395955353298
  0
LINE
  8
0
  6
CONTINUOUS
 62
     7
 10
-94.51442643399106
 20
32.83337417068272
 11
-93.72891452716044
 21
33.38339552584003
  0
POLYLINE
  8
0
  6
CONTINUOUS
 62
     7
 66
     1
 10
0
 20
0
  0
VERTEX
  8
0
  6
CONTINUOUS
 62
     7
 10
-94.29475882380964
 20
32.13668112038999
 42
0.07333214780387673
  0
VERTEX
  8
0
  6
CONTINUOUS
 62
     7
 10
-94.34645649371598
 20
32.37656124878542
 42
0.07333214780387673
  0
VERTEX
  8
0
  6
CONTINUOUS
 62
     7
 10
-94.49714880763267
 20
32.59602189839195
 42
0.07333214780387673
  0
VERTEX
  8
0
  6
CONTINUOUS
 62
     7
 10
-94.73400828156487
 20
32.77638177155636
 42
0.07333214780387673
  0
VERTEX
  8
0
  6
CONTINUOUS
 62
     7
 10
-95.03687256594131
 20
32.90228797252576
 42
0.07333214780387673
  0
VERTEX
  8
0
  6
CONTINUOUS
 62
     7
 10
-95.3799607389653
 20
32.9630229024007
 42
0.07333214780387673
  0
VERTEX
  8
0
  6
CONTINUOUS
 62
     7
 10
-95.73406787349821
 20
32.95341658057204
 42
0.07333214780387673
  0
VERTEX
  8
0
  6
CONTINUOUS
 62
     7
 10
-96.06905106787093
 20
32.87428673248509
 42
0.07333214780387673
  0
VERTEX
  8
0
  6
CONTINUOUS
 62
     7
 10
-96.35639532053713
 20
32.73236918184227
 42
0.07333214780387673
  0
VERTEX
  8
0
  6
CONTINUOUS
 62
     7
 10
-96.57164083188073
 20
32.53974447251568
 42
0.07333214780387673
  0
VERTEX
  8
0
  6
CONTINUOUS
 62
     7
 10
-96.69646511232038
 20
32.31280952822143
 42
0.07333214780387673
  0
VERTEX
  8
0
  6
CONTINUOUS
 62
     7
 10
-96.72024266001139
 20
32.0708818860664
 42
0.07333214780387673
  0
VERTEX
  8
0
  6
CONTINUOUS
 62
     7
 10
-96.64094944264237
 20
31.83455531674131
 42
0.07333214780387673
  0
VERTEX
  8
0
  6
CONTINUOUS
 62
     7
 10
-96.46533519050988
 20
31.62394680701728
 42
0.07333214780387673
  0
VERTEX
  8
0
  6
CONTINUOUS
 62
     7
 10
-96.20834883465057
 20
31.45698412784327
 42
0.07333214780387673
  0
VERTEX
  8
0
  6
CONTINUOUS
 62
     7
 10
-95.89186599885043
 20
31.34787975654591
 42
0.07333214780387673
  0
VERTEX
  8
0
  6
CONTINUOUS
 62
     7
 10
-95.54282686609126
 20
31.30592105848717
 42
-1
  0
SEQEND
  8
0
  0
POLYLINE
  8
0
  6
CONTINUOUS
 62
     7
 66
     1
 10
0
 20
0
  0
VERTEX
  8
0
  6
CONTINUOUS
 62
     7
 10
-93.33582644672757
 20
32.13668127915123
 42
0.07332668712448476
  0
VERTEX
  8
0
  6
CONTINUOUS
 62
     7
 10
-93.42832436674783
 20
32.63854827483107
 42
0.07332668712448476
  0
VERTEX
  8
0
  6
CONTINUOUS
 62
     7
 10
-93.69794563302943
 20
33.09770081302434
 42
0.07332668712448476
  0
VERTEX
  8
0
  6
CONTINUOUS
 62
     7
 10
-94.12174247317066
 20
33.47505989937183
 42
0.07332668712448476
  0
VERTEX
  8
0
  6
CONTINUOUS
 62
     7
 10
-94.66364505645574
 20
33.73850807316035
 42
0.07332668712448476
  0
VERTEX
  8
0
  6
CONTINUOUS
 62
     7
 10
-95.27753143814107
 20
33.86562296090608
 42
0.07332668712448476
  0
VERTEX
  8
0
  6
CONTINUOUS
 62
     7
 10
-95.91115305059054
 20
33.84558567004503
 42
0.07332668712448476
  0
VERTEX
  8
0
  6
CONTINUOUS
 62
     7
 10
-96.51058163824835
 20
33.68010159717506
 42
0.07332668712448476
  0
VERTEX
  8
0
  6
CONTINUOUS
 62
     7
 10
-97.02479915275956
 20
33.38325527981321
 42
0.07332668712448476
  0
VERTEX
  8
0
  6
CONTINUOUS
 62
     7
 10
-97.41003995704836
 20
32.98031164540033
 42
0.07332668712448476
  0
VERTEX
  8
0
  6
CONTINUOUS
 62
     7
 10
-97.63351576842995
 20
32.50556568461266
 42
0.07332668712448476
  0
VERTEX
  8
0
  6
CONTINUOUS
 62
     7
 10
-97.67620630661408
 20
31.99942356572856
 42
0.07332668712448476
  0
VERTEX
  8
0
  6
CONTINUOUS
 62
     7
 10
-97.53447813137748
 20
31.50496361972419
 42
0.07332668712448476
  0
VERTEX
  8
0
  6
CONTINUOUS
 62
     7
 10
-97.22039388879071
 20
31.06426989456497
 42
0.07332668712448476
  0
VERTEX
  8
0
  6
CONTINUOUS
 62
     7
 10
-96.76068564570164
 20
30.71485033405407
 42
0.07332668712448476
  0
VERTEX
  8
0
  6
CONTINUOUS
 62
     7
 10
-96.19447969314476
 20
30.48644443410701
 42
0.07332668712448476
  0
VERTEX
  8
0
  6
CONTINUOUS
 62
     7
 10
-95.56996646324353
 20
30.39849208045495
 42
-1
  0
SEQEND
  8
0
  0
POLYLINE
  8
0
  6
CONTINUOUS
 62
     7
 66
     1
 10
0
 20
0
  0
VERTEX
  8
0
  6
CONTINUOUS
 62
     7
 10
-95.40430258518512
 20
29.93278756550429
 42
0.07459289906077718
  0
VERTEX
  8
0
  6
CONTINUOUS
 62
     7
 10
-95.37585775688557
 20
29.63755929597534
 42
0.07459289906077718
  0
VERTEX
  8
0
  6
CONTINUOUS
 62
     7
 10
-95.226493417481
 20
29.3612460516061
 42
0.07459289906077718
  0
VERTEX
  8
0
  6
CONTINUOUS
 62
     7
 10
-94.96936006974646
 20
29.12817531311479
 42
0.07459289906077718
  0
VERTEX
  8
0
  6
CONTINUOUS
 62
     7
 10
-94.62709653641845
 20
28.95886735599375
 42
0.07459289906077718
  0
VERTEX
  8
0
  6
CONTINUOUS
 62
     7
 10
-94.22983676756007
 20
28.86822858138818
 42
0.07459289906077718
  0
VERTEX
  8
0
  6
CONTINUOUS
 62
     7
 10
-93.81255675351554
 20
28.8642391099998
 42
0.07459289906077718
  0
VERTEX
  8
0
  6
CONTINUOUS
 62
     7
 10
-93.4119951295209
 20
28.94725018734524
 42
0.07459289906077718
  0
VERTEX
  8
0
  6
CONTINUOUS
 62
     7
 10
-93.06341859155536
 20
29.1099532590042
 42
0.07459289906077718
  0
VERTEX
  8
0
  6
CONTINUOUS
 62
     7
 10
-92.79751690632027
 20
29.33802343856883
 42
0.07459289906077718
  0
VERTEX
  8
0
  6
CONTINUOUS
 62
     7
 10
-92.63770088836154
 20
29.61138071536704
 42
0.07459289906077718
  0
VERTEX
  8
0
  6
CONTINUOUS
 62
     7
 10
-92.59804123886553
 20
29.90595786129448
 42
0.07459289906077718
  0
VERTEX
  8
0
  6
CONTINUOUS
 62
     7
 10
-92.68202971719619
 20
30.19581938471754
 42
0.07459289906077718
  0
VERTEX
  8
0
  6
CONTINUOUS
 62
     7
 10
-92.8822717154989
 20
30.45544497213071
 42
0.07459289906077718
  0
VERTEX
  8
0
  6
CONTINUOUS
 62
     7
 10
-93.18113730306293
 20
30.66197637623509
 42
0.07459289906077718
  0
VERTEX
  8
0
  6
CONTINUOUS
 62
     7
 10
-93.55231342046398
 20
30.79722992739683
 42
0.07459289906077718
  0
VERTEX
  8
0
  6
CONTINUOUS
 62
     7
 10
-93.96312056346851
 20
30.84929748069343
 42
-1
  0
SEQEND
  8
0
  0
POLYLINE
  8
0
  6
CONTINUOUS
 62
     7
 66
     1
 10
0
 20
0
  0
VERTEX
  8
0
  6
CONTINUOUS
 62
     7
 10
-96.43668422442765
 20
29.94158039819439
 42
0.07398282385211347
  0
VERTEX
  8
0
  6
CONTINUOUS
 62
     7
 10
-96.36090796970056
 20
29.38777665533213
 42
0.07398282385211347
  0
VERTEX
  8
0
  6
CONTINUOUS
 62
     7
 10
-96.08144060487948
 20
28.87514271073525
 42
0.07398282385211347
  0
VERTEX
  8
0
  6
CONTINUOUS
 62
     7
 10
-95.6224908411097
 20
28.44808520593044
 42
0.07398282385211347
  0
VERTEX
  8
0
  6
CONTINUOUS
 62
     7
 10
-95.02381495643969
 20
28.14359776907486
 42
0.07398282385211347
  0
VERTEX
  8
0
  6
CONTINUOUS
 62
     7
 10
-94.33727292947884
 20
27.98805646168443
 42
0.07398282385211347
  0
VERTEX
  8
0
  6
CONTINUOUS
 62
     7
 10
-93.62233609646148
 20
27.99493496639892
 42
0.07398282385211347
  0
VERTEX
  8
0
  6
CONTINUOUS
 62
     7
 10
-92.94093547852395
 20
28.16363743642296
 42
0.07398282385211347
  0
VERTEX
  8
0
  6
CONTINUOUS
 62
     7
 10
-92.35209704009128
 20
28.47955011043622
 42
0.07398282385211347
  0
VERTEX
  8
0
  6
CONTINUOUS
 62
     7
 10
-91.90682859624909
 20
28.91530722185906
 42
0.07398282385211347
  0
VERTEX
  8
0
  6
CONTINUOUS
 62
     7
 10
-91.64370128801771
 20
29.43316154375962
 42
0.07398282385211347
  0
VERTEX
  8
0
  6
CONTINUOUS
 62
     7
 10
-91.58550837787161
 20
29.98825422221677
 42
0.07398282385211347
  0
VERTEX
  8
0
  6
CONTINUOUS
 62
     7
 10
-91.73729079555703
 20
30.53250065057083
 42
0.07398282385211347
  0
VERTEX
  8
0
  6
CONTINUOUS
 62
     7
 10
-92.08590047024632
 20
31.01875577278163
 42
0.07398282385211347
  0
VERTEX
  8
0
  6
CONTINUOUS
 62
     7
 10
-92.6011392751478
 20
31.40489799871625
 42
0.07398282385211347
  0
VERTEX
  8
0
  6
CONTINUOUS
 62
     7
 10
-93.23837492410276
 20
31.65747796438673
 42
0.07398282385211347
  0
VERTEX
  8
0
  6
CONTINUOUS
 62
     7
 10
-93.94240721952494
 20
31.75461606523202
 42
-1
  0
SEQEND
  8
0
  0
LINE
  8
0
  6
CONTINUOUS
 62
     7
 10
142.8003896977998
 20
24.79862009420147
 11
143.6426549348895
 21
25.388380558782
  0
LINE
  8
0
  6
CONTINUOUS
 62
     7
 10
144.3403938174738
 20
29.07779517593174
 11
145.1259057243044
 21
29.62781653108905
  0
POLYLINE
  8
0
  6
CONTINUOUS
 62
     7
 66
     1
 10
0
 20
0
  0
VERTEX
  8
0
  6
CONTINUOUS
 62
     7
 10
144.5600614276552
 20
28.38110212563902
 42
0.07333214780387673
  0
VERTEX
  8
0
  6
CONTINUOUS
 62
     7
 10
144.5083637577489
 20
28.62098225403445
 42
0.07333214780387673
  0
VERTEX
  8
0
  6
CONTINUOUS
 62
     7
 10
144.3576714438322
 20
28.84044290364097
 42
0.07333214780387673
  0
VERTEX
  8
0
  6
CONTINUOUS
 62
     7
 10
144.1208119699
 20
29.02080277680539
 42
0.07333214780387673
  0
VERTEX
  8
0
  6
CONTINUOUS
 62
     7
 10
143.8179476855235
 20
29.14670897777478
 42
0.07333214780387673
  0
VERTEX
  8
0
  6
CONTINUOUS
 62
     7
 10
143.4748595124996
 20
29.20744390764973
 42
0.07333214780387673
  0
VERTEX
  8
0
  6
CONTINUOUS
 62
     7
 10
143.1207523779667
 20
29.19783758582106
 42
0.07333214780387673
  0
VERTEX
  8
0
  6
CONTINUOUS
 62
     7
 10
142.7857691835939
 20
29.11870773773412
 42
0.07333214780387673
  0
VERTEX
  8
0
  6
CONTINUOUS
 62
     7
 10
142.4984249309277
 20
28.9767901870913
 42
0.07333214780387673
  0
VERTEX
  8
0
  6
CONTINUOUS
 62
     7
 10
142.2831794195841
 20
28.7841654777647
 42
0.07333214780387673
  0
VERTEX
  8
0
  6
CONTINUOUS
 62
     7
 10
142.1583551391445
 20
28.55723053347045
 42
0.07333214780387673
  0
VERTEX
  8
0
  6
CONTINUOUS
 62
     7
 10
142.1345775914535
 20
28.31530289131542
 42
0.07333214780387673
  0
VERTEX
  8
0
  6
CONTINUOUS
 62
     7
 10
142.2138708088225
 20
28.07897632199033
 42
0.07333214780387673
  0
VERTEX
  8
0
  6
CONTINUOUS
 62
     7
 10
142.389485060955
 20
27.86836781226631
 42
0.07333214780387673
  0
VERTEX
  8
0
  6
CONTINUOUS
 62
     7
 10
142.6464714168143
 20
27.70140513309229
 42
0.07333214780387673
  0
VERTEX
  8
0
  6
CONTINUOUS
 62
     7
 10
142.9629542526144
 20
27.59230076179493
 42
0.07333214780387673
  0
VERTEX
  8
0
  6
CONTINUOUS
 62
     7
 10
143.3119933853736
 20
27.55034206373619
 42
-1
  0
SEQEND
  8
0
  0
POLYLINE
  8
0
  6
CONTINUOUS
 62
     7
 66
     1
 10
0
 20
0
  0
VERTEX
  8
0
  6
CONTINUOUS
 62
     7
 10
145.5189938047373
 20
28.38110228440024
 42
0.07332668712448476
  0
VERTEX
  8
0
  6
CONTINUOUS
 62
     7
 10
145.426495884717
 20
28.88296928008009
 42
0.07332668712448476
  0
VERTEX
  8
0
  6
CONTINUOUS
 62
     7
 10
145.1568746184354
 20
29.34212181827336
 42
0.07332668712448476
  0
VERTEX
  8
0
  6
CONTINUOUS
 62
     7
 10
144.7330777782942
 20
29.71948090462085
 42
0.07332668712448476
  0
VERTEX
  8
0
  6
CONTINUOUS
 62
     7
 10
144.1911751950091
 20
29.98292907840938
 42
0.07332668712448476
  0
VERTEX
  8
0
  6
CONTINUOUS
 62
     7
 10
143.5772888133238
 20
30.1100439661551
 42
0.07332668712448476
  0
VERTEX
  8
0
  6
CONTINUOUS
 62
     7
 10
142.9436672008743
 20
30.09000667529405
 42
0.07332668712448476
  0
VERTEX
  8
0
  6
CONTINUOUS
 62
     7
 10
142.3442386132165
 20
29.92452260242408
 42
0.07332668712448476
  0
VERTEX
  8
0
  6
CONTINUOUS
 62
     7
 10
141.8300210987053
 20
29.62767628506223
 42
0.07332668712448476
  0
VERTEX
  8
0
  6
CONTINUOUS
 62
     7
 10
141.4447802944165
 20
29.22473265064935
 42
0.07332668712448476
  0
VERTEX
  8
0
  6
CONTINUOUS
 62
     7
 10
141.2213044830349
 20
28.74998668986168
 42
0.07332668712448476
  0
VERTEX
  8
0
  6
CONTINUOUS
 62
     7
 10
141.1786139448508
 20
28.24384457097758
 42
0.07332668712448476
  0
VERTEX
  8
0
  6
CONTINUOUS
 62
     7
 10
141.3203421200874
 20
27.74938462497321
 42
0.07332668712448476
  0
VERTEX
  8
0
  6
CONTINUOUS
 62
     7
 10
141.6344263626741
 20
27.30869089981399
 42
0.07332668712448476
  0
VERTEX
  8
0
  6
CONTINUOUS
 62
     7
 10
142.0941346057632
 20
26.95927133930308
 42
0.07332668712448476
  0
VERTEX
  8
0
  6
CONTINUOUS
 62
     7
 10
142.6603405583201
 20
26.73086543935603
 42
0.07332668712448476
  0
VERTEX
  8
0
  6
CONTINUOUS
 62
     7
 10
143.2848537882213
 20
26.64291308570397
 42
-1
  0
SEQEND
  8
0
  0
POLYLINE
  8
0
  6
CONTINUOUS
 62
     7
 66
     1
 10
0
 20
0
  0
VERTEX
  8
0
  6
CONTINUOUS
 62
     7
 10
143.4505176662797
 20
26.17720857075331
 42
0.07459289906077718
  0
VERTEX
  8
0
  6
CONTINUOUS
 62
     7
 10
143.4789624945793
 20
25.88198030122436
 42
0.07459289906077718
  0
VERTEX
  8
0
  6
CONTINUOUS
 62
     7
 10
143.6283268339838
 20
25.60566705685512
 42
0.07459289906077718
  0
VERTEX
  8
0
  6
CONTINUOUS
 62
     7
 10
143.8854601817184
 20
25.37259631836381
 42
0.07459289906077718
  0
VERTEX
  8
0
  6
CONTINUOUS
 62
     7
 10
144.2277237150464
 20
25.20328836124277
 42
0.07459289906077718
  0
VERTEX
  8
0
  6
CONTINUOUS
 62
     7
 10
144.6249834839048
 20
25.1126495866372
 42
0.07459289906077718
  0
VERTEX
  8
0
  6
CONTINUOUS
 62
     7
 10
145.0422634979493
 20
25.10866011524882
 42
0.07459289906077718
  0
VERTEX
  8
0
  6
CONTINUOUS
 62
     7
 10
145.4428251219439
 20
25.19167119259426
 42
0.07459289906077718
  0
VERTEX
  8
0
  6
CONTINUOUS
 62
     7
 10
145.7914016599095
 20
25.35437426425322
 42
0.07459289906077718
  0
VERTEX
  8
0
  6
CONTINUOUS
 62
     7
 10
146.0573033451446
 20
25.58244444381785
 42
0.07459289906077718
  0
VERTEX
  8
0
  6
CONTINUOUS
 62
     7
 10
146.2171193631033
 20
25.85580172061607
 42
0.07459289906077718
  0
VERTEX
  8
0
  6
CONTINUOUS
 62
     7
 10
146.2567790125993
 20
26.1503788665435
 42
0.07459289906077718
  0
VERTEX
  8
0
  6
CONTINUOUS
 62
     7
 10
146.1727905342687
 20
26.44024038996657
 42
0.07459289906077718
  0
VERTEX
  8
0
  6
CONTINUOUS
 62
     7
 10
145.972548535966
 20
26.69986597737974
 42
0.07459289906077718
  0
VERTEX
  8
0
  6
CONTINUOUS
 62
     7
 10
145.6736829484019
 20
26.90639738148411
 42
0.07459289906077718
  0
VERTEX
  8
0
  6
CONTINUOUS
 62
     7
 10
145.3025068310009
 20
27.04165093264586
 42
0.07459289906077718
  0
VERTEX
  8
0
  6
CONTINUOUS
 62
     7
 10
144.8916996879963
 20
27.09371848594246
 42
-1
  0
SEQEND
  8
0
  0
POLYLINE
  8
0
  6
CONTINUOUS
 62
     7
 66
     1
 10
0
 20
0
  0
VERTEX
  8
0
  6
CONTINUOUS
 62
     7
 10
142.4181360270372
 20
26.18600140344341
 42
0.07398282385211347
  0
VERTEX
  8
0
  6
CONTINUOUS
 62
     7
 10
142.4939122817643
 20
25.63219766058116
 42
0.07398282385211347
  0
VERTEX
  8
0
  6
CONTINUOUS
 62
     7
 10
142.7733796465854
 20
25.11956371598427
 42
0.07398282385211347
  0
VERTEX
  8
0
  6
CONTINUOUS
 62
     7
 10
143.2323294103552
 20
24.69250621117947
 42
0.07398282385211347
  0
VERTEX
  8
0
  6
CONTINUOUS
 62
     7
 10
143.8310052950251
 20
24.38801877432389
 42
0.07398282385211347
  0
VERTEX
  8
0
  6
CONTINUOUS
 62
     7
 10
144.517547321986
 20
24.23247746693346
 42
0.07398282385211347
  0
VERTEX
  8
0
  6
CONTINUOUS
 62
     7
 10
145.2324841550034
 20
24.23935597164795
 42
0.07398282385211347
  0
VERTEX
  8
0
  6
CONTINUOUS
 62
     7
 10
145.9138847729409
 20
24.40805844167198
 42
0.07398282385211347
  0
VERTEX
  8
0
  6
CONTINUOUS
 62
     7
 10
146.5027232113736
 20
24.72397111568525
 42
0.07398282385211347
  0
VERTEX
  8
0
  6
CONTINUOUS
 62
     7
 10
146.9479916552158
 20
25.15972822710808
 42
0.07398282385211347
  0
VERTEX
  8
0
  6
CONTINUOUS
 62
     7
 10
147.2111189634472
 20
25.67758254900865
 42
0.07398282385211347
  0
VERTEX
  8
0
  6
CONTINUOUS
 62
     7
 10
147.2693118735932
 20
26.2326752274658
 42
0.07398282385211347
  0
VERTEX
  8
0
  6
CONTINUOUS
 62
     7
 10
147.1175294559078
 20
26.77692165581985
 42
0.07398282385211347
  0
VERTEX
  8
0
  6
CONTINUOUS
 62
     7
 10
146.7689197812185
 20
27.26317677803065
 42
0.07398282385211347
  0
VERTEX
  8
0
  6
CONTINUOUS
 62
     7
 10
146.253680976317
 20
27.64931900396527
 42
0.07398282385211347
  0
VERTEX
  8
0
  6
CONTINUOUS
 62
     7
 10
145.6164453273621
 20
27.90189896963575
 42
0.07398282385211347
  0
VERTEX
  8
0
  6
CONTINUOUS
 62
     7
 10
144.9124130319399
 20
27.99903707048104
 42
-1
  0
SEQEND
  8
0
  0
LINE
  8
0
  6
CONTINUOUS
 62
     7
 10
127.8223013188935
 20
9.820531715295219
 11
128.6645665559832
 21
10.41029217987575
  0
LINE
  8
0
  6
CONTINUOUS
 62
     7
 10
129.3623054385675
 20
14.09970679702549
 11
130.1478173453982
 21
14.6497281521828
  0
POLYLINE
  8
0
  6
CONTINUOUS
 62
     7
 66
     1
 10
0
 20
0
  0
VERTEX
  8
0
  6
CONTINUOUS
 62
     7
 10
129.581973048749
 20
13.40301374673277
 42
0.07333214780387673
  0
VERTEX
  8
0
  6
CONTINUOUS
 62
     7
 10
129.5302753788426
 20
13.6428938751282
 42
0.07333214780387673
  0
VERTEX
  8
0
  6
CONTINUOUS
 62
     7
 10
129.3795830649259
 20
13.86235452473472
 42
0.07333214780387673
  0
VERTEX
  8
0
  6
CONTINUOUS
 62
     7
 10
129.1427235909937
 20
14.04271439789914
 42
0.07333214780387673
  0
VERTEX
  8
0
  6
CONTINUOUS
 62
     7
 10
128.8398593066173
 20
14.16862059886853
 42
0.07333214780387673
  0
VERTEX
  8
0
  6
CONTINUOUS
 62
     7
 10
128.4967711335933
 20
14.22935552874348
 42
0.07333214780387673
  0
VERTEX
  8
0
  6
CONTINUOUS
 62
     7
 10
128.1426639990604
 20
14.21974920691481
 42
0.07333214780387673
  0
VERTEX
  8
0
  6
CONTINUOUS
 62
     7
 10
127.8076808046877
 20
14.14061935882787
 42
0.07333214780387673
  0
VERTEX
  8
0
  6
CONTINUOUS
 62
     7
 10
127.5203365520215
 20
13.99870180818505
 42
0.07333214780387673
  0
VERTEX
  8
0
  6
CONTINUOUS
 62
     7
 10
127.3050910406779
 20
13.80607709885845
 42
0.07333214780387673
  0
VERTEX
  8
0
  6
CONTINUOUS
 62
     7
 10
127.1802667602382
 20
13.5791421545642
 42
0.07333214780387673
  0
VERTEX
  8
0
  6
CONTINUOUS
 62
     7
 10
127.1564892125472
 20
13.33721451240917
 42
0.07333214780387673
  0
VERTEX
  8
0
  6
CONTINUOUS
 62
     7
 10
127.2357824299162
 20
13.10088794308408
 42
0.07333214780387673
  0
VERTEX
  8
0
  6
CONTINUOUS
 62
     7
 10
127.4113966820487
 20
12.89027943336006
 42
0.07333214780387673
  0
VERTEX
  8
0
  6
CONTINUOUS
 62
     7
 10
127.668383037908
 20
12.72331675418604
 42
0.07333214780387673
  0
VERTEX
  8
0
  6
CONTINUOUS
 62
     7
 10
127.9848658737082
 20
12.61421238288868
 42
0.07333214780387673
  0
VERTEX
  8
0
  6
CONTINUOUS
 62
     7
 10
128.3339050064673
 20
12.57225368482994
 42
-1
  0
SEQEND
  8
0
  0
POLYLINE
  8
0
  6
CONTINUOUS
 62
     7
 66
     1
 10
0
 20
0
  0
VERTEX
  8
0
  6
CONTINUOUS
 62
     7
 10
130.540905425831
 20
13.40301390549399
 42
0.07332668712448476
  0
VERTEX
  8
0
  6
CONTINUOUS
 62
     7
 10
130.4484075058108
 20
13.90488090117384
 42
0.07332668712448476
  0
VERTEX
  8
0
  6
CONTINUOUS
 62
     7
 10
130.1787862395292
 20
14.36403343936711
 42
0.07332668712448476
  0
VERTEX
  8
0
  6
CONTINUOUS
 62
     7
 10
129.7549893993879
 20
14.7413925257146
 42
0.07332668712448476
  0
VERTEX
  8
0
  6
CONTINUOUS
 62
     7
 10
129.2130868161029
 20
15.00484069950313
 42
0.07332668712448476
  0
VERTEX
  8
0
  6
CONTINUOUS
 62
     7
 10
128.5992004344175
 20
15.13195558724885
 42
0.07332668712448476
  0
VERTEX
  8
0
  6
CONTINUOUS
 62
     7
 10
127.9655788219681
 20
15.1119182963878
 42
0.07332668712448476
  0
VERTEX
  8
0
  6
CONTINUOUS
 62
     7
 10
127.3661502343102
 20
14.94643422351783
 42
0.07332668712448476
  0
VERTEX
  8
0
  6
CONTINUOUS
 62
     7
 10
126.851932719799
 20
14.64958790615598
 42
0.07332668712448476
  0
VERTEX
  8
0
  6
CONTINUOUS
 62
     7
 10
126.4666919155102
 20
14.2466442717431
 42
0.07332668712448476
  0
VERTEX
  8
0
  6
CONTINUOUS
 62
     7
 10
126.2432161041287
 20
13.77189831095543
 42
0.07332668712448476
  0
VERTEX
  8
0
  6
CONTINUOUS
 62
     7
 10
126.2005255659445
 20
13.26575619207133
 42
0.07332668712448476
  0
VERTEX
  8
0
  6
CONTINUOUS
 62
     7
 10
126.3422537411811
 20
12.77129624606696
 42
0.07332668712448476
  0
VERTEX
  8
0
  6
CONTINUOUS
 62
     7
 10
126.6563379837679
 20
12.33060252090774
 42
0.07332668712448476
  0
VERTEX
  8
0
  6
CONTINUOUS
 62
     7
 10
127.116046226857
 20
11.98118296039683
 42
0.07332668712448476
  0
VERTEX
  8
0
  6
CONTINUOUS
 62
     7
 10
127.6822521794138
 20
11.75277706044978
 42
0.07332668712448476
  0
VERTEX
  8
0
  6
CONTINUOUS
 62
     7
 10
128.3067654093151
 20
11.66482470679772
 42
-1
  0
SEQEND
  8
0
  0
POLYLINE
  8
0
  6
CONTINUOUS
 62
     7
 66
     1
 10
0
 20
0
  0
VERTEX
  8
0
  6
CONTINUOUS
 62
     7
 10
128.4724292873735
 20
11.19912019184706
 42
0.07459289906077718
  0
VERTEX
  8
0
  6
CONTINUOUS
 62
     7
 10
128.500874115673
 20
10.90389192231811
 42
0.07459289906077718
  0
VERTEX
  8
0
  6
CONTINUOUS
 62
     7
 10
128.6502384550776
 20
10.62757867794887
 42
0.07459289906077718
  0
VERTEX
  8
0
  6
CONTINUOUS
 62
     7
 10
128.9073718028122
 20
10.39450793945756
 42
0.07459289906077718
  0
VERTEX
  8
0
  6
CONTINUOUS
 62
     7
 10
129.2496353361401
 20
10.22519998233651
 42
0.07459289906077718
  0
VERTEX
  8
0
  6
CONTINUOUS
 62
     7
 10
129.6468951049985
 20
10.13456120773095
 42
0.07459289906077718
  0
VERTEX
  8
0
  6
CONTINUOUS
 62
     7
 10
130.0641751190431
 20
10.13057173634256
 42
0.07459289906077718
  0
VERTEX
  8
0
  6
CONTINUOUS
 62
     7
 10
130.4647367430377
 20
10.213582813688
 42
0.07459289906077718
  0
VERTEX
  8
0
  6
CONTINUOUS
 62
     7
 10
130.8133132810033
 20
10.37628588534697
 42
0.07459289906077718
  0
VERTEX
  8
0
  6
CONTINUOUS
 62
     7
 10
131.0792149662383
 20
10.60435606491159
 42
0.07459289906077718
  0
VERTEX
  8
0
  6
CONTINUOUS
 62
     7
 10
131.2390309841971
 20
10.87771334170982
 42
0.07459289906077718
  0
VERTEX
  8
0
  6
CONTINUOUS
 62
     7
 10
131.2786906336931
 20
11.17229048763725
 42
0.07459289906077718
  0
VERTEX
  8
0
  6
CONTINUOUS
 62
     7
 10
131.1947021553624
 20
11.46215201106032
 42
0.07459289906077718
  0
VERTEX
  8
0
  6
CONTINUOUS
 62
     7
 10
130.9944601570597
 20
11.72177759847349
 42
0.07459289906077718
  0
VERTEX
  8
0
  6
CONTINUOUS
 62
     7
 10
130.6955945694957
 20
11.92830900257786
 42
0.07459289906077718
  0
VERTEX
  8
0
  6
CONTINUOUS
 62
     7
 10
130.3244184520946
 20
12.06356255373961
 42
0.07459289906077718
  0
VERTEX
  8
0
  6
CONTINUOUS
 62
     7
 10
129.9136113090901
 20
12.11563010703621
 42
-1
  0
SEQEND
  8
0
  0
POLYLINE
  8
0
  6
CONTINUOUS
 62
     7
 66
     1
 10
0
 20
0
  0
VERTEX
  8
0
  6
CONTINUOUS
 62
     7
 10
127.4400476481309
 20
11.20791302453716
 42
0.07398282385211347
  0
VERTEX
  8
0
  6
CONTINUOUS
 62
     7
 10
127.515823902858
 20
10.6541092816749
 42
0.07398282385211347
  0
VERTEX
  8
0
  6
CONTINUOUS
 62
     7
 10
127.7952912676791
 20
10.14147533707802
 42
0.07398282385211347
  0
VERTEX
  8
0
  6
CONTINUOUS
 62
     7
 10
128.2542410314489
 20
9.714417832273213
 42
0.07398282385211347
  0
VERTEX
  8
0
  6
CONTINUOUS
 62
     7
 10
128.8529169161189
 20
9.409930395417637
 42
0.07398282385211347
  0
VERTEX
  8
0
  6
CONTINUOUS
 62
     7
 10
129.5394589430798
 20
9.254389088027203
 42
0.07398282385211347
  0
VERTEX
  8
0
  6
CONTINUOUS
 62
     7
 10
130.2543957760971
 20
9.261267592741698
 42
0.07398282385211347
  0
VERTEX
  8
0
  6
CONTINUOUS
 62
     7
 10
130.9357963940346
 20
9.42997006276573
 42
0.07398282385211347
  0
VERTEX
  8
0
  6
CONTINUOUS
 62
     7
 10
131.5246348324673
 20
9.745882736778995
 42
0.07398282385211347
  0
VERTEX
  8
0
  6
CONTINUOUS
 62
     7
 10
131.9699032763095
 20
10.18163984820183
 42
0.07398282385211347
  0
VERTEX
  8
0
  6
CONTINUOUS
 62
     7
 10
132.2330305845409
 20
10.6994941701024
 42
0.07398282385211347
  0
VERTEX
  8
0
  6
CONTINUOUS
 62
     7
 10
132.291223494687
 20
11.25458684855955
 42
0.07398282385211347
  0
VERTEX
  8
0
  6
CONTINUOUS
 62
     7
 10
132.1394410770016
 20
11.7988332769136
 42
0.07398282385211347
  0
VERTEX
  8
0
  6
CONTINUOUS
 62
     7
 10
131.7908314023123
 20
12.2850883991244
 42
0.07398282385211347
  0
VERTEX
  8
0
  6
CONTINUOUS
 62
     7
 10
131.2755925974108
 20
12.67123062505902
 42
0.07398282385211347
  0
VERTEX
  8
0
  6
CONTINUOUS
 62
     7
 10
130.6383569484558
 20
12.9238105907295
 42
0.07398282385211347
  0
VERTEX
  8
0
  6
CONTINUOUS
 62
     7
 10
129.9343246530337
 20
13.0209486915748
 42
-1
  0
SEQEND
  8
0
  0
LINE
  8
0
  6
CONTINUOUS
 62
     7
 10
358.4148458745576
 20
3.811605085275078
 11
359.2571111116473
 21
4.401365549855608
  0
LINE
  8
0
  6
CONTINUOUS
 62
     7
 10
359.9548499942316
 20
8.090780167005349
 11
360.7403619010622
 21
8.640801522162661
  0
POLYLINE
  8
0
  6
CONTINUOUS
 62
     7
 66
     1
 10
0
 20
0
  0
VERTEX
  8
0
  6
CONTINUOUS
 62
     7
 10
360.174517604413
 20
7.394087116712625
 42
0.07333214780387673
  0
VERTEX
  8
0
  6
CONTINUOUS
 62
     7
 10
360.1228199345067
 20
7.633967245108056
 42
0.07333214780387673
  0
VERTEX
  8
0
  6
CONTINUOUS
 62
     7
 10
359.97212762059
 20
7.853427894714575
 42
0.07333214780387673
  0
VERTEX
  8
0
  6
CONTINUOUS
 62
     7
 10
359.7352681466578
 20
8.033787767878993
 42
0.07333214780387673
  0
VERTEX
  8
0
  6
CONTINUOUS
 62
     7
 10
359.4324038622814
 20
8.159693968848393
 42
0.07333214780387673
  0
VERTEX
  8
0
  6
CONTINUOUS
 62
     7
 10
359.0893156892574
 20
8.220428898723338
 42
0.07333214780387673
  0
VERTEX
  8
0
  6
CONTINUOUS
 62
     7
 10
358.7352085547245
 20
8.210822576894667
 42
0.07333214780387673
  0
VERTEX
  8
0
  6
CONTINUOUS
 62
     7
 10
358.4002253603517
 20
8.131692728807723
 42
0.07333214780387673
  0
VERTEX
  8
0
  6
CONTINUOUS
 62
     7
 10
358.1128811076856
 20
7.989775178164905
 42
0.07333214780387673
  0
VERTEX
  8
0
  6
CONTINUOUS
 62
     7
 10
357.897635596342
 20
7.797150468838308
 42
0.07333214780387673
  0
VERTEX
  8
0
  6
CONTINUOUS
 62
     7
 10
357.7728113159023
 20
7.57021552454406
 42
0.07333214780387673
  0
VERTEX
  8
0
  6
CONTINUOUS
 62
     7
 10
357.7490337682113
 20
7.328287882389029
 42
0.07333214780387673
  0
VERTEX
  8
0
  6
CONTINUOUS
 62
     7
 10
357.8283269855803
 20
7.091961313063934
 42
0.07333214780387673
  0
VERTEX
  8
0
  6
CONTINUOUS
 62
     7
 10
358.0039412377128
 20
6.881352803339913
 42
0.07333214780387673
  0
VERTEX
  8
0
  6
CONTINUOUS
 62
     7
 10
358.2609275935721
 20
6.714390124165899
 42
0.07333214780387673
  0
VERTEX
  8
0
  6
CONTINUOUS
 62
     7
 10
358.5774104293723
 20
6.605285752868539
 42
0.07333214780387673
  0
VERTEX
  8
0
  6
CONTINUOUS
 62
     7
 10
358.9264495621314
 20
6.563327054809799
 42
-1
  0
SEQEND
  8
0
  0
POLYLINE
  8
0
  6
CONTINUOUS
 62
     7
 66
     1
 10
0
 20
0
  0
VERTEX
  8
0
  6
CONTINUOUS
 62
     7
 10
361.1334499814951
 20
7.394087275473852
 42
0.07332668712448476
  0
VERTEX
  8
0
  6
CONTINUOUS
 62
     7
 10
361.0409520614749
 20
7.895954271153699
 42
0.07332668712448476
  0
VERTEX
  8
0
  6
CONTINUOUS
 62
     7
 10
360.7713307951933
 20
8.355106809346973
 42
0.07332668712448476
  0
VERTEX
  8
0
  6
CONTINUOUS
 62
     7
 10
360.347533955052
 20
8.732465895694457
 42
0.07332668712448476
  0
VERTEX
  8
0
  6
CONTINUOUS
 62
     7
 10
359.8056313717669
 20
8.995914069482986
 42
0.07332668712448476
  0
VERTEX
  8
0
  6
CONTINUOUS
 62
     7
 10
359.1917449900816
 20
9.12302895722871
 42
0.07332668712448476
  0
VERTEX
  8
0
  6
CONTINUOUS
 62
     7
 10
358.5581233776321
 20
9.102991666367657
 42
0.07332668712448476
  0
VERTEX
  8
0
  6
CONTINUOUS
 62
     7
 10
357.9586947899743
 20
8.937507593497688
 42
0.07332668712448476
  0
VERTEX
  8
0
  6
CONTINUOUS
 62
     7
 10
357.4444772754632
 20
8.640661276135838
 42
0.07332668712448476
  0
VERTEX
  8
0
  6
CONTINUOUS
 62
     7
 10
357.0592364711744
 20
8.237717641722963
 42
0.07332668712448476
  0
VERTEX
  8
0
  6
CONTINUOUS
 62
     7
 10
356.8357606597928
 20
7.762971680935285
 42
0.07332668712448476
  0
VERTEX
  8
0
  6
CONTINUOUS
 62
     7
 10
356.7930701216086
 20
7.256829562051186
 42
0.07332668712448476
  0
VERTEX
  8
0
  6
CONTINUOUS
 62
     7
 10
356.9347982968452
 20
6.762369616046822
 42
0.07332668712448476
  0
VERTEX
  8
0
  6
CONTINUOUS
 62
     7
 10
357.248882539432
 20
6.321675890887599
 42
0.07332668712448476
  0
VERTEX
  8
0
  6
CONTINUOUS
 62
     7
 10
357.7085907825211
 20
5.972256330376693
 42
0.07332668712448476
  0
VERTEX
  8
0
  6
CONTINUOUS
 62
     7
 10
358.2747967350779
 20
5.743850430429637
 42
0.07332668712448476
  0
VERTEX
  8
0
  6
CONTINUOUS
 62
     7
 10
358.8993099649791
 20
5.655898076777576
 42
-1
  0
SEQEND
  8
0
  0
POLYLINE
  8
0
  6
CONTINUOUS
 62
     7
 66
     1
 10
0
 20
0
  0
VERTEX
  8
0
  6
CONTINUOUS
 62
     7
 10
359.0649738430375
 20
5.190193561826918
 42
0.07459289906077718
  0
VERTEX
  8
0
  6
CONTINUOUS
 62
     7
 10
359.0934186713371
 20
4.894965292297971
 42
0.07459289906077718
  0
VERTEX
  8
0
  6
CONTINUOUS
 62
     7
 10
359.2427830107417
 20
4.618652047928727
 42
0.07459289906077718
  0
VERTEX
  8
0
  6
CONTINUOUS
 62
     7
 10
359.4999163584762
 20
4.385581309437423
 42
0.07459289906077718
  0
VERTEX
  8
0
  6
CONTINUOUS
 62
     7
 10
359.8421798918042
 20
4.216273352316379
 42
0.07459289906077718
  0
VERTEX
  8
0
  6
CONTINUOUS
 62
     7
 10
360.2394396606626
 20
4.125634577710819
 42
0.07459289906077718
  0
VERTEX
  8
0
  6
CONTINUOUS
 62
     7
 10
360.6567196747071
 20
4.121645106322431
 42
0.07459289906077718
  0
VERTEX
  8
0
  6
CONTINUOUS
 62
     7
 10
361.0572812987018
 20
4.204656183667869
 42
0.07459289906077718
  0
VERTEX
  8
0
  6
CONTINUOUS
 62
     7
 10
361.4058578366673
 20
4.367359255326837
 42
0.07459289906077718
  0
VERTEX
  8
0
  6
CONTINUOUS
 62
     7
 10
361.6717595219024
 20
4.595429434891457
 42
0.07459289906077718
  0
VERTEX
  8
0
  6
CONTINUOUS
 62
     7
 10
361.8315755398611
 20
4.868786711689676
 42
0.07459289906077718
  0
VERTEX
  8
0
  6
CONTINUOUS
 62
     7
 10
361.8712351893572
 20
5.163363857617105
 42
0.07459289906077718
  0
VERTEX
  8
0
  6
CONTINUOUS
 62
     7
 10
361.7872467110265
 20
5.453225381040171
 42
0.07459289906077718
  0
VERTEX
  8
0
  6
CONTINUOUS
 62
     7
 10
361.5870047127237
 20
5.712850968453341
 42
0.07459289906077718
  0
VERTEX
  8
0
  6
CONTINUOUS
 62
     7
 10
361.2881391251597
 20
5.919382372557711
 42
0.07459289906077718
  0
VERTEX
  8
0
  6
CONTINUOUS
 62
     7
 10
360.9169630077587
 20
6.054635923719457
 42
0.07459289906077718
  0
VERTEX
  8
0
  6
CONTINUOUS
 62
     7
 10
360.5061558647541
 20
6.106703477016059
 42
-1
  0
SEQEND
  8
0
  0
POLYLINE
  8
0
  6
CONTINUOUS
 62
     7
 66
     1
 10
0
 20
0
  0
VERTEX
  8
0
  6
CONTINUOUS
 62
     7
 10
358.032592203795
 20
5.198986394517019
 42
0.07398282385211347
  0
VERTEX
  8
0
  6
CONTINUOUS
 62
     7
 10
358.1083684585221
 20
4.645182651654765
 42
0.07398282385211347
  0
VERTEX
  8
0
  6
CONTINUOUS
 62
     7
 10
358.3878358233432
 20
4.132548707057886
 42
0.07398282385211347
  0
VERTEX
  8
0
  6
CONTINUOUS
 62
     7
 10
358.846785587113
 20
3.70549120225308
 42
0.07398282385211347
  0
VERTEX
  8
0
  6
CONTINUOUS
 62
     7
 10
359.445461471783
 20
3.401003765397507
 42
0.07398282385211347
  0
VERTEX
  8
0
  6
CONTINUOUS
 62
     7
 10
360.1320034987438
 20
3.245462458007074
 42
0.07398282385211347
  0
VERTEX
  8
0
  6
CONTINUOUS
 62
     7
 10
360.8469403317612
 20
3.252340962721568
 42
0.07398282385211347
  0
VERTEX
  8
0
  6
CONTINUOUS
 62
     7
 10
361.5283409496987
 20
3.421043432745599
 42
0.07398282385211347
  0
VERTEX
  8
0
  6
CONTINUOUS
 62
     7
 10
362.1171793881314
 20
3.736956106758862
 42
0.07398282385211347
  0
VERTEX
  8
0
  6
CONTINUOUS
 62
     7
 10
362.5624478319735
 20
4.172713218181696
 42
0.07398282385211347
  0
VERTEX
  8
0
  6
CONTINUOUS
 62
     7
 10
362.8255751402049
 20
4.690567540082258
 42
0.07398282385211347
  0
VERTEX
  8
0
  6
CONTINUOUS
 62
     7
 10
362.883768050351
 20
5.245660218539405
 42
0.07398282385211347
  0
VERTEX
  8
0
  6
CONTINUOUS
 62
     7
 10
362.7319856326656
 20
5.789906646893456
 42
0.07398282385211347
  0
VERTEX
  8
0
  6
CONTINUOUS
 62
     7
 10
362.3833759579763
 20
6.276161769104253
 42
0.07398282385211347
  0
VERTEX
  8
0
  6
CONTINUOUS
 62
     7
 10
361.8681371530748
 20
6.66230399503887
 42
0.07398282385211347
  0
VERTEX
  8
0
  6
CONTINUOUS
 62
     7
 10
361.2309015041199
 20
6.914883960709352
 42
0.07398282385211347
  0
VERTEX
  8
0
  6
CONTINUOUS
 62
     7
 10
360.5268692086977
 20
7.012022061554641
 42
-1
  0
SEQEND
  8
0
  0
LINE
  8
0
  6
CONTINUOUS
 62
     7
 10
373.3929342534639
 20
18.78969370259991
 11
374.2351994905535
 21
19.37945416718044
  0
LINE
  8
0
  6
CONTINUOUS
 62
     7
 10
374.9329383731379
 20
23.06886878433018
 11
375.7184502799685
 21
23.61889013948749
  0
POLYLINE
  8
0
  6
CONTINUOUS
 62
     7
 66
     1
 10
0
 20
0
  0
VERTEX
  8
0
  6
CONTINUOUS
 62
     7
 10
375.1526059833193
 20
22.37217573403746
 42
0.07333214780387673
  0
VERTEX
  8
0
  6
CONTINUOUS
 62
     7
 10
375.100908313413
 20
22.61205586243289
 42
0.07333214780387673
  0
VERTEX
  8
0
  6
CONTINUOUS
 62
     7
 10
374.9502159994963
 20
22.8315165120394
 42
0.07333214780387673
  0
VERTEX
  8
0
  6
CONTINUOUS
 62
     7
 10
374.7133565255641
 20
23.01187638520382
 42
0.07333214780387673
  0
VERTEX
  8
0
  6
CONTINUOUS
 62
     7
 10
374.4104922411876
 20
23.13778258617322
 42
0.07333214780387673
  0
VERTEX
  8
0
  6
CONTINUOUS
 62
     7
 10
374.0674040681636
 20
23.19851751604817
 42
0.07333214780387673
  0
VERTEX
  8
0
  6
CONTINUOUS
 62
     7
 10
373.7132969336307
 20
23.1889111942195
 42
0.07333214780387673
  0
VERTEX
  8
0
  6
CONTINUOUS
 62
     7
 10
373.378313739258
 20
23.10978134613255
 42
0.07333214780387673
  0
VERTEX
  8
0
  6
CONTINUOUS
 62
     7
 10
373.0909694865918
 20
22.96786379548973
 42
0.07333214780387673
  0
VERTEX
  8
0
  6
CONTINUOUS
 62
     7
 10
372.8757239752482
 20
22.77523908616314
 42
0.07333214780387673
  0
VERTEX
  8
0
  6
CONTINUOUS
 62
     7
 10
372.7508996948085
 20
22.54830414186889
 42
0.07333214780387673
  0
VERTEX
  8
0
  6
CONTINUOUS
 62
     7
 10
372.7271221471175
 20
22.30637649971386
 42
0.07333214780387673
  0
VERTEX
  8
0
  6
CONTINUOUS
 62
     7
 10
372.8064153644866
 20
22.07004993038877
 42
0.07333214780387673
  0
VERTEX
  8
0
  6
CONTINUOUS
 62
     7
 10
372.9820296166191
 20
21.85944142066474
 42
0.07333214780387673
  0
VERTEX
  8
0
  6
CONTINUOUS
 62
     7
 10
373.2390159724783
 20
21.69247874149073
 42
0.07333214780387673
  0
VERTEX
  8
0
  6
CONTINUOUS
 62
     7
 10
373.5554988082785
 20
21.58337437019337
 42
0.07333214780387673
  0
VERTEX
  8
0
  6
CONTINUOUS
 62
     7
 10
373.9045379410377
 20
21.54141567213463
 42
-1
  0
SEQEND
  8
0
  0
POLYLINE
  8
0
  6
CONTINUOUS
 62
     7
 66
     1
 10
0
 20
0
  0
VERTEX
  8
0
  6
CONTINUOUS
 62
     7
 10
376.1115383604014
 20
22.37217589279868
 42
0.07332668712448476
  0
VERTEX
  8
0
  6
CONTINUOUS
 62
     7
 10
376.0190404403811
 20
22.87404288847853
 42
0.07332668712448476
  0
VERTEX
  8
0
  6
CONTINUOUS
 62
     7
 10
375.7494191740995
 20
23.3331954266718
 42
0.07332668712448476
  0
VERTEX
  8
0
  6
CONTINUOUS
 62
     7
 10
375.3256223339583
 20
23.71055451301929
 42
0.07332668712448476
  0
VERTEX
  8
0
  6
CONTINUOUS
 62
     7
 10
374.7837197506732
 20
23.97400268680782
 42
0.07332668712448476
  0
VERTEX
  8
0
  6
CONTINUOUS
 62
     7
 10
374.1698333689878
 20
24.10111757455354
 42
0.07332668712448476
  0
VERTEX
  8
0
  6
CONTINUOUS
 62
     7
 10
373.5362117565384
 20
24.08108028369249
 42
0.07332668712448476
  0
VERTEX
  8
0
  6
CONTINUOUS
 62
     7
 10
372.9367831688806
 20
23.91559621082252
 42
0.07332668712448476
  0
VERTEX
  8
0
  6
CONTINUOUS
 62
     7
 10
372.4225656543694
 20
23.61874989346067
 42
0.07332668712448476
  0
VERTEX
  8
0
  6
CONTINUOUS
 62
     7
 10
372.0373248500806
 20
23.21580625904779
 42
0.07332668712448476
  0
VERTEX
  8
0
  6
CONTINUOUS
 62
     7
 10
371.813849038699
 20
22.74106029826011
 42
0.07332668712448476
  0
VERTEX
  8
0
  6
CONTINUOUS
 62
     7
 10
371.7711585005148
 20
22.23491817937601
 42
0.07332668712448476
  0
VERTEX
  8
0
  6
CONTINUOUS
 62
     7
 10
371.9128866757515
 20
21.74045823337165
 42
0.07332668712448476
  0
VERTEX
  8
0
  6
CONTINUOUS
 62
     7
 10
372.2269709183382
 20
21.29976450821243
 42
0.07332668712448476
  0
VERTEX
  8
0
  6
CONTINUOUS
 62
     7
 10
372.6866791614273
 20
20.95034494770152
 42
0.07332668712448476
  0
VERTEX
  8
0
  6
CONTINUOUS
 62
     7
 10
373.2528851139842
 20
20.72193904775446
 42
0.07332668712448476
  0
VERTEX
  8
0
  6
CONTINUOUS
 62
     7
 10
373.8773983438854
 20
20.6339866941024
 42
-1
  0
SEQEND
  8
0
  0
POLYLINE
  8
0
  6
CONTINUOUS
 62
     7
 66
     1
 10
0
 20
0
  0
VERTEX
  8
0
  6
CONTINUOUS
 62
     7
 10
374.0430622219438
 20
20.16828217915175
 42
0.07459289906077718
  0
VERTEX
  8
0
  6
CONTINUOUS
 62
     7
 10
374.0715070502433
 20
19.8730539096228
 42
0.07459289906077718
  0
VERTEX
  8
0
  6
CONTINUOUS
 62
     7
 10
374.2208713896479
 20
19.59674066525356
 42
0.07459289906077718
  0
VERTEX
  8
0
  6
CONTINUOUS
 62
     7
 10
374.4780047373824
 20
19.36366992676226
 42
0.07459289906077718
  0
VERTEX
  8
0
  6
CONTINUOUS
 62
     7
 10
374.8202682707105
 20
19.19436196964121
 42
0.07459289906077718
  0
VERTEX
  8
0
  6
CONTINUOUS
 62
     7
 10
375.2175280395688
 20
19.10372319503565
 42
0.07459289906077718
  0
VERTEX
  8
0
  6
CONTINUOUS
 62
     7
 10
375.6348080536134
 20
19.09973372364726
 42
0.07459289906077718
  0
VERTEX
  8
0
  6
CONTINUOUS
 62
     7
 10
376.035369677608
 20
19.1827448009927
 42
0.07459289906077718
  0
VERTEX
  8
0
  6
CONTINUOUS
 62
     7
 10
376.3839462155735
 20
19.34544787265167
 42
0.07459289906077718
  0
VERTEX
  8
0
  6
CONTINUOUS
 62
     7
 10
376.6498479008087
 20
19.57351805221629
 42
0.07459289906077718
  0
VERTEX
  8
0
  6
CONTINUOUS
 62
     7
 10
376.8096639187673
 20
19.84687532901451
 42
0.07459289906077718
  0
VERTEX
  8
0
  6
CONTINUOUS
 62
     7
 10
376.8493235682634
 20
20.14145247494194
 42
0.07459289906077718
  0
VERTEX
  8
0
  6
CONTINUOUS
 62
     7
 10
376.7653350899327
 20
20.431313998365
 42
0.07459289906077718
  0
VERTEX
  8
0
  6
CONTINUOUS
 62
     7
 10
376.56509309163
 20
20.69093958577817
 42
0.07459289906077718
  0
VERTEX
  8
0
  6
CONTINUOUS
 62
     7
 10
376.266227504066
 20
20.89747098988254
 42
0.07459289906077718
  0
VERTEX
  8
0
  6
CONTINUOUS
 62
     7
 10
375.8950513866649
 20
21.03272454104429
 42
0.07459289906077718
  0
VERTEX
  8
0
  6
CONTINUOUS
 62
     7
 10
375.4842442436604
 20
21.08479209434089
 42
-1
  0
SEQEND
  8
0
  0
POLYLINE
  8
0
  6
CONTINUOUS
 62
     7
 66
     1
 10
0
 20
0
  0
VERTEX
  8
0
  6
CONTINUOUS
 62
     7
 10
373.0106805827012
 20
20.17707501184185
 42
0.07398282385211347
  0
VERTEX
  8
0
  6
CONTINUOUS
 62
     7
 10
373.0864568374283
 20
19.62327126897959
 42
0.07398282385211347
  0
VERTEX
  8
0
  6
CONTINUOUS
 62
     7
 10
373.3659242022494
 20
19.11063732438272
 42
0.07398282385211347
  0
VERTEX
  8
0
  6
CONTINUOUS
 62
     7
 10
373.8248739660192
 20
18.68357981957791
 42
0.07398282385211347
  0
VERTEX
  8
0
  6
CONTINUOUS
 62
     7
 10
374.4235498506892
 20
18.37909238272234
 42
0.07398282385211347
  0
VERTEX
  8
0
  6
CONTINUOUS
 62
     7
 10
375.1100918776501
 20
18.2235510753319
 42
0.07398282385211347
  0
VERTEX
  8
0
  6
CONTINUOUS
 62
     7
 10
375.8250287106674
 20
18.2304295800464
 42
0.07398282385211347
  0
VERTEX
  8
0
  6
CONTINUOUS
 62
     7
 10
376.5064293286049
 20
18.39913205007043
 42
0.07398282385211347
  0
VERTEX
  8
0
  6
CONTINUOUS
 62
     7
 10
377.0952677670376
 20
18.71504472408369
 42
0.07398282385211347
  0
VERTEX
  8
0
  6
CONTINUOUS
 62
     7
 10
377.5405362108798
 20
19.15080183550652
 42
0.07398282385211347
  0
VERTEX
  8
0
  6
CONTINUOUS
 62
     7
 10
377.8036635191112
 20
19.66865615740709
 42
0.07398282385211347
  0
VERTEX
  8
0
  6
CONTINUOUS
 62
     7
 10
377.8618564292573
 20
20.22374883586424
 42
0.07398282385211347
  0
VERTEX
  8
0
  6
CONTINUOUS
 62
     7
 10
377.7100740115719
 20
20.76799526421829
 42
0.07398282385211347
  0
VERTEX
  8
0
  6
CONTINUOUS
 62
     7
 10
377.3614643368825
 20
21.25425038642908
 42
0.07398282385211347
  0
VERTEX
  8
0
  6
CONTINUOUS
 62
     7
 10
376.8462255319811
 20
21.6403926123637
 42
0.07398282385211347
  0
VERTEX
  8
0
  6
CONTINUOUS
 62
     7
 10
376.2089898830261
 20
21.89297257803418
 42
0.07398282385211347
  0
VERTEX
  8
0
  6
CONTINUOUS
 62
     7
 10
375.5049575876039
 20
21.99011067887947
 42
-1
  0
SEQEND
  8
0
  0
LINE
  8
0
  6
CONTINUOUS
 62
     7
 10
-67.51202637886037
 20
-283.1588403092409
 11
-66.66976114177069
 21
-282.5690798446604
  0
LINE
  8
0
  6
CONTINUOUS
 62
     7
 10
-65.97202225918638
 20
-278.8796652275107
 11
-65.18651035235575
 21
-278.3296438723533
  0
POLYLINE
  8
0
  6
CONTINUOUS
 62
     7
 66
     1
 10
0
 20
0
  0
VERTEX
  8
0
  6
CONTINUOUS
 62
     7
 10
-65.75235464900496
 20
-279.5763582778034
 42
0.07333214780387673
  0
VERTEX
  8
0
  6
CONTINUOUS
 62
     7
 10
-65.8040523189113
 20
-279.3364781494079
 42
0.07333214780387673
  0
VERTEX
  8
0
  6
CONTINUOUS
 62
     7
 10
-65.95474463282798
 20
-279.1170174998014
 42
0.07333214780387673
  0
VERTEX
  8
0
  6
CONTINUOUS
 62
     7
 10
-66.1916041067602
 20
-278.936657626637
 42
0.07333214780387673
  0
VERTEX
  8
0
  6
CONTINUOUS
 62
     7
 10
-66.49446839113662
 20
-278.8107514256676
 42
0.07333214780387673
  0
VERTEX
  8
0
  6
CONTINUOUS
 62
     7
 10
-66.83755656416061
 20
-278.7500164957926
 42
0.07333214780387673
  0
VERTEX
  8
0
  6
CONTINUOUS
 62
     7
 10
-67.19166369869352
 20
-278.7596228176213
 42
0.07333214780387673
  0
VERTEX
  8
0
  6
CONTINUOUS
 62
     7
 10
-67.52664689306624
 20
-278.8387526657083
 42
0.07333214780387673
  0
VERTEX
  8
0
  6
CONTINUOUS
 62
     7
 10
-67.81399114573244
 20
-278.9806702163511
 42
0.07333214780387673
  0
VERTEX
  8
0
  6
CONTINUOUS
 62
     7
 10
-68.02923665707603
 20
-279.1732949256777
 42
0.07333214780387673
  0
VERTEX
  8
0
  6
CONTINUOUS
 62
     7
 10
-68.1540609375157
 20
-279.400229869972
 42
0.07333214780387673
  0
VERTEX
  8
0
  6
CONTINUOUS
 62
     7
 10
-68.17783848520669
 20
-279.642157512127
 42
0.07333214780387673
  0
VERTEX
  8
0
  6
CONTINUOUS
 62
     7
 10
-68.09854526783768
 20
-279.8784840814521
 42
0.07333214780387673
  0
VERTEX
  8
0
  6
CONTINUOUS
 62
     7
 10
-67.92293101570519
 20
-280.0890925911761
 42
0.07333214780387673
  0
VERTEX
  8
0
  6
CONTINUOUS
 62
     7
 10
-67.66594465984588
 20
-280.2560552703501
 42
0.07333214780387673
  0
VERTEX
  8
0
  6
CONTINUOUS
 62
     7
 10
-67.34946182404573
 20
-280.3651596416474
 42
0.07333214780387673
  0
VERTEX
  8
0
  6
CONTINUOUS
 62
     7
 10
-67.00042269128657
 20
-280.4071183397062
 42
-1
  0
SEQEND
  8
0
  0
POLYLINE
  8
0
  6
CONTINUOUS
 62
     7
 66
     1
 10
0
 20
0
  0
VERTEX
  8
0
  6
CONTINUOUS
 62
     7
 10
-64.79342227192288
 20
-279.5763581190421
 42
0.07332668712448476
  0
VERTEX
  8
0
  6
CONTINUOUS
 62
     7
 10
-64.88592019194314
 20
-279.0744911233623
 42
0.07332668712448476
  0
VERTEX
  8
0
  6
CONTINUOUS
 62
     7
 10
-65.15554145822475
 20
-278.615338585169
 42
0.07332668712448476
  0
VERTEX
  8
0
  6
CONTINUOUS
 62
     7
 10
-65.57933829836597
 20
-278.2379794988215
 42
0.07332668712448476
  0
VERTEX
  8
0
  6
CONTINUOUS
 62
     7
 10
-66.12124088165105
 20
-277.974531325033
 42
0.07332668712448476
  0
VERTEX
  8
0
  6
CONTINUOUS
 62
     7
 10
-66.73512726333638
 20
-277.8474164372873
 42
0.07332668712448476
  0
VERTEX
  8
0
  6
CONTINUOUS
 62
     7
 10
-67.36874887578586
 20
-277.8674537281484
 42
0.07332668712448476
  0
VERTEX
  8
0
  6
CONTINUOUS
 62
     7
 10
-67.96817746344367
 20
-278.0329378010183
 42
0.07332668712448476
  0
VERTEX
  8
0
  6
CONTINUOUS
 62
     7
 10
-68.48239497795487
 20
-278.3297841183801
 42
0.07332668712448476
  0
VERTEX
  8
0
  6
CONTINUOUS
 62
     7
 10
-68.86763578224368
 20
-278.732727752793
 42
0.07332668712448476
  0
VERTEX
  8
0
  6
CONTINUOUS
 62
     7
 10
-69.09111159362526
 20
-279.2074737135807
 42
0.07332668712448476
  0
VERTEX
  8
0
  6
CONTINUOUS
 62
     7
 10
-69.13380213180939
 20
-279.7136158324648
 42
0.07332668712448476
  0
VERTEX
  8
0
  6
CONTINUOUS
 62
     7
 10
-68.9920739565728
 20
-280.2080757784692
 42
0.07332668712448476
  0
VERTEX
  8
0
  6
CONTINUOUS
 62
     7
 10
-68.67798971398602
 20
-280.6487695036284
 42
0.07332668712448476
  0
VERTEX
  8
0
  6
CONTINUOUS
 62
     7
 10
-68.21828147089695
 20
-280.9981890641393
 42
0.07332668712448476
  0
VERTEX
  8
0
  6
CONTINUOUS
 62
     7
 10
-67.65207551834008
 20
-281.2265949640864
 42
0.07332668712448476
  0
VERTEX
  8
0
  6
CONTINUOUS
 62
     7
 10
-67.02756228843884
 20
-281.3145473177384
 42
-1
  0
SEQEND
  8
0
  0
POLYLINE
  8
0
  6
CONTINUOUS
 62
     7
 66
     1
 10
0
 20
0
  0
VERTEX
  8
0
  6
CONTINUOUS
 62
     7
 10
-66.86189841038043
 20
-281.780251832689
 42
0.07459289906077718
  0
VERTEX
  8
0
  6
CONTINUOUS
 62
     7
 10
-66.83345358208088
 20
-282.075480102218
 42
0.07459289906077718
  0
VERTEX
  8
0
  6
CONTINUOUS
 62
     7
 10
-66.68408924267631
 20
-282.3517933465873
 42
0.07459289906077718
  0
VERTEX
  8
0
  6
CONTINUOUS
 62
     7
 10
-66.42695589494177
 20
-282.5848640850786
 42
0.07459289906077718
  0
VERTEX
  8
0
  6
CONTINUOUS
 62
     7
 10
-66.08469236161376
 20
-282.7541720421996
 42
0.07459289906077718
  0
VERTEX
  8
0
  6
CONTINUOUS
 62
     7
 10
-65.68743259275539
 20
-282.8448108168051
 42
0.07459289906077718
  0
VERTEX
  8
0
  6
CONTINUOUS
 62
     7
 10
-65.27015257871085
 20
-282.8488002881936
 42
0.07459289906077718
  0
VERTEX
  8
0
  6
CONTINUOUS
 62
     7
 10
-64.86959095471622
 20
-282.7657892108481
 42
0.07459289906077718
  0
VERTEX
  8
0
  6
CONTINUOUS
 62
     7
 10
-64.52101441675067
 20
-282.6030861391891
 42
0.07459289906077718
  0
VERTEX
  8
0
  6
CONTINUOUS
 62
     7
 10
-64.25511273151558
 20
-282.3750159596245
 42
0.07459289906077718
  0
VERTEX
  8
0
  6
CONTINUOUS
 62
     7
 10
-64.09529671355685
 20
-282.1016586828263
 42
0.07459289906077718
  0
VERTEX
  8
0
  6
CONTINUOUS
 62
     7
 10
-64.05563706406085
 20
-281.8070815368989
 42
0.07459289906077718
  0
VERTEX
  8
0
  6
CONTINUOUS
 62
     7
 10
-64.1396255423915
 20
-281.5172200134758
 42
0.07459289906077718
  0
VERTEX
  8
0
  6
CONTINUOUS
 62
     7
 10
-64.33986754069422
 20
-281.2575944260626
 42
0.07459289906077718
  0
VERTEX
  8
0
  6
CONTINUOUS
 62
     7
 10
-64.63873312825824
 20
-281.0510630219583
 42
0.07459289906077718
  0
VERTEX
  8
0
  6
CONTINUOUS
 62
     7
 10
-65.00990924565929
 20
-280.9158094707966
 42
0.07459289906077718
  0
VERTEX
  8
0
  6
CONTINUOUS
 62
     7
 10
-65.42071638866382
 20
-280.8637419174999
 42
-1
  0
SEQEND
  8
0
  0
POLYLINE
  8
0
  6
CONTINUOUS
 62
     7
 66
     1
 10
0
 20
0
  0
VERTEX
  8
0
  6
CONTINUOUS
 62
     7
 10
-67.89428004962295
 20
-281.771458999999
 42
0.07398282385211347
  0
VERTEX
  8
0
  6
CONTINUOUS
 62
     7
 10
-67.81850379489586
 20
-282.3252627428612
 42
0.07398282385211347
  0
VERTEX
  8
0
  6
CONTINUOUS
 62
     7
 10
-67.53903643007479
 20
-282.8378966874581
 42
0.07398282385211347
  0
VERTEX
  8
0
  6
CONTINUOUS
 62
     7
 10
-67.08008666630499
 20
-283.2649541922629
 42
0.07398282385211347
  0
VERTEX
  8
0
  6
CONTINUOUS
 62
     7
 10
-66.48141078163501
 20
-283.5694416291185
 42
0.07398282385211347
  0
VERTEX
  8
0
  6
CONTINUOUS
 62
     7
 10
-65.79486875467414
 20
-283.7249829365089
 42
0.07398282385211347
  0
VERTEX
  8
0
  6
CONTINUOUS
 62
     7
 10
-65.07993192165679
 20
-283.7181044317944
 42
0.07398282385211347
  0
VERTEX
  8
0
  6
CONTINUOUS
 62
     7
 10
-64.39853130371928
 20
-283.5494019617704
 42
0.07398282385211347
  0
VERTEX
  8
0
  6
CONTINUOUS
 62
     7
 10
-63.8096928652866
 20
-283.2334892877571
 42
0.07398282385211347
  0
VERTEX
  8
0
  6
CONTINUOUS
 62
     7
 10
-63.36442442144441
 20
-282.7977321763343
 42
0.07398282385211347
  0
VERTEX
  8
0
  6
CONTINUOUS
 62
     7
 10
-63.10129711321304
 20
-282.2798778544337
 42
0.07398282385211347
  0
VERTEX
  8
0
  6
CONTINUOUS
 62
     7
 10
-63.04310420306693
 20
-281.7247851759766
 42
0.07398282385211347
  0
VERTEX
  8
0
  6
CONTINUOUS
 62
     7
 10
-63.19488662075234
 20
-281.1805387476225
 42
0.07398282385211347
  0
VERTEX
  8
0
  6
CONTINUOUS
 62
     7
 10
-63.54349629544164
 20
-280.6942836254117
 42
0.07398282385211347
  0
VERTEX
  8
0
  6
CONTINUOUS
 62
     7
 10
-64.05873510034311
 20
-280.3081413994771
 42
0.07398282385211347
  0
VERTEX
  8
0
  6
CONTINUOUS
 62
     7
 10
-64.69597074929807
 20
-280.0555614338066
 42
0.07398282385211347
  0
VERTEX
  8
0
  6
CONTINUOUS
 62
     7
 10
-65.40000304472025
 20
-279.9584233329613
 42
-1
  0
SEQEND
  8
0
  0
LINE
  8
0
  6
CONTINUOUS
 62
     7
 10
-82.49011475776662
 20
-298.1369286881472
 11
-81.64784952067694
 21
-297.5471682235666
  0
LINE
  8
0
  6
CONTINUOUS
 62
     7
 10
-80.95011063809263
 20
-293.8577536064169
 11
-80.164598731262
 21
-293.3077322512596
  0
POLYLINE
  8
0
  6
CONTINUOUS
 62
     7
 66
     1
 10
0
 20
0
  0
VERTEX
  8
0
  6
CONTINUOUS
 62
     7
 10
-80.73044302791121
 20
-294.5544466567096
 42
0.07333214780387673
  0
VERTEX
  8
0
  6
CONTINUOUS
 62
     7
 10
-80.78214069781755
 20
-294.3145665283142
 42
0.07333214780387673
  0
VERTEX
  8
0
  6
CONTINUOUS
 62
     7
 10
-80.93283301173423
 20
-294.0951058787077
 42
0.07333214780387673
  0
VERTEX
  8
0
  6
CONTINUOUS
 62
     7
 10
-81.16969248566645
 20
-293.9147460055432
 42
0.07333214780387673
  0
VERTEX
  8
0
  6
CONTINUOUS
 62
     7
 10
-81.47255677004287
 20
-293.7888398045739
 42
0.07333214780387673
  0
VERTEX
  8
0
  6
CONTINUOUS
 62
     7
 10
-81.81564494306686
 20
-293.7281048746989
 42
0.07333214780387673
  0
VERTEX
  8
0
  6
CONTINUOUS
 62
     7
 10
-82.16975207759977
 20
-293.7377111965276
 42
0.07333214780387673
  0
VERTEX
  8
0
  6
CONTINUOUS
 62
     7
 10
-82.50473527197249
 20
-293.8168410446145
 42
0.07333214780387673
  0
VERTEX
  8
0
  6
CONTINUOUS
 62
     7
 10
-82.79207952463869
 20
-293.9587585952573
 42
0.07333214780387673
  0
VERTEX
  8
0
  6
CONTINUOUS
 62
     7
 10
-83.00732503598228
 20
-294.1513833045839
 42
0.07333214780387673
  0
VERTEX
  8
0
  6
CONTINUOUS
 62
     7
 10
-83.13214931642195
 20
-294.3783182488782
 42
0.07333214780387673
  0
VERTEX
  8
0
  6
CONTINUOUS
 62
     7
 10
-83.15592686411294
 20
-294.6202458910332
 42
0.07333214780387673
  0
VERTEX
  8
0
  6
CONTINUOUS
 62
     7
 10
-83.07663364674393
 20
-294.8565724603583
 42
0.07333214780387673
  0
VERTEX
  8
0
  6
CONTINUOUS
 62
     7
 10
-82.90101939461144
 20
-295.0671809700824
 42
0.07333214780387673
  0
VERTEX
  8
0
  6
CONTINUOUS
 62
     7
 10
-82.64403303875213
 20
-295.2341436492563
 42
0.07333214780387673
  0
VERTEX
  8
0
  6
CONTINUOUS
 62
     7
 10
-82.32755020295198
 20
-295.3432480205537
 42
0.07333214780387673
  0
VERTEX
  8
0
  6
CONTINUOUS
 62
     7
 10
-81.97851107019282
 20
-295.3852067186124
 42
-1
  0
SEQEND
  8
0
  0
POLYLINE
  8
0
  6
CONTINUOUS
 62
     7
 66
     1
 10
0
 20
0
  0
VERTEX
  8
0
  6
CONTINUOUS
 62
     7
 10
-79.77151065082913
 20
-294.5544464979484
 42
0.07332668712448476
  0
VERTEX
  8
0
  6
CONTINUOUS
 62
     7
 10
-79.86400857084939
 20
-294.0525795022685
 42
0.07332668712448476
  0
VERTEX
  8
0
  6
CONTINUOUS
 62
     7
 10
-80.133629837131
 20
-293.5934269640753
 42
0.07332668712448476
  0
VERTEX
  8
0
  6
CONTINUOUS
 62
     7
 10
-80.55742667727222
 20
-293.2160678777278
 42
0.07332668712448476
  0
VERTEX
  8
0
  6
CONTINUOUS
 62
     7
 10
-81.0993292605573
 20
-292.9526197039393
 42
0.07332668712448476
  0
VERTEX
  8
0
  6
CONTINUOUS
 62
     7
 10
-81.71321564224263
 20
-292.8255048161935
 42
0.07332668712448476
  0
VERTEX
  8
0
  6
CONTINUOUS
 62
     7
 10
-82.34683725469211
 20
-292.8455421070546
 42
0.07332668712448476
  0
VERTEX
  8
0
  6
CONTINUOUS
 62
     7
 10
-82.94626584234992
 20
-293.0110261799246
 42
0.07332668712448476
  0
VERTEX
  8
0
  6
CONTINUOUS
 62
     7
 10
-83.46048335686112
 20
-293.3078724972864
 42
0.07332668712448476
  0
VERTEX
  8
0
  6
CONTINUOUS
 62
     7
 10
-83.84572416114993
 20
-293.7108161316993
 42
0.07332668712448476
  0
VERTEX
  8
0
  6
CONTINUOUS
 62
     7
 10
-84.06919997253151
 20
-294.185562092487
 42
0.07332668712448476
  0
VERTEX
  8
0
  6
CONTINUOUS
 62
     7
 10
-84.11189051071564
 20
-294.6917042113711
 42
0.07332668712448476
  0
VERTEX
  8
0
  6
CONTINUOUS
 62
     7
 10
-83.97016233547906
 20
-295.1861641573754
 42
0.07332668712448476
  0
VERTEX
  8
0
  6
CONTINUOUS
 62
     7
 10
-83.65607809289227
 20
-295.6268578825346
 42
0.07332668712448476
  0
VERTEX
  8
0
  6
CONTINUOUS
 62
     7
 10
-83.19636984980322
 20
-295.9762774430456
 42
0.07332668712448476
  0
VERTEX
  8
0
  6
CONTINUOUS
 62
     7
 10
-82.63016389724633
 20
-296.2046833429926
 42
0.07332668712448476
  0
VERTEX
  8
0
  6
CONTINUOUS
 62
     7
 10
-82.00565066734509
 20
-296.2926356966447
 42
-1
  0
SEQEND
  8
0
  0
POLYLINE
  8
0
  6
CONTINUOUS
 62
     7
 66
     1
 10
0
 20
0
  0
VERTEX
  8
0
  6
CONTINUOUS
 62
     7
 10
-81.83998678928668
 20
-296.7583402115953
 42
0.07459289906077718
  0
VERTEX
  8
0
  6
CONTINUOUS
 62
     7
 10
-81.81154196098713
 20
-297.0535684811243
 42
0.07459289906077718
  0
VERTEX
  8
0
  6
CONTINUOUS
 62
     7
 10
-81.66217762158256
 20
-297.3298817254935
 42
0.07459289906077718
  0
VERTEX
  8
0
  6
CONTINUOUS
 62
     7
 10
-81.40504427384802
 20
-297.5629524639848
 42
0.07459289906077718
  0
VERTEX
  8
0
  6
CONTINUOUS
 62
     7
 10
-81.06278074052001
 20
-297.7322604211059
 42
0.07459289906077718
  0
VERTEX
  8
0
  6
CONTINUOUS
 62
     7
 10
-80.66552097166164
 20
-297.8228991957114
 42
0.07459289906077718
  0
VERTEX
  8
0
  6
CONTINUOUS
 62
     7
 10
-80.2482409576171
 20
-297.8268886670998
 42
0.07459289906077718
  0
VERTEX
  8
0
  6
CONTINUOUS
 62
     7
 10
-79.84767933362247
 20
-297.7438775897543
 42
0.07459289906077718
  0
VERTEX
  8
0
  6
CONTINUOUS
 62
     7
 10
-79.49910279565692
 20
-297.5811745180954
 42
0.07459289906077718
  0
VERTEX
  8
0
  6
CONTINUOUS
 62
     7
 10
-79.23320111042183
 20
-297.3531043385308
 42
0.07459289906077718
  0
VERTEX
  8
0
  6
CONTINUOUS
 62
     7
 10
-79.0733850924631
 20
-297.0797470617326
 42
0.07459289906077718
  0
VERTEX
  8
0
  6
CONTINUOUS
 62
     7
 10
-79.0337254429671
 20
-296.7851699158051
 42
0.07459289906077718
  0
VERTEX
  8
0
  6
CONTINUOUS
 62
     7
 10
-79.11771392129775
 20
-296.4953083923821
 42
0.07459289906077718
  0
VERTEX
  8
0
  6
CONTINUOUS
 62
     7
 10
-79.31795591960047
 20
-296.2356828049689
 42
0.07459289906077718
  0
VERTEX
  8
0
  6
CONTINUOUS
 62
     7
 10
-79.61682150716449
 20
-296.0291514008645
 42
0.07459289906077718
  0
VERTEX
  8
0
  6
CONTINUOUS
 62
     7
 10
-79.98799762456554
 20
-295.8938978497028
 42
0.07459289906077718
  0
VERTEX
  8
0
  6
CONTINUOUS
 62
     7
 10
-80.39880476757007
 20
-295.8418302964062
 42
-1
  0
SEQEND
  8
0
  0
POLYLINE
  8
0
  6
CONTINUOUS
 62
     7
 66
     1
 10
0
 20
0
  0
VERTEX
  8
0
  6
CONTINUOUS
 62
     7
 10
-82.8723684285292
 20
-296.7495473789052
 42
0.07398282385211347
  0
VERTEX
  8
0
  6
CONTINUOUS
 62
     7
 10
-82.79659217380211
 20
-297.3033511217675
 42
0.07398282385211347
  0
VERTEX
  8
0
  6
CONTINUOUS
 62
     7
 10
-82.51712480898104
 20
-297.8159850663644
 42
0.07398282385211347
  0
VERTEX
  8
0
  6
CONTINUOUS
 62
     7
 10
-82.05817504521124
 20
-298.2430425711692
 42
0.07398282385211347
  0
VERTEX
  8
0
  6
CONTINUOUS
 62
     7
 10
-81.45949916054126
 20
-298.5475300080248
 42
0.07398282385211347
  0
VERTEX
  8
0
  6
CONTINUOUS
 62
     7
 10
-80.77295713358039
 20
-298.7030713154152
 42
0.07398282385211347
  0
VERTEX
  8
0
  6
CONTINUOUS
 62
     7
 10
-80.05802030056304
 20
-298.6961928107007
 42
0.07398282385211347
  0
VERTEX
  8
0
  6
CONTINUOUS
 62
     7
 10
-79.37661968262553
 20
-298.5274903406767
 42
0.07398282385211347
  0
VERTEX
  8
0
  6
CONTINUOUS
 62
     7
 10
-78.78778124419286
 20
-298.2115776666634
 42
0.07398282385211347
  0
VERTEX
  8
0
  6
CONTINUOUS
 62
     7
 10
-78.34251280035066
 20
-297.7758205552406
 42
0.07398282385211347
  0
VERTEX
  8
0
  6
CONTINUOUS
 62
     7
 10
-78.07938549211929
 20
-297.25796623334
 42
0.07398282385211347
  0
VERTEX
  8
0
  6
CONTINUOUS
 62
     7
 10
-78.02119258197318
 20
-296.7028735548828
 42
0.07398282385211347
  0
VERTEX
  8
0
  6
CONTINUOUS
 62
     7
 10
-78.17297499965859
 20
-296.1586271265288
 42
0.07398282385211347
  0
VERTEX
  8
0
  6
CONTINUOUS
 62
     7
 10
-78.52158467434789
 20
-295.672372004318
 42
0.07398282385211347
  0
VERTEX
  8
0
  6
CONTINUOUS
 62
     7
 10
-79.03682347924936
 20
-295.2862297783834
 42
0.07398282385211347
  0
VERTEX
  8
0
  6
CONTINUOUS
 62
     7
 10
-79.67405912820432
 20
-295.0336498127129
 42
0.07398282385211347
  0
VERTEX
  8
0
  6
CONTINUOUS
 62
     7
 10
-80.3780914236265
 20
-294.9365117118676
 42
-1
  0
SEQEND
  8
0
  0
LINE
  8
0
  6
CONTINUOUS
 62
     7
 10
213.4052786138154
 20
-282.4077416764284
 11
214.2475438509051
 21
-281.8179812118479
  0
LINE
  8
0
  6
CONTINUOUS
 62
     7
 10
214.9452827334894
 20
-278.1285665946982
 11
215.73079464032
 21
-277.5785452395408
  0
POLYLINE
  8
0
  6
CONTINUOUS
 62
     7
 66
     1
 10
0
 20
0
  0
VERTEX
  8
0
  6
CONTINUOUS
 62
     7
 10
215.1649503436708
 20
-278.8252596449909
 42
0.07333214780387673
  0
VERTEX
  8
0
  6
CONTINUOUS
 62
     7
 10
215.1132526737645
 20
-278.5853795165954
 42
0.07333214780387673
  0
VERTEX
  8
0
  6
CONTINUOUS
 62
     7
 10
214.9625603598478
 20
-278.3659188669889
 42
0.07333214780387673
  0
VERTEX
  8
0
  6
CONTINUOUS
 62
     7
 10
214.7257008859156
 20
-278.1855589938245
 42
0.07333214780387673
  0
VERTEX
  8
0
  6
CONTINUOUS
 62
     7
 10
214.4228366015392
 20
-278.0596527928551
 42
0.07333214780387673
  0
VERTEX
  8
0
  6
CONTINUOUS
 62
     7
 10
214.0797484285152
 20
-277.9989178629801
 42
0.07333214780387673
  0
VERTEX
  8
0
  6
CONTINUOUS
 62
     7
 10
213.7256412939823
 20
-278.0085241848088
 42
0.07333214780387673
  0
VERTEX
  8
0
  6
CONTINUOUS
 62
     7
 10
213.3906580996095
 20
-278.0876540328958
 42
0.07333214780387673
  0
VERTEX
  8
0
  6
CONTINUOUS
 62
     7
 10
213.1033138469433
 20
-278.2295715835386
 42
0.07333214780387673
  0
VERTEX
  8
0
  6
CONTINUOUS
 62
     7
 10
212.8880683355997
 20
-278.4221962928652
 42
0.07333214780387673
  0
VERTEX
  8
0
  6
CONTINUOUS
 62
     7
 10
212.7632440551601
 20
-278.6491312371595
 42
0.07333214780387673
  0
VERTEX
  8
0
  6
CONTINUOUS
 62
     7
 10
212.7394665074691
 20
-278.8910588793145
 42
0.07333214780387673
  0
VERTEX
  8
0
  6
CONTINUOUS
 62
     7
 10
212.8187597248381
 20
-279.1273854486396
 42
0.07333214780387673
  0
VERTEX
  8
0
  6
CONTINUOUS
 62
     7
 10
212.9943739769706
 20
-279.3379939583636
 42
0.07333214780387673
  0
VERTEX
  8
0
  6
CONTINUOUS
 62
     7
 10
213.2513603328299
 20
-279.5049566375376
 42
0.07333214780387673
  0
VERTEX
  8
0
  6
CONTINUOUS
 62
     7
 10
213.5678431686301
 20
-279.6140610088349
 42
0.07333214780387673
  0
VERTEX
  8
0
  6
CONTINUOUS
 62
     7
 10
213.9168823013892
 20
-279.6560197068937
 42
-1
  0
SEQEND
  8
0
  0
POLYLINE
  8
0
  6
CONTINUOUS
 62
     7
 66
     1
 10
0
 20
0
  0
VERTEX
  8
0
  6
CONTINUOUS
 62
     7
 10
216.1238827207529
 20
-278.8252594862296
 42
0.07332668712448476
  0
VERTEX
  8
0
  6
CONTINUOUS
 62
     7
 10
216.0313848007326
 20
-278.3233924905498
 42
0.07332668712448476
  0
VERTEX
  8
0
  6
CONTINUOUS
 62
     7
 10
215.761763534451
 20
-277.8642399523565
 42
0.07332668712448476
  0
VERTEX
  8
0
  6
CONTINUOUS
 62
     7
 10
215.3379666943098
 20
-277.486880866009
 42
0.07332668712448476
  0
VERTEX
  8
0
  6
CONTINUOUS
 62
     7
 10
214.7960641110248
 20
-277.2234326922205
 42
0.07332668712448476
  0
VERTEX
  8
0
  6
CONTINUOUS
 62
     7
 10
214.1821777293394
 20
-277.0963178044748
 42
0.07332668712448476
  0
VERTEX
  8
0
  6
CONTINUOUS
 62
     7
 10
213.5485561168899
 20
-277.1163550953359
 42
0.07332668712448476
  0
VERTEX
  8
0
  6
CONTINUOUS
 62
     7
 10
212.9491275292321
 20
-277.2818391682058
 42
0.07332668712448476
  0
VERTEX
  8
0
  6
CONTINUOUS
 62
     7
 10
212.4349100147209
 20
-277.5786854855676
 42
0.07332668712448476
  0
VERTEX
  8
0
  6
CONTINUOUS
 62
     7
 10
212.0496692104321
 20
-277.9816291199805
 42
0.07332668712448476
  0
VERTEX
  8
0
  6
CONTINUOUS
 62
     7
 10
211.8261933990505
 20
-278.4563750807682
 42
0.07332668712448476
  0
VERTEX
  8
0
  6
CONTINUOUS
 62
     7
 10
211.7835028608664
 20
-278.9625171996523
 42
0.07332668712448476
  0
VERTEX
  8
0
  6
CONTINUOUS
 62
     7
 10
211.925231036103
 20
-279.4569771456567
 42
0.07332668712448476
  0
VERTEX
  8
0
  6
CONTINUOUS
 62
     7
 10
212.2393152786898
 20
-279.8976708708159
 42
0.07332668712448476
  0
VERTEX
  8
0
  6
CONTINUOUS
 62
     7
 10
212.6990235217788
 20
-280.2470904313268
 42
0.07332668712448476
  0
VERTEX
  8
0
  6
CONTINUOUS
 62
     7
 10
213.2652294743357
 20
-280.4754963312739
 42
0.07332668712448476
  0
VERTEX
  8
0
  6
CONTINUOUS
 62
     7
 10
213.8897427042369
 20
-280.5634486849259
 42
-1
  0
SEQEND
  8
0
  0
POLYLINE
  8
0
  6
CONTINUOUS
 62
     7
 66
     1
 10
0
 20
0
  0
VERTEX
  8
0
  6
CONTINUOUS
 62
     7
 10
214.0554065822954
 20
-281.0291531998765
 42
0.07459289906077718
  0
VERTEX
  8
0
  6
CONTINUOUS
 62
     7
 10
214.0838514105949
 20
-281.3243814694055
 42
0.07459289906077718
  0
VERTEX
  8
0
  6
CONTINUOUS
 62
     7
 10
214.2332157499995
 20
-281.6006947137748
 42
0.07459289906077718
  0
VERTEX
  8
0
  6
CONTINUOUS
 62
     7
 10
214.490349097734
 20
-281.8337654522661
 42
0.07459289906077718
  0
VERTEX
  8
0
  6
CONTINUOUS
 62
     7
 10
214.832612631062
 20
-282.0030734093871
 42
0.07459289906077718
  0
VERTEX
  8
0
  6
CONTINUOUS
 62
     7
 10
215.2298723999204
 20
-282.0937121839927
 42
0.07459289906077718
  0
VERTEX
  8
0
  6
CONTINUOUS
 62
     7
 10
215.6471524139649
 20
-282.0977016553811
 42
0.07459289906077718
  0
VERTEX
  8
0
  6
CONTINUOUS
 62
     7
 10
216.0477140379596
 20
-282.0146905780356
 42
0.07459289906077718
  0
VERTEX
  8
0
  6
CONTINUOUS
 62
     7
 10
216.3962905759251
 20
-281.8519875063766
 42
0.07459289906077718
  0
VERTEX
  8
0
  6
CONTINUOUS
 62
     7
 10
216.6621922611602
 20
-281.623917326812
 42
0.07459289906077718
  0
VERTEX
  8
0
  6
CONTINUOUS
 62
     7
 10
216.8220082791189
 20
-281.3505600500138
 42
0.07459289906077718
  0
VERTEX
  8
0
  6
CONTINUOUS
 62
     7
 10
216.8616679286149
 20
-281.0559829040864
 42
0.07459289906077718
  0
VERTEX
  8
0
  6
CONTINUOUS
 62
     7
 10
216.7776794502843
 20
-280.7661213806633
 42
0.07459289906077718
  0
VERTEX
  8
0
  6
CONTINUOUS
 62
     7
 10
216.5774374519816
 20
-280.5064957932501
 42
0.07459289906077718
  0
VERTEX
  8
0
  6
CONTINUOUS
 62
     7
 10
216.2785718644175
 20
-280.2999643891458
 42
0.07459289906077718
  0
VERTEX
  8
0
  6
CONTINUOUS
 62
     7
 10
215.9073957470165
 20
-280.164710837984
 42
0.07459289906077718
  0
VERTEX
  8
0
  6
CONTINUOUS
 62
     7
 10
215.496588604012
 20
-280.1126432846874
 42
-1
  0
SEQEND
  8
0
  0
POLYLINE
  8
0
  6
CONTINUOUS
 62
     7
 66
     1
 10
0
 20
0
  0
VERTEX
  8
0
  6
CONTINUOUS
 62
     7
 10
213.0230249430528
 20
-281.0203603671865
 42
0.07398282385211347
  0
VERTEX
  8
0
  6
CONTINUOUS
 62
     7
 10
213.0988011977799
 20
-281.5741641100487
 42
0.07398282385211347
  0
VERTEX
  8
0
  6
CONTINUOUS
 62
     7
 10
213.378268562601
 20
-282.0867980546456
 42
0.07398282385211347
  0
VERTEX
  8
0
  6
CONTINUOUS
 62
     7
 10
213.8372183263708
 20
-282.5138555594504
 42
0.07398282385211347
  0
VERTEX
  8
0
  6
CONTINUOUS
 62
     7
 10
214.4358942110408
 20
-282.818342996306
 42
0.07398282385211347
  0
VERTEX
  8
0
  6
CONTINUOUS
 62
     7
 10
215.1224362380016
 20
-282.9738843036964
 42
0.07398282385211347
  0
VERTEX
  8
0
  6
CONTINUOUS
 62
     7
 10
215.837373071019
 20
-282.9670057989819
 42
0.07398282385211347
  0
VERTEX
  8
0
  6
CONTINUOUS
 62
     7
 10
216.5187736889565
 20
-282.7983033289579
 42
0.07398282385211347
  0
VERTEX
  8
0
  6
CONTINUOUS
 62
     7
 10
217.1076121273892
 20
-282.4823906549446
 42
0.07398282385211347
  0
VERTEX
  8
0
  6
CONTINUOUS
 62
     7
 10
217.5528805712314
 20
-282.0466335435218
 42
0.07398282385211347
  0
VERTEX
  8
0
  6
CONTINUOUS
 62
     7
 10
217.8160078794628
 20
-281.5287792216212
 42
0.07398282385211347
  0
VERTEX
  8
0
  6
CONTINUOUS
 62
     7
 10
217.8742007896089
 20
-280.9736865431641
 42
0.07398282385211347
  0
VERTEX
  8
0
  6
CONTINUOUS
 62
     7
 10
217.7224183719235
 20
-280.42944011481
 42
0.07398282385211347
  0
VERTEX
  8
0
  6
CONTINUOUS
 62
     7
 10
217.3738086972342
 20
-279.9431849925992
 42
0.07398282385211347
  0
VERTEX
  8
0
  6
CONTINUOUS
 62
     7
 10
216.8585698923327
 20
-279.5570427666646
 42
0.07398282385211347
  0
VERTEX
  8
0
  6
CONTINUOUS
 62
     7
 10
216.2213342433777
 20
-279.3044628009941
 42
0.07398282385211347
  0
VERTEX
  8
0
  6
CONTINUOUS
 62
     7
 10
215.5173019479555
 20
-279.2073247001488
 42
-1
  0
SEQEND
  8
0
  0
LINE
  8
0
  6
CONTINUOUS
 62
     7
 10
198.4271902349092
 20
-297.3858300553347
 11
199.2694554719988
 21
-296.7960695907541
  0
LINE
  8
0
  6
CONTINUOUS
 62
     7
 10
199.9671943545831
 20
-293.1066549736044
 11
200.7527062614138
 21
-292.5566336184471
  0
POLYLINE
  8
0
  6
CONTINUOUS
 62
     7
 66
     1
 10
0
 20
0
  0
VERTEX
  8
0
  6
CONTINUOUS
 62
     7
 10
200.1868619647646
 20
-293.8033480238971
 42
0.07333214780387673
  0
VERTEX
  8
0
  6
CONTINUOUS
 62
     7
 10
200.1351642948582
 20
-293.5634678955017
 42
0.07333214780387673
  0
VERTEX
  8
0
  6
CONTINUOUS
 62
     7
 10
199.9844719809416
 20
-293.3440072458952
 42
0.07333214780387673
  0
VERTEX
  8
0
  6
CONTINUOUS
 62
     7
 10
199.7476125070093
 20
-293.1636473727307
 42
0.07333214780387673
  0
VERTEX
  8
0
  6
CONTINUOUS
 62
     7
 10
199.4447482226329
 20
-293.0377411717614
 42
0.07333214780387673
  0
VERTEX
  8
0
  6
CONTINUOUS
 62
     7
 10
199.1016600496089
 20
-292.9770062418864
 42
0.07333214780387673
  0
VERTEX
  8
0
  6
CONTINUOUS
 62
     7
 10
198.747552915076
 20
-292.9866125637151
 42
0.07333214780387673
  0
VERTEX
  8
0
  6
CONTINUOUS
 62
     7
 10
198.4125697207033
 20
-293.065742411802
 42
0.07333214780387673
  0
VERTEX
  8
0
  6
CONTINUOUS
 62
     7
 10
198.1252254680371
 20
-293.2076599624448
 42
0.07333214780387673
  0
VERTEX
  8
0
  6
CONTINUOUS
 62
     7
 10
197.9099799566935
 20
-293.4002846717714
 42
0.07333214780387673
  0
VERTEX
  8
0
  6
CONTINUOUS
 62
     7
 10
197.7851556762539
 20
-293.6272196160657
 42
0.07333214780387673
  0
VERTEX
  8
0
  6
CONTINUOUS
 62
     7
 10
197.7613781285628
 20
-293.8691472582207
 42
0.07333214780387673
  0
VERTEX
  8
0
  6
CONTINUOUS
 62
     7
 10
197.8406713459319
 20
-294.1054738275458
 42
0.07333214780387673
  0
VERTEX
  8
0
  6
CONTINUOUS
 62
     7
 10
198.0162855980643
 20
-294.3160823372699
 42
0.07333214780387673
  0
VERTEX
  8
0
  6
CONTINUOUS
 62
     7
 10
198.2732719539237
 20
-294.4830450164438
 42
0.07333214780387673
  0
VERTEX
  8
0
  6
CONTINUOUS
 62
     7
 10
198.5897547897238
 20
-294.5921493877412
 42
0.07333214780387673
  0
VERTEX
  8
0
  6
CONTINUOUS
 62
     7
 10
198.9387939224829
 20
-294.6341080857999
 42
-1
  0
SEQEND
  8
0
  0
POLYLINE
  8
0
  6
CONTINUOUS
 62
     7
 66
     1
 10
0
 20
0
  0
VERTEX
  8
0
  6
CONTINUOUS
 62
     7
 10
201.1457943418467
 20
-293.8033478651359
 42
0.07332668712448476
  0
VERTEX
  8
0
  6
CONTINUOUS
 62
     7
 10
201.0532964218264
 20
-293.301480869456
 42
0.07332668712448476
  0
VERTEX
  8
0
  6
CONTINUOUS
 62
     7
 10
200.7836751555448
 20
-292.8423283312628
 42
0.07332668712448476
  0
VERTEX
  8
0
  6
CONTINUOUS
 62
     7
 10
200.3598783154036
 20
-292.4649692449153
 42
0.07332668712448476
  0
VERTEX
  8
0
  6
CONTINUOUS
 62
     7
 10
199.8179757321185
 20
-292.2015210711268
 42
0.07332668712448476
  0
VERTEX
  8
0
  6
CONTINUOUS
 62
     7
 10
199.2040893504332
 20
-292.074406183381
 42
0.07332668712448476
  0
VERTEX
  8
0
  6
CONTINUOUS
 62
     7
 10
198.5704677379837
 20
-292.0944434742421
 42
0.07332668712448476
  0
VERTEX
  8
0
  6
CONTINUOUS
 62
     7
 10
197.9710391503259
 20
-292.2599275471121
 42
0.07332668712448476
  0
VERTEX
  8
0
  6
CONTINUOUS
 62
     7
 10
197.4568216358147
 20
-292.5567738644739
 42
0.07332668712448476
  0
VERTEX
  8
0
  6
CONTINUOUS
 62
     7
 10
197.0715808315259
 20
-292.9597174988868
 42
0.07332668712448476
  0
VERTEX
  8
0
  6
CONTINUOUS
 62
     7
 10
196.8481050201443
 20
-293.4344634596745
 42
0.07332668712448476
  0
VERTEX
  8
0
  6
CONTINUOUS
 62
     7
 10
196.8054144819601
 20
-293.9406055785586
 42
0.07332668712448476
  0
VERTEX
  8
0
  6
CONTINUOUS
 62
     7
 10
196.9471426571967
 20
-294.4350655245629
 42
0.07332668712448476
  0
VERTEX
  8
0
  6
CONTINUOUS
 62
     7
 10
197.2612268997835
 20
-294.8757592497221
 42
0.07332668712448476
  0
VERTEX
  8
0
  6
CONTINUOUS
 62
     7
 10
197.7209351428726
 20
-295.2251788102331
 42
0.07332668712448476
  0
VERTEX
  8
0
  6
CONTINUOUS
 62
     7
 10
198.2871410954295
 20
-295.4535847101801
 42
0.07332668712448476
  0
VERTEX
  8
0
  6
CONTINUOUS
 62
     7
 10
198.9116543253307
 20
-295.5415370638322
 42
-1
  0
SEQEND
  8
0
  0
POLYLINE
  8
0
  6
CONTINUOUS
 62
     7
 66
     1
 10
0
 20
0
  0
VERTEX
  8
0
  6
CONTINUOUS
 62
     7
 10
199.0773182033891
 20
-296.0072415787828
 42
0.07459289906077718
  0
VERTEX
  8
0
  6
CONTINUOUS
 62
     7
 10
199.1057630316886
 20
-296.3024698483118
 42
0.07459289906077718
  0
VERTEX
  8
0
  6
CONTINUOUS
 62
     7
 10
199.2551273710932
 20
-296.578783092681
 42
0.07459289906077718
  0
VERTEX
  8
0
  6
CONTINUOUS
 62
     7
 10
199.5122607188278
 20
-296.8118538311723
 42
0.07459289906077718
  0
VERTEX
  8
0
  6
CONTINUOUS
 62
     7
 10
199.8545242521558
 20
-296.9811617882934
 42
0.07459289906077718
  0
VERTEX
  8
0
  6
CONTINUOUS
 62
     7
 10
200.2517840210142
 20
-297.0718005628989
 42
0.07459289906077718
  0
VERTEX
  8
0
  6
CONTINUOUS
 62
     7
 10
200.6690640350587
 20
-297.0757900342873
 42
0.07459289906077718
  0
VERTEX
  8
0
  6
CONTINUOUS
 62
     7
 10
201.0696256590533
 20
-296.9927789569419
 42
0.07459289906077718
  0
VERTEX
  8
0
  6
CONTINUOUS
 62
     7
 10
201.4182021970189
 20
-296.8300758852829
 42
0.07459289906077718
  0
VERTEX
  8
0
  6
CONTINUOUS
 62
     7
 10
201.6841038822539
 20
-296.6020057057183
 42
0.07459289906077718
  0
VERTEX
  8
0
  6
CONTINUOUS
 62
     7
 10
201.8439199002127
 20
-296.3286484289201
 42
0.07459289906077718
  0
VERTEX
  8
0
  6
CONTINUOUS
 62
     7
 10
201.8835795497087
 20
-296.0340712829926
 42
0.07459289906077718
  0
VERTEX
  8
0
  6
CONTINUOUS
 62
     7
 10
201.7995910713781
 20
-295.7442097595696
 42
0.07459289906077718
  0
VERTEX
  8
0
  6
CONTINUOUS
 62
     7
 10
201.5993490730753
 20
-295.4845841721564
 42
0.07459289906077718
  0
VERTEX
  8
0
  6
CONTINUOUS
 62
     7
 10
201.3004834855113
 20
-295.278052768052
 42
0.07459289906077718
  0
VERTEX
  8
0
  6
CONTINUOUS
 62
     7
 10
200.9293073681102
 20
-295.1427992168902
 42
0.07459289906077718
  0
VERTEX
  8
0
  6
CONTINUOUS
 62
     7
 10
200.5185002251057
 20
-295.0907316635937
 42
-1
  0
SEQEND
  8
0
  0
POLYLINE
  8
0
  6
CONTINUOUS
 62
     7
 66
     1
 10
0
 20
0
  0
VERTEX
  8
0
  6
CONTINUOUS
 62
     7
 10
198.0449365641466
 20
-295.9984487460927
 42
0.07398282385211347
  0
VERTEX
  8
0
  6
CONTINUOUS
 62
     7
 10
198.1207128188737
 20
-296.552252488955
 42
0.07398282385211347
  0
VERTEX
  8
0
  6
CONTINUOUS
 62
     7
 10
198.4001801836947
 20
-297.0648864335519
 42
0.07398282385211347
  0
VERTEX
  8
0
  6
CONTINUOUS
 62
     7
 10
198.8591299474645
 20
-297.4919439383567
 42
0.07398282385211347
  0
VERTEX
  8
0
  6
CONTINUOUS
 62
     7
 10
199.4578058321345
 20
-297.7964313752123
 42
0.07398282385211347
  0
VERTEX
  8
0
  6
CONTINUOUS
 62
     7
 10
200.1443478590954
 20
-297.9519726826027
 42
0.07398282385211347
  0
VERTEX
  8
0
  6
CONTINUOUS
 62
     7
 10
200.8592846921127
 20
-297.9450941778882
 42
0.07398282385211347
  0
VERTEX
  8
0
  6
CONTINUOUS
 62
     7
 10
201.5406853100503
 20
-297.7763917078642
 42
0.07398282385211347
  0
VERTEX
  8
0
  6
CONTINUOUS
 62
     7
 10
202.1295237484829
 20
-297.4604790338509
 42
0.07398282385211347
  0
VERTEX
  8
0
  6
CONTINUOUS
 62
     7
 10
202.5747921923251
 20
-297.0247219224281
 42
0.07398282385211347
  0
VERTEX
  8
0
  6
CONTINUOUS
 62
     7
 10
202.8379195005565
 20
-296.5068676005275
 42
0.07398282385211347
  0
VERTEX
  8
0
  6
CONTINUOUS
 62
     7
 10
202.8961124107026
 20
-295.9517749220703
 42
0.07398282385211347
  0
VERTEX
  8
0
  6
CONTINUOUS
 62
     7
 10
202.7443299930172
 20
-295.4075284937163
 42
0.07398282385211347
  0
VERTEX
  8
0
  6
CONTINUOUS
 62
     7
 10
202.3957203183279
 20
-294.9212733715055
 42
0.07398282385211347
  0
VERTEX
  8
0
  6
CONTINUOUS
 62
     7
 10
201.8804815134264
 20
-294.5351311455709
 42
0.07398282385211347
  0
VERTEX
  8
0
  6
CONTINUOUS
 62
     7
 10
201.2432458644715
 20
-294.2825511799004
 42
0.07398282385211347
  0
VERTEX
  8
0
  6
CONTINUOUS
 62
     7
 10
200.5392135690493
 20
-294.1854130790551
 42
-1
  0
SEQEND
  8
0
  0
LINE
  8
0
  6
CONTINUOUS
 62
     7
 10
511.5982260015107
 20
-291.4211083756472
 11
512.4404912386004
 21
-290.8313479110666
  0
LINE
  8
0
  6
CONTINUOUS
 62
     7
 10
513.1382301211847
 20
-287.1419332939169
 11
513.9237420280153
 21
-286.5919119387596
  0
POLYLINE
  8
0
  6
CONTINUOUS
 62
     7
 66
     1
 10
0
 20
0
  0
VERTEX
  8
0
  6
CONTINUOUS
 62
     7
 10
513.3578977313662
 20
-287.8386263442096
 42
0.07333214780387673
  0
VERTEX
  8
0
  6
CONTINUOUS
 62
     7
 10
513.3062000614598
 20
-287.5987462158142
 42
0.07333214780387673
  0
VERTEX
  8
0
  6
CONTINUOUS
 62
     7
 10
513.1555077475431
 20
-287.3792855662077
 42
0.07333214780387673
  0
VERTEX
  8
0
  6
CONTINUOUS
 62
     7
 10
512.918648273611
 20
-287.1989256930432
 42
0.07333214780387673
  0
VERTEX
  8
0
  6
CONTINUOUS
 62
     7
 10
512.6157839892345
 20
-287.0730194920739
 42
0.07333214780387673
  0
VERTEX
  8
0
  6
CONTINUOUS
 62
     7
 10
512.2726958162106
 20
-287.0122845621989
 42
0.07333214780387673
  0
VERTEX
  8
0
  6
CONTINUOUS
 62
     7
 10
511.9185886816776
 20
-287.0218908840276
 42
0.07333214780387673
  0
VERTEX
  8
0
  6
CONTINUOUS
 62
     7
 10
511.5836054873049
 20
-287.1010207321145
 42
0.07333214780387673
  0
VERTEX
  8
0
  6
CONTINUOUS
 62
     7
 10
511.2962612346387
 20
-287.2429382827573
 42
0.07333214780387673
  0
VERTEX
  8
0
  6
CONTINUOUS
 62
     7
 10
511.0810157232951
 20
-287.4355629920839
 42
0.07333214780387673
  0
VERTEX
  8
0
  6
CONTINUOUS
 62
     7
 10
510.9561914428554
 20
-287.6624979363782
 42
0.07333214780387673
  0
VERTEX
  8
0
  6
CONTINUOUS
 62
     7
 10
510.9324138951644
 20
-287.9044255785332
 42
0.07333214780387673
  0
VERTEX
  8
0
  6
CONTINUOUS
 62
     7
 10
511.0117071125334
 20
-288.1407521478583
 42
0.07333214780387673
  0
VERTEX
  8
0
  6
CONTINUOUS
 62
     7
 10
511.1873213646659
 20
-288.3513606575824
 42
0.07333214780387673
  0
VERTEX
  8
0
  6
CONTINUOUS
 62
     7
 10
511.4443077205252
 20
-288.5183233367563
 42
0.07333214780387673
  0
VERTEX
  8
0
  6
CONTINUOUS
 62
     7
 10
511.7607905563254
 20
-288.6274277080537
 42
0.07333214780387673
  0
VERTEX
  8
0
  6
CONTINUOUS
 62
     7
 10
512.1098296890846
 20
-288.6693864061124
 42
-1
  0
SEQEND
  8
0
  0
POLYLINE
  8
0
  6
CONTINUOUS
 62
     7
 66
     1
 10
0
 20
0
  0
VERTEX
  8
0
  6
CONTINUOUS
 62
     7
 10
514.3168301084482
 20
-287.8386261854484
 42
0.07332668712448476
  0
VERTEX
  8
0
  6
CONTINUOUS
 62
     7
 10
514.224332188428
 20
-287.3367591897685
 42
0.07332668712448476
  0
VERTEX
  8
0
  6
CONTINUOUS
 62
     7
 10
513.9547109221463
 20
-286.8776066515753
 42
0.07332668712448476
  0
VERTEX
  8
0
  6
CONTINUOUS
 62
     7
 10
513.5309140820051
 20
-286.5002475652278
 42
0.07332668712448476
  0
VERTEX
  8
0
  6
CONTINUOUS
 62
     7
 10
512.9890114987201
 20
-286.2367993914393
 42
0.07332668712448476
  0
VERTEX
  8
0
  6
CONTINUOUS
 62
     7
 10
512.3751251170347
 20
-286.1096845036935
 42
0.07332668712448476
  0
VERTEX
  8
0
  6
CONTINUOUS
 62
     7
 10
511.7415035045852
 20
-286.1297217945546
 42
0.07332668712448476
  0
VERTEX
  8
0
  6
CONTINUOUS
 62
     7
 10
511.1420749169275
 20
-286.2952058674246
 42
0.07332668712448476
  0
VERTEX
  8
0
  6
CONTINUOUS
 62
     7
 10
510.6278574024163
 20
-286.5920521847864
 42
0.07332668712448476
  0
VERTEX
  8
0
  6
CONTINUOUS
 62
     7
 10
510.2426165981275
 20
-286.9949958191993
 42
0.07332668712448476
  0
VERTEX
  8
0
  6
CONTINUOUS
 62
     7
 10
510.0191407867459
 20
-287.469741779987
 42
0.07332668712448476
  0
VERTEX
  8
0
  6
CONTINUOUS
 62
     7
 10
509.9764502485617
 20
-287.9758838988711
 42
0.07332668712448476
  0
VERTEX
  8
0
  6
CONTINUOUS
 62
     7
 10
510.1181784237983
 20
-288.4703438448754
 42
0.07332668712448476
  0
VERTEX
  8
0
  6
CONTINUOUS
 62
     7
 10
510.4322626663851
 20
-288.9110375700346
 42
0.07332668712448476
  0
VERTEX
  8
0
  6
CONTINUOUS
 62
     7
 10
510.8919709094741
 20
-289.2604571305456
 42
0.07332668712448476
  0
VERTEX
  8
0
  6
CONTINUOUS
 62
     7
 10
511.4581768620311
 20
-289.4888630304926
 42
0.07332668712448476
  0
VERTEX
  8
0
  6
CONTINUOUS
 62
     7
 10
512.0826900919323
 20
-289.5768153841447
 42
-1
  0
SEQEND
  8
0
  0
POLYLINE
  8
0
  6
CONTINUOUS
 62
     7
 66
     1
 10
0
 20
0
  0
VERTEX
  8
0
  6
CONTINUOUS
 62
     7
 10
512.2483539699907
 20
-290.0425198990953
 42
0.07459289906077718
  0
VERTEX
  8
0
  6
CONTINUOUS
 62
     7
 10
512.2767987982902
 20
-290.3377481686243
 42
0.07459289906077718
  0
VERTEX
  8
0
  6
CONTINUOUS
 62
     7
 10
512.4261631376947
 20
-290.6140614129935
 42
0.07459289906077718
  0
VERTEX
  8
0
  6
CONTINUOUS
 62
     7
 10
512.6832964854293
 20
-290.8471321514848
 42
0.07459289906077718
  0
VERTEX
  8
0
  6
CONTINUOUS
 62
     7
 10
513.0255600187574
 20
-291.0164401086059
 42
0.07459289906077718
  0
VERTEX
  8
0
  6
CONTINUOUS
 62
     7
 10
513.4228197876157
 20
-291.1070788832114
 42
0.07459289906077718
  0
VERTEX
  8
0
  6
CONTINUOUS
 62
     7
 10
513.8400998016602
 20
-291.1110683545998
 42
0.07459289906077718
  0
VERTEX
  8
0
  6
CONTINUOUS
 62
     7
 10
514.2406614256549
 20
-291.0280572772544
 42
0.07459289906077718
  0
VERTEX
  8
0
  6
CONTINUOUS
 62
     7
 10
514.5892379636205
 20
-290.8653542055954
 42
0.07459289906077718
  0
VERTEX
  8
0
  6
CONTINUOUS
 62
     7
 10
514.8551396488555
 20
-290.6372840260308
 42
0.07459289906077718
  0
VERTEX
  8
0
  6
CONTINUOUS
 62
     7
 10
515.0149556668142
 20
-290.3639267492326
 42
0.07459289906077718
  0
VERTEX
  8
0
  6
CONTINUOUS
 62
     7
 10
515.0546153163102
 20
-290.0693496033051
 42
0.07459289906077718
  0
VERTEX
  8
0
  6
CONTINUOUS
 62
     7
 10
514.9706268379796
 20
-289.7794880798821
 42
0.07459289906077718
  0
VERTEX
  8
0
  6
CONTINUOUS
 62
     7
 10
514.7703848396769
 20
-289.5198624924689
 42
0.07459289906077718
  0
VERTEX
  8
0
  6
CONTINUOUS
 62
     7
 10
514.4715192521129
 20
-289.3133310883645
 42
0.07459289906077718
  0
VERTEX
  8
0
  6
CONTINUOUS
 62
     7
 10
514.1003431347118
 20
-289.1780775372027
 42
0.07459289906077718
  0
VERTEX
  8
0
  6
CONTINUOUS
 62
     7
 10
513.6895359917073
 20
-289.1260099839062
 42
-1
  0
SEQEND
  8
0
  0
POLYLINE
  8
0
  6
CONTINUOUS
 62
     7
 66
     1
 10
0
 20
0
  0
VERTEX
  8
0
  6
CONTINUOUS
 62
     7
 10
511.2159723307481
 20
-290.0337270664052
 42
0.07398282385211347
  0
VERTEX
  8
0
  6
CONTINUOUS
 62
     7
 10
511.2917485854752
 20
-290.5875308092675
 42
0.07398282385211347
  0
VERTEX
  8
0
  6
CONTINUOUS
 62
     7
 10
511.5712159502963
 20
-291.1001647538644
 42
0.07398282385211347
  0
VERTEX
  8
0
  6
CONTINUOUS
 62
     7
 10
512.030165714066
 20
-291.5272222586692
 42
0.07398282385211347
  0
VERTEX
  8
0
  6
CONTINUOUS
 62
     7
 10
512.628841598736
 20
-291.8317096955247
 42
0.07398282385211347
  0
VERTEX
  8
0
  6
CONTINUOUS
 62
     7
 10
513.3153836256969
 20
-291.9872510029152
 42
0.07398282385211347
  0
VERTEX
  8
0
  6
CONTINUOUS
 62
     7
 10
514.0303204587143
 20
-291.9803724982007
 42
0.07398282385211347
  0
VERTEX
  8
0
  6
CONTINUOUS
 62
     7
 10
514.7117210766518
 20
-291.8116700281767
 42
0.07398282385211347
  0
VERTEX
  8
0
  6
CONTINUOUS
 62
     7
 10
515.3005595150845
 20
-291.4957573541634
 42
0.07398282385211347
  0
VERTEX
  8
0
  6
CONTINUOUS
 62
     7
 10
515.7458279589266
 20
-291.0600002427406
 42
0.07398282385211347
  0
VERTEX
  8
0
  6
CONTINUOUS
 62
     7
 10
516.0089552671581
 20
-290.54214592084
 42
0.07398282385211347
  0
VERTEX
  8
0
  6
CONTINUOUS
 62
     7
 10
516.0671481773042
 20
-289.9870532423828
 42
0.07398282385211347
  0
VERTEX
  8
0
  6
CONTINUOUS
 62
     7
 10
515.9153657596187
 20
-289.4428068140288
 42
0.07398282385211347
  0
VERTEX
  8
0
  6
CONTINUOUS
 62
     7
 10
515.5667560849295
 20
-288.956551691818
 42
0.07398282385211347
  0
VERTEX
  8
0
  6
CONTINUOUS
 62
     7
 10
515.051517280028
 20
-288.5704094658834
 42
0.07398282385211347
  0
VERTEX
  8
0
  6
CONTINUOUS
 62
     7
 10
514.414281631073
 20
-288.3178295002129
 42
0.07398282385211347
  0
VERTEX
  8
0
  6
CONTINUOUS
 62
     7
 10
513.7102493356508
 20
-288.2206913993676
 42
-1
  0
SEQEND
  8
0
  0
LINE
  8
0
  6
CONTINUOUS
 62
     7
 10
496.6201376226045
 20
-306.3991967545534
 11
497.4624028596941
 21
-305.8094362899729
  0
LINE
  8
0
  6
CONTINUOUS
 62
     7
 10
498.1601417422785
 20
-302.1200216728232
 11
498.9456536491091
 21
-301.5700003176658
  0
POLYLINE
  8
0
  6
CONTINUOUS
 62
     7
 66
     1
 10
0
 20
0
  0
VERTEX
  8
0
  6
CONTINUOUS
 62
     7
 10
498.3798093524599
 20
-302.8167147231159
 42
0.07333214780387673
  0
VERTEX
  8
0
  6
CONTINUOUS
 62
     7
 10
498.3281116825536
 20
-302.5768345947204
 42
0.07333214780387673
  0
VERTEX
  8
0
  6
CONTINUOUS
 62
     7
 10
498.1774193686369
 20
-302.3573739451139
 42
0.07333214780387673
  0
VERTEX
  8
0
  6
CONTINUOUS
 62
     7
 10
497.9405598947047
 20
-302.1770140719495
 42
0.07333214780387673
  0
VERTEX
  8
0
  6
CONTINUOUS
 62
     7
 10
497.6376956103283
 20
-302.0511078709801
 42
0.07333214780387673
  0
VERTEX
  8
0
  6
CONTINUOUS
 62
     7
 10
497.2946074373043
 20
-301.9903729411051
 42
0.07333214780387673
  0
VERTEX
  8
0
  6
CONTINUOUS
 62
     7
 10
496.9405003027713
 20
-301.9999792629338
 42
0.07333214780387673
  0
VERTEX
  8
0
  6
CONTINUOUS
 62
     7
 10
496.6055171083986
 20
-302.0791091110208
 42
0.07333214780387673
  0
VERTEX
  8
0
  6
CONTINUOUS
 62
     7
 10
496.3181728557324
 20
-302.2210266616636
 42
0.07333214780387673
  0
VERTEX
  8
0
  6
CONTINUOUS
 62
     7
 10
496.1029273443888
 20
-302.4136513709902
 42
0.07333214780387673
  0
VERTEX
  8
0
  6
CONTINUOUS
 62
     7
 10
495.9781030639492
 20
-302.6405863152845
 42
0.07333214780387673
  0
VERTEX
  8
0
  6
CONTINUOUS
 62
     7
 10
495.9543255162582
 20
-302.8825139574395
 42
0.07333214780387673
  0
VERTEX
  8
0
  6
CONTINUOUS
 62
     7
 10
496.0336187336272
 20
-303.1188405267646
 42
0.07333214780387673
  0
VERTEX
  8
0
  6
CONTINUOUS
 62
     7
 10
496.2092329857597
 20
-303.3294490364886
 42
0.07333214780387673
  0
VERTEX
  8
0
  6
CONTINUOUS
 62
     7
 10
496.466219341619
 20
-303.4964117156626
 42
0.07333214780387673
  0
VERTEX
  8
0
  6
CONTINUOUS
 62
     7
 10
496.7827021774191
 20
-303.6055160869599
 42
0.07333214780387673
  0
VERTEX
  8
0
  6
CONTINUOUS
 62
     7
 10
497.1317413101783
 20
-303.6474747850187
 42
-1
  0
SEQEND
  8
0
  0
POLYLINE
  8
0
  6
CONTINUOUS
 62
     7
 66
     1
 10
0
 20
0
  0
VERTEX
  8
0
  6
CONTINUOUS
 62
     7
 10
499.338741729542
 20
-302.8167145643546
 42
0.07332668712448476
  0
VERTEX
  8
0
  6
CONTINUOUS
 62
     7
 10
499.2462438095217
 20
-302.3148475686748
 42
0.07332668712448476
  0
VERTEX
  8
0
  6
CONTINUOUS
 62
     7
 10
498.9766225432401
 20
-301.8556950304815
 42
0.07332668712448476
  0
VERTEX
  8
0
  6
CONTINUOUS
 62
     7
 10
498.5528257030989
 20
-301.478335944134
 42
0.07332668712448476
  0
VERTEX
  8
0
  6
CONTINUOUS
 62
     7
 10
498.0109231198138
 20
-301.2148877703455
 42
0.07332668712448476
  0
VERTEX
  8
0
  6
CONTINUOUS
 62
     7
 10
497.3970367381285
 20
-301.0877728825998
 42
0.07332668712448476
  0
VERTEX
  8
0
  6
CONTINUOUS
 62
     7
 10
496.763415125679
 20
-301.1078101734609
 42
0.07332668712448476
  0
VERTEX
  8
0
  6
CONTINUOUS
 62
     7
 10
496.1639865380212
 20
-301.2732942463308
 42
0.07332668712448476
  0
VERTEX
  8
0
  6
CONTINUOUS
 62
     7
 10
495.64976902351
 20
-301.5701405636926
 42
0.07332668712448476
  0
VERTEX
  8
0
  6
CONTINUOUS
 62
     7
 10
495.2645282192212
 20
-301.9730841981055
 42
0.07332668712448476
  0
VERTEX
  8
0
  6
CONTINUOUS
 62
     7
 10
495.0410524078396
 20
-302.4478301588932
 42
0.07332668712448476
  0
VERTEX
  8
0
  6
CONTINUOUS
 62
     7
 10
494.9983618696555
 20
-302.9539722777773
 42
0.07332668712448476
  0
VERTEX
  8
0
  6
CONTINUOUS
 62
     7
 10
495.1400900448921
 20
-303.4484322237817
 42
0.07332668712448476
  0
VERTEX
  8
0
  6
CONTINUOUS
 62
     7
 10
495.4541742874789
 20
-303.8891259489409
 42
0.07332668712448476
  0
VERTEX
  8
0
  6
CONTINUOUS
 62
     7
 10
495.9138825305679
 20
-304.2385455094518
 42
0.07332668712448476
  0
VERTEX
  8
0
  6
CONTINUOUS
 62
     7
 10
496.4800884831248
 20
-304.4669514093989
 42
0.07332668712448476
  0
VERTEX
  8
0
  6
CONTINUOUS
 62
     7
 10
497.104601713026
 20
-304.5549037630509
 42
-1
  0
SEQEND
  8
0
  0
POLYLINE
  8
0
  6
CONTINUOUS
 62
     7
 66
     1
 10
0
 20
0
  0
VERTEX
  8
0
  6
CONTINUOUS
 62
     7
 10
497.2702655910844
 20
-305.0206082780016
 42
0.07459289906077718
  0
VERTEX
  8
0
  6
CONTINUOUS
 62
     7
 10
497.298710419384
 20
-305.3158365475305
 42
0.07459289906077718
  0
VERTEX
  8
0
  6
CONTINUOUS
 62
     7
 10
497.4480747587886
 20
-305.5921497918998
 42
0.07459289906077718
  0
VERTEX
  8
0
  6
CONTINUOUS
 62
     7
 10
497.7052081065231
 20
-305.8252205303911
 42
0.07459289906077718
  0
VERTEX
  8
0
  6
CONTINUOUS
 62
     7
 10
498.0474716398511
 20
-305.9945284875121
 42
0.07459289906077718
  0
VERTEX
  8
0
  6
CONTINUOUS
 62
     7
 10
498.4447314087095
 20
-306.0851672621176
 42
0.07459289906077718
  0
VERTEX
  8
0
  6
CONTINUOUS
 62
     7
 10
498.862011422754
 20
-306.0891567335061
 42
0.07459289906077718
  0
VERTEX
  8
0
  6
CONTINUOUS
 62
     7
 10
499.2625730467486
 20
-306.0061456561606
 42
0.07459289906077718
  0
VERTEX
  8
0
  6
CONTINUOUS
 62
     7
 10
499.6111495847142
 20
-305.8434425845016
 42
0.07459289906077718
  0
VERTEX
  8
0
  6
CONTINUOUS
 62
     7
 10
499.8770512699493
 20
-305.615372404937
 42
0.07459289906077718
  0
VERTEX
  8
0
  6
CONTINUOUS
 62
     7
 10
500.036867287908
 20
-305.3420151281388
 42
0.07459289906077718
  0
VERTEX
  8
0
  6
CONTINUOUS
 62
     7
 10
500.076526937404
 20
-305.0474379822114
 42
0.07459289906077718
  0
VERTEX
  8
0
  6
CONTINUOUS
 62
     7
 10
499.9925384590733
 20
-304.7575764587883
 42
0.07459289906077718
  0
VERTEX
  8
0
  6
CONTINUOUS
 62
     7
 10
499.7922964607706
 20
-304.4979508713751
 42
0.07459289906077718
  0
VERTEX
  8
0
  6
CONTINUOUS
 62
     7
 10
499.4934308732066
 20
-304.2914194672708
 42
0.07459289906077718
  0
VERTEX
  8
0
  6
CONTINUOUS
 62
     7
 10
499.1222547558056
 20
-304.1561659161091
 42
0.07459289906077718
  0
VERTEX
  8
0
  6
CONTINUOUS
 62
     7
 10
498.711447612801
 20
-304.1040983628124
 42
-1
  0
SEQEND
  8
0
  0
POLYLINE
  8
0
  6
CONTINUOUS
 62
     7
 66
     1
 10
0
 20
0
  0
VERTEX
  8
0
  6
CONTINUOUS
 62
     7
 10
496.2378839518419
 20
-305.0118154453115
 42
0.07398282385211347
  0
VERTEX
  8
0
  6
CONTINUOUS
 62
     7
 10
496.313660206569
 20
-305.5656191881737
 42
0.07398282385211347
  0
VERTEX
  8
0
  6
CONTINUOUS
 62
     7
 10
496.59312757139
 20
-306.0782531327706
 42
0.07398282385211347
  0
VERTEX
  8
0
  6
CONTINUOUS
 62
     7
 10
497.0520773351598
 20
-306.5053106375754
 42
0.07398282385211347
  0
VERTEX
  8
0
  6
CONTINUOUS
 62
     7
 10
497.6507532198298
 20
-306.8097980744309
 42
0.07398282385211347
  0
VERTEX
  8
0
  6
CONTINUOUS
 62
     7
 10
498.3372952467907
 20
-306.9653393818214
 42
0.07398282385211347
  0
VERTEX
  8
0
  6
CONTINUOUS
 62
     7
 10
499.0522320798081
 20
-306.9584608771069
 42
0.07398282385211347
  0
VERTEX
  8
0
  6
CONTINUOUS
 62
     7
 10
499.7336326977455
 20
-306.7897584070829
 42
0.07398282385211347
  0
VERTEX
  8
0
  6
CONTINUOUS
 62
     7
 10
500.3224711361782
 20
-306.4738457330696
 42
0.07398282385211347
  0
VERTEX
  8
0
  6
CONTINUOUS
 62
     7
 10
500.7677395800204
 20
-306.0380886216468
 42
0.07398282385211347
  0
VERTEX
  8
0
  6
CONTINUOUS
 62
     7
 10
501.0308668882518
 20
-305.5202342997462
 42
0.07398282385211347
  0
VERTEX
  8
0
  6
CONTINUOUS
 62
     7
 10
501.0890597983979
 20
-304.9651416212891
 42
0.07398282385211347
  0
VERTEX
  8
0
  6
CONTINUOUS
 62
     7
 10
500.9372773807125
 20
-304.420895192935
 42
0.07398282385211347
  0
VERTEX
  8
0
  6
CONTINUOUS
 62
     7
 10
500.5886677060232
 20
-303.9346400707242
 42
0.07398282385211347
  0
VERTEX
  8
0
  6
CONTINUOUS
 62
     7
 10
500.0734289011217
 20
-303.5484978447896
 42
0.07398282385211347
  0
VERTEX
  8
0
  6
CONTINUOUS
 62
     7
 10
499.4361932521667
 20
-303.2959178791191
 42
0.07398282385211347
  0
VERTEX
  8
0
  6
CONTINUOUS
 62
     7
 10
498.7321609567446
 20
-303.1987797782738
 42
-1
  0
SEQEND
  8
0
  0
ENDSEC
  0
EOF
