  0
SECTION
  2
HEADER
  9
$EXTMAX
 10
208.5
 20
148.5
  9
$EXTMIN
 10
-208.5
 20
-148.5
  0
ENDSEC
  0
SECTION
  2
TABLES
  0
TABLE
  2
LTYPE
 70
    22
  0
LTYPE
  2
CONTINUOUS
 70
    64
  3
Solid line
 72
    65
 73
     0
 40
0.000000
  0
LTYPE
  2
DASHED
 70
    64
  3
__ __ __ __ __ __ __ __ __ __ __ __ __ __ __
 72
    65
 73
     2
 40
3.500000
 49
2.000000
 49
-1.500000
  0
LTYPE
  2
CENTER
 70
    64
  3
____ _ ____ _ ____ _ ____ _ ____ _ ____ _ ____
 72
    65
 73
     4
 40
17.500000
 49
13.000000
 49
-1.500000
 49
1.500000
 49
-1.500000
  0
LTYPE
  2
PHANTOM
 70
    64
  3
_____ _ _ _____ _ _ _____ _ _ _____ _ _ ____  
 72
    65
 73
     6
 40
15.500000
 49
8.000000
 49
-1.500000
 49
1.500000
 49
-1.500000
 49
1.500000
 49
-1.500000
  0
LTYPE
  2
DOT
 70
    64
  3
. . . . . . . . . . . . . . . . . . . . . . . .
 72
    65
 73
     2
 40
0.25
 49
0.0
 49
-0.25
  0
ENDTAB
  0
TABLE
  2
LAYER
 70
     2
  0
LAYER
  2
0
 70
     0
 62
     7
  6
CONTINUOUS
  0
LAYER
  2
1
 70
     0
 62
     7
  6
CONTINUOUS
  0
ENDTAB
  0
TABLE
  2
STYLE
 70
     1
  0
STYLE
  2
STANDARD
 70
     0
 40
0.000000
 41
1.000000
 50
0.000000
 71
     0
 42
0.200000
  3
txt
  4
BIGFONT
  0
ENDTAB
  0
TABLE
  2
VIEW
 70
     0
  0
ENDTAB
  0
ENDSEC
  0
SECTION
  2
BLOCKS
  0
ENDSEC
  0
SECTION
  2
ENTITIES
  0
POINT
  8
0
  6
CONTINUOUS
 62
     7
 10
-308.1813659667969
 20
-43.5670166015625
  0
POINT
  8
0
  6
CONTINUOUS
 62
     7
 10
-113.4747924804688
 20
-45.30266189575195
  0
POINT
  8
0
  6
CONTINUOUS
 62
     7
 10
75.90235900878906
 20
-38.35396575927734
  0
POINT
  8
0
  6
CONTINUOUS
 62
     7
 10
230.8419189453125
 20
-316.1161193847656
  0
POINT
  8
0
  6
CONTINUOUS
 62
     7
 10
-54.79073333740234
 20
-322.1161193847656
  0
POINT
  8
0
  6
CONTINUOUS
 62
     7
 10
-275.2576293945313
 20
-329.1161193847656
  0
LINE
  8
0
  6
CENTER
 62
     7
 10
-96.77987670898438
 20
-28.60774993896484
 11
-63.7906494140625
 21
4.381479263305664
  0
LINE
  8
0
  6
CENTER
 62
     7
 10
-113.4747924804688
 20
-68.91283416748047
 11
-113.4747924804688
 21
-113.75244140625
  0
LINE
  8
0
  6
CONTINUOUS
 62
     7
 10
-75.32479095458984
 20
-72.6026611328125
 11
-75.32479095458984
 21
-77.6026611328125
  0
LINE
  8
0
  6
CONTINUOUS
 62
     7
 10
-151.6247863769531
 20
-72.6026611328125
 11
-151.6247863769531
 21
-77.6026611328125
  0
LINE
  8
0
  6
CONTINUOUS
 62
     7
 10
-151.1247863769531
 20
-102.3026657104492
 11
-75.82479095458984
 21
-102.3026657104492
  0
LINE
  8
0
  6
CONTINUOUS
 62
     7
 10
-151.6247863769531
 20
-86.30266571044922
 11
-151.0747985839844
 21
-86.30266571044922
  0
LINE
  8
0
  6
CONTINUOUS
 62
     7
 10
-151.6247863769531
 20
-77.6026611328125
 11
-75.32479095458984
 21
-77.6026611328125
  0
LINE
  8
0
  6
CONTINUOUS
 62
     7
 10
-151.6247863769531
 20
-72.6026611328125
 11
-75.32479095458984
 21
-72.6026611328125
  0
LINE
  8
0
  6
CONTINUOUS
 62
     7
 10
-151.6247863769531
 20
-86.30266571044922
 11
-151.6247863769531
 21
-101.8026657104492
  0
LINE
  8
0
  6
CONTINUOUS
 62
     7
 10
-75.32479095458984
 20
-86.30266571044922
 11
-75.32479095458984
 21
-101.8026657104492
  0
LINE
  8
0
  6
CONTINUOUS
 62
     7
 10
-149.5747985839844
 20
-68.91283416748047
 11
-149.5747985839844
 21
-70.56299591064453
  0
LINE
  8
0
  6
CONTINUOUS
 62
     7
 10
-77.37479400634766
 20
-68.91283416748047
 11
-77.37479400634766
 21
-70.56299591064453
  0
LINE
  8
0
  6
CONTINUOUS
 62
     7
 10
-149.5747985839844
 20
-79.642333984375
 11
-149.5747985839844
 21
-84.80266571044922
  0
LINE
  8
0
  6
CONTINUOUS
 62
     7
 10
-77.37479400634766
 20
-79.642333984375
 11
-77.37479400634766
 21
-84.80266571044922
  0
LINE
  8
0
  6
CONTINUOUS
 62
     7
 10
-151.6247863769531
 20
-72.6026611328125
 11
-151.2274932861328
 21
-72.53260803222656
  0
LINE
  8
0
  6
CONTINUOUS
 62
     7
 10
-151.6247863769531
 20
-77.6026611328125
 11
-151.2274932861328
 21
-77.67271423339844
  0
LINE
  8
0
  6
CONTINUOUS
 62
     7
 10
-151.0747985839844
 20
-86.30266571044922
 11
-75.32479095458984
 21
-86.30266571044922
  0
LINE
  8
0
  6
CONTINUOUS
 62
     7
 10
-75.32479095458984
 20
-72.6026611328125
 11
-75.72209167480469
 21
-72.53260803222656
  0
LINE
  8
0
  6
CONTINUOUS
 62
     7
 10
-75.32479095458984
 20
-77.6026611328125
 11
-75.72209167480469
 21
-77.67271423339844
  0
LINE
  8
0
  6
CONTINUOUS
 62
     7
 10
-67.19465637207031
 20
-52.97476959228516
 11
-63.65911865234375
 21
-49.43923568725586
  0
LINE
  8
0
  6
CONTINUOUS
 62
     7
 10
-121.1469039916992
 20
0.9774761199951172
 11
-117.6113662719727
 21
4.513010025024414
  0
LINE
  8
0
  6
CONTINUOUS
 62
     7
 10
-99.79227447509766
 20
21.6249942779541
 11
-46.54713439941406
 21
-31.62014579772949
  0
LINE
  8
0
  6
CONTINUOUS
 62
     7
 10
-121.1469039916992
 20
0.9774761199951172
 11
-67.19465637207031
 21
-52.97476959228516
  0
LINE
  8
0
  6
CONTINUOUS
 62
     7
 10
-117.6113662719727
 20
4.513010025024414
 11
-63.65911865234375
 21
-49.43923568725586
  0
LINE
  8
0
  6
CONTINUOUS
 62
     7
 10
-111.4595336914063
 20
10.66483879089356
 11
-111.0706253051758
 21
10.27593040466309
  0
LINE
  8
0
  6
CONTINUOUS
 62
     7
 10
-111.4595336914063
 20
10.66483879089356
 11
-100.499382019043
 21
21.6249942779541
  0
LINE
  8
0
  6
CONTINUOUS
 62
     7
 10
-57.50728988647461
 20
-43.28740692138672
 11
-46.54713439941406
 21
-32.32725143432617
  0
LINE
  8
0
  6
CONTINUOUS
 62
     7
 10
-63.66642379760742
 20
-46.54740524291992
 11
-60.01752090454102
 21
-42.89849853515625
  0
LINE
  8
0
  6
CONTINUOUS
 62
     7
 10
-114.7195358276367
 20
4.5057053565979
 11
-111.0706253051758
 21
8.154609680175781
  0
LINE
  8
0
  6
CONTINUOUS
 62
     7
 10
-71.25332641601563
 20
-54.13430404663086
 11
-70.08648681640625
 21
-52.96746826171875
  0
LINE
  8
0
  6
CONTINUOUS
 62
     7
 10
-122.3064346313477
 20
-3.081194400787354
 11
-121.1395950317383
 21
-1.91435694694519
  0
LINE
  8
0
  6
CONTINUOUS
 62
     7
 10
-121.1469039916992
 20
0.9774761199951172
 11
-120.9155044555664
 21
0.6470094323158264
  0
LINE
  8
0
  6
CONTINUOUS
 62
     7
 10
-117.6113662719727
 20
4.513010025024414
 11
-117.2808990478516
 21
4.281614780426025
  0
LINE
  8
0
  6
CONTINUOUS
 62
     7
 10
-111.0706253051758
 20
10.27593040466309
 11
-57.50728988647461
 21
-43.28740692138672
  0
LINE
  8
0
  6
CONTINUOUS
 62
     7
 10
-63.65911865234375
 20
-49.43923568725586
 11
-63.8905143737793
 21
-49.10877227783203
  0
LINE
  8
0
  6
CONTINUOUS
 62
     7
 10
-67.19465637207031
 20
-52.97476959228516
 11
-67.52511596679688
 21
-52.74337768554688
  0
LINE
  8
0
  6
CONTINUOUS
 62
     7
 10
-139.5574951171875
 20
-22.99633979797363
 11
-138.0758972167969
 21
-24.09243392944336
  0
LINE
  8
0
  6
CONTINUOUS
 62
     7
 10
-124.6888885498047
 20
-2.898464918136597
 11
-123.2072982788086
 21
-3.994559526443481
  0
LINE
  8
0
  6
CONTINUOUS
 62
     7
 10
-124.6888885498047
 20
-2.898464918136597
 11
-139.5574951171875
 21
-22.99633979797363
  0
LINE
  8
0
  6
CONTINUOUS
 62
     7
 10
-151.3886566162109
 20
-67.35739898681641
 11
-149.5659484863281
 21
-67.62998199462891
  0
LINE
  8
0
  6
CONTINUOUS
 62
     7
 10
-147.6909942626953
 20
-42.63235855102539
 11
-145.8683013916016
 21
-42.90494537353516
  0
LINE
  8
0
  6
CONTINUOUS
 62
     7
 10
-151.3886566162109
 20
-67.35739898681641
 11
-147.6909942626953
 21
-42.63235855102539
  0
LINE
  8
0
  6
CONTINUOUS
 62
     7
 10
31.85235595703125
 20
-102.3539657592773
 11
119.9523544311523
 21
-102.3539657592773
  0
LINE
  8
0
  6
CENTER
 62
     7
 10
75.90235900878906
 20
-68.59156036376953
 11
75.90235900878906
 21
-117.1905364990234
  0
LINE
  8
0
  6
CENTER
 62
     7
 10
97.28356170654297
 20
-16.97276306152344
 11
130.4710845947266
 21
16.21476554870606
  0
LINE
  8
0
  6
CONTINUOUS
 62
     7
 10
120.4523544311523
 20
-72.65396881103516
 11
120.4523544311523
 21
-77.65396881103516
  0
LINE
  8
0
  6
CONTINUOUS
 62
     7
 10
31.35235595703125
 20
-72.65396881103516
 11
31.35235595703125
 21
-77.65396881103516
  0
LINE
  8
0
  6
CONTINUOUS
 62
     7
 10
31.35235595703125
 20
-86.35396575927734
 11
31.95235633850098
 21
-86.35396575927734
  0
LINE
  8
0
  6
CONTINUOUS
 62
     7
 10
31.35235595703125
 20
-77.65396881103516
 11
120.4523544311523
 21
-77.65396881103516
  0
LINE
  8
0
  6
CONTINUOUS
 62
     7
 10
31.35235595703125
 20
-72.65396881103516
 11
120.4523544311523
 21
-72.65396881103516
  0
LINE
  8
0
  6
CONTINUOUS
 62
     7
 10
31.35235595703125
 20
-86.35396575927734
 11
31.35235595703125
 21
-101.8539657592773
  0
LINE
  8
0
  6
CONTINUOUS
 62
     7
 10
120.4523544311523
 20
-86.35396575927734
 11
120.4523544311523
 21
-101.8539657592773
  0
LINE
  8
0
  6
CONTINUOUS
 62
     7
 10
118.3523559570313
 20
-68.59156036376953
 11
118.3523559570313
 21
-70.60548400878906
  0
LINE
  8
0
  6
CONTINUOUS
 62
     7
 10
33.45235443115234
 20
-68.59156036376953
 11
33.45235443115234
 21
-70.60548400878906
  0
LINE
  8
0
  6
CONTINUOUS
 62
     7
 10
33.45235443115234
 20
-79.70245361328125
 11
33.45235443115234
 21
-84.85396575927734
  0
LINE
  8
0
  6
CONTINUOUS
 62
     7
 10
118.3523559570313
 20
-79.70245361328125
 11
118.3523559570313
 21
-84.85396575927734
  0
LINE
  8
0
  6
CONTINUOUS
 62
     7
 10
31.35235595703125
 20
-77.65396881103516
 11
31.79965209960938
 21
-77.73284149169922
  0
LINE
  8
0
  6
CONTINUOUS
 62
     7
 10
31.35235595703125
 20
-72.65396881103516
 11
31.79965209960938
 21
-72.57509613037109
  0
LINE
  8
0
  6
CONTINUOUS
 62
     7
 10
31.95235633850098
 20
-86.35396575927734
 11
120.4523544311523
 21
-86.35396575927734
  0
LINE
  8
0
  6
CONTINUOUS
 62
     7
 10
120.4523544311523
 20
-72.65396881103516
 11
120.0050582885742
 21
-72.57509613037109
  0
LINE
  8
0
  6
CONTINUOUS
 62
     7
 10
120.4523544311523
 20
-77.65396881103516
 11
120.0050582885742
 21
-77.73284149169922
  0
LINE
  8
0
  6
CONTINUOUS
 62
     7
 10
90.00914001464844
 20
38.04891967773438
 11
152.3052368164063
 21
-24.2471866607666
  0
LINE
  8
0
  6
CONTINUOUS
 62
     7
 10
131.6577301025391
 20
-45.60181045532227
 11
135.1932525634766
 21
-42.06627655029297
  0
LINE
  8
0
  6
CONTINUOUS
 62
     7
 10
68.65451049804688
 20
17.40140151977539
 11
72.19004821777344
 21
20.93693542480469
  0
LINE
  8
0
  6
CONTINUOUS
 62
     7
 10
75.12346649169922
 20
20.90051078796387
 11
78.76613616943359
 21
24.54318046569824
  0
LINE
  8
0
  6
CONTINUOUS
 62
     7
 10
68.65451049804688
 20
17.40140151977539
 11
131.6577301025391
 21
-45.60181045532227
  0
LINE
  8
0
  6
CONTINUOUS
 62
     7
 10
72.19004821777344
 20
20.93693542480469
 11
135.1932525634766
 21
-42.06627655029297
  0
LINE
  8
0
  6
CONTINUOUS
 62
     7
 10
78.34187316894531
 20
27.08876419067383
 11
78.76613616943359
 21
26.66450119018555
  0
LINE
  8
0
  6
CONTINUOUS
 62
     7
 10
135.1568298339844
 20
-39.13285446166992
 11
138.7994995117188
 21
-35.49018478393555
  0
LINE
  8
0
  6
CONTINUOUS
 62
     7
 10
78.34187316894531
 20
27.08876419067383
 11
89.30203247070313
 21
38.04891967773438
  0
LINE
  8
0
  6
CONTINUOUS
 62
     7
 10
141.3450927734375
 20
-35.91444778442383
 11
152.3052368164063
 21
-24.95429420471191
  0
LINE
  8
0
  6
CONTINUOUS
 62
     7
 10
67.26687622070313
 20
13.04392051696777
 11
68.69094085693359
 21
14.46797943115234
  0
LINE
  8
0
  6
CONTINUOUS
 62
     7
 10
127.3002395629883
 20
-46.98944854736328
 11
128.7243041992188
 21
-45.56538772583008
  0
LINE
  8
0
  6
CONTINUOUS
 62
     7
 10
131.6577301025391
 20
-45.60181045532227
 11
131.2856750488281
 21
-45.3412971496582
  0
LINE
  8
0
  6
CONTINUOUS
 62
     7
 10
78.76613616943359
 20
26.66450119018555
 11
141.3450927734375
 21
-35.91444778442383
  0
LINE
  8
0
  6
CONTINUOUS
 62
     7
 10
68.65451049804688
 20
17.40140151977539
 11
68.91503143310547
 21
17.02934646606445
  0
LINE
  8
0
  6
CONTINUOUS
 62
     7
 10
72.19004821777344
 20
20.93693542480469
 11
72.56210327148438
 21
20.67642021179199
  0
LINE
  8
0
  6
CONTINUOUS
 62
     7
 10
135.1932525634766
 20
-42.06627655029297
 11
134.9327392578125
 21
-41.69422149658203
  0
LINE
  8
0
  6
CONTINUOUS
 62
     7
 10
46.68645095825195
 20
-10.8203592300415
 11
48.27047348022461
 21
-12.00598526000977
  0
LINE
  8
0
  6
CONTINUOUS
 62
     7
 10
64.66323852539063
 20
13.1970329284668
 11
66.24726104736328
 21
12.01140689849854
  0
LINE
  8
0
  6
CONTINUOUS
 62
     7
 10
64.66323852539063
 20
13.1970329284668
 11
46.68645095825195
 21
-10.8203592300415
  0
LINE
  8
0
  6
CONTINUOUS
 62
     7
 10
31.50303840637207
 20
-66.85877227783203
 11
35.77439117431641
 21
-37.16440582275391
  0
LINE
  8
0
  6
CONTINUOUS
 62
     7
 10
31.50303840637207
 20
-66.85877227783203
 11
33.46147537231445
 21
-67.14048004150391
  0
LINE
  8
0
  6
CONTINUOUS
 62
     7
 10
35.77439117431641
 20
-37.16440582275391
 11
37.73283004760742
 21
-37.44611358642578
  0
LINE
  8
0
  6
CONTINUOUS
 62
     7
 10
-331.9076232910156
 20
-405.1161193847656
 11
-218.6076202392578
 21
-405.1161193847656
  0
LINE
  8
0
  6
CENTER
 62
     7
 10
-275.2576293945313
 20
-368.4664001464844
 11
-275.2576293945313
 21
-419.7914123535156
  0
LINE
  8
0
  6
CENTER
 62
     7
 10
-247.4327697753906
 20
-301.291259765625
 11
-211.0415344238281
 21
-264.9000244140625
  0
LINE
  8
0
  6
CONTINUOUS
 62
     7
 10
-332.4076232910156
 20
-375.4161071777344
 11
-332.4076232910156
 21
-380.4161071777344
  0
LINE
  8
0
  6
CONTINUOUS
 62
     7
 10
-218.1076202392578
 20
-375.4161071777344
 11
-218.1076202392578
 21
-380.4161071777344
  0
LINE
  8
0
  6
CONTINUOUS
 62
     7
 10
-332.4076232910156
 20
-389.1161193847656
 11
-331.5576171875
 21
-389.1161193847656
  0
LINE
  8
0
  6
CONTINUOUS
 62
     7
 10
-332.4076232910156
 20
-380.4161071777344
 11
-218.1076202392578
 21
-380.4161071777344
  0
LINE
  8
0
  6
CONTINUOUS
 62
     7
 10
-332.4076232910156
 20
-375.4161071777344
 11
-218.1076202392578
 21
-375.4161071777344
  0
LINE
  8
0
  6
CONTINUOUS
 62
     7
 10
-332.4076232910156
 20
-389.1161193847656
 11
-332.4076232910156
 21
-404.6161193847656
  0
LINE
  8
0
  6
CONTINUOUS
 62
     7
 10
-218.1076202392578
 20
-389.1161193847656
 11
-218.1076202392578
 21
-404.6161193847656
  0
LINE
  8
0
  6
CONTINUOUS
 62
     7
 10
-330.0576171875
 20
-368.4664001464844
 11
-330.0576171875
 21
-373.3235473632813
  0
LINE
  8
0
  6
CONTINUOUS
 62
     7
 10
-220.4576263427734
 20
-368.4664001464844
 11
-220.4576263427734
 21
-373.3235473632813
  0
LINE
  8
0
  6
CONTINUOUS
 62
     7
 10
-330.0576171875
 20
-382.5086975097656
 11
-330.0576171875
 21
-387.6161193847656
  0
LINE
  8
0
  6
CONTINUOUS
 62
     7
 10
-220.4576263427734
 20
-382.5086975097656
 11
-220.4576263427734
 21
-387.6161193847656
  0
LINE
  8
0
  6
CONTINUOUS
 62
     7
 10
-332.4076232910156
 20
-380.4161071777344
 11
-331.7103271484375
 21
-380.5390625
  0
LINE
  8
0
  6
CONTINUOUS
 62
     7
 10
-332.4076232910156
 20
-375.4161071777344
 11
-331.7103271484375
 21
-375.2931823730469
  0
LINE
  8
0
  6
CONTINUOUS
 62
     7
 10
-331.5576171875
 20
-389.1161193847656
 11
-218.1076202392578
 21
-389.1161193847656
  0
LINE
  8
0
  6
CONTINUOUS
 62
     7
 10
-218.1076202392578
 20
-375.4161071777344
 11
-218.8049163818359
 21
-375.2931823730469
  0
LINE
  8
0
  6
CONTINUOUS
 62
     7
 10
-218.1076202392578
 20
-380.4161071777344
 11
-218.8049163818359
 21
-380.5390625
  0
LINE
  8
0
  6
CONTINUOUS
 62
     7
 10
-261.5751037597656
 20
-235.3184051513672
 11
-181.4598999023438
 21
-315.43359375
  0
LINE
  8
0
  6
CONTINUOUS
 62
     7
 10
-282.9297180175781
 20
-255.9659271240234
 11
-279.3941955566406
 21
-252.4303894042969
  0
LINE
  8
0
  6
CONTINUOUS
 62
     7
 10
-202.107421875
 20
-336.7882385253906
 11
-198.5718841552734
 21
-333.252685546875
  0
LINE
  8
0
  6
CONTINUOUS
 62
     7
 10
-198.7539215087891
 20
-330.111328125
 11
-195.1424255371094
 21
-326.4998168945313
  0
LINE
  8
0
  6
CONTINUOUS
 62
     7
 10
-282.9297180175781
 20
-255.9659271240234
 11
-202.107421875
 21
-336.7882385253906
  0
LINE
  8
0
  6
CONTINUOUS
 62
     7
 10
-279.3941955566406
 20
-252.4303894042969
 11
-198.5718841552734
 21
-333.252685546875
  0
LINE
  8
0
  6
CONTINUOUS
 62
     7
 10
-273.2423706054688
 20
-246.278564453125
 11
-272.6413269042969
 21
-246.8796081542969
  0
LINE
  8
0
  6
CONTINUOUS
 62
     7
 10
-276.2528381347656
 20
-252.6124267578125
 11
-272.6413269042969
 21
-249.0009307861328
  0
LINE
  8
0
  6
CONTINUOUS
 62
     7
 10
-273.2423706054688
 20
-246.278564453125
 11
-262.2821960449219
 21
-235.3184051513672
  0
LINE
  8
0
  6
CONTINUOUS
 62
     7
 10
-192.4200592041016
 20
-327.1008605957031
 11
-181.4598999023438
 21
-316.1407165527344
  0
LINE
  8
0
  6
CONTINUOUS
 62
     7
 10
-202.107421875
 20
-336.7882385253906
 11
-202.6874237060547
 21
-336.3821105957031
  0
LINE
  8
0
  6
CONTINUOUS
 62
     7
 10
-208.6833190917969
 20
-340.0407104492188
 11
-205.2487945556641
 21
-336.606201171875
  0
LINE
  8
0
  6
CONTINUOUS
 62
     7
 10
-286.1822204589844
 20
-262.5418090820313
 11
-282.7476806640625
 21
-259.1072998046875
  0
LINE
  8
0
  6
CONTINUOUS
 62
     7
 10
-272.6413269042969
 20
-246.8796081542969
 11
-192.4200592041016
 21
-327.1008605957031
  0
LINE
  8
0
  6
CONTINUOUS
 62
     7
 10
-282.9297180175781
 20
-255.9659271240234
 11
-282.5235900878906
 21
-256.5459289550781
  0
LINE
  8
0
  6
CONTINUOUS
 62
     7
 10
-279.3941955566406
 20
-252.4303894042969
 11
-278.8141784667969
 21
-252.8365173339844
  0
LINE
  8
0
  6
CONTINUOUS
 62
     7
 10
-198.5718841552734
 20
-333.252685546875
 11
-198.9780120849609
 21
-332.6726989746094
  0
LINE
  8
0
  6
CONTINUOUS
 62
     7
 10
-290.3757019042969
 20
-262.4491882324219
 11
-287.8201904296875
 21
-264.2055358886719
  0
LINE
  8
0
  6
CONTINUOUS
 62
     7
 10
-318.6960144042969
 20
-303.655517578125
 11
-316.1405029296875
 21
-305.4118347167969
  0
LINE
  8
0
  6
CONTINUOUS
 62
     7
 10
-290.3757019042969
 20
-262.4491882324219
 11
-318.6960144042969
 21
-303.655517578125
  0
LINE
  8
0
  6
CONTINUOUS
 62
     7
 10
-333.0883483886719
 20
-365.5666809082031
 11
-323.9765625
 21
-316.4039306640625
  0
LINE
  8
0
  6
CONTINUOUS
 62
     7
 10
-333.0883483886719
 20
-365.5666809082031
 11
-330.0394287109375
 21
-366.1317443847656
  0
LINE
  8
0
  6
CONTINUOUS
 62
     7
 10
-323.9765625
 20
-316.4039306640625
 11
-320.9276428222656
 21
-316.968994140625
  0
LINE
  8
0
  6
CONTINUOUS
 62
     7
 10
-124.1907348632813
 20
-405.1161193847656
 11
14.60926532745361
 21
-405.1161193847656
  0
LINE
  8
0
  6
CENTER
 62
     7
 10
-54.79073333740234
 20
-366.8511962890625
 11
-54.79073333740234
 21
-419.1831970214844
  0
LINE
  8
0
  6
CONTINUOUS
 62
     7
 10
15.10926532745361
 20
-375.4161071777344
 11
15.10926532745361
 21
-380.4161071777344
  0
LINE
  8
0
  6
CONTINUOUS
 62
     7
 10
-124.6907348632813
 20
-375.4161071777344
 11
-124.6907348632813
 21
-380.4161071777344
  0
LINE
  8
0
  6
CENTER
 62
     7
 10
-23.15826797485352
 20
-290.483642578125
 11
17.31825637817383
 21
-250.0071258544922
  0
LINE
  8
0
  6
CONTINUOUS
 62
     7
 10
-124.6907348632813
 20
-389.1161193847656
 11
-123.7907333374023
 21
-389.1161193847656
  0
LINE
  8
0
  6
CONTINUOUS
 62
     7
 10
-124.6907348632813
 20
-380.4161071777344
 11
15.10926532745361
 21
-380.4161071777344
  0
LINE
  8
0
  6
CONTINUOUS
 62
     7
 10
-124.6907348632813
 20
-375.4161071777344
 11
15.10926532745361
 21
-375.4161071777344
  0
LINE
  8
0
  6
CONTINUOUS
 62
     7
 10
-124.6907348632813
 20
-389.1161193847656
 11
-124.6907348632813
 21
-404.6161193847656
  0
LINE
  8
0
  6
CONTINUOUS
 62
     7
 10
15.10926532745361
 20
-389.1161193847656
 11
15.10926532745361
 21
-404.6161193847656
  0
LINE
  8
0
  6
CONTINUOUS
 62
     7
 10
-122.2907333374023
 20
-366.8511962890625
 11
-122.2907333374023
 21
-373.3147277832031
  0
LINE
  8
0
  6
CONTINUOUS
 62
     7
 10
12.70926475524902
 20
-366.8511962890625
 11
12.70926475524902
 21
-373.3147277832031
  0
LINE
  8
0
  6
CONTINUOUS
 62
     7
 10
-122.2907333374023
 20
-382.5175170898438
 11
-122.2907333374023
 21
-387.6161193847656
  0
LINE
  8
0
  6
CONTINUOUS
 62
     7
 10
12.70926475524902
 20
-382.5175170898438
 11
12.70926475524902
 21
-387.6161193847656
  0
LINE
  8
0
  6
CONTINUOUS
 62
     7
 10
-124.6907348632813
 20
-380.4161071777344
 11
-123.9434356689453
 21
-380.5478820800781
  0
LINE
  8
0
  6
CONTINUOUS
 62
     7
 10
-124.6907348632813
 20
-375.4161071777344
 11
-123.9434356689453
 21
-375.2843627929688
  0
LINE
  8
0
  6
CONTINUOUS
 62
     7
 10
-123.7907333374023
 20
-389.1161193847656
 11
15.10926532745361
 21
-389.1161193847656
  0
LINE
  8
0
  6
CONTINUOUS
 62
     7
 10
15.10926532745361
 20
-375.4161071777344
 11
14.36196899414063
 21
-375.2843627929688
  0
LINE
  8
0
  6
CONTINUOUS
 62
     7
 10
15.10926532745361
 20
-380.4161071777344
 11
14.36196899414063
 21
-380.5478820800781
  0
LINE
  8
0
  6
CONTINUOUS
 62
     7
 10
32.32482147216797
 20
-333.8540954589844
 11
35.86035537719727
 21
-330.3185729980469
  0
LINE
  8
0
  6
CONTINUOUS
 62
     7
 10
-45.1740837097168
 20
-214.3530426025391
 11
52.97233963012695
 21
-312.4994812011719
  0
LINE
  8
0
  6
CONTINUOUS
 62
     7
 10
-66.52870941162109
 20
-235.0005645751953
 11
-62.9931755065918
 21
-231.4650268554688
  0
LINE
  8
0
  6
CONTINUOUS
 62
     7
 10
35.64920043945313
 20
-327.1355895996094
 11
39.25446701049805
 21
-323.5303344726563
  0
LINE
  8
0
  6
CONTINUOUS
 62
     7
 10
-66.52870941162109
 20
-235.0005645751953
 11
32.32482147216797
 21
-333.8540954589844
  0
LINE
  8
0
  6
CONTINUOUS
 62
     7
 10
-62.9931755065918
 20
-231.4650268554688
 11
35.86035537719727
 21
-330.3185729980469
  0
LINE
  8
0
  6
CONTINUOUS
 62
     7
 10
-56.84134292602539
 20
-225.3132019042969
 11
-56.20494842529297
 21
-225.9496002197266
  0
LINE
  8
0
  6
CONTINUOUS
 62
     7
 10
-59.81021499633789
 20
-231.6761932373047
 11
-56.20494842529297
 21
-228.0709228515625
  0
LINE
  8
0
  6
CONTINUOUS
 62
     7
 10
-56.84134292602539
 20
-225.3132019042969
 11
-45.88119125366211
 21
-214.3530426025391
  0
LINE
  8
0
  6
CONTINUOUS
 62
     7
 10
42.01218414306641
 20
-324.1667175292969
 11
52.97233963012695
 21
-313.2065734863281
  0
LINE
  8
0
  6
CONTINUOUS
 62
     7
 10
24.57143974304199
 20
-338.2133483886719
 11
29.14186096191406
 21
-333.6429443359375
  0
LINE
  8
0
  6
CONTINUOUS
 62
     7
 10
-70.88797760009766
 20
-242.7539520263672
 11
-66.31755065917969
 21
-238.1835327148438
  0
LINE
  8
0
  6
CONTINUOUS
 62
     7
 10
-66.52870941162109
 20
-235.0005645751953
 11
-66.09346008300781
 21
-235.6221618652344
  0
LINE
  8
0
  6
CONTINUOUS
 62
     7
 10
-62.9931755065918
 20
-231.4650268554688
 11
-62.37158203125
 21
-231.9002838134766
  0
LINE
  8
0
  6
CONTINUOUS
 62
     7
 10
-56.20494842529297
 20
-225.9496002197266
 11
42.01218414306641
 21
-324.1667175292969
  0
LINE
  8
0
  6
CONTINUOUS
 62
     7
 10
35.86035537719727
 20
-330.3185729980469
 11
35.42510986328125
 21
-329.6969604492188
  0
LINE
  8
0
  6
CONTINUOUS
 62
     7
 10
32.32482147216797
 20
-333.8540954589844
 11
31.70322799682617
 21
-333.4188537597656
  0
LINE
  8
0
  6
CONTINUOUS
 62
     7
 10
-73.44129943847656
 20
-243.0090179443359
 11
-72.1815185546875
 21
-244.0475006103516
  0
LINE
  8
0
  6
CONTINUOUS
 62
     7
 10
-92.52365112304688
 20
-266.1577453613281
 11
-91.25648498535156
 21
-267.2023315429688
  0
LINE
  8
0
  6
CONTINUOUS
 62
     7
 10
-73.44129943847656
 20
-243.0090179443359
 11
-92.52365112304688
 21
-266.1577453613281
  0
LINE
  8
0
  6
CONTINUOUS
 62
     7
 10
-123.9158477783203
 20
-364.8653564453125
 11
-121.0404815673828
 21
-335.0034790039063
  0
LINE
  8
0
  6
CONTINUOUS
 62
     7
 10
-123.9158477783203
 20
-364.8653564453125
 11
-122.2907333374023
 21
-365.0218200683594
  0
LINE
  8
0
  6
CONTINUOUS
 62
     7
 10
-121.0404815673828
 20
-335.0034790039063
 11
-119.4058380126953
 21
-335.1608581542969
  0
LINE
  8
0
  6
CONTINUOUS
 62
     7
 10
148.7419281005859
 20
-405.1161193847656
 11
312.9419250488281
 21
-405.1161193847656
  0
LINE
  8
0
  6
CENTER
 62
     7
 10
230.8419189453125
 20
-366.6501770019531
 11
230.8419189453125
 21
-424.8980407714844
  0
LINE
  8
0
  6
CENTER
 62
     7
 10
266.5748901367188
 20
-280.3831481933594
 11
309.7472839355469
 21
-237.2107696533203
  0
LINE
  8
0
  6
CONTINUOUS
 62
     7
 10
313.4419250488281
 20
-375.4161071777344
 11
313.4419250488281
 21
-380.4161071777344
  0
LINE
  8
0
  6
CONTINUOUS
 62
     7
 10
148.2419281005859
 20
-375.4161071777344
 11
148.2419281005859
 21
-380.4161071777344
  0
LINE
  8
0
  6
CONTINUOUS
 62
     7
 10
148.2419281005859
 20
-389.1161193847656
 11
149.4419250488281
 21
-389.1161193847656
  0
LINE
  8
0
  6
CONTINUOUS
 62
     7
 10
148.2419281005859
 20
-380.4161071777344
 11
313.4419250488281
 21
-380.4161071777344
  0
LINE
  8
0
  6
CONTINUOUS
 62
     7
 10
148.2419281005859
 20
-375.4161071777344
 11
313.4419250488281
 21
-375.4161071777344
  0
LINE
  8
0
  6
CONTINUOUS
 62
     7
 10
148.2419281005859
 20
-389.1161193847656
 11
148.2419281005859
 21
-404.6161193847656
  0
LINE
  8
0
  6
CONTINUOUS
 62
     7
 10
313.4419250488281
 20
-389.1161193847656
 11
313.4419250488281
 21
-404.6161193847656
  0
LINE
  8
0
  6
CONTINUOUS
 62
     7
 10
150.9419250488281
 20
-366.6501770019531
 11
150.9419250488281
 21
-373.2618408203125
  0
LINE
  8
0
  6
CONTINUOUS
 62
     7
 10
310.7419128417969
 20
-366.6501770019531
 11
310.7419128417969
 21
-373.2618408203125
  0
LINE
  8
0
  6
CONTINUOUS
 62
     7
 10
150.9419250488281
 20
-382.5704040527344
 11
150.9419250488281
 21
-387.6161193847656
  0
LINE
  8
0
  6
CONTINUOUS
 62
     7
 10
310.7419128417969
 20
-382.5704040527344
 11
310.7419128417969
 21
-387.6161193847656
  0
LINE
  8
0
  6
CONTINUOUS
 62
     7
 10
148.2419281005859
 20
-380.4161071777344
 11
149.2892150878906
 21
-380.6007995605469
  0
LINE
  8
0
  6
CONTINUOUS
 62
     7
 10
148.2419281005859
 20
-375.4161071777344
 11
149.2892150878906
 21
-375.2314453125
  0
LINE
  8
0
  6
CONTINUOUS
 62
     7
 10
149.4419250488281
 20
-389.1161193847656
 11
313.4419250488281
 21
-389.1161193847656
  0
LINE
  8
0
  6
CONTINUOUS
 62
     7
 10
313.4419250488281
 20
-375.4161071777344
 11
312.3946228027344
 21
-375.2314453125
  0
LINE
  8
0
  6
CONTINUOUS
 62
     7
 10
313.4419250488281
 20
-380.4161071777344
 11
312.3946228027344
 21
-380.6007995605469
  0
LINE
  8
0
  6
CONTINUOUS
 62
     7
 10
235.7209625244141
 20
-195.1301574707031
 11
351.827880859375
 21
-311.2370910644531
  0
LINE
  8
0
  6
CONTINUOUS
 62
     7
 10
331.1803894042969
 20
-332.5917053222656
 11
334.7159118652344
 21
-329.0561828613281
  0
LINE
  8
0
  6
CONTINUOUS
 62
     7
 10
214.3663330078125
 20
-215.7776641845703
 11
217.9018707275391
 21
-212.2421417236328
  0
LINE
  8
0
  6
CONTINUOUS
 62
     7
 10
214.3663330078125
 20
-215.7776641845703
 11
331.1803894042969
 21
-332.5917053222656
  0
LINE
  8
0
  6
CONTINUOUS
 62
     7
 10
217.9018707275391
 20
-212.2421417236328
 11
334.7159118652344
 21
-329.0561828613281
  0
LINE
  8
0
  6
CONTINUOUS
 62
     7
 10
224.0536956787109
 20
-206.0903015136719
 11
224.9022216796875
 21
-206.9388275146484
  0
LINE
  8
0
  6
CONTINUOUS
 62
     7
 10
224.0536956787109
 20
-206.0903015136719
 11
235.0138549804688
 21
-195.1301574707031
  0
LINE
  8
0
  6
CONTINUOUS
 62
     7
 10
340.8677368164063
 20
-322.9043579101563
 11
351.827880859375
 21
-311.9441833496094
  0
LINE
  8
0
  6
CONTINUOUS
 62
     7
 10
334.3300170898438
 20
-325.6236877441406
 11
337.8978881835938
 21
-322.0558166503906
  0
LINE
  8
0
  6
CONTINUOUS
 62
     7
 10
221.3343658447266
 20
-212.6280212402344
 11
224.9022216796875
 21
-209.0601501464844
  0
LINE
  8
0
  6
CONTINUOUS
 62
     7
 10
323.0727233886719
 20
-336.8809814453125
 11
327.7478637695313
 21
-332.2058410644531
  0
LINE
  8
0
  6
CONTINUOUS
 62
     7
 10
210.0770568847656
 20
-223.8853149414063
 11
214.7522125244141
 21
-219.2101593017578
  0
LINE
  8
0
  6
CONTINUOUS
 62
     7
 10
214.3663330078125
 20
-215.7776641845703
 11
214.9763031005859
 21
-216.6488037109375
  0
LINE
  8
0
  6
CONTINUOUS
 62
     7
 10
217.9018707275391
 20
-212.2421417236328
 11
218.7729949951172
 21
-212.8521118164063
  0
LINE
  8
0
  6
CONTINUOUS
 62
     7
 10
224.9022216796875
 20
-206.9388275146484
 11
340.8677368164063
 21
-322.9043579101563
  0
LINE
  8
0
  6
CONTINUOUS
 62
     7
 10
334.7159118652344
 20
-329.0561828613281
 11
334.1059265136719
 21
-328.18505859375
  0
LINE
  8
0
  6
CONTINUOUS
 62
     7
 10
331.1803894042969
 20
-332.5917053222656
 11
330.3092346191406
 21
-331.9817504882813
  0
LINE
  8
0
  6
CONTINUOUS
 62
     7
 10
208.2972717285156
 20
-223.4710845947266
 11
209.4806213378906
 21
-224.4817504882813
  0
LINE
  8
0
  6
CONTINUOUS
 62
     7
 10
188.8138275146484
 20
-246.2832641601563
 11
189.9985198974609
 21
-247.2950897216797
  0
LINE
  8
0
  6
CONTINUOUS
 62
     7
 10
208.2972717285156
 20
-223.4710845947266
 11
188.8138275146484
 21
-246.2832641601563
  0
LINE
  8
0
  6
CONTINUOUS
 62
     7
 10
149.3905029296875
 20
-365.6846008300781
 11
150.9419250488281
 21
-365.8066711425781
  0
LINE
  8
0
  6
CONTINUOUS
 62
     7
 10
151.7442779541016
 20
-335.7770690917969
 11
153.2974548339844
 21
-335.8992919921875
  0
LINE
  8
0
  6
CONTINUOUS
 62
     7
 10
149.3905029296875
 20
-365.6846008300781
 11
151.7442779541016
 21
-335.7770690917969
  0
LINE
  8
0
  6
CONTINUOUS
 62
     7
 10
-102.3847122192383
 20
-49.12552261352539
 11
-110.8502807617188
 21
-43.73236083984375
  0
LINE
  8
0
  6
CONTINUOUS
 62
     7
 10
-115.7889556884766
 20
-55.65538787841797
 11
-114.1427307128906
 21
-51.68104553222656
  0
LINE
  8
0
  6
CONTINUOUS
 62
     7
 10
-109.5800247192383
 20
-47.89033889770508
 11
-108.8212814331055
 21
-46.69934463500977
  0
LINE
  8
0
  6
CONTINUOUS
 62
     7
 10
-109.2040481567383
 20
-39.75802230834961
 11
-111.6227798461914
 21
-38.21712112426758
  0
LINE
  8
0
  6
CONTINUOUS
 62
     7
 10
-108.1200332641602
 20
-52.16919326782227
 11
-111.0975189208984
 21
-50.2723274230957
  0
LINE
  8
0
  6
CONTINUOUS
 62
     7
 10
-111.8562622070313
 20
-51.46331787109375
 11
-111.0975189208984
 21
-50.2723274230957
  0
LINE
  8
0
  6
CONTINUOUS
 62
     7
 10
-106.6025390625
 20
-49.78720474243164
 11
-109.5800247192383
 21
-47.89033889770508
  0
LINE
  8
0
  6
CONTINUOUS
 62
     7
 10
-108.8787841796875
 20
-53.36018371582031
 11
-111.8562622070313
 21
-51.46331787109375
  0
LINE
  8
0
  6
CONTINUOUS
 62
     7
 10
-109.2040557861328
 20
-39.75802230834961
 11
-110.8502807617188
 21
-43.73236465454102
  0
LINE
  8
0
  6
CONTINUOUS
 62
     7
 10
-115.7889556884766
 20
-55.65538787841797
 11
-118.2076873779297
 21
-54.11448669433594
  0
LINE
  8
0
  6
CONTINUOUS
 62
     7
 10
-102.3847122192383
 20
-49.12552261352539
 11
-105.6771697998047
 21
-57.0742073059082
  0
LINE
  8
0
  6
CONTINUOUS
 62
     7
 10
-111.6227874755859
 20
-38.21712112426758
 11
-118.2076873779297
 21
-54.11448669433594
  0
LINE
  8
0
  6
CONTINUOUS
 62
     7
 10
-105.6771697998047
 20
-57.07420349121094
 11
-114.1427307128906
 21
-51.68104553222656
  0
LINE
  8
0
  6
CONTINUOUS
 62
     7
 10
-105.8437957763672
 20
-48.59621047973633
 11
-108.8212814331055
 21
-46.69934463500977
  0
LINE
  8
0
  6
CONTINUOUS
 62
     7
 10
87.57388305664063
 20
-43.10377883911133
 11
79.10832214355469
 21
-37.71062088012695
  0
LINE
  8
0
  6
CONTINUOUS
 62
     7
 10
80.37857055664063
 20
-41.86859893798828
 11
81.13732147216797
 21
-40.67760467529297
  0
LINE
  8
0
  6
CONTINUOUS
 62
     7
 10
74.16963958740234
 20
-49.63364410400391
 11
75.81586456298828
 21
-45.65930557250977
  0
LINE
  8
0
  6
CONTINUOUS
 62
     7
 10
80.75454711914063
 20
-33.73628234863281
 11
78.3358154296875
 21
-32.19537734985352
  0
LINE
  8
0
  6
CONTINUOUS
 62
     7
 10
81.83856201171875
 20
-46.1474494934082
 11
78.86107635498047
 21
-44.25058364868164
  0
LINE
  8
0
  6
CONTINUOUS
 62
     7
 10
78.10233306884766
 20
-45.44157791137695
 11
78.86107635498047
 21
-44.25058364868164
  0
LINE
  8
0
  6
CONTINUOUS
 62
     7
 10
83.35605621337891
 20
-43.76546478271484
 11
80.37857055664063
 21
-41.86859893798828
  0
LINE
  8
0
  6
CONTINUOUS
 62
     7
 10
81.07981872558594
 20
-47.33844375610352
 11
78.10233306884766
 21
-45.44157791137695
  0
LINE
  8
0
  6
CONTINUOUS
 62
     7
 10
80.75454711914063
 20
-33.73627853393555
 11
79.10831451416016
 21
-37.71062088012695
  0
LINE
  8
0
  6
CONTINUOUS
 62
     7
 10
74.16963958740234
 20
-49.63364410400391
 11
71.75090789794922
 21
-48.09274291992188
  0
LINE
  8
0
  6
CONTINUOUS
 62
     7
 10
87.57388305664063
 20
-43.10377883911133
 11
84.28143310546875
 21
-51.05246353149414
  0
LINE
  8
0
  6
CONTINUOUS
 62
     7
 10
78.33580780029297
 20
-32.19537734985352
 11
71.75090789794922
 21
-48.09274291992188
  0
LINE
  8
0
  6
CONTINUOUS
 62
     7
 10
84.28142547607422
 20
-51.05246353149414
 11
75.81586456298828
 21
-45.65930557250977
  0
LINE
  8
0
  6
CONTINUOUS
 62
     7
 10
84.11479949951172
 20
-42.57447052001953
 11
81.13732147216797
 21
-40.67760467529297
  0
LINE
  8
0
  6
CONTINUOUS
 62
     7
 10
-261.1397399902344
 20
-333.2422790527344
 11
-269.6053161621094
 21
-327.84912109375
  0
LINE
  8
0
  6
CONTINUOUS
 62
     7
 10
-268.3350524902344
 20
-332.007080078125
 11
-267.5762939453125
 21
-330.8161010742188
  0
LINE
  8
0
  6
CONTINUOUS
 62
     7
 10
-274.5439758300781
 20
-339.7721252441406
 11
-272.8977661132813
 21
-335.7977905273438
  0
LINE
  8
0
  6
CONTINUOUS
 62
     7
 10
-267.9590759277344
 20
-323.8747863769531
 11
-270.3778076171875
 21
-322.3338623046875
  0
LINE
  8
0
  6
CONTINUOUS
 62
     7
 10
-266.8750610351563
 20
-336.2859497070313
 11
-269.8525390625
 21
-334.3890686035156
  0
LINE
  8
0
  6
CONTINUOUS
 62
     7
 10
-270.6112976074219
 20
-335.580078125
 11
-269.8525390625
 21
-334.3890686035156
  0
LINE
  8
0
  6
CONTINUOUS
 62
     7
 10
-265.3575744628906
 20
-333.9039611816406
 11
-268.3350524902344
 21
-332.007080078125
  0
LINE
  8
0
  6
CONTINUOUS
 62
     7
 10
-267.6337890625
 20
-337.4769287109375
 11
-270.6112976074219
 21
-335.580078125
  0
LINE
  8
0
  6
CONTINUOUS
 62
     7
 10
-267.9590759277344
 20
-323.8747863769531
 11
-269.6053161621094
 21
-327.84912109375
  0
LINE
  8
0
  6
CONTINUOUS
 62
     7
 10
-274.5439758300781
 20
-339.7721252441406
 11
-276.9627075195313
 21
-338.2312316894531
  0
LINE
  8
0
  6
CONTINUOUS
 62
     7
 10
-261.1397399902344
 20
-333.2422790527344
 11
-264.4321899414063
 21
-341.1909484863281
  0
LINE
  8
0
  6
CONTINUOUS
 62
     7
 10
-270.3778076171875
 20
-322.3338623046875
 11
-276.9627075195313
 21
-338.2312316894531
  0
LINE
  8
0
  6
CONTINUOUS
 62
     7
 10
-264.4321899414063
 20
-341.1909484863281
 11
-272.8977661132813
 21
-335.7977905273438
  0
LINE
  8
0
  6
CONTINUOUS
 62
     7
 10
-264.5988159179688
 20
-332.7129516601563
 11
-267.5762939453125
 21
-330.8161010742188
  0
LINE
  8
0
  6
CONTINUOUS
 62
     7
 10
-39.43013763427734
 20
-328.3153991699219
 11
-47.89569854736328
 21
-322.9222412109375
  0
LINE
  8
0
  6
CONTINUOUS
 62
     7
 10
-46.62544631958008
 20
-327.0802001953125
 11
-45.86669921875
 21
-325.8892211914063
  0
LINE
  8
0
  6
CONTINUOUS
 62
     7
 10
-52.83437728881836
 20
-334.8452453613281
 11
-51.18815231323242
 21
-330.8709106445313
  0
LINE
  8
0
  6
CONTINUOUS
 62
     7
 10
-46.24946975708008
 20
-318.9479064941406
 11
-48.6682014465332
 21
-317.406982421875
  0
LINE
  8
0
  6
CONTINUOUS
 62
     7
 10
-45.16545486450195
 20
-331.3590698242188
 11
-48.14294052124023
 21
-329.4621887207031
  0
LINE
  8
0
  6
CONTINUOUS
 62
     7
 10
-48.90168380737305
 20
-330.6531982421875
 11
-48.14294052124023
 21
-329.4621887207031
  0
LINE
  8
0
  6
CONTINUOUS
 62
     7
 10
-43.64796447753906
 20
-328.9770812988281
 11
-46.62544631958008
 21
-327.0802001953125
  0
LINE
  8
0
  6
CONTINUOUS
 62
     7
 10
-45.92420196533203
 20
-332.550048828125
 11
-48.90168380737305
 21
-330.6531982421875
  0
LINE
  8
0
  6
CONTINUOUS
 62
     7
 10
-46.24947357177734
 20
-318.9479064941406
 11
-47.89570236206055
 21
-322.9222412109375
  0
LINE
  8
0
  6
CONTINUOUS
 62
     7
 10
-52.83437728881836
 20
-334.8452453613281
 11
-55.25311279296875
 21
-333.3043518066406
  0
LINE
  8
0
  6
CONTINUOUS
 62
     7
 10
-39.43013763427734
 20
-328.3153991699219
 11
-42.72259140014648
 21
-336.2640686035156
  0
LINE
  8
0
  6
CONTINUOUS
 62
     7
 10
-48.66820907592773
 20
-317.406982421875
 11
-55.25311279296875
 21
-333.3043518066406
  0
LINE
  8
0
  6
CONTINUOUS
 62
     7
 10
-42.72259140014648
 20
-336.2640686035156
 11
-51.18815231323242
 21
-330.8709106445313
  0
LINE
  8
0
  6
CONTINUOUS
 62
     7
 10
-42.88921737670898
 20
-327.7860717773438
 11
-45.86669921875
 21
-325.8892211914063
  0
LINE
  8
0
  6
CONTINUOUS
 62
     7
 10
245.2340393066406
 20
-322.841064453125
 11
236.7684783935547
 21
-317.4479064941406
  0
LINE
  8
0
  6
CONTINUOUS
 62
     7
 10
238.0387268066406
 20
-321.6058959960938
 11
238.7974853515625
 21
-320.4149169921875
  0
LINE
  8
0
  6
CONTINUOUS
 62
     7
 10
231.8298034667969
 20
-329.3709411621094
 11
233.4760284423828
 21
-325.3966064453125
  0
LINE
  8
0
  6
CONTINUOUS
 62
     7
 10
238.4147186279297
 20
-313.4735717773438
 11
235.9959869384766
 21
-311.9326782226563
  0
LINE
  8
0
  6
CONTINUOUS
 62
     7
 10
239.4987182617188
 20
-325.8847351074219
 11
236.521240234375
 21
-323.9878845214844
  0
LINE
  8
0
  6
CONTINUOUS
 62
     7
 10
235.7624969482422
 20
-325.1788635253906
 11
236.521240234375
 21
-323.9878845214844
  0
LINE
  8
0
  6
CONTINUOUS
 62
     7
 10
241.0162200927734
 20
-323.5027770996094
 11
238.0387268066406
 21
-321.6058959960938
  0
LINE
  8
0
  6
CONTINUOUS
 62
     7
 10
238.7399749755859
 20
-327.0757446289063
 11
235.7624969482422
 21
-325.1788635253906
  0
LINE
  8
0
  6
CONTINUOUS
 62
     7
 10
238.4147033691406
 20
-313.4735717773438
 11
236.7684783935547
 21
-317.4479370117188
  0
LINE
  8
0
  6
CONTINUOUS
 62
     7
 10
231.8298034667969
 20
-329.3709411621094
 11
229.4110717773438
 21
-327.8300476074219
  0
LINE
  8
0
  6
CONTINUOUS
 62
     7
 10
245.2340393066406
 20
-322.8410949707031
 11
241.9415893554688
 21
-330.7897644042969
  0
LINE
  8
0
  6
CONTINUOUS
 62
     7
 10
235.9959716796875
 20
-311.9326782226563
 11
229.4110717773438
 21
-327.8300476074219
  0
LINE
  8
0
  6
CONTINUOUS
 62
     7
 10
241.9415893554688
 20
-330.7897644042969
 11
233.4760284423828
 21
-325.3966064453125
  0
LINE
  8
0
  6
CONTINUOUS
 62
     7
 10
241.7749633789063
 20
-322.311767578125
 11
238.7974853515625
 21
-320.4149169921875
  0
LINE
  8
0
  6
CONTINUOUS
 62
     7
 10
-337.9313659667969
 20
-94.5670166015625
 11
-278.4313659667969
 21
-94.5670166015625
  0
LINE
  8
0
  6
CENTER
 62
     7
 10
-308.1813659667969
 20
-60.54977416992188
 11
-308.1813659667969
 21
-104.3670196533203
  0
LINE
  8
0
  6
CONTINUOUS
 62
     7
 10
-277.9313659667969
 20
-78.5670166015625
 11
-277.9313659667969
 21
-94.0670166015625
  0
LINE
  8
0
  6
CONTINUOUS
 62
     7
 10
-338.4313659667969
 20
-78.5670166015625
 11
-338.4313659667969
 21
-94.0670166015625
  0
LINE
  8
0
  6
CONTINUOUS
 62
     7
 10
-338.4313659667969
 20
-78.5670166015625
 11
-277.9313659667969
 21
-78.5670166015625
  0
LINE
  8
0
  6
CONTINUOUS
 62
     7
 10
-336.6313781738281
 20
-60.54977416992188
 11
-336.6313781738281
 21
-63.18881988525391
  0
LINE
  8
0
  6
CONTINUOUS
 62
     7
 10
-338.4313659667969
 20
-69.54962921142578
 11
-338.2840881347656
 21
-69.57559967041016
  0
LINE
  8
0
  6
CONTINUOUS
 62
     7
 10
-338.4313659667969
 20
-65.18440246582031
 11
-338.2840881347656
 21
-65.15843200683594
  0
LINE
  8
0
  6
CONTINUOUS
 62
     7
 10
-336.6313781738281
 20
-77.0670166015625
 11
-336.6313781738281
 21
-71.54521942138672
  0
LINE
  8
0
  6
CONTINUOUS
 62
     7
 10
-338.4313659667969
 20
-65.18440246582031
 11
-338.4313659667969
 21
-69.54962921142578
  0
LINE
  8
0
  6
CONTINUOUS
 62
     7
 10
-279.7313842773438
 20
-60.54977416992188
 11
-279.7313842773438
 21
-63.18881988525391
  0
LINE
  8
0
  6
CONTINUOUS
 62
     7
 10
-338.4313659667969
 20
-69.54962921142578
 11
-277.9313659667969
 21
-69.54962921142578
  0
LINE
  8
0
  6
CONTINUOUS
 62
     7
 10
-338.4313659667969
 20
-65.18440246582031
 11
-277.9313659667969
 21
-65.18440246582031
  0
LINE
  8
0
  6
CONTINUOUS
 62
     7
 10
-278.0786743164063
 20
-69.57559967041016
 11
-277.9313659667969
 21
-69.54962921142578
  0
LINE
  8
0
  6
CONTINUOUS
 62
     7
 10
-278.0786743164063
 20
-65.15843200683594
 11
-277.9313659667969
 21
-65.18440246582031
  0
LINE
  8
0
  6
CONTINUOUS
 62
     7
 10
-279.7313842773438
 20
-71.54521942138672
 11
-279.7313842773438
 21
-77.0670166015625
  0
LINE
  8
0
  6
CONTINUOUS
 62
     7
 10
-277.9313659667969
 20
-65.18440246582031
 11
-277.9313659667969
 21
-69.54962921142578
  0
LINE
  8
0
  6
CENTER
 62
     7
 10
-296.1727600097656
 20
-31.55839729309082
 11
-265.1893005371094
 21
-0.5749250650405884
  0
LINE
  8
0
  6
CONTINUOUS
 62
     7
 10
-271.5055847167969
 20
-49.67119598388672
 11
-268.4189147949219
 21
-46.58451843261719
  0
LINE
  8
0
  6
CONTINUOUS
 62
     7
 10
-262.3962097167969
 20
-40.13755035400391
 11
-262.18408203125
 21
-40.34968185424805
  0
LINE
  8
0
  6
CONTINUOUS
 62
     7
 10
-276.0555725097656
 20
-51.67558288574219
 11
-274.1894836425781
 21
-49.80949783325195
  0
LINE
  8
0
  6
CONTINUOUS
 62
     7
 10
-264.3761291503906
 20
-39.99612808227539
 11
-268.2806091308594
 21
-43.90063095092773
  0
LINE
  8
0
  6
CONTINUOUS
 62
     7
 10
-271.6281127929688
 20
-49.58540725708008
 11
-271.5055847167969
 21
-49.67119598388672
  0
LINE
  8
0
  6
CONTINUOUS
 62
     7
 10
-268.5046997070313
 20
-46.46199798583984
 11
-268.4189147949219
 21
-46.58451843261719
  0
LINE
  8
0
  6
CONTINUOUS
 62
     7
 10
-314.4238586425781
 20
-9.57512092590332
 11
-315.0216674804688
 21
-10.1729211807251
  0
LINE
  8
0
  6
CONTINUOUS
 62
     7
 10
-304.8226318359375
 20
2.571700096130371
 11
-293.8624572753906
 21
13.53185558319092
  0
LINE
  8
0
  6
CONTINUOUS
 62
     7
 10
-293.1553649902344
 20
13.53185558319092
 11
-251.0825042724609
 21
-28.54099845886231
  0
LINE
  8
0
  6
CONTINUOUS
 62
     7
 10
-311.1988830566406
 20
-3.804556608200073
 11
-311.0763549804688
 21
-3.890345573425293
  0
LINE
  8
0
  6
CONTINUOUS
 62
     7
 10
-314.2855529785156
 20
-6.8912353515625
 11
-314.1997680664063
 21
-7.013755321502686
  0
LINE
  8
0
  6
CONTINUOUS
 62
     7
 10
-308.5149841308594
 20
-3.666254997253418
 11
-304.6105041503906
 21
0.2382477223873138
  0
LINE
  8
0
  6
CONTINUOUS
 62
     7
 10
-314.2855529785156
 20
-6.8912353515625
 11
-311.1988830566406
 21
-3.804556608200073
  0
LINE
  8
0
  6
CONTINUOUS
 62
     7
 10
-304.8226318359375
 20
2.571700096130371
 11
-304.6105041503906
 21
2.359568119049072
  0
LINE
  8
0
  6
CONTINUOUS
 62
     7
 10
-262.0426635742188
 20
-40.20825958251953
 11
-251.0825042724609
 21
-29.24810409545898
  0
LINE
  8
0
  6
CONTINUOUS
 62
     7
 10
-341.8357849121094
 20
-56.68671417236328
 11
-336.610595703125
 21
-58.85105133056641
  0
LINE
  8
0
  6
CONTINUOUS
 62
     7
 10
-322.7015991210938
 20
-10.49273777008057
 11
-317.4972229003906
 21
-12.64846992492676
  0
LINE
  8
0
  6
CONTINUOUS
 62
     7
 10
-322.7015991210938
 20
-10.49273777008057
 11
-341.8357849121094
 21
-56.68671417236328
  0
LINE
  8
0
  6
CONTINUOUS
 62
     7
 10
-262.0426635742188
 20
-40.20825958251953
 11
-304.8226318359375
 21
2.571700096130371
  0
LINE
  8
0
  6
CONTINUOUS
 62
     7
 10
-311.1988830566406
 20
-3.804556608200073
 11
-268.4189147949219
 21
-46.58451843261719
  0
LINE
  8
0
  6
CONTINUOUS
 62
     7
 10
-271.5055847167969
 20
-49.67119598388672
 11
-314.2855529785156
 21
-6.8912353515625
  0
LINE
  8
0
  6
CONTINUOUS
 62
     7
 10
-300.3535766601563
 20
-44.62024307250977
 11
-306.8731384277344
 21
-40.85617065429688
  0
LINE
  8
0
  6
CONTINUOUS
 62
     7
 10
-310.1835632324219
 20
-49.95149612426758
 11
-309.080078125
 21
-46.91971969604492
  0
LINE
  8
0
  6
CONTINUOUS
 62
     7
 10
-305.7853088378906
 20
-43.93013000488281
 11
-305.2557678222656
 21
-43.01291275024414
  0
LINE
  8
0
  6
CONTINUOUS
 62
     7
 10
-305.7696533203125
 20
-37.82439804077148
 11
-307.6323852539063
 21
-36.74894714355469
  0
LINE
  8
0
  6
CONTINUOUS
 62
     7
 10
-304.5513916015625
 20
-47.08845138549805
 11
-306.8444213867188
 21
-45.76456069946289
  0
LINE
  8
0
  6
CONTINUOUS
 62
     7
 10
-307.3739929199219
 20
-46.68177795410156
 11
-306.8444213867188
 21
-45.76456069946289
  0
LINE
  8
0
  6
CONTINUOUS
 62
     7
 10
-303.4922790527344
 20
-45.2540168762207
 11
-305.7853088378906
 21
-43.93013000488281
  0
LINE
  8
0
  6
CONTINUOUS
 62
     7
 10
-305.0809326171875
 20
-48.00566864013672
 11
-307.3739929199219
 21
-46.68177795410156
  0
LINE
  8
0
  6
CONTINUOUS
 62
     7
 10
-305.7696533203125
 20
-37.82439804077148
 11
-306.8731384277344
 21
-40.85617065429688
  0
LINE
  8
0
  6
CONTINUOUS
 62
     7
 10
-310.1835632324219
 20
-49.95149612426758
 11
-312.0462951660156
 21
-48.87604522705078
  0
LINE
  8
0
  6
CONTINUOUS
 62
     7
 10
-300.3535766601563
 20
-44.62024307250977
 11
-302.5605163574219
 21
-50.68379211425781
  0
LINE
  8
0
  6
CONTINUOUS
 62
     7
 10
-307.6323852539063
 20
-36.74894714355469
 11
-312.0462951660156
 21
-48.87604522705078
  0
LINE
  8
0
  6
CONTINUOUS
 62
     7
 10
-302.5605163574219
 20
-50.68379211425781
 11
-309.080078125
 21
-46.91971969604492
  0
LINE
  8
0
  6
CONTINUOUS
 62
     7
 10
-302.9627075195313
 20
-44.33679962158203
 11
-305.2557678222656
 21
-43.01291275024414
  0
ARC
  8
0
  6
CENTER
 62
     7
 10
-56.47479248046875
 20
-68.91283416748047
 40
57.00000000000001
 50
135.0000003416227
 51
180.0000050089563
  0
ARC
  8
0
  6
CONTINUOUS
 62
     7
 10
-56.47479248046875
 20
-68.91283416748047
 40
93.09999847412109
 50
135.0000003416227
 51
180.0000050089563
  0
ARC
  8
0
  6
CONTINUOUS
 62
     7
 10
-56.47479248046875
 20
-68.91283416748047
 40
20.89999961853028
 50
135.0000003416227
 51
180.0000050089563
  0
ARC
  8
0
  6
CONTINUOUS
 62
     7
 10
-151.5747985839844
 20
-70.56299591064453
 40
2.000000000000003
 50
280.0000023272563
 51
0
  0
ARC
  8
0
  6
CONTINUOUS
 62
     7
 10
-151.5747985839844
 20
-79.642333984375
 40
2
 50
0
 51
79.99999767274299
  0
ARC
  8
0
  6
CONTINUOUS
 62
     7
 10
-151.0747985839844
 20
-84.80266571044922
 40
1.500000000000002
 50
269.9999974955215
 51
0
  0
ARC
  8
0
  6
CONTINUOUS
 62
     7
 10
-75.37479400634766
 20
-79.642333984375
 40
1.999999999999998
 50
100.0000005060239
 51
180.0000050089561
  0
ARC
  8
0
  6
CONTINUOUS
 62
     7
 10
-75.37479400634766
 20
-70.56299591064453
 40
1.999999999999993
 50
179.9999949910435
 51
259.9999994939762
  0
ARC
  8
0
  6
CONTINUOUS
 62
     7
 10
-75.87479400634766
 20
-84.80266571044922
 40
1.500000000000006
 50
179.9999949910436
 51
269.9999974955221
  0
ARC
  8
0
  6
CONTINUOUS
 62
     7
 10
-68.67227172851563
 20
-54.38167953491211
 40
2
 50
54.99999925378472
 51
135.0000003416226
  0
ARC
  8
0
  6
CONTINUOUS
 62
     7
 10
-116.1337432861328
 20
5.919919013977051
 40
2.000000000000001
 50
234.9999976599229
 51
314.9999987477608
  0
ARC
  8
0
  6
CONTINUOUS
 62
     7
 10
-122.5538101196289
 20
-0.5001434087753296
 40
1.999999999999996
 50
314.9999987477608
 51
34.99999983559885
  0
ARC
  8
0
  6
CONTINUOUS
 62
     7
 10
-62.2522087097168
 20
-47.96161651611328
 40
2.000000000000001
 50
135.0000003416226
 51
214.9999980143659
  0
ARC
  8
0
  6
CONTINUOUS
 62
     7
 10
-112.1312866210938
 20
9.215270042419434
 40
1.500000000000002
 50
314.999998747761
 51
45.000001252239
  0
ARC
  8
0
  6
CONTINUOUS
 62
     7
 10
-58.95685958862305
 20
-43.95915985107422
 40
1.500000000000002
 50
45.000001252239
 51
135.0000003416226
  0
ARC
  8
0
  6
CONTINUOUS
 62
     7
 10
31.45235633850098
 20
-70.60548400878906
 40
2.000000000000005
 50
280.0000023272567
 51
0
  0
ARC
  8
0
  6
CONTINUOUS
 62
     7
 10
31.45235633850098
 20
-79.70245361328125
 40
2
 50
0
 51
79.99999767274341
  0
ARC
  8
0
  6
CONTINUOUS
 62
     7
 10
31.95235633850098
 20
-84.85396575927734
 40
1.500000000000002
 50
269.9999974955218
 51
0
  0
ARC
  8
0
  6
CONTINUOUS
 62
     7
 10
119.8523559570313
 20
-84.85396575927734
 40
1.500000000000006
 50
179.9999949910436
 51
269.9999974955221
  0
ARC
  8
0
  6
CONTINUOUS
 62
     7
 10
120.3523559570313
 20
-70.60548400878906
 40
1.999999999999993
 50
179.9999949910435
 51
259.9999994939762
  0
ARC
  8
0
  6
CONTINUOUS
 62
     7
 10
120.3523559570313
 20
-79.70245361328125
 40
1.999999999999998
 50
100.0000005060239
 51
180.0000050089561
  0
ARC
  8
0
  6
CONTINUOUS
 62
     7
 10
-151.1247863769531
 20
-101.8026657104492
 40
0.5000000000000019
 50
180.0000050089569
 51
270.0000006832462
  0
ARC
  8
0
  6
CONTINUOUS
 62
     7
 10
-75.82479095458984
 20
-101.8026657104492
 40
0.5000000000000004
 50
269.9999974955215
 51
0
  0
ARC
  8
0
  6
CONTINUOUS
 62
     7
 10
-100.1458282470703
 20
21.27144050598145
 40
0.5000000000000041
 50
45.00000125223863
 51
135.0000003416228
  0
ARC
  8
0
  6
CONTINUOUS
 62
     7
 10
-46.90068817138672
 20
-31.97369956970215
 40
0.4999999999999991
 50
314.9999987477608
 51
45.0000012522392
  0
ARC
  8
0
  6
CONTINUOUS
 62
     7
 10
31.85235595703125
 20
-101.8539657592773
 40
0.4999999999999983
 50
180.0000050089569
 51
270.0000006832455
  0
ARC
  8
0
  6
CONTINUOUS
 62
     7
 10
119.9523544311523
 20
-101.8539657592773
 40
0.5000000000000004
 50
269.9999974955215
 51
0
  0
ARC
  8
0
  6
CENTER
 62
     7
 10
148.9023590087891
 20
-68.59156036376953
 40
73
 50
135.0000003416227
 51
180.0000050089563
  0
ARC
  8
0
  6
CONTINUOUS
 62
     7
 10
148.9023590087891
 20
-68.59156036376953
 40
115.4499969482422
 50
135.0000003416227
 51
180.0000050089563
  0
ARC
  8
0
  6
CONTINUOUS
 62
     7
 10
148.9023590087891
 20
-68.59156036376953
 40
30.54999923706055
 50
135.0000003416227
 51
180.0000050089563
  0
ARC
  8
0
  6
CONTINUOUS
 62
     7
 10
130.1385192871094
 20
-46.97959899902344
 40
1.999999999999992
 50
54.99999925378504
 51
135.0000003416226
  0
ARC
  8
0
  6
CONTINUOUS
 62
     7
 10
77.70547485351563
 20
25.60384178161621
 40
1.500000000000002
 50
314.999998747761
 51
45.000001252239
  0
ARC
  8
0
  6
CONTINUOUS
 62
     7
 10
136.571044921875
 20
-40.54706954956055
 40
2.000000000000001
 50
135.0000003416226
 51
214.9999980143659
  0
ARC
  8
0
  6
CONTINUOUS
 62
     7
 10
67.27672576904297
 20
15.88219356536865
 40
1.999999999999996
 50
314.9999987477608
 51
34.99999983559886
  0
ARC
  8
0
  6
CONTINUOUS
 62
     7
 10
73.70925140380859
 20
22.31472396850586
 40
2.000000000000002
 50
234.9999976599229
 51
314.9999987477608
  0
ARC
  8
0
  6
CONTINUOUS
 62
     7
 10
139.8601684570313
 20
-36.55084609985352
 40
1.499999999999992
 50
45.00000125223939
 51
135.0000003416226
  0
ARC
  8
0
  6
CONTINUOUS
 62
     7
 10
89.65558624267578
 20
37.69536590576172
 40
0.5000000000000041
 50
45.00000125223863
 51
135.0000003416228
  0
ARC
  8
0
  6
CONTINUOUS
 62
     7
 10
151.9516906738281
 20
-24.60074043273926
 40
0.5000000000000041
 50
314.9999987477614
 51
45.00000125223863
  0
ARC
  8
0
  6
CONTINUOUS
 62
     7
 10
-332.0576171875
 20
-373.3235473632813
 40
1.999999999999975
 50
280.0000023272563
 51
0
  0
ARC
  8
0
  6
CONTINUOUS
 62
     7
 10
-332.0576171875
 20
-382.5086975097656
 40
2
 50
0
 51
79.99999767274366
  0
ARC
  8
0
  6
CONTINUOUS
 62
     7
 10
-331.5576171875
 20
-387.6161193847656
 40
1.500000000000002
 50
269.9999974955227
 51
0
  0
ARC
  8
0
  6
CONTINUOUS
 62
     7
 10
-218.4576263427734
 20
-373.3235473632813
 40
2.000000000000008
 50
179.9999949910431
 51
259.9999994939768
  0
ARC
  8
0
  6
CONTINUOUS
 62
     7
 10
-218.4576263427734
 20
-382.5086975097656
 40
2.000000000000024
 50
100.0000005060233
 51
180.0000050089569
  0
ARC
  8
0
  6
CONTINUOUS
 62
     7
 10
-218.9576263427734
 20
-387.6161193847656
 40
1.500000000000006
 50
179.9999949910431
 51
269.9999974955215
  0
ARC
  8
0
  6
CENTER
 62
     7
 10
-180.2576141357422
 20
-368.4664001464844
 40
95
 50
135.0000003416227
 51
180.0000050089563
  0
ARC
  8
0
  6
CONTINUOUS
 62
     7
 10
-180.2576141357422
 20
-368.4664001464844
 40
149.8000030517578
 50
135.0000003416227
 51
180.0000050089563
  0
ARC
  8
0
  6
CONTINUOUS
 62
     7
 10
-180.2576141357422
 20
-368.4664001464844
 40
40.20000076293946
 50
135.0000003416227
 51
180.0000050089563
  0
ARC
  8
0
  6
CONTINUOUS
 62
     7
 10
-284.1618957519531
 20
-257.6930847167969
 40
2.000000000000016
 50
314.9999987477614
 51
34.99999983559884
  0
ARC
  8
0
  6
CONTINUOUS
 62
     7
 10
-277.6670227050781
 20
-251.1982116699219
 40
1.999999999999992
 50
234.9999976599237
 51
314.9999987477614
  0
ARC
  8
0
  6
CONTINUOUS
 62
     7
 10
-273.7019958496094
 20
-247.9402618408203
 40
1.499999999999992
 50
314.9999987477606
 51
45.00000125223939
  0
ARC
  8
0
  6
CONTINUOUS
 62
     7
 10
-197.3397064208984
 20
-331.5255432128906
 40
2.000000000000016
 50
135.0000003416222
 51
214.9999980143659
  0
ARC
  8
0
  6
CONTINUOUS
 62
     7
 10
-203.8345794677734
 20
-338.0204162597656
 40
2.000000000000009
 50
54.9999992537854
 51
135.0000003416222
  0
ARC
  8
0
  6
CONTINUOUS
 62
     7
 10
-194.0817565917969
 20
-327.5604858398438
 40
1.499999999999972
 50
45.00000125223863
 51
135.0000003416222
  0
ARC
  8
0
  6
CONTINUOUS
 62
     7
 10
-124.2907333374023
 20
-373.3147277832031
 40
1.999999999999977
 50
280.0000023272568
 51
0
  0
ARC
  8
0
  6
CONTINUOUS
 62
     7
 10
-124.2907333374023
 20
-382.5175170898438
 40
2
 50
0
 51
79.99999767274326
  0
ARC
  8
0
  6
CONTINUOUS
 62
     7
 10
-123.7907333374023
 20
-387.6161193847656
 40
1.500000000000002
 50
269.9999974955221
 51
0
  0
ARC
  8
0
  6
CONTINUOUS
 62
     7
 10
14.70926475524902
 20
-382.5175170898438
 40
2.000000000000026
 50
100.0000005060237
 51
180.0000050089569
  0
ARC
  8
0
  6
CONTINUOUS
 62
     7
 10
14.70926475524902
 20
-373.3147277832031
 40
2
 50
179.9999949910431
 51
259.9999994939763
  0
ARC
  8
0
  6
CONTINUOUS
 62
     7
 10
14.20926475524902
 20
-387.6161193847656
 40
1.5
 50
179.9999949910431
 51
269.9999974955218
  0
ARC
  8
0
  6
CENTER
 62
     7
 10
53.20926666259766
 20
-366.8511962890625
 40
108
 50
135.0000003416227
 51
180.0000050089563
  0
ARC
  8
0
  6
CONTINUOUS
 62
     7
 10
53.20926666259766
 20
-366.8511962890625
 40
175.5
 50
135.0000003416227
 51
180.0000050089563
  0
ARC
  8
0
  6
CONTINUOUS
 62
     7
 10
53.20926666259766
 20
-366.8511962890625
 40
40.5
 50
135.0000003416227
 51
180.0000050089563
  0
ARC
  8
0
  6
CONTINUOUS
 62
     7
 10
30.55607414245606
 20
-335.0571594238281
 40
2.000000000000017
 50
54.99999925378506
 51
135.0000003416222
  0
ARC
  8
0
  6
CONTINUOUS
 62
     7
 10
-61.22442626953125
 20
-230.2619781494141
 40
2.000000000000008
 50
234.9999976599231
 51
314.999998747761
  0
ARC
  8
0
  6
CONTINUOUS
 62
     7
 10
-67.73176574707031
 20
-236.7693176269531
 40
1.999999999999996
 50
314.9999987477608
 51
34.99999983559861
  0
ARC
  8
0
  6
CONTINUOUS
 62
     7
 10
-57.26560974121094
 20
-227.01025390625
 40
1.500000000000002
 50
314.999998747761
 51
45.000001252239
  0
ARC
  8
0
  6
CONTINUOUS
 62
     7
 10
37.06341552734375
 20
-328.5498046875
 40
2.000000000000016
 50
135.0000003416222
 51
214.9999980143659
  0
ARC
  8
0
  6
CONTINUOUS
 62
     7
 10
40.31512832641602
 20
-324.5910034179688
 40
1.499999999999983
 50
45.00000125223824
 51
135.0000003416222
  0
ARC
  8
0
  6
CONTINUOUS
 62
     7
 10
148.9419250488281
 20
-373.2618408203125
 40
1.999999999999975
 50
280.0000023272563
 51
0
  0
ARC
  8
0
  6
CONTINUOUS
 62
     7
 10
148.9419250488281
 20
-382.5704040527344
 40
2
 50
0
 51
79.99999767274287
  0
ARC
  8
0
  6
CONTINUOUS
 62
     7
 10
149.4419250488281
 20
-387.6161193847656
 40
1.500000000000002
 50
269.9999974955215
 51
0
  0
ARC
  8
0
  6
CONTINUOUS
 62
     7
 10
312.7419128417969
 20
-382.5704040527344
 40
2.000000000000028
 50
100.0000005060241
 51
180.0000050089569
  0
ARC
  8
0
  6
CONTINUOUS
 62
     7
 10
312.7419128417969
 20
-373.2618408203125
 40
2.000000000000008
 50
179.9999949910431
 51
259.9999994939759
  0
ARC
  8
0
  6
CONTINUOUS
 62
     7
 10
312.2419128417969
 20
-387.6161193847656
 40
1.500000000000006
 50
179.9999949910431
 51
269.9999974955227
  0
ARC
  8
0
  6
CENTER
 62
     7
 10
352.8419189453125
 20
-366.6501770019531
 40
122
 50
135.0000003416227
 51
180.0000050089563
  0
ARC
  8
0
  6
CONTINUOUS
 62
     7
 10
352.8419189453125
 20
-366.6501770019531
 40
201.8999938964844
 50
135.0000003416227
 51
180.0000050089563
  0
ARC
  8
0
  6
CONTINUOUS
 62
     7
 10
352.8419189453125
 20
-366.6501770019531
 40
42.09999847412111
 50
135.0000003416227
 51
180.0000050089563
  0
ARC
  8
0
  6
CONTINUOUS
 62
     7
 10
329.1620788574219
 20
-333.6200561523438
 40
2.000000000000009
 50
54.9999992537854
 51
135.0000003416222
  0
ARC
  8
0
  6
CONTINUOUS
 62
     7
 10
219.9201507568359
 20
-211.2138061523438
 40
2.000000000000008
 50
234.9999976599231
 51
314.9999987477608
  0
ARC
  8
0
  6
CONTINUOUS
 62
     7
 10
213.3379974365234
 20
-217.7959442138672
 40
1.999999999999996
 50
314.9999987477608
 51
34.99999983559884
  0
ARC
  8
0
  6
CONTINUOUS
 62
     7
 10
223.8415679931641
 20
-207.9994964599609
 40
1.499999999999992
 50
314.9999987477606
 51
45.00000125223939
  0
ARC
  8
0
  6
CONTINUOUS
 62
     7
 10
335.7442321777344
 20
-327.0379028320313
 40
2.000000000000016
 50
135.0000003416222
 51
214.9999980143664
  0
ARC
  8
0
  6
CONTINUOUS
 62
     7
 10
338.9585571289063
 20
-323.1164855957031
 40
1.499999999999972
 50
45.00000125223863
 51
135.0000003416222
  0
ARC
  8
0
  6
CONTINUOUS
 62
     7
 10
-261.9286499023438
 20
-235.6719665527344
 40
0.4999999999999841
 50
45.00000125224093
 51
135.0000003416222
  0
ARC
  8
0
  6
CONTINUOUS
 62
     7
 10
-181.8134613037109
 20
-315.7871704101563
 40
0.4999999999999841
 50
314.9999987477636
 51
45.00000125223632
  0
ARC
  8
0
  6
CONTINUOUS
 62
     7
 10
-331.9076232910156
 20
-404.6161193847656
 40
0.5000000000000019
 50
180.0000050089569
 51
270.000000683243
  0
ARC
  8
0
  6
CONTINUOUS
 62
     7
 10
-218.6076202392578
 20
-404.6161193847656
 40
0.5000000000000004
 50
269.9999974955215
 51
0
  0
ARC
  8
0
  6
CONTINUOUS
 62
     7
 10
-124.1907348632813
 20
-404.6161193847656
 40
0.5000000000000019
 50
180.0000050089569
 51
270.0000006832446
  0
ARC
  8
0
  6
CONTINUOUS
 62
     7
 10
14.60926532745361
 20
-404.6161193847656
 40
0.5000000000000004
 50
269.9999974955217
 51
0
  0
ARC
  8
0
  6
CONTINUOUS
 62
     7
 10
-45.52763748168945
 20
-214.7066040039063
 40
0.4999999999999991
 50
45.0000012522392
 51
135.0000003416222
  0
ARC
  8
0
  6
CONTINUOUS
 62
     7
 10
52.6187858581543
 20
-312.85302734375
 40
0.499999999999979
 50
314.9999987477631
 51
45.00000125223691
  0
ARC
  8
0
  6
CONTINUOUS
 62
     7
 10
235.3674011230469
 20
-195.4837036132813
 40
0.5000000000000041
 50
45.00000125223863
 51
135.0000003416222
  0
ARC
  8
0
  6
CONTINUOUS
 62
     7
 10
351.4743347167969
 20
-311.5906372070313
 40
0.499999999999964
 50
314.9999987477614
 51
45.00000125223863
  0
ARC
  8
0
  6
CONTINUOUS
 62
     7
 10
148.7419281005859
 20
-404.6161193847656
 40
0.5000000000000019
 50
180.0000050089569
 51
270.0000006832462
  0
ARC
  8
0
  6
CONTINUOUS
 62
     7
 10
312.9419250488281
 20
-404.6161193847656
 40
0.5000000000000004
 50
269.9999974955248
 51
0
  0
ARC
  8
0
  6
CONTINUOUS
 62
     7
 10
-107.3612899780273
 20
-50.97819519042969
 40
1.412147641181951
 50
237.4999971603092
 51
57.50000899945492
  0
ARC
  8
0
  6
CONTINUOUS
 62
     7
 10
-107.3612899780273
 20
-50.97819519042969
 40
2.824295282363894
 50
237.4999971603094
 51
57.50000899945492
  0
ARC
  8
0
  6
CONTINUOUS
 62
     7
 10
82.59730529785156
 20
-44.95645523071289
 40
1.412147641181951
 50
237.4999971603092
 51
57.50000899945492
  0
ARC
  8
0
  6
CONTINUOUS
 62
     7
 10
82.59730529785156
 20
-44.95645523071289
 40
2.824295282363894
 50
237.4999971603094
 51
57.50000899945492
  0
ARC
  8
0
  6
CONTINUOUS
 62
     7
 10
-266.1163024902344
 20
-335.0949401855469
 40
1.41214764118197
 50
237.499997160309
 51
57.50000899945557
  0
ARC
  8
0
  6
CONTINUOUS
 62
     7
 10
-266.1163024902344
 20
-335.0949401855469
 40
2.824295282363862
 50
237.4999971603094
 51
57.50000899945458
  0
ARC
  8
0
  6
CONTINUOUS
 62
     7
 10
-44.40671539306641
 20
-330.1680603027344
 40
1.412147641181959
 50
237.4999971603098
 51
57.50000899945507
  0
ARC
  8
0
  6
CONTINUOUS
 62
     7
 10
-44.40671539306641
 20
-330.1680603027344
 40
2.82429528236387
 50
237.4999971603091
 51
57.50000899945507
  0
ARC
  8
0
  6
CONTINUOUS
 62
     7
 10
240.2574615478516
 20
-324.6937561035156
 40
1.412147641181955
 50
237.49999716031
 51
57.50000899945458
  0
ARC
  8
0
  6
CONTINUOUS
 62
     7
 10
240.2574615478516
 20
-324.6937561035156
 40
2.824295282363877
 50
237.4999971603089
 51
57.50000899945507
  0
ARC
  8
0
  6
CONTINUOUS
 62
     7
 10
-338.6313781738281
 20
-71.54521942138672
 40
2
 50
0
 51
79.9999976727438
  0
ARC
  8
0
  6
CONTINUOUS
 62
     7
 10
-337.9313659667969
 20
-94.0670166015625
 40
0.5000000000000019
 50
180.0000050089569
 51
270.000000683243
  0
ARC
  8
0
  6
CONTINUOUS
 62
     7
 10
-293.5089111328125
 20
13.17830181121826
 40
0.4999999999999841
 50
45.00000125224093
 51
135.0000003416226
  0
ARC
  8
0
  6
CONTINUOUS
 62
     7
 10
-309.92919921875
 20
-2.252041339874268
 40
1.999999999999985
 50
234.9999976599236
 51
314.9999987477614
  0
ARC
  8
0
  6
CONTINUOUS
 62
     7
 10
-305.671142578125
 20
1.29890787601471
 40
1.499999999999992
 50
314.9999987477606
 51
45.00000125223937
  0
ARC
  8
0
  6
CONTINUOUS
 62
     7
 10
-338.1313781738281
 20
-77.0670166015625
 40
1.500000000000002
 50
269.9999974955227
 51
0
  0
ARC
  8
0
  6
CONTINUOUS
 62
     7
 10
-277.7313842773438
 20
-63.18881988525391
 40
2.000000000000008
 50
180.0000050089563
 51
260.0000026816992
  0
ARC
  8
0
  6
CONTINUOUS
 62
     7
 10
-277.7313842773438
 20
-71.54521942138672
 40
2
 50
100.0000005060243
 51
180.0000050089561
  0
ARC
  8
0
  6
CONTINUOUS
 62
     7
 10
-278.2313842773438
 20
-77.0670166015625
 40
1.500000000000006
 50
180.0000050089564
 51
270.0000006832452
  0
ARC
  8
0
  6
CENTER
 62
     7
 10
-267.1813659667969
 20
-60.54977416992188
 40
41.00000000000001
 50
135.0000003416227
 51
180.0000050089563
  0
ARC
  8
0
  6
CONTINUOUS
 62
     7
 10
-267.131103515625
 20
-60.53902816772461
 40
69.5
 50
133.5567540492423
 51
180.0000050089563
  0
ARC
  8
0
  6
CONTINUOUS
 62
     7
 10
-266.8663940429688
 20
-45.31484603881836
 40
2.000000000000001
 50
135.0000003416226
 51
214.9999980143664
  0
ARC
  8
0
  6
CONTINUOUS
 62
     7
 10
-272.7752685546875
 20
-51.22370910644531
 40
1.999999999999992
 50
54.99999925378504
 51
135.0000003416226
  0
ARC
  8
0
  6
CONTINUOUS
 62
     7
 10
-263.3154602050781
 20
-41.05678939819336
 40
1.499999999999982
 50
45.00001149752345
 51
135.0000003416226
  0
ARC
  8
0
  6
CONTINUOUS
 62
     7
 10
-315.8380737304688
 20
-8.160907745361328
 40
1.999999999999981
 50
315.0000089930441
 51
34.99997592993724
  0
ARC
  8
0
  6
CONTINUOUS
 62
     7
 10
-278.4313659667969
 20
-94.0670166015625
 40
0.5000000000000004
 50
269.9999974955248
 51
0
  0
ARC
  8
0
  6
CONTINUOUS
 62
     7
 10
-338.6313781738281
 20
-63.18881988525391
 40
2.000000000000003
 50
280.0000023272563
 51
0
  0
ARC
  8
0
  6
CONTINUOUS
 62
     7
 10
-267.1314086914063
 20
-60.57047653198242
 40
12.60000038146972
 50
134.9058530141032
 51
179.9058576814369
  0
ARC
  8
0
  6
CONTINUOUS
 62
     7
 10
-251.4360656738281
 20
-28.89455223083496
 40
0.5000000000000041
 50
314.9999987477614
 51
45.00000125223863
  0
ARC
  8
0
  6
CONTINUOUS
 62
     7
 10
-304.0218505859375
 20
-46.17123031616211
 40
1.059110760688775
 50
239.9999966606962
 51
60.00001533003021
  0
ARC
  8
0
  6
CONTINUOUS
 62
     7
 10
-304.0218505859375
 20
-46.17123031616211
 40
2.118221521377556
 50
239.9999966606963
 51
60.00001533003012
  0
TEXT
  8
0
  6
CONTINUOUS
 62
     7
 10
-174.9208586215973
 20
-131.8966751098633
 40
10
 41
0.8512700469189696
  1
　６５Ａ
  0
TEXT
  8
0
  6
CONTINUOUS
 62
     7
 10
-174.9208586215973
 20
-146.8966751098633
 40
10
 41
0.8474110189900798
  1
（７５Ｓｕ）
  0
TEXT
  8
0
  6
CONTINUOUS
 62
     7
 10
12.18826270103454
 20
-140.2497711181641
 40
10
 41
0.8512700469189696
  1
　８０Ａ
  0
TEXT
  8
0
  6
CONTINUOUS
 62
     7
 10
12.18826270103454
 20
-155.2497711181641
 40
10
 41
0.8474110189900798
  1
（８０Ｓｕ）
  0
TEXT
  8
0
  6
CONTINUOUS
 62
     7
 10
-345.5240232944489
 20
-449.8781127929688
 40
10
 41
0.8489270656764293
  1
　１００Ａ
  0
TEXT
  8
0
  6
CONTINUOUS
 62
     7
 10
-345.5240232944489
 20
-464.8781127929688
 40
10
 41
0.8463497863096351
  1
（１００Ｓｕ）
  0
TEXT
  8
0
  6
CONTINUOUS
 62
     7
 10
-132.0256254673004
 20
-451.4163208007813
 40
10
 41
0.8489270656764293
  1
　１２５Ａ
  0
TEXT
  8
0
  6
CONTINUOUS
 62
     7
 10
-132.0256254673004
 20
-466.4163208007813
 40
10
 41
0.8463497863096351
  1
（１２５Ｓｕ）
  0
TEXT
  8
0
  6
CONTINUOUS
 62
     7
 10
145.2968232631683
 20
-444.7338256835938
 40
10
 41
0.8489270656764293
  1
　１５０Ａ
  0
TEXT
  8
0
  6
CONTINUOUS
 62
     7
 10
145.2968232631683
 20
-459.7338256835938
 40
10
 41
0.8463497863096351
  1
（１５０Ｓｕ）
  0
TEXT
  8
0
  6
CONTINUOUS
 62
     7
 10
-332.2146971225739
 20
-133.9338073730469
 40
10
 41
0.8512700469189696
  1
　５０Ａ
  0
TEXT
  8
0
  6
CONTINUOUS
 62
     7
 10
-332.2146971225739
 20
-148.9338073730469
 40
10
 41
0.8474110189900798
  1
（６０Ｓｕ）
  0
LINE
  8
0
  6
CONTINUOUS
 62
     7
 10
-111.7880747086693
 20
-62.77607313643495
 11
-111.2356146893561
 21
-61.90888453973158
  0
LINE
  8
0
  6
CONTINUOUS
 62
     7
 10
-112.0028660155152
 20
-58.2332968087673
 11
-111.487631735257
 21
-57.42454092263817
  0
POLYLINE
  8
0
  6
CONTINUOUS
 62
     7
 66
     1
 10
0
 20
0
  0
VERTEX
  8
0
  6
CONTINUOUS
 62
     7
 10
-111.8244207919109
 20
-59.25771995155299
 42
0.07333214780387673
  0
VERTEX
  8
0
  6
CONTINUOUS
 62
     7
 10
-111.8597928589379
 20
-58.90712569068075
 42
0.07333214780387673
  0
VERTEX
  8
0
  6
CONTINUOUS
 62
     7
 10
-111.9628980595782
 20
-58.58637530275156
 42
0.07333214780387673
  0
VERTEX
  8
0
  6
CONTINUOUS
 62
     7
 10
-112.1249596999404
 20
-58.32277224048018
 42
0.07333214780387673
  0
VERTEX
  8
0
  6
CONTINUOUS
 62
     7
 10
-112.3321824971472
 20
-58.13875536603808
 42
0.07333214780387673
  0
VERTEX
  8
0
  6
CONTINUOUS
 62
     7
 10
-112.5669268845516
 20
-58.04998887257709
 42
0.07333214780387673
  0
VERTEX
  8
0
  6
CONTINUOUS
 62
     7
 10
-112.8092105565266
 20
-58.06402889049667
 42
0.07333214780387673
  0
VERTEX
  8
0
  6
CONTINUOUS
 62
     7
 10
-113.0384094358138
 20
-58.17968028183344
 42
0.07333214780387673
  0
VERTEX
  8
0
  6
CONTINUOUS
 62
     7
 10
-113.2350132708332
 20
-58.38709837480026
 42
0.07333214780387673
  0
VERTEX
  8
0
  6
CONTINUOUS
 62
     7
 10
-113.3822864200547
 20
-58.66862697845668
 42
0.07333214780387673
  0
VERTEX
  8
0
  6
CONTINUOUS
 62
     7
 10
-113.4676924513578
 20
-59.0003013426198
 42
0.07333214780387673
  0
VERTEX
  8
0
  6
CONTINUOUS
 62
     7
 10
-113.4839612892413
 20
-59.35388812554034
 42
0.07333214780387673
  0
VERTEX
  8
0
  6
CONTINUOUS
 62
     7
 10
-113.4297080703893
 20
-59.69928871979223
 42
0.07333214780387673
  0
VERTEX
  8
0
  6
CONTINUOUS
 62
     7
 10
-113.3095510283293
 20
-60.00710135643706
 42
0.07333214780387673
  0
VERTEX
  8
0
  6
CONTINUOUS
 62
     7
 10
-113.1337183724095
 20
-60.25112389173338
 42
0.07333214780387673
  0
VERTEX
  8
0
  6
CONTINUOUS
 62
     7
 10
-112.9171776250002
 20
-60.41058422998145
 42
0.07333214780387673
  0
VERTEX
  8
0
  6
CONTINUOUS
 62
     7
 10
-112.6783615309404
 20
-60.47190852070726
 42
-1
  0
SEQEND
  8
0
  0
POLYLINE
  8
0
  6
CONTINUOUS
 62
     7
 66
     1
 10
0
 20
0
  0
VERTEX
  8
0
  6
CONTINUOUS
 62
     7
 10
-110.9166314144907
 20
-59.25771993742512
 42
0.07332668712448476
  0
VERTEX
  8
0
  6
CONTINUOUS
 62
     7
 10
-110.9906297327764
 20
-58.63038604251167
 42
0.07332668712448476
  0
VERTEX
  8
0
  6
CONTINUOUS
 62
     7
 10
-111.2063266941192
 20
-58.05644523224981
 42
0.07332668712448476
  0
VERTEX
  8
0
  6
CONTINUOUS
 62
     7
 10
-111.5453640849964
 20
-57.58474626129305
 42
0.07332668712448476
  0
VERTEX
  8
0
  6
CONTINUOUS
 62
     7
 10
-111.9788860477495
 20
-57.25543596515231
 42
0.07332668712448476
  0
VERTEX
  8
0
  6
CONTINUOUS
 62
     7
 10
-112.4699950354245
 20
-57.09654231739812
 42
0.07332668712448476
  0
VERTEX
  8
0
  6
CONTINUOUS
 62
     7
 10
-112.976892203928
 20
-57.12158893697578
 42
0.07332668712448476
  0
VERTEX
  8
0
  6
CONTINUOUS
 62
     7
 10
-113.4564349591523
 20
-57.32844407762719
 42
0.07332668712448476
  0
VERTEX
  8
0
  6
CONTINUOUS
 62
     7
 10
-113.8678088721932
 20
-57.69950206323762
 42
0.07332668712448476
  0
VERTEX
  8
0
  6
CONTINUOUS
 62
     7
 10
-114.1760014417791
 20
-58.20318172693892
 42
0.07332668712448476
  0
VERTEX
  8
0
  6
CONTINUOUS
 62
     7
 10
-114.3547820480472
 20
-58.79661432011416
 42
0.07332668712448476
  0
VERTEX
  8
0
  6
CONTINUOUS
 62
     7
 10
-114.3889344704114
 20
-59.42929212031336
 42
0.07332668712448476
  0
VERTEX
  8
0
  6
CONTINUOUS
 62
     7
 10
-114.2755519573894
 20
-60.04736720091396
 42
0.07332668712448476
  0
VERTEX
  8
0
  6
CONTINUOUS
 62
     7
 10
-114.0242846235254
 20
-60.59823448935469
 42
0.07332668712448476
  0
VERTEX
  8
0
  6
CONTINUOUS
 62
     7
 10
-113.6565181171736
 20
-61.03500904464759
 42
0.07332668712448476
  0
VERTEX
  8
0
  6
CONTINUOUS
 62
     7
 10
-113.2035534636617
 20
-61.32051648799101
 42
0.07332668712448476
  0
VERTEX
  8
0
  6
CONTINUOUS
 62
     7
 10
-112.7039429994509
 20
-61.4304569563986
 42
-1
  0
SEQEND
  8
0
  0
POLYLINE
  8
0
  6
CONTINUOUS
 62
     7
 66
     1
 10
0
 20
0
  0
VERTEX
  8
0
  6
CONTINUOUS
 62
     7
 10
-111.3831312980007
 20
-60.67806285278011
 42
0.07459289906077718
  0
VERTEX
  8
0
  6
CONTINUOUS
 62
     7
 10
-111.3629613210083
 20
-61.09441025065093
 42
0.07459289906077718
  0
VERTEX
  8
0
  6
CONTINUOUS
 62
     7
 10
-111.2570483846545
 20
-61.48408262340146
 42
0.07459289906077718
  0
VERTEX
  8
0
  6
CONTINUOUS
 62
     7
 10
-111.0747173945293
 20
-61.81277199872962
 42
0.07459289906077718
  0
VERTEX
  8
0
  6
CONTINUOUS
 62
     7
 10
-110.832021340263
 20
-62.05153953782283
 42
0.07459289906077718
  0
VERTEX
  8
0
  6
CONTINUOUS
 62
     7
 10
-110.5503279402002
 20
-62.17936340107764
 42
0.07459289906077718
  0
VERTEX
  8
0
  6
CONTINUOUS
 62
     7
 10
-110.2544383607639
 20
-62.18498957649129
 42
0.07459289906077718
  0
VERTEX
  8
0
  6
CONTINUOUS
 62
     7
 10
-109.9704036443314
 20
-62.06792271801472
 42
0.07459289906077718
  0
VERTEX
  8
0
  6
CONTINUOUS
 62
     7
 10
-109.7232310941288
 20
-61.83846975736537
 42
0.07459289906077718
  0
VERTEX
  8
0
  6
CONTINUOUS
 62
     7
 10
-109.534682553179
 20
-61.51683244957921
 42
0.07459289906077718
  0
VERTEX
  8
0
  6
CONTINUOUS
 62
     7
 10
-109.421358423699
 20
-61.13132874742499
 42
0.07459289906077718
  0
VERTEX
  8
0
  6
CONTINUOUS
 62
     7
 10
-109.3932361158602
 20
-60.7158996004304
 42
0.07459289906077718
  0
VERTEX
  8
0
  6
CONTINUOUS
 62
     7
 10
-109.4527916054458
 20
-60.30712068771781
 42
0.07459289906077718
  0
VERTEX
  8
0
  6
CONTINUOUS
 62
     7
 10
-109.5947814412134
 20
-59.9409821810205
 42
0.07459289906077718
  0
VERTEX
  8
0
  6
CONTINUOUS
 62
     7
 10
-109.8067043947121
 20
-59.64972005759763
 42
0.07459289906077718
  0
VERTEX
  8
0
  6
CONTINUOUS
 62
     7
 10
-110.0699021074664
 20
-59.45897794415156
 42
0.07459289906077718
  0
VERTEX
  8
0
  6
CONTINUOUS
 62
     7
 10
-110.3612018311096
 20
-59.38554937187042
 42
-1
  0
SEQEND
  8
0
  0
POLYLINE
  8
0
  6
CONTINUOUS
 62
     7
 66
     1
 10
0
 20
0
  0
VERTEX
  8
0
  6
CONTINUOUS
 62
     7
 10
-112.2903238535069
 20
-60.68346599741833
 42
0.07398282385211347
  0
VERTEX
  8
0
  6
CONTINUOUS
 62
     7
 10
-112.2312981642338
 20
-61.39443056225035
 42
0.07398282385211347
  0
VERTEX
  8
0
  6
CONTINUOUS
 62
     7
 10
-112.0136078878101
 20
-62.05254198535985
 42
0.07398282385211347
  0
VERTEX
  8
0
  6
CONTINUOUS
 62
     7
 10
-111.6561103281089
 20
-62.6007917163793
 42
0.07398282385211347
  0
VERTEX
  8
0
  6
CONTINUOUS
 62
     7
 10
-111.1897735202119
 20
-62.99168791531432
 42
0.07398282385211347
  0
VERTEX
  8
0
  6
CONTINUOUS
 62
     7
 10
-110.6549936409179
 20
-63.19136940780605
 42
0.07398282385211347
  0
VERTEX
  8
0
  6
CONTINUOUS
 62
     7
 10
-110.0980957115132
 20
-63.18253889126645
 42
0.07398282385211347
  0
VERTEX
  8
0
  6
CONTINUOUS
 62
     7
 10
-109.5673207175561
 20
-62.96596130447222
 42
0.07398282385211347
  0
VERTEX
  8
0
  6
CONTINUOUS
 62
     7
 10
-109.1086467592805
 20
-62.56039756515197
 42
0.07398282385211347
  0
VERTEX
  8
0
  6
CONTINUOUS
 62
     7
 10
-108.7618062232314
 20
-62.00097941551291
 42
0.07398282385211347
  0
VERTEX
  8
0
  6
CONTINUOUS
 62
     7
 10
-108.5568439855111
 20
-61.33616615384452
 42
0.07398282385211347
  0
VERTEX
  8
0
  6
CONTINUOUS
 62
     7
 10
-108.5115147904413
 20
-60.6235468736984
 42
0.07398282385211347
  0
VERTEX
  8
0
  6
CONTINUOUS
 62
     7
 10
-108.6297452553235
 20
-59.9248518394318
 42
0.07398282385211347
  0
VERTEX
  8
0
  6
CONTINUOUS
 62
     7
 10
-108.9012937293133
 20
-59.300605135043
 42
0.07398282385211347
  0
VERTEX
  8
0
  6
CONTINUOUS
 62
     7
 10
-109.3026374709521
 20
-58.80488179773584
 42
0.07398282385211347
  0
VERTEX
  8
0
  6
CONTINUOUS
 62
     7
 10
-109.7990102930771
 20
-58.48062359671666
 42
0.07398282385211347
  0
VERTEX
  8
0
  6
CONTINUOUS
 62
     7
 10
-110.3474141652065
 20
-58.35591922538261
 42
-1
  0
SEQEND
  8
0
  0
LINE
  8
0
  6
CONTINUOUS
 62
     7
 10
-103.6819956071068
 20
-43.20625654707948
 11
-103.1295355877936
 21
-42.33906795037611
  0
LINE
  8
0
  6
CONTINUOUS
 62
     7
 10
-103.8967869139527
 20
-38.66348021941183
 11
-103.3815526336945
 21
-37.8547243332827
  0
POLYLINE
  8
0
  6
CONTINUOUS
 62
     7
 66
     1
 10
0
 20
0
  0
VERTEX
  8
0
  6
CONTINUOUS
 62
     7
 10
-103.7183416903484
 20
-39.68790336219752
 42
0.07333214780387673
  0
VERTEX
  8
0
  6
CONTINUOUS
 62
     7
 10
-103.7537137573754
 20
-39.33730910132528
 42
0.07333214780387673
  0
VERTEX
  8
0
  6
CONTINUOUS
 62
     7
 10
-103.8568189580157
 20
-39.01655871339609
 42
0.07333214780387673
  0
VERTEX
  8
0
  6
CONTINUOUS
 62
     7
 10
-104.0188805983779
 20
-38.75295565112471
 42
0.07333214780387673
  0
VERTEX
  8
0
  6
CONTINUOUS
 62
     7
 10
-104.2261033955847
 20
-38.56893877668261
 42
0.07333214780387673
  0
VERTEX
  8
0
  6
CONTINUOUS
 62
     7
 10
-104.4608477829891
 20
-38.48017228322162
 42
0.07333214780387673
  0
VERTEX
  8
0
  6
CONTINUOUS
 62
     7
 10
-104.7031314549641
 20
-38.4942123011412
 42
0.07333214780387673
  0
VERTEX
  8
0
  6
CONTINUOUS
 62
     7
 10
-104.9323303342513
 20
-38.60986369247797
 42
0.07333214780387673
  0
VERTEX
  8
0
  6
CONTINUOUS
 62
     7
 10
-105.1289341692707
 20
-38.81728178544479
 42
0.07333214780387673
  0
VERTEX
  8
0
  6
CONTINUOUS
 62
     7
 10
-105.2762073184922
 20
-39.09881038910121
 42
0.07333214780387673
  0
VERTEX
  8
0
  6
CONTINUOUS
 62
     7
 10
-105.3616133497953
 20
-39.43048475326433
 42
0.07333214780387673
  0
VERTEX
  8
0
  6
CONTINUOUS
 62
     7
 10
-105.3778821876788
 20
-39.78407153618487
 42
0.07333214780387673
  0
VERTEX
  8
0
  6
CONTINUOUS
 62
     7
 10
-105.3236289688268
 20
-40.12947213043676
 42
0.07333214780387673
  0
VERTEX
  8
0
  6
CONTINUOUS
 62
     7
 10
-105.2034719267668
 20
-40.43728476708159
 42
0.07333214780387673
  0
VERTEX
  8
0
  6
CONTINUOUS
 62
     7
 10
-105.027639270847
 20
-40.68130730237791
 42
0.07333214780387673
  0
VERTEX
  8
0
  6
CONTINUOUS
 62
     7
 10
-104.8110985234377
 20
-40.84076764062598
 42
0.07333214780387673
  0
VERTEX
  8
0
  6
CONTINUOUS
 62
     7
 10
-104.5722824293779
 20
-40.90209193135179
 42
-1
  0
SEQEND
  8
0
  0
POLYLINE
  8
0
  6
CONTINUOUS
 62
     7
 66
     1
 10
0
 20
0
  0
VERTEX
  8
0
  6
CONTINUOUS
 62
     7
 10
-102.8105523129282
 20
-39.68790334806965
 42
0.07332668712448476
  0
VERTEX
  8
0
  6
CONTINUOUS
 62
     7
 10
-102.8845506312139
 20
-39.06056945315621
 42
0.07332668712448476
  0
VERTEX
  8
0
  6
CONTINUOUS
 62
     7
 10
-103.1002475925567
 20
-38.48662864289434
 42
0.07332668712448476
  0
VERTEX
  8
0
  6
CONTINUOUS
 62
     7
 10
-103.4392849834339
 20
-38.01492967193758
 42
0.07332668712448476
  0
VERTEX
  8
0
  6
CONTINUOUS
 62
     7
 10
-103.872806946187
 20
-37.68561937579684
 42
0.07332668712448476
  0
VERTEX
  8
0
  6
CONTINUOUS
 62
     7
 10
-104.363915933862
 20
-37.52672572804265
 42
0.07332668712448476
  0
VERTEX
  8
0
  6
CONTINUOUS
 62
     7
 10
-104.8708131023655
 20
-37.55177234762031
 42
0.07332668712448476
  0
VERTEX
  8
0
  6
CONTINUOUS
 62
     7
 10
-105.3503558575898
 20
-37.75862748827172
 42
0.07332668712448476
  0
VERTEX
  8
0
  6
CONTINUOUS
 62
     7
 10
-105.7617297706307
 20
-38.12968547388215
 42
0.07332668712448476
  0
VERTEX
  8
0
  6
CONTINUOUS
 62
     7
 10
-106.0699223402166
 20
-38.63336513758345
 42
0.07332668712448476
  0
VERTEX
  8
0
  6
CONTINUOUS
 62
     7
 10
-106.2487029464847
 20
-39.22679773075869
 42
0.07332668712448476
  0
VERTEX
  8
0
  6
CONTINUOUS
 62
     7
 10
-106.2828553688489
 20
-39.85947553095789
 42
0.07332668712448476
  0
VERTEX
  8
0
  6
CONTINUOUS
 62
     7
 10
-106.1694728558269
 20
-40.47755061155849
 42
0.07332668712448476
  0
VERTEX
  8
0
  6
CONTINUOUS
 62
     7
 10
-105.9182055219629
 20
-41.02841789999922
 42
0.07332668712448476
  0
VERTEX
  8
0
  6
CONTINUOUS
 62
     7
 10
-105.5504390156111
 20
-41.46519245529212
 42
0.07332668712448476
  0
VERTEX
  8
0
  6
CONTINUOUS
 62
     7
 10
-105.0974743620992
 20
-41.75069989863554
 42
0.07332668712448476
  0
VERTEX
  8
0
  6
CONTINUOUS
 62
     7
 10
-104.5978638978884
 20
-41.86064036704313
 42
-1
  0
SEQEND
  8
0
  0
POLYLINE
  8
0
  6
CONTINUOUS
 62
     7
 66
     1
 10
0
 20
0
  0
VERTEX
  8
0
  6
CONTINUOUS
 62
     7
 10
-103.2770521964382
 20
-41.10824626342464
 42
0.07459289906077718
  0
VERTEX
  8
0
  6
CONTINUOUS
 62
     7
 10
-103.2568822194458
 20
-41.52459366129546
 42
0.07459289906077718
  0
VERTEX
  8
0
  6
CONTINUOUS
 62
     7
 10
-103.150969283092
 20
-41.91426603404599
 42
0.07459289906077718
  0
VERTEX
  8
0
  6
CONTINUOUS
 62
     7
 10
-102.9686382929668
 20
-42.24295540937415
 42
0.07459289906077718
  0
VERTEX
  8
0
  6
CONTINUOUS
 62
     7
 10
-102.7259422387005
 20
-42.48172294846736
 42
0.07459289906077718
  0
VERTEX
  8
0
  6
CONTINUOUS
 62
     7
 10
-102.4442488386377
 20
-42.60954681172218
 42
0.07459289906077718
  0
VERTEX
  8
0
  6
CONTINUOUS
 62
     7
 10
-102.1483592592014
 20
-42.61517298713582
 42
0.07459289906077718
  0
VERTEX
  8
0
  6
CONTINUOUS
 62
     7
 10
-101.8643245427689
 20
-42.49810612865925
 42
0.07459289906077718
  0
VERTEX
  8
0
  6
CONTINUOUS
 62
     7
 10
-101.6171519925663
 20
-42.26865316800991
 42
0.07459289906077718
  0
VERTEX
  8
0
  6
CONTINUOUS
 62
     7
 10
-101.4286034516165
 20
-41.94701586022374
 42
0.07459289906077718
  0
VERTEX
  8
0
  6
CONTINUOUS
 62
     7
 10
-101.3152793221365
 20
-41.56151215806952
 42
0.07459289906077718
  0
VERTEX
  8
0
  6
CONTINUOUS
 62
     7
 10
-101.2871570142977
 20
-41.14608301107494
 42
0.07459289906077718
  0
VERTEX
  8
0
  6
CONTINUOUS
 62
     7
 10
-101.3467125038833
 20
-40.73730409836234
 42
0.07459289906077718
  0
VERTEX
  8
0
  6
CONTINUOUS
 62
     7
 10
-101.4887023396509
 20
-40.37116559166503
 42
0.07459289906077718
  0
VERTEX
  8
0
  6
CONTINUOUS
 62
     7
 10
-101.7006252931496
 20
-40.07990346824217
 42
0.07459289906077718
  0
VERTEX
  8
0
  6
CONTINUOUS
 62
     7
 10
-101.9638230059039
 20
-39.88916135479609
 42
0.07459289906077718
  0
VERTEX
  8
0
  6
CONTINUOUS
 62
     7
 10
-102.2551227295471
 20
-39.81573278251495
 42
-1
  0
SEQEND
  8
0
  0
POLYLINE
  8
0
  6
CONTINUOUS
 62
     7
 66
     1
 10
0
 20
0
  0
VERTEX
  8
0
  6
CONTINUOUS
 62
     7
 10
-104.1842447519444
 20
-41.11364940806286
 42
0.07398282385211347
  0
VERTEX
  8
0
  6
CONTINUOUS
 62
     7
 10
-104.1252190626713
 20
-41.82461397289488
 42
0.07398282385211347
  0
VERTEX
  8
0
  6
CONTINUOUS
 62
     7
 10
-103.9075287862476
 20
-42.48272539600438
 42
0.07398282385211347
  0
VERTEX
  8
0
  6
CONTINUOUS
 62
     7
 10
-103.5500312265464
 20
-43.03097512702383
 42
0.07398282385211347
  0
VERTEX
  8
0
  6
CONTINUOUS
 62
     7
 10
-103.0836944186494
 20
-43.42187132595885
 42
0.07398282385211347
  0
VERTEX
  8
0
  6
CONTINUOUS
 62
     7
 10
-102.5489145393554
 20
-43.62155281845058
 42
0.07398282385211347
  0
VERTEX
  8
0
  6
CONTINUOUS
 62
     7
 10
-101.9920166099507
 20
-43.61272230191099
 42
0.07398282385211347
  0
VERTEX
  8
0
  6
CONTINUOUS
 62
     7
 10
-101.4612416159936
 20
-43.39614471511675
 42
0.07398282385211347
  0
VERTEX
  8
0
  6
CONTINUOUS
 62
     7
 10
-101.002567657718
 20
-42.99058097579651
 42
0.07398282385211347
  0
VERTEX
  8
0
  6
CONTINUOUS
 62
     7
 10
-100.6557271216689
 20
-42.43116282615744
 42
0.07398282385211347
  0
VERTEX
  8
0
  6
CONTINUOUS
 62
     7
 10
-100.4507648839486
 20
-41.76634956448906
 42
0.07398282385211347
  0
VERTEX
  8
0
  6
CONTINUOUS
 62
     7
 10
-100.4054356888788
 20
-41.05373028434293
 42
0.07398282385211347
  0
VERTEX
  8
0
  6
CONTINUOUS
 62
     7
 10
-100.523666153761
 20
-40.35503525007633
 42
0.07398282385211347
  0
VERTEX
  8
0
  6
CONTINUOUS
 62
     7
 10
-100.7952146277508
 20
-39.73078854568753
 42
0.07398282385211347
  0
VERTEX
  8
0
  6
CONTINUOUS
 62
     7
 10
-101.1965583693896
 20
-39.23506520838037
 42
0.07398282385211347
  0
VERTEX
  8
0
  6
CONTINUOUS
 62
     7
 10
-101.6929311915146
 20
-38.91080700736119
 42
0.07398282385211347
  0
VERTEX
  8
0
  6
CONTINUOUS
 62
     7
 10
-102.241335063644
 20
-38.78610263602715
 42
-1
  0
SEQEND
  8
0
  0
LINE
  8
0
  6
CONTINUOUS
 62
     7
 10
78.17052056720956
 20
-56.75432936202089
 11
78.72298058652284
 21
-55.88714076531752
  0
LINE
  8
0
  6
CONTINUOUS
 62
     7
 10
77.95572926036368
 20
-52.21155303435324
 11
78.47096354062194
 21
-51.4027971482241
  0
POLYLINE
  8
0
  6
CONTINUOUS
 62
     7
 66
     1
 10
0
 20
0
  0
VERTEX
  8
0
  6
CONTINUOUS
 62
     7
 10
78.13417448396804
 20
-53.23597617713892
 42
0.07333214780387673
  0
VERTEX
  8
0
  6
CONTINUOUS
 62
     7
 10
78.09880241694097
 20
-52.88538191626669
 42
0.07333214780387673
  0
VERTEX
  8
0
  6
CONTINUOUS
 62
     7
 10
77.99569721630076
 20
-52.5646315283375
 42
0.07333214780387673
  0
VERTEX
  8
0
  6
CONTINUOUS
 62
     7
 10
77.83363557593854
 20
-52.30102846606611
 42
0.07333214780387673
  0
VERTEX
  8
0
  6
CONTINUOUS
 62
     7
 10
77.62641277873171
 20
-52.11701159162401
 42
0.07333214780387673
  0
VERTEX
  8
0
  6
CONTINUOUS
 62
     7
 10
77.39166839132732
 20
-52.02824509816303
 42
0.07333214780387673
  0
VERTEX
  8
0
  6
CONTINUOUS
 62
     7
 10
77.1493847193523
 20
-52.04228511608261
 42
0.07333214780387673
  0
VERTEX
  8
0
  6
CONTINUOUS
 62
     7
 10
76.92018584006509
 20
-52.15793650741938
 42
0.07333214780387673
  0
VERTEX
  8
0
  6
CONTINUOUS
 62
     7
 10
76.72358200504574
 20
-52.3653546003862
 42
0.07333214780387673
  0
VERTEX
  8
0
  6
CONTINUOUS
 62
     7
 10
76.57630885582424
 20
-52.64688320404262
 42
0.07333214780387673
  0
VERTEX
  8
0
  6
CONTINUOUS
 62
     7
 10
76.49090282452116
 20
-52.97855756820574
 42
0.07333214780387673
  0
VERTEX
  8
0
  6
CONTINUOUS
 62
     7
 10
76.47463398663757
 20
-53.33214435112627
 42
0.07333214780387673
  0
VERTEX
  8
0
  6
CONTINUOUS
 62
     7
 10
76.5288872054896
 20
-53.67754494537817
 42
0.07333214780387673
  0
VERTEX
  8
0
  6
CONTINUOUS
 62
     7
 10
76.64904424754957
 20
-53.98535758202299
 42
0.07333214780387673
  0
VERTEX
  8
0
  6
CONTINUOUS
 62
     7
 10
76.82487690346937
 20
-54.22938011731932
 42
0.07333214780387673
  0
VERTEX
  8
0
  6
CONTINUOUS
 62
     7
 10
77.04141765087869
 20
-54.38884045556739
 42
0.07333214780387673
  0
VERTEX
  8
0
  6
CONTINUOUS
 62
     7
 10
77.2802337449385
 20
-54.4501647462932
 42
-1
  0
SEQEND
  8
0
  0
POLYLINE
  8
0
  6
CONTINUOUS
 62
     7
 66
     1
 10
0
 20
0
  0
VERTEX
  8
0
  6
CONTINUOUS
 62
     7
 10
79.04196386138817
 20
-53.23597616301105
 42
0.07332668712448476
  0
VERTEX
  8
0
  6
CONTINUOUS
 62
     7
 10
78.96796554310249
 20
-52.60864226809761
 42
0.07332668712448476
  0
VERTEX
  8
0
  6
CONTINUOUS
 62
     7
 10
78.75226858175974
 20
-52.03470145783575
 42
0.07332668712448476
  0
VERTEX
  8
0
  6
CONTINUOUS
 62
     7
 10
78.41323119088254
 20
-51.56300248687899
 42
0.07332668712448476
  0
VERTEX
  8
0
  6
CONTINUOUS
 62
     7
 10
77.97970922812942
 20
-51.23369219073825
 42
0.07332668712448476
  0
VERTEX
  8
0
  6
CONTINUOUS
 62
     7
 10
77.48860024045438
 20
-51.07479854298406
 42
0.07332668712448476
  0
VERTEX
  8
0
  6
CONTINUOUS
 62
     7
 10
76.98170307195096
 20
-51.09984516256171
 42
0.07332668712448476
  0
VERTEX
  8
0
  6
CONTINUOUS
 62
     7
 10
76.50216031672657
 20
-51.30670030321313
 42
0.07332668712448476
  0
VERTEX
  8
0
  6
CONTINUOUS
 62
     7
 10
76.09078640368574
 20
-51.67775828882355
 42
0.07332668712448476
  0
VERTEX
  8
0
  6
CONTINUOUS
 62
     7
 10
75.78259383409983
 20
-52.18143795252486
 42
0.07332668712448476
  0
VERTEX
  8
0
  6
CONTINUOUS
 62
     7
 10
75.60381322783167
 20
-52.7748705457001
 42
0.07332668712448476
  0
VERTEX
  8
0
  6
CONTINUOUS
 62
     7
 10
75.56966080546752
 20
-53.40754834589929
 42
0.07332668712448476
  0
VERTEX
  8
0
  6
CONTINUOUS
 62
     7
 10
75.68304331848954
 20
-54.0256234264999
 42
0.07332668712448476
  0
VERTEX
  8
0
  6
CONTINUOUS
 62
     7
 10
75.93431065235352
 20
-54.57649071494063
 42
0.07332668712448476
  0
VERTEX
  8
0
  6
CONTINUOUS
 62
     7
 10
76.30207715870529
 20
-55.01326527023353
 42
0.07332668712448476
  0
VERTEX
  8
0
  6
CONTINUOUS
 62
     7
 10
76.75504181221724
 20
-55.29877271357695
 42
0.07332668712448476
  0
VERTEX
  8
0
  6
CONTINUOUS
 62
     7
 10
77.25465227642799
 20
-55.40871318198454
 42
-1
  0
SEQEND
  8
0
  0
POLYLINE
  8
0
  6
CONTINUOUS
 62
     7
 66
     1
 10
0
 20
0
  0
VERTEX
  8
0
  6
CONTINUOUS
 62
     7
 10
78.5754639778782
 20
-54.65631907836605
 42
0.07459289906077718
  0
VERTEX
  8
0
  6
CONTINUOUS
 62
     7
 10
78.59563395487065
 20
-55.07266647623687
 42
0.07459289906077718
  0
VERTEX
  8
0
  6
CONTINUOUS
 62
     7
 10
78.70154689122441
 20
-55.4623388489874
 42
0.07459289906077718
  0
VERTEX
  8
0
  6
CONTINUOUS
 62
     7
 10
78.88387788134965
 20
-55.79102822431556
 42
0.07459289906077718
  0
VERTEX
  8
0
  6
CONTINUOUS
 62
     7
 10
79.12657393561595
 20
-56.02979576340876
 42
0.07459289906077718
  0
VERTEX
  8
0
  6
CONTINUOUS
 62
     7
 10
79.40826733567874
 20
-56.15761962666358
 42
0.07459289906077718
  0
VERTEX
  8
0
  6
CONTINUOUS
 62
     7
 10
79.70415691511502
 20
-56.16324580207723
 42
0.07459289906077718
  0
VERTEX
  8
0
  6
CONTINUOUS
 62
     7
 10
79.98819163154751
 20
-56.04617894360066
 42
0.07459289906077718
  0
VERTEX
  8
0
  6
CONTINUOUS
 62
     7
 10
80.23536418175013
 20
-55.81672598295131
 42
0.07459289906077718
  0
VERTEX
  8
0
  6
CONTINUOUS
 62
     7
 10
80.42391272269992
 20
-55.49508867516514
 42
0.07459289906077718
  0
VERTEX
  8
0
  6
CONTINUOUS
 62
     7
 10
80.5372368521799
 20
-55.10958497301093
 42
0.07459289906077718
  0
VERTEX
  8
0
  6
CONTINUOUS
 62
     7
 10
80.56535916001876
 20
-54.69415582601634
 42
0.07459289906077718
  0
VERTEX
  8
0
  6
CONTINUOUS
 62
     7
 10
80.50580367043307
 20
-54.28537691330374
 42
0.07459289906077718
  0
VERTEX
  8
0
  6
CONTINUOUS
 62
     7
 10
80.36381383466551
 20
-53.91923840660644
 42
0.07459289906077718
  0
VERTEX
  8
0
  6
CONTINUOUS
 62
     7
 10
80.15189088116681
 20
-53.62797628318357
 42
0.07459289906077718
  0
VERTEX
  8
0
  6
CONTINUOUS
 62
     7
 10
79.88869316841256
 20
-53.43723416973749
 42
0.07459289906077718
  0
VERTEX
  8
0
  6
CONTINUOUS
 62
     7
 10
79.5973934447693
 20
-53.36380559745636
 42
-1
  0
SEQEND
  8
0
  0
POLYLINE
  8
0
  6
CONTINUOUS
 62
     7
 66
     1
 10
0
 20
0
  0
VERTEX
  8
0
  6
CONTINUOUS
 62
     7
 10
77.66827142237203
 20
-54.66172222300427
 42
0.07398282385211347
  0
VERTEX
  8
0
  6
CONTINUOUS
 62
     7
 10
77.7272971116451
 20
-55.37268678783629
 42
0.07398282385211347
  0
VERTEX
  8
0
  6
CONTINUOUS
 62
     7
 10
77.94498738806885
 20
-56.03079821094578
 42
0.07398282385211347
  0
VERTEX
  8
0
  6
CONTINUOUS
 62
     7
 10
78.30248494777003
 20
-56.57904794196524
 42
0.07398282385211347
  0
VERTEX
  8
0
  6
CONTINUOUS
 62
     7
 10
78.76882175566699
 20
-56.96994414090025
 42
0.07398282385211347
  0
VERTEX
  8
0
  6
CONTINUOUS
 62
     7
 10
79.30360163496097
 20
-57.16962563339199
 42
0.07398282385211347
  0
VERTEX
  8
0
  6
CONTINUOUS
 62
     7
 10
79.86049956436573
 20
-57.16079511685239
 42
0.07398282385211347
  0
VERTEX
  8
0
  6
CONTINUOUS
 62
     7
 10
80.39127455832285
 20
-56.94421753005815
 42
0.07398282385211347
  0
VERTEX
  8
0
  6
CONTINUOUS
 62
     7
 10
80.84994851659845
 20
-56.53865379073791
 42
0.07398282385211347
  0
VERTEX
  8
0
  6
CONTINUOUS
 62
     7
 10
81.19678905264755
 20
-55.97923564109885
 42
0.07398282385211347
  0
VERTEX
  8
0
  6
CONTINUOUS
 62
     7
 10
81.40175129036784
 20
-55.31442237943046
 42
0.07398282385211347
  0
VERTEX
  8
0
  6
CONTINUOUS
 62
     7
 10
81.44708048543761
 20
-54.60180309928434
 42
0.07398282385211347
  0
VERTEX
  8
0
  6
CONTINUOUS
 62
     7
 10
81.32885002055539
 20
-53.90310806501773
 42
0.07398282385211347
  0
VERTEX
  8
0
  6
CONTINUOUS
 62
     7
 10
81.05730154656564
 20
-53.27886136062894
 42
0.07398282385211347
  0
VERTEX
  8
0
  6
CONTINUOUS
 62
     7
 10
80.6559578049268
 20
-52.78313802332178
 42
0.07398282385211347
  0
VERTEX
  8
0
  6
CONTINUOUS
 62
     7
 10
80.15958498280183
 20
-52.4588798223026
 42
0.07398282385211347
  0
VERTEX
  8
0
  6
CONTINUOUS
 62
     7
 10
79.61118111067239
 20
-52.33417545096855
 42
-1
  0
SEQEND
  8
0
  0
LINE
  8
0
  6
CONTINUOUS
 62
     7
 10
86.2766072981666
 20
-37.18451277266542
 11
86.82906731747987
 21
-36.31732417596205
  0
LINE
  8
0
  6
CONTINUOUS
 62
     7
 10
86.06181599132071
 20
-32.64173644499777
 11
86.57705027157897
 21
-31.83298055886863
  0
POLYLINE
  8
0
  6
CONTINUOUS
 62
     7
 66
     1
 10
0
 20
0
  0
VERTEX
  8
0
  6
CONTINUOUS
 62
     7
 10
86.24026121492507
 20
-33.66615958778345
 42
0.07333214780387673
  0
VERTEX
  8
0
  6
CONTINUOUS
 62
     7
 10
86.204889147898
 20
-33.31556532691122
 42
0.07333214780387673
  0
VERTEX
  8
0
  6
CONTINUOUS
 62
     7
 10
86.10178394725779
 20
-32.99481493898203
 42
0.07333214780387673
  0
VERTEX
  8
0
  6
CONTINUOUS
 62
     7
 10
85.93972230689558
 20
-32.73121187671065
 42
0.07333214780387673
  0
VERTEX
  8
0
  6
CONTINUOUS
 62
     7
 10
85.73249950968874
 20
-32.54719500226855
 42
0.07333214780387673
  0
VERTEX
  8
0
  6
CONTINUOUS
 62
     7
 10
85.49775512228435
 20
-32.45842850880756
 42
0.07333214780387673
  0
VERTEX
  8
0
  6
CONTINUOUS
 62
     7
 10
85.25547145030933
 20
-32.47246852672714
 42
0.07333214780387673
  0
VERTEX
  8
0
  6
CONTINUOUS
 62
     7
 10
85.02627257102212
 20
-32.58811991806391
 42
0.07333214780387673
  0
VERTEX
  8
0
  6
CONTINUOUS
 62
     7
 10
84.82966873600277
 20
-32.79553801103073
 42
0.07333214780387673
  0
VERTEX
  8
0
  6
CONTINUOUS
 62
     7
 10
84.68239558678127
 20
-33.07706661468715
 42
0.07333214780387673
  0
VERTEX
  8
0
  6
CONTINUOUS
 62
     7
 10
84.59698955547819
 20
-33.40874097885027
 42
0.07333214780387673
  0
VERTEX
  8
0
  6
CONTINUOUS
 62
     7
 10
84.5807207175946
 20
-33.76232776177081
 42
0.07333214780387673
  0
VERTEX
  8
0
  6
CONTINUOUS
 62
     7
 10
84.63497393644663
 20
-34.1077283560227
 42
0.07333214780387673
  0
VERTEX
  8
0
  6
CONTINUOUS
 62
     7
 10
84.7551309785066
 20
-34.41554099266752
 42
0.07333214780387673
  0
VERTEX
  8
0
  6
CONTINUOUS
 62
     7
 10
84.93096363442641
 20
-34.65956352796385
 42
0.07333214780387673
  0
VERTEX
  8
0
  6
CONTINUOUS
 62
     7
 10
85.14750438183572
 20
-34.81902386621192
 42
0.07333214780387673
  0
VERTEX
  8
0
  6
CONTINUOUS
 62
     7
 10
85.38632047589553
 20
-34.88034815693773
 42
-1
  0
SEQEND
  8
0
  0
POLYLINE
  8
0
  6
CONTINUOUS
 62
     7
 66
     1
 10
0
 20
0
  0
VERTEX
  8
0
  6
CONTINUOUS
 62
     7
 10
87.1480505923452
 20
-33.66615957365558
 42
0.07332668712448476
  0
VERTEX
  8
0
  6
CONTINUOUS
 62
     7
 10
87.07405227405953
 20
-33.03882567874214
 42
0.07332668712448476
  0
VERTEX
  8
0
  6
CONTINUOUS
 62
     7
 10
86.85835531271677
 20
-32.46488486848028
 42
0.07332668712448476
  0
VERTEX
  8
0
  6
CONTINUOUS
 62
     7
 10
86.51931792183957
 20
-31.99318589752351
 42
0.07332668712448476
  0
VERTEX
  8
0
  6
CONTINUOUS
 62
     7
 10
86.08579595908645
 20
-31.66387560138278
 42
0.07332668712448476
  0
VERTEX
  8
0
  6
CONTINUOUS
 62
     7
 10
85.59468697141141
 20
-31.50498195362858
 42
0.07332668712448476
  0
VERTEX
  8
0
  6
CONTINUOUS
 62
     7
 10
85.08778980290799
 20
-31.53002857320625
 42
0.07332668712448476
  0
VERTEX
  8
0
  6
CONTINUOUS
 62
     7
 10
84.60824704768361
 20
-31.73688371385766
 42
0.07332668712448476
  0
VERTEX
  8
0
  6
CONTINUOUS
 62
     7
 10
84.19687313464277
 20
-32.10794169946809
 42
0.07332668712448476
  0
VERTEX
  8
0
  6
CONTINUOUS
 62
     7
 10
83.88868056505686
 20
-32.61162136316939
 42
0.07332668712448476
  0
VERTEX
  8
0
  6
CONTINUOUS
 62
     7
 10
83.7098999587887
 20
-33.20505395634463
 42
0.07332668712448476
  0
VERTEX
  8
0
  6
CONTINUOUS
 62
     7
 10
83.67574753642455
 20
-33.83773175654383
 42
0.07332668712448476
  0
VERTEX
  8
0
  6
CONTINUOUS
 62
     7
 10
83.78913004944657
 20
-34.45580683714443
 42
0.07332668712448476
  0
VERTEX
  8
0
  6
CONTINUOUS
 62
     7
 10
84.04039738331055
 20
-35.00667412558516
 42
0.07332668712448476
  0
VERTEX
  8
0
  6
CONTINUOUS
 62
     7
 10
84.40816388966232
 20
-35.44344868087806
 42
0.07332668712448476
  0
VERTEX
  8
0
  6
CONTINUOUS
 62
     7
 10
84.86112854317427
 20
-35.72895612422148
 42
0.07332668712448476
  0
VERTEX
  8
0
  6
CONTINUOUS
 62
     7
 10
85.36073900738502
 20
-35.83889659262907
 42
-1
  0
SEQEND
  8
0
  0
POLYLINE
  8
0
  6
CONTINUOUS
 62
     7
 66
     1
 10
0
 20
0
  0
VERTEX
  8
0
  6
CONTINUOUS
 62
     7
 10
86.68155070883523
 20
-35.08650248901058
 42
0.07459289906077718
  0
VERTEX
  8
0
  6
CONTINUOUS
 62
     7
 10
86.70172068582768
 20
-35.5028498868814
 42
0.07459289906077718
  0
VERTEX
  8
0
  6
CONTINUOUS
 62
     7
 10
86.80763362218144
 20
-35.89252225963193
 42
0.07459289906077718
  0
VERTEX
  8
0
  6
CONTINUOUS
 62
     7
 10
86.98996461230668
 20
-36.22121163496009
 42
0.07459289906077718
  0
VERTEX
  8
0
  6
CONTINUOUS
 62
     7
 10
87.23266066657298
 20
-36.4599791740533
 42
0.07459289906077718
  0
VERTEX
  8
0
  6
CONTINUOUS
 62
     7
 10
87.51435406663578
 20
-36.58780303730811
 42
0.07459289906077718
  0
VERTEX
  8
0
  6
CONTINUOUS
 62
     7
 10
87.81024364607205
 20
-36.59342921272176
 42
0.07459289906077718
  0
VERTEX
  8
0
  6
CONTINUOUS
 62
     7
 10
88.09427836250454
 20
-36.47636235424519
 42
0.07459289906077718
  0
VERTEX
  8
0
  6
CONTINUOUS
 62
     7
 10
88.34145091270716
 20
-36.24690939359584
 42
0.07459289906077718
  0
VERTEX
  8
0
  6
CONTINUOUS
 62
     7
 10
88.52999945365696
 20
-35.92527208580967
 42
0.07459289906077718
  0
VERTEX
  8
0
  6
CONTINUOUS
 62
     7
 10
88.64332358313693
 20
-35.53976838365546
 42
0.07459289906077718
  0
VERTEX
  8
0
  6
CONTINUOUS
 62
     7
 10
88.67144589097579
 20
-35.12433923666087
 42
0.07459289906077718
  0
VERTEX
  8
0
  6
CONTINUOUS
 62
     7
 10
88.6118904013901
 20
-34.71556032394827
 42
0.07459289906077718
  0
VERTEX
  8
0
  6
CONTINUOUS
 62
     7
 10
88.46990056562254
 20
-34.34942181725097
 42
0.07459289906077718
  0
VERTEX
  8
0
  6
CONTINUOUS
 62
     7
 10
88.25797761212384
 20
-34.0581596938281
 42
0.07459289906077718
  0
VERTEX
  8
0
  6
CONTINUOUS
 62
     7
 10
87.99477989936959
 20
-33.86741758038203
 42
0.07459289906077718
  0
VERTEX
  8
0
  6
CONTINUOUS
 62
     7
 10
87.70348017572633
 20
-33.79398900810089
 42
-1
  0
SEQEND
  8
0
  0
POLYLINE
  8
0
  6
CONTINUOUS
 62
     7
 66
     1
 10
0
 20
0
  0
VERTEX
  8
0
  6
CONTINUOUS
 62
     7
 10
85.77435815332906
 20
-35.0919056336488
 42
0.07398282385211347
  0
VERTEX
  8
0
  6
CONTINUOUS
 62
     7
 10
85.83338384260213
 20
-35.80287019848082
 42
0.07398282385211347
  0
VERTEX
  8
0
  6
CONTINUOUS
 62
     7
 10
86.05107411902588
 20
-36.46098162159031
 42
0.07398282385211347
  0
VERTEX
  8
0
  6
CONTINUOUS
 62
     7
 10
86.40857167872706
 20
-37.00923135260977
 42
0.07398282385211347
  0
VERTEX
  8
0
  6
CONTINUOUS
 62
     7
 10
86.87490848662402
 20
-37.40012755154478
 42
0.07398282385211347
  0
VERTEX
  8
0
  6
CONTINUOUS
 62
     7
 10
87.409688365918
 20
-37.59980904403652
 42
0.07398282385211347
  0
VERTEX
  8
0
  6
CONTINUOUS
 62
     7
 10
87.96658629532276
 20
-37.59097852749692
 42
0.07398282385211347
  0
VERTEX
  8
0
  6
CONTINUOUS
 62
     7
 10
88.49736128927988
 20
-37.37440094070269
 42
0.07398282385211347
  0
VERTEX
  8
0
  6
CONTINUOUS
 62
     7
 10
88.95603524755548
 20
-36.96883720138244
 42
0.07398282385211347
  0
VERTEX
  8
0
  6
CONTINUOUS
 62
     7
 10
89.30287578360458
 20
-36.40941905174338
 42
0.07398282385211347
  0
VERTEX
  8
0
  6
CONTINUOUS
 62
     7
 10
89.50783802132487
 20
-35.74460579007499
 42
0.07398282385211347
  0
VERTEX
  8
0
  6
CONTINUOUS
 62
     7
 10
89.55316721639464
 20
-35.03198650992887
 42
0.07398282385211347
  0
VERTEX
  8
0
  6
CONTINUOUS
 62
     7
 10
89.43493675151242
 20
-34.33329147566226
 42
0.07398282385211347
  0
VERTEX
  8
0
  6
CONTINUOUS
 62
     7
 10
89.16338827752267
 20
-33.70904477127347
 42
0.07398282385211347
  0
VERTEX
  8
0
  6
CONTINUOUS
 62
     7
 10
88.76204453588383
 20
-33.21332143396631
 42
0.07398282385211347
  0
VERTEX
  8
0
  6
CONTINUOUS
 62
     7
 10
88.26567171375886
 20
-32.88906323294713
 42
0.07398282385211347
  0
VERTEX
  8
0
  6
CONTINUOUS
 62
     7
 10
87.71726784162942
 20
-32.76435886161308
 42
-1
  0
SEQEND
  8
0
  0
LINE
  8
0
  6
CONTINUOUS
 62
     7
 10
-270.54311010906
 20
-346.8928219462494
 11
-269.9906500897467
 21
-346.025633349546
  0
LINE
  8
0
  6
CONTINUOUS
 62
     7
 10
-270.7579014159059
 20
-342.3500456185818
 11
-270.2426671356476
 21
-341.5412897324526
  0
POLYLINE
  8
0
  6
CONTINUOUS
 62
     7
 66
     1
 10
0
 20
0
  0
VERTEX
  8
0
  6
CONTINUOUS
 62
     7
 10
-270.5794561923015
 20
-343.3744687613674
 42
0.07333214780387673
  0
VERTEX
  8
0
  6
CONTINUOUS
 62
     7
 10
-270.6148282593286
 20
-343.0238745004952
 42
0.07333214780387673
  0
VERTEX
  8
0
  6
CONTINUOUS
 62
     7
 10
-270.7179334599688
 20
-342.703124112566
 42
0.07333214780387673
  0
VERTEX
  8
0
  6
CONTINUOUS
 62
     7
 10
-270.879995100331
 20
-342.4395210502946
 42
0.07333214780387673
  0
VERTEX
  8
0
  6
CONTINUOUS
 62
     7
 10
-271.0872178975379
 20
-342.2555041758525
 42
0.07333214780387673
  0
VERTEX
  8
0
  6
CONTINUOUS
 62
     7
 10
-271.3219622849422
 20
-342.1667376823916
 42
0.07333214780387673
  0
VERTEX
  8
0
  6
CONTINUOUS
 62
     7
 10
-271.5642459569173
 20
-342.1807777003111
 42
0.07333214780387673
  0
VERTEX
  8
0
  6
CONTINUOUS
 62
     7
 10
-271.7934448362045
 20
-342.2964290916479
 42
0.07333214780387673
  0
VERTEX
  8
0
  6
CONTINUOUS
 62
     7
 10
-271.9900486712238
 20
-342.5038471846147
 42
0.07333214780387673
  0
VERTEX
  8
0
  6
CONTINUOUS
 62
     7
 10
-272.1373218204453
 20
-342.7853757882712
 42
0.07333214780387673
  0
VERTEX
  8
0
  6
CONTINUOUS
 62
     7
 10
-272.2227278517484
 20
-343.1170501524343
 42
0.07333214780387673
  0
VERTEX
  8
0
  6
CONTINUOUS
 62
     7
 10
-272.238996689632
 20
-343.4706369353548
 42
0.07333214780387673
  0
VERTEX
  8
0
  6
CONTINUOUS
 62
     7
 10
-272.18474347078
 20
-343.8160375296067
 42
0.07333214780387673
  0
VERTEX
  8
0
  6
CONTINUOUS
 62
     7
 10
-272.06458642872
 20
-344.1238501662515
 42
0.07333214780387673
  0
VERTEX
  8
0
  6
CONTINUOUS
 62
     7
 10
-271.8887537728002
 20
-344.3678727015478
 42
0.07333214780387673
  0
VERTEX
  8
0
  6
CONTINUOUS
 62
     7
 10
-271.6722130253909
 20
-344.5273330397959
 42
0.07333214780387673
  0
VERTEX
  8
0
  6
CONTINUOUS
 62
     7
 10
-271.4333969313311
 20
-344.5886573305217
 42
-1
  0
SEQEND
  8
0
  0
POLYLINE
  8
0
  6
CONTINUOUS
 62
     7
 66
     1
 10
0
 20
0
  0
VERTEX
  8
0
  6
CONTINUOUS
 62
     7
 10
-269.6716668148814
 20
-343.3744687472395
 42
0.07332668712448476
  0
VERTEX
  8
0
  6
CONTINUOUS
 62
     7
 10
-269.745665133167
 20
-342.7471348523261
 42
0.07332668712448476
  0
VERTEX
  8
0
  6
CONTINUOUS
 62
     7
 10
-269.9613620945098
 20
-342.1731940420643
 42
0.07332668712448476
  0
VERTEX
  8
0
  6
CONTINUOUS
 62
     7
 10
-270.300399485387
 20
-341.7014950711075
 42
0.07332668712448476
  0
VERTEX
  8
0
  6
CONTINUOUS
 62
     7
 10
-270.7339214481401
 20
-341.3721847749667
 42
0.07332668712448476
  0
VERTEX
  8
0
  6
CONTINUOUS
 62
     7
 10
-271.2250304358151
 20
-341.2132911272126
 42
0.07332668712448476
  0
VERTEX
  8
0
  6
CONTINUOUS
 62
     7
 10
-271.7319276043186
 20
-341.2383377467903
 42
0.07332668712448476
  0
VERTEX
  8
0
  6
CONTINUOUS
 62
     7
 10
-272.2114703595429
 20
-341.4451928874416
 42
0.07332668712448476
  0
VERTEX
  8
0
  6
CONTINUOUS
 62
     7
 10
-272.6228442725837
 20
-341.8162508730521
 42
0.07332668712448476
  0
VERTEX
  8
0
  6
CONTINUOUS
 62
     7
 10
-272.9310368421697
 20
-342.3199305367534
 42
0.07332668712448476
  0
VERTEX
  8
0
  6
CONTINUOUS
 62
     7
 10
-273.1098174484378
 20
-342.9133631299286
 42
0.07332668712448476
  0
VERTEX
  8
0
  6
CONTINUOUS
 62
     7
 10
-273.143969870802
 20
-343.5460409301278
 42
0.07332668712448476
  0
VERTEX
  8
0
  6
CONTINUOUS
 62
     7
 10
-273.03058735778
 20
-344.1641160107284
 42
0.07332668712448476
  0
VERTEX
  8
0
  6
CONTINUOUS
 62
     7
 10
-272.779320023916
 20
-344.7149832991691
 42
0.07332668712448476
  0
VERTEX
  8
0
  6
CONTINUOUS
 62
     7
 10
-272.4115535175642
 20
-345.151757854462
 42
0.07332668712448476
  0
VERTEX
  8
0
  6
CONTINUOUS
 62
     7
 10
-271.9585888640523
 20
-345.4372652978054
 42
0.07332668712448476
  0
VERTEX
  8
0
  6
CONTINUOUS
 62
     7
 10
-271.4589783998415
 20
-345.547205766213
 42
-1
  0
SEQEND
  8
0
  0
POLYLINE
  8
0
  6
CONTINUOUS
 62
     7
 66
     1
 10
0
 20
0
  0
VERTEX
  8
0
  6
CONTINUOUS
 62
     7
 10
-270.1381666983913
 20
-344.7948116625946
 42
0.07459289906077718
  0
VERTEX
  8
0
  6
CONTINUOUS
 62
     7
 10
-270.1179967213989
 20
-345.2111590604654
 42
0.07459289906077718
  0
VERTEX
  8
0
  6
CONTINUOUS
 62
     7
 10
-270.0120837850452
 20
-345.6008314332159
 42
0.07459289906077718
  0
VERTEX
  8
0
  6
CONTINUOUS
 62
     7
 10
-269.8297527949199
 20
-345.9295208085441
 42
0.07459289906077718
  0
VERTEX
  8
0
  6
CONTINUOUS
 62
     7
 10
-269.5870567406536
 20
-346.1682883476373
 42
0.07459289906077718
  0
VERTEX
  8
0
  6
CONTINUOUS
 62
     7
 10
-269.3053633405908
 20
-346.2961122108922
 42
0.07459289906077718
  0
VERTEX
  8
0
  6
CONTINUOUS
 62
     7
 10
-269.0094737611545
 20
-346.3017383863058
 42
0.07459289906077718
  0
VERTEX
  8
0
  6
CONTINUOUS
 62
     7
 10
-268.725439044722
 20
-346.1846715278292
 42
0.07459289906077718
  0
VERTEX
  8
0
  6
CONTINUOUS
 62
     7
 10
-268.4782664945194
 20
-345.9552185671799
 42
0.07459289906077718
  0
VERTEX
  8
0
  6
CONTINUOUS
 62
     7
 10
-268.2897179535696
 20
-345.6335812593937
 42
0.07459289906077718
  0
VERTEX
  8
0
  6
CONTINUOUS
 62
     7
 10
-268.1763938240896
 20
-345.2480775572395
 42
0.07459289906077718
  0
VERTEX
  8
0
  6
CONTINUOUS
 62
     7
 10
-268.1482715162508
 20
-344.8326484102449
 42
0.07459289906077718
  0
VERTEX
  8
0
  6
CONTINUOUS
 62
     7
 10
-268.2078270058365
 20
-344.4238694975323
 42
0.07459289906077718
  0
VERTEX
  8
0
  6
CONTINUOUS
 62
     7
 10
-268.349816841604
 20
-344.057730990835
 42
0.07459289906077718
  0
VERTEX
  8
0
  6
CONTINUOUS
 62
     7
 10
-268.5617397951027
 20
-343.7664688674121
 42
0.07459289906077718
  0
VERTEX
  8
0
  6
CONTINUOUS
 62
     7
 10
-268.824937507857
 20
-343.575726753966
 42
0.07459289906077718
  0
VERTEX
  8
0
  6
CONTINUOUS
 62
     7
 10
-269.1162372315002
 20
-343.5022981816849
 42
-1
  0
SEQEND
  8
0
  0
POLYLINE
  8
0
  6
CONTINUOUS
 62
     7
 66
     1
 10
0
 20
0
  0
VERTEX
  8
0
  6
CONTINUOUS
 62
     7
 10
-271.0453592538975
 20
-344.8002148072328
 42
0.07398282385211347
  0
VERTEX
  8
0
  6
CONTINUOUS
 62
     7
 10
-270.9863335646244
 20
-345.5111793720648
 42
0.07398282385211347
  0
VERTEX
  8
0
  6
CONTINUOUS
 62
     7
 10
-270.7686432882007
 20
-346.1692907951743
 42
0.07398282385211347
  0
VERTEX
  8
0
  6
CONTINUOUS
 62
     7
 10
-270.4111457284995
 20
-346.7175405261937
 42
0.07398282385211347
  0
VERTEX
  8
0
  6
CONTINUOUS
 62
     7
 10
-269.9448089206026
 20
-347.1084367251287
 42
0.07398282385211347
  0
VERTEX
  8
0
  6
CONTINUOUS
 62
     7
 10
-269.4100290413086
 20
-347.3081182176205
 42
0.07398282385211347
  0
VERTEX
  8
0
  6
CONTINUOUS
 62
     7
 10
-268.8531311119039
 20
-347.2992877010809
 42
0.07398282385211347
  0
VERTEX
  8
0
  6
CONTINUOUS
 62
     7
 10
-268.3223561179467
 20
-347.0827101142867
 42
0.07398282385211347
  0
VERTEX
  8
0
  6
CONTINUOUS
 62
     7
 10
-267.8636821596711
 20
-346.6771463749664
 42
0.07398282385211347
  0
VERTEX
  8
0
  6
CONTINUOUS
 62
     7
 10
-267.516841623622
 20
-346.1177282253274
 42
0.07398282385211347
  0
VERTEX
  8
0
  6
CONTINUOUS
 62
     7
 10
-267.3118793859017
 20
-345.4529149636589
 42
0.07398282385211347
  0
VERTEX
  8
0
  6
CONTINUOUS
 62
     7
 10
-267.2665501908319
 20
-344.7402956835128
 42
0.07398282385211347
  0
VERTEX
  8
0
  6
CONTINUOUS
 62
     7
 10
-267.3847806557142
 20
-344.0416006492462
 42
0.07398282385211347
  0
VERTEX
  8
0
  6
CONTINUOUS
 62
     7
 10
-267.6563291297039
 20
-343.4173539448574
 42
0.07398282385211347
  0
VERTEX
  8
0
  6
CONTINUOUS
 62
     7
 10
-268.0576728713427
 20
-342.9216306075503
 42
0.07398282385211347
  0
VERTEX
  8
0
  6
CONTINUOUS
 62
     7
 10
-268.5540456934677
 20
-342.5973724065311
 42
0.07398282385211347
  0
VERTEX
  8
0
  6
CONTINUOUS
 62
     7
 10
-269.1024495655972
 20
-342.4726680351971
 42
-1
  0
SEQEND
  8
0
  0
LINE
  8
0
  6
CONTINUOUS
 62
     7
 10
-262.4370310074975
 20
-327.3229977274994
 11
-261.8845709881842
 21
-326.455809130796
  0
LINE
  8
0
  6
CONTINUOUS
 62
     7
 10
-262.6518223143434
 20
-322.7802213998318
 11
-262.1365880340851
 21
-321.9714655137026
  0
POLYLINE
  8
0
  6
CONTINUOUS
 62
     7
 66
     1
 10
0
 20
0
  0
VERTEX
  8
0
  6
CONTINUOUS
 62
     7
 10
-262.473377090739
 20
-323.8046445426174
 42
0.07333214780387673
  0
VERTEX
  8
0
  6
CONTINUOUS
 62
     7
 10
-262.5087491577661
 20
-323.4540502817452
 42
0.07333214780387673
  0
VERTEX
  8
0
  6
CONTINUOUS
 62
     7
 10
-262.6118543584063
 20
-323.133299893816
 42
0.07333214780387673
  0
VERTEX
  8
0
  6
CONTINUOUS
 62
     7
 10
-262.7739159987685
 20
-322.8696968315446
 42
0.07333214780387673
  0
VERTEX
  8
0
  6
CONTINUOUS
 62
     7
 10
-262.9811387959754
 20
-322.6856799571025
 42
0.07333214780387673
  0
VERTEX
  8
0
  6
CONTINUOUS
 62
     7
 10
-263.2158831833797
 20
-322.5969134636416
 42
0.07333214780387673
  0
VERTEX
  8
0
  6
CONTINUOUS
 62
     7
 10
-263.4581668553548
 20
-322.6109534815611
 42
0.07333214780387673
  0
VERTEX
  8
0
  6
CONTINUOUS
 62
     7
 10
-263.687365734642
 20
-322.7266048728979
 42
0.07333214780387673
  0
VERTEX
  8
0
  6
CONTINUOUS
 62
     7
 10
-263.8839695696613
 20
-322.9340229658647
 42
0.07333214780387673
  0
VERTEX
  8
0
  6
CONTINUOUS
 62
     7
 10
-264.0312427188828
 20
-323.2155515695212
 42
0.07333214780387673
  0
VERTEX
  8
0
  6
CONTINUOUS
 62
     7
 10
-264.1166487501859
 20
-323.5472259336843
 42
0.07333214780387673
  0
VERTEX
  8
0
  6
CONTINUOUS
 62
     7
 10
-264.1329175880695
 20
-323.9008127166048
 42
0.07333214780387673
  0
VERTEX
  8
0
  6
CONTINUOUS
 62
     7
 10
-264.0786643692175
 20
-324.2462133108567
 42
0.07333214780387673
  0
VERTEX
  8
0
  6
CONTINUOUS
 62
     7
 10
-263.9585073271575
 20
-324.5540259475015
 42
0.07333214780387673
  0
VERTEX
  8
0
  6
CONTINUOUS
 62
     7
 10
-263.7826746712377
 20
-324.7980484827978
 42
0.07333214780387673
  0
VERTEX
  8
0
  6
CONTINUOUS
 62
     7
 10
-263.5661339238284
 20
-324.9575088210459
 42
0.07333214780387673
  0
VERTEX
  8
0
  6
CONTINUOUS
 62
     7
 10
-263.3273178297686
 20
-325.0188331117717
 42
-1
  0
SEQEND
  8
0
  0
POLYLINE
  8
0
  6
CONTINUOUS
 62
     7
 66
     1
 10
0
 20
0
  0
VERTEX
  8
0
  6
CONTINUOUS
 62
     7
 10
-261.5655877133189
 20
-323.8046445284895
 42
0.07332668712448476
  0
VERTEX
  8
0
  6
CONTINUOUS
 62
     7
 10
-261.6395860316045
 20
-323.1773106335761
 42
0.07332668712448476
  0
VERTEX
  8
0
  6
CONTINUOUS
 62
     7
 10
-261.8552829929473
 20
-322.6033698233143
 42
0.07332668712448476
  0
VERTEX
  8
0
  6
CONTINUOUS
 62
     7
 10
-262.1943203838245
 20
-322.1316708523575
 42
0.07332668712448476
  0
VERTEX
  8
0
  6
CONTINUOUS
 62
     7
 10
-262.6278423465776
 20
-321.8023605562167
 42
0.07332668712448476
  0
VERTEX
  8
0
  6
CONTINUOUS
 62
     7
 10
-263.1189513342526
 20
-321.6434669084626
 42
0.07332668712448476
  0
VERTEX
  8
0
  6
CONTINUOUS
 62
     7
 10
-263.6258485027561
 20
-321.6685135280403
 42
0.07332668712448476
  0
VERTEX
  8
0
  6
CONTINUOUS
 62
     7
 10
-264.1053912579804
 20
-321.8753686686916
 42
0.07332668712448476
  0
VERTEX
  8
0
  6
CONTINUOUS
 62
     7
 10
-264.5167651710212
 20
-322.2464266543021
 42
0.07332668712448476
  0
VERTEX
  8
0
  6
CONTINUOUS
 62
     7
 10
-264.8249577406072
 20
-322.7501063180034
 42
0.07332668712448476
  0
VERTEX
  8
0
  6
CONTINUOUS
 62
     7
 10
-265.0037383468753
 20
-323.3435389111786
 42
0.07332668712448476
  0
VERTEX
  8
0
  6
CONTINUOUS
 62
     7
 10
-265.0378907692395
 20
-323.9762167113778
 42
0.07332668712448476
  0
VERTEX
  8
0
  6
CONTINUOUS
 62
     7
 10
-264.9245082562175
 20
-324.5942917919784
 42
0.07332668712448476
  0
VERTEX
  8
0
  6
CONTINUOUS
 62
     7
 10
-264.6732409223535
 20
-325.1451590804191
 42
0.07332668712448476
  0
VERTEX
  8
0
  6
CONTINUOUS
 62
     7
 10
-264.3054744160017
 20
-325.581933635712
 42
0.07332668712448476
  0
VERTEX
  8
0
  6
CONTINUOUS
 62
     7
 10
-263.8525097624898
 20
-325.8674410790554
 42
0.07332668712448476
  0
VERTEX
  8
0
  6
CONTINUOUS
 62
     7
 10
-263.352899298279
 20
-325.977381547463
 42
-1
  0
SEQEND
  8
0
  0
POLYLINE
  8
0
  6
CONTINUOUS
 62
     7
 66
     1
 10
0
 20
0
  0
VERTEX
  8
0
  6
CONTINUOUS
 62
     7
 10
-262.0320875968288
 20
-325.2249874438446
 42
0.07459289906077718
  0
VERTEX
  8
0
  6
CONTINUOUS
 62
     7
 10
-262.0119176198364
 20
-325.6413348417154
 42
0.07459289906077718
  0
VERTEX
  8
0
  6
CONTINUOUS
 62
     7
 10
-261.9060046834827
 20
-326.0310072144659
 42
0.07459289906077718
  0
VERTEX
  8
0
  6
CONTINUOUS
 62
     7
 10
-261.7236736933574
 20
-326.3596965897941
 42
0.07459289906077718
  0
VERTEX
  8
0
  6
CONTINUOUS
 62
     7
 10
-261.4809776390911
 20
-326.5984641288873
 42
0.07459289906077718
  0
VERTEX
  8
0
  6
CONTINUOUS
 62
     7
 10
-261.1992842390283
 20
-326.7262879921422
 42
0.07459289906077718
  0
VERTEX
  8
0
  6
CONTINUOUS
 62
     7
 10
-260.903394659592
 20
-326.7319141675558
 42
0.07459289906077718
  0
VERTEX
  8
0
  6
CONTINUOUS
 62
     7
 10
-260.6193599431595
 20
-326.6148473090792
 42
0.07459289906077718
  0
VERTEX
  8
0
  6
CONTINUOUS
 62
     7
 10
-260.3721873929569
 20
-326.3853943484299
 42
0.07459289906077718
  0
VERTEX
  8
0
  6
CONTINUOUS
 62
     7
 10
-260.1836388520071
 20
-326.0637570406437
 42
0.07459289906077718
  0
VERTEX
  8
0
  6
CONTINUOUS
 62
     7
 10
-260.0703147225271
 20
-325.6782533384895
 42
0.07459289906077718
  0
VERTEX
  8
0
  6
CONTINUOUS
 62
     7
 10
-260.0421924146883
 20
-325.2628241914949
 42
0.07459289906077718
  0
VERTEX
  8
0
  6
CONTINUOUS
 62
     7
 10
-260.101747904274
 20
-324.8540452787823
 42
0.07459289906077718
  0
VERTEX
  8
0
  6
CONTINUOUS
 62
     7
 10
-260.2437377400415
 20
-324.487906772085
 42
0.07459289906077718
  0
VERTEX
  8
0
  6
CONTINUOUS
 62
     7
 10
-260.4556606935402
 20
-324.1966446486621
 42
0.07459289906077718
  0
VERTEX
  8
0
  6
CONTINUOUS
 62
     7
 10
-260.7188584062945
 20
-324.005902535216
 42
0.07459289906077718
  0
VERTEX
  8
0
  6
CONTINUOUS
 62
     7
 10
-261.0101581299377
 20
-323.9324739629349
 42
-1
  0
SEQEND
  8
0
  0
POLYLINE
  8
0
  6
CONTINUOUS
 62
     7
 66
     1
 10
0
 20
0
  0
VERTEX
  8
0
  6
CONTINUOUS
 62
     7
 10
-262.939280152335
 20
-325.2303905884828
 42
0.07398282385211347
  0
VERTEX
  8
0
  6
CONTINUOUS
 62
     7
 10
-262.8802544630619
 20
-325.9413551533148
 42
0.07398282385211347
  0
VERTEX
  8
0
  6
CONTINUOUS
 62
     7
 10
-262.6625641866382
 20
-326.5994665764243
 42
0.07398282385211347
  0
VERTEX
  8
0
  6
CONTINUOUS
 62
     7
 10
-262.305066626937
 20
-327.1477163074437
 42
0.07398282385211347
  0
VERTEX
  8
0
  6
CONTINUOUS
 62
     7
 10
-261.8387298190401
 20
-327.5386125063787
 42
0.07398282385211347
  0
VERTEX
  8
0
  6
CONTINUOUS
 62
     7
 10
-261.3039499397461
 20
-327.7382939988705
 42
0.07398282385211347
  0
VERTEX
  8
0
  6
CONTINUOUS
 62
     7
 10
-260.7470520103414
 20
-327.7294634823309
 42
0.07398282385211347
  0
VERTEX
  8
0
  6
CONTINUOUS
 62
     7
 10
-260.2162770163842
 20
-327.5128858955367
 42
0.07398282385211347
  0
VERTEX
  8
0
  6
CONTINUOUS
 62
     7
 10
-259.7576030581086
 20
-327.1073221562164
 42
0.07398282385211347
  0
VERTEX
  8
0
  6
CONTINUOUS
 62
     7
 10
-259.4107625220595
 20
-326.5479040065774
 42
0.07398282385211347
  0
VERTEX
  8
0
  6
CONTINUOUS
 62
     7
 10
-259.2058002843392
 20
-325.8830907449089
 42
0.07398282385211347
  0
VERTEX
  8
0
  6
CONTINUOUS
 62
     7
 10
-259.1604710892694
 20
-325.1704714647628
 42
0.07398282385211347
  0
VERTEX
  8
0
  6
CONTINUOUS
 62
     7
 10
-259.2787015541517
 20
-324.4717764304962
 42
0.07398282385211347
  0
VERTEX
  8
0
  6
CONTINUOUS
 62
     7
 10
-259.5502500281414
 20
-323.8475297261074
 42
0.07398282385211347
  0
VERTEX
  8
0
  6
CONTINUOUS
 62
     7
 10
-259.9515937697802
 20
-323.3518063888003
 42
0.07398282385211347
  0
VERTEX
  8
0
  6
CONTINUOUS
 62
     7
 10
-260.4479665919052
 20
-323.0275481877811
 42
0.07398282385211347
  0
VERTEX
  8
0
  6
CONTINUOUS
 62
     7
 10
-260.9963704640347
 20
-322.9028438164471
 42
-1
  0
SEQEND
  8
0
  0
LINE
  8
0
  6
CONTINUOUS
 62
     7
 10
-48.83349630901114
 20
-341.9659420634369
 11
-48.28103628969786
 21
-341.0987534667335
  0
LINE
  8
0
  6
CONTINUOUS
 62
     7
 10
-49.04828761585703
 20
-337.4231657357693
 11
-48.53305333559877
 21
-336.6144098496401
  0
POLYLINE
  8
0
  6
CONTINUOUS
 62
     7
 66
     1
 10
0
 20
0
  0
VERTEX
  8
0
  6
CONTINUOUS
 62
     7
 10
-48.86984239225266
 20
-338.4475888785549
 42
0.07333214780387673
  0
VERTEX
  8
0
  6
CONTINUOUS
 62
     7
 10
-48.90521445927973
 20
-338.0969946176827
 42
0.07333214780387673
  0
VERTEX
  8
0
  6
CONTINUOUS
 62
     7
 10
-49.00831965991994
 20
-337.7762442297535
 42
0.07333214780387673
  0
VERTEX
  8
0
  6
CONTINUOUS
 62
     7
 10
-49.17038130028215
 20
-337.5126411674821
 42
0.07333214780387673
  0
VERTEX
  8
0
  6
CONTINUOUS
 62
     7
 10
-49.377604097489
 20
-337.32862429304
 42
0.07333214780387673
  0
VERTEX
  8
0
  6
CONTINUOUS
 62
     7
 10
-49.61234848489338
 20
-337.2398577995791
 42
0.07333214780387673
  0
VERTEX
  8
0
  6
CONTINUOUS
 62
     7
 10
-49.85463215686841
 20
-337.2538978174986
 42
0.07333214780387673
  0
VERTEX
  8
0
  6
CONTINUOUS
 62
     7
 10
-50.08383103615562
 20
-337.3695492088354
 42
0.07333214780387673
  0
VERTEX
  8
0
  6
CONTINUOUS
 62
     7
 10
-50.28043487117497
 20
-337.5769673018022
 42
0.07333214780387673
  0
VERTEX
  8
0
  6
CONTINUOUS
 62
     7
 10
-50.42770802039647
 20
-337.8584959054587
 42
0.07333214780387673
  0
VERTEX
  8
0
  6
CONTINUOUS
 62
     7
 10
-50.51311405169955
 20
-338.1901702696218
 42
0.07333214780387673
  0
VERTEX
  8
0
  6
CONTINUOUS
 62
     7
 10
-50.52938288958314
 20
-338.5437570525423
 42
0.07333214780387673
  0
VERTEX
  8
0
  6
CONTINUOUS
 62
     7
 10
-50.47512967073111
 20
-338.8891576467942
 42
0.07333214780387673
  0
VERTEX
  8
0
  6
CONTINUOUS
 62
     7
 10
-50.35497262867114
 20
-339.196970283439
 42
0.07333214780387673
  0
VERTEX
  8
0
  6
CONTINUOUS
 62
     7
 10
-50.17913997275134
 20
-339.4409928187353
 42
0.07333214780387673
  0
VERTEX
  8
0
  6
CONTINUOUS
 62
     7
 10
-49.96259922534203
 20
-339.6004531569834
 42
0.07333214780387673
  0
VERTEX
  8
0
  6
CONTINUOUS
 62
     7
 10
-49.7237831312822
 20
-339.6617774477092
 42
-1
  0
SEQEND
  8
0
  0
POLYLINE
  8
0
  6
CONTINUOUS
 62
     7
 66
     1
 10
0
 20
0
  0
VERTEX
  8
0
  6
CONTINUOUS
 62
     7
 10
-47.96205301483254
 20
-338.447588864427
 42
0.07332668712448476
  0
VERTEX
  8
0
  6
CONTINUOUS
 62
     7
 10
-48.03605133311822
 20
-337.8202549695136
 42
0.07332668712448476
  0
VERTEX
  8
0
  6
CONTINUOUS
 62
     7
 10
-48.25174829446097
 20
-337.2463141592518
 42
0.07332668712448476
  0
VERTEX
  8
0
  6
CONTINUOUS
 62
     7
 10
-48.59078568533817
 20
-336.774615188295
 42
0.07332668712448476
  0
VERTEX
  8
0
  6
CONTINUOUS
 62
     7
 10
-49.02430764809129
 20
-336.4453048921542
 42
0.07332668712448476
  0
VERTEX
  8
0
  6
CONTINUOUS
 62
     7
 10
-49.51541663576634
 20
-336.2864112444001
 42
0.07332668712448476
  0
VERTEX
  8
0
  6
CONTINUOUS
 62
     7
 10
-50.02231380426974
 20
-336.3114578639778
 42
0.07332668712448476
  0
VERTEX
  8
0
  6
CONTINUOUS
 62
     7
 10
-50.50185655949412
 20
-336.5183130046291
 42
0.07332668712448476
  0
VERTEX
  8
0
  6
CONTINUOUS
 62
     7
 10
-50.91323047253496
 20
-336.8893709902396
 42
0.07332668712448476
  0
VERTEX
  8
0
  6
CONTINUOUS
 62
     7
 10
-51.22142304212087
 20
-337.3930506539409
 42
0.07332668712448476
  0
VERTEX
  8
0
  6
CONTINUOUS
 62
     7
 10
-51.40020364838902
 20
-337.9864832471161
 42
0.07332668712448476
  0
VERTEX
  8
0
  6
CONTINUOUS
 62
     7
 10
-51.43435607075317
 20
-338.6191610473153
 42
0.07332668712448476
  0
VERTEX
  8
0
  6
CONTINUOUS
 62
     7
 10
-51.32097355773116
 20
-339.2372361279159
 42
0.07332668712448476
  0
VERTEX
  8
0
  6
CONTINUOUS
 62
     7
 10
-51.06970622386718
 20
-339.7881034163566
 42
0.07332668712448476
  0
VERTEX
  8
0
  6
CONTINUOUS
 62
     7
 10
-50.70193971751541
 20
-340.2248779716495
 42
0.07332668712448476
  0
VERTEX
  8
0
  6
CONTINUOUS
 62
     7
 10
-50.24897506400346
 20
-340.5103854149929
 42
0.07332668712448476
  0
VERTEX
  8
0
  6
CONTINUOUS
 62
     7
 10
-49.74936459979271
 20
-340.6203258834005
 42
-1
  0
SEQEND
  8
0
  0
POLYLINE
  8
0
  6
CONTINUOUS
 62
     7
 66
     1
 10
0
 20
0
  0
VERTEX
  8
0
  6
CONTINUOUS
 62
     7
 10
-48.42855289834253
 20
-339.8679317797821
 42
0.07459289906077718
  0
VERTEX
  8
0
  6
CONTINUOUS
 62
     7
 10
-48.40838292135007
 20
-340.2842791776529
 42
0.07459289906077718
  0
VERTEX
  8
0
  6
CONTINUOUS
 62
     7
 10
-48.30246998499631
 20
-340.6739515504034
 42
0.07459289906077718
  0
VERTEX
  8
0
  6
CONTINUOUS
 62
     7
 10
-48.12013899487106
 20
-341.0026409257316
 42
0.07459289906077718
  0
VERTEX
  8
0
  6
CONTINUOUS
 62
     7
 10
-47.87744294060476
 20
-341.2414084648248
 42
0.07459289906077718
  0
VERTEX
  8
0
  6
CONTINUOUS
 62
     7
 10
-47.59574954054197
 20
-341.3692323280797
 42
0.07459289906077718
  0
VERTEX
  8
0
  6
CONTINUOUS
 62
     7
 10
-47.29985996110569
 20
-341.3748585034933
 42
0.07459289906077718
  0
VERTEX
  8
0
  6
CONTINUOUS
 62
     7
 10
-47.0158252446732
 20
-341.2577916450167
 42
0.07459289906077718
  0
VERTEX
  8
0
  6
CONTINUOUS
 62
     7
 10
-46.76865269447057
 20
-341.0283386843674
 42
0.07459289906077718
  0
VERTEX
  8
0
  6
CONTINUOUS
 62
     7
 10
-46.58010415352077
 20
-340.7067013765812
 42
0.07459289906077718
  0
VERTEX
  8
0
  6
CONTINUOUS
 62
     7
 10
-46.46678002404079
 20
-340.321197674427
 42
0.07459289906077718
  0
VERTEX
  8
0
  6
CONTINUOUS
 62
     7
 10
-46.43865771620194
 20
-339.9057685274324
 42
0.07459289906077718
  0
VERTEX
  8
0
  6
CONTINUOUS
 62
     7
 10
-46.49821320578764
 20
-339.4969896147198
 42
0.07459289906077718
  0
VERTEX
  8
0
  6
CONTINUOUS
 62
     7
 10
-46.6402030415552
 20
-339.1308511080225
 42
0.07459289906077718
  0
VERTEX
  8
0
  6
CONTINUOUS
 62
     7
 10
-46.8521259950539
 20
-338.8395889845996
 42
0.07459289906077718
  0
VERTEX
  8
0
  6
CONTINUOUS
 62
     7
 10
-47.11532370780815
 20
-338.6488468711535
 42
0.07459289906077718
  0
VERTEX
  8
0
  6
CONTINUOUS
 62
     7
 10
-47.40662343145142
 20
-338.5754182988724
 42
-1
  0
SEQEND
  8
0
  0
POLYLINE
  8
0
  6
CONTINUOUS
 62
     7
 66
     1
 10
0
 20
0
  0
VERTEX
  8
0
  6
CONTINUOUS
 62
     7
 10
-49.33574545384867
 20
-339.8733349244203
 42
0.07398282385211347
  0
VERTEX
  8
0
  6
CONTINUOUS
 62
     7
 10
-49.27671976457559
 20
-340.5842994892523
 42
0.07398282385211347
  0
VERTEX
  8
0
  6
CONTINUOUS
 62
     7
 10
-49.05902948815184
 20
-341.2424109123618
 42
0.07398282385211347
  0
VERTEX
  8
0
  6
CONTINUOUS
 62
     7
 10
-48.70153192845066
 20
-341.7906606433812
 42
0.07398282385211347
  0
VERTEX
  8
0
  6
CONTINUOUS
 62
     7
 10
-48.23519512055371
 20
-342.1815568423162
 42
0.07398282385211347
  0
VERTEX
  8
0
  6
CONTINUOUS
 62
     7
 10
-47.70041524125973
 20
-342.381238334808
 42
0.07398282385211347
  0
VERTEX
  8
0
  6
CONTINUOUS
 62
     7
 10
-47.14351731185498
 20
-342.3724078182684
 42
0.07398282385211347
  0
VERTEX
  8
0
  6
CONTINUOUS
 62
     7
 10
-46.61274231789784
 20
-342.1558302314741
 42
0.07398282385211347
  0
VERTEX
  8
0
  6
CONTINUOUS
 62
     7
 10
-46.15406835962226
 20
-341.7502664921539
 42
0.07398282385211347
  0
VERTEX
  8
0
  6
CONTINUOUS
 62
     7
 10
-45.80722782357315
 20
-341.1908483425148
 42
0.07398282385211347
  0
VERTEX
  8
0
  6
CONTINUOUS
 62
     7
 10
-45.60226558585286
 20
-340.5260350808464
 42
0.07398282385211347
  0
VERTEX
  8
0
  6
CONTINUOUS
 62
     7
 10
-45.55693639078309
 20
-339.8134158007003
 42
0.07398282385211347
  0
VERTEX
  8
0
  6
CONTINUOUS
 62
     7
 10
-45.6751668556653
 20
-339.1147207664337
 42
0.07398282385211347
  0
VERTEX
  8
0
  6
CONTINUOUS
 62
     7
 10
-45.94671532965506
 20
-338.4904740620449
 42
0.07398282385211347
  0
VERTEX
  8
0
  6
CONTINUOUS
 62
     7
 10
-46.3480590712939
 20
-337.9947507247378
 42
0.07398282385211347
  0
VERTEX
  8
0
  6
CONTINUOUS
 62
     7
 10
-46.84443189341886
 20
-337.6704925237186
 42
0.07398282385211347
  0
VERTEX
  8
0
  6
CONTINUOUS
 62
     7
 10
-47.39283576554831
 20
-337.5457881523846
 42
-1
  0
SEQEND
  8
0
  0
LINE
  8
0
  6
CONTINUOUS
 62
     7
 10
-40.72741339275137
 20
-322.3961178446869
 11
-40.17495337343809
 21
-321.5289292479835
  0
LINE
  8
0
  6
CONTINUOUS
 62
     7
 10
-40.94220469959726
 20
-317.8533415170193
 11
-40.426970419339
 21
-317.0445856308901
  0
POLYLINE
  8
0
  6
CONTINUOUS
 62
     7
 66
     1
 10
0
 20
0
  0
VERTEX
  8
0
  6
CONTINUOUS
 62
     7
 10
-40.7637594759929
 20
-318.8777646598049
 42
0.07333214780387673
  0
VERTEX
  8
0
  6
CONTINUOUS
 62
     7
 10
-40.79913154301996
 20
-318.5271703989327
 42
0.07333214780387673
  0
VERTEX
  8
0
  6
CONTINUOUS
 62
     7
 10
-40.90223674366018
 20
-318.2064200110035
 42
0.07333214780387673
  0
VERTEX
  8
0
  6
CONTINUOUS
 62
     7
 10
-41.06429838402239
 20
-317.9428169487321
 42
0.07333214780387673
  0
VERTEX
  8
0
  6
CONTINUOUS
 62
     7
 10
-41.27152118122923
 20
-317.75880007429
 42
0.07333214780387673
  0
VERTEX
  8
0
  6
CONTINUOUS
 62
     7
 10
-41.50626556863362
 20
-317.6700335808291
 42
0.07333214780387673
  0
VERTEX
  8
0
  6
CONTINUOUS
 62
     7
 10
-41.74854924060864
 20
-317.6840735987486
 42
0.07333214780387673
  0
VERTEX
  8
0
  6
CONTINUOUS
 62
     7
 10
-41.97774811989585
 20
-317.7997249900854
 42
0.07333214780387673
  0
VERTEX
  8
0
  6
CONTINUOUS
 62
     7
 10
-42.1743519549152
 20
-318.0071430830522
 42
0.07333214780387673
  0
VERTEX
  8
0
  6
CONTINUOUS
 62
     7
 10
-42.32162510413671
 20
-318.2886716867087
 42
0.07333214780387673
  0
VERTEX
  8
0
  6
CONTINUOUS
 62
     7
 10
-42.40703113543978
 20
-318.6203460508718
 42
0.07333214780387673
  0
VERTEX
  8
0
  6
CONTINUOUS
 62
     7
 10
-42.42329997332337
 20
-318.9739328337923
 42
0.07333214780387673
  0
VERTEX
  8
0
  6
CONTINUOUS
 62
     7
 10
-42.36904675447134
 20
-319.3193334280442
 42
0.07333214780387673
  0
VERTEX
  8
0
  6
CONTINUOUS
 62
     7
 10
-42.24888971241137
 20
-319.627146064689
 42
0.07333214780387673
  0
VERTEX
  8
0
  6
CONTINUOUS
 62
     7
 10
-42.07305705649157
 20
-319.8711685999853
 42
0.07333214780387673
  0
VERTEX
  8
0
  6
CONTINUOUS
 62
     7
 10
-41.85651630908226
 20
-320.0306289382334
 42
0.07333214780387673
  0
VERTEX
  8
0
  6
CONTINUOUS
 62
     7
 10
-41.61770021502243
 20
-320.0919532289592
 42
-1
  0
SEQEND
  8
0
  0
POLYLINE
  8
0
  6
CONTINUOUS
 62
     7
 66
     1
 10
0
 20
0
  0
VERTEX
  8
0
  6
CONTINUOUS
 62
     7
 10
-39.85597009857278
 20
-318.877764645677
 42
0.07332668712448476
  0
VERTEX
  8
0
  6
CONTINUOUS
 62
     7
 10
-39.92996841685845
 20
-318.2504307507636
 42
0.07332668712448476
  0
VERTEX
  8
0
  6
CONTINUOUS
 62
     7
 10
-40.14566537820121
 20
-317.6764899405018
 42
0.07332668712448476
  0
VERTEX
  8
0
  6
CONTINUOUS
 62
     7
 10
-40.4847027690784
 20
-317.204790969545
 42
0.07332668712448476
  0
VERTEX
  8
0
  6
CONTINUOUS
 62
     7
 10
-40.91822473183152
 20
-316.8754806734042
 42
0.07332668712448476
  0
VERTEX
  8
0
  6
CONTINUOUS
 62
     7
 10
-41.40933371950657
 20
-316.7165870256501
 42
0.07332668712448476
  0
VERTEX
  8
0
  6
CONTINUOUS
 62
     7
 10
-41.91623088800998
 20
-316.7416336452278
 42
0.07332668712448476
  0
VERTEX
  8
0
  6
CONTINUOUS
 62
     7
 10
-42.39577364323436
 20
-316.9484887858791
 42
0.07332668712448476
  0
VERTEX
  8
0
  6
CONTINUOUS
 62
     7
 10
-42.80714755627519
 20
-317.3195467714896
 42
0.07332668712448476
  0
VERTEX
  8
0
  6
CONTINUOUS
 62
     7
 10
-43.1153401258611
 20
-317.8232264351909
 42
0.07332668712448476
  0
VERTEX
  8
0
  6
CONTINUOUS
 62
     7
 10
-43.29412073212926
 20
-318.4166590283661
 42
0.07332668712448476
  0
VERTEX
  8
0
  6
CONTINUOUS
 62
     7
 10
-43.3282731544934
 20
-319.0493368285653
 42
0.07332668712448476
  0
VERTEX
  8
0
  6
CONTINUOUS
 62
     7
 10
-43.21489064147139
 20
-319.6674119091659
 42
0.07332668712448476
  0
VERTEX
  8
0
  6
CONTINUOUS
 62
     7
 10
-42.96362330760741
 20
-320.2182791976066
 42
0.07332668712448476
  0
VERTEX
  8
0
  6
CONTINUOUS
 62
     7
 10
-42.59585680125564
 20
-320.6550537528995
 42
0.07332668712448476
  0
VERTEX
  8
0
  6
CONTINUOUS
 62
     7
 10
-42.14289214774369
 20
-320.9405611962429
 42
0.07332668712448476
  0
VERTEX
  8
0
  6
CONTINUOUS
 62
     7
 10
-41.64328168353294
 20
-321.0505016646505
 42
-1
  0
SEQEND
  8
0
  0
POLYLINE
  8
0
  6
CONTINUOUS
 62
     7
 66
     1
 10
0
 20
0
  0
VERTEX
  8
0
  6
CONTINUOUS
 62
     7
 10
-40.32246998208277
 20
-320.2981075610321
 42
0.07459289906077718
  0
VERTEX
  8
0
  6
CONTINUOUS
 62
     7
 10
-40.3023000050903
 20
-320.7144549589029
 42
0.07459289906077718
  0
VERTEX
  8
0
  6
CONTINUOUS
 62
     7
 10
-40.19638706873654
 20
-321.1041273316534
 42
0.07459289906077718
  0
VERTEX
  8
0
  6
CONTINUOUS
 62
     7
 10
-40.0140560786113
 20
-321.4328167069816
 42
0.07459289906077718
  0
VERTEX
  8
0
  6
CONTINUOUS
 62
     7
 10
-39.77136002434499
 20
-321.6715842460748
 42
0.07459289906077718
  0
VERTEX
  8
0
  6
CONTINUOUS
 62
     7
 10
-39.4896666242822
 20
-321.7994081093297
 42
0.07459289906077718
  0
VERTEX
  8
0
  6
CONTINUOUS
 62
     7
 10
-39.19377704484592
 20
-321.8050342847433
 42
0.07459289906077718
  0
VERTEX
  8
0
  6
CONTINUOUS
 62
     7
 10
-38.90974232841343
 20
-321.6879674262667
 42
0.07459289906077718
  0
VERTEX
  8
0
  6
CONTINUOUS
 62
     7
 10
-38.6625697782108
 20
-321.4585144656174
 42
0.07459289906077718
  0
VERTEX
  8
0
  6
CONTINUOUS
 62
     7
 10
-38.47402123726101
 20
-321.1368771578312
 42
0.07459289906077718
  0
VERTEX
  8
0
  6
CONTINUOUS
 62
     7
 10
-38.36069710778103
 20
-320.751373455677
 42
0.07459289906077718
  0
VERTEX
  8
0
  6
CONTINUOUS
 62
     7
 10
-38.33257479994217
 20
-320.3359443086824
 42
0.07459289906077718
  0
VERTEX
  8
0
  6
CONTINUOUS
 62
     7
 10
-38.39213028952787
 20
-319.9271653959698
 42
0.07459289906077718
  0
VERTEX
  8
0
  6
CONTINUOUS
 62
     7
 10
-38.53412012529543
 20
-319.5610268892725
 42
0.07459289906077718
  0
VERTEX
  8
0
  6
CONTINUOUS
 62
     7
 10
-38.74604307879413
 20
-319.2697647658496
 42
0.07459289906077718
  0
VERTEX
  8
0
  6
CONTINUOUS
 62
     7
 10
-39.00924079154839
 20
-319.0790226524035
 42
0.07459289906077718
  0
VERTEX
  8
0
  6
CONTINUOUS
 62
     7
 10
-39.30054051519165
 20
-319.0055940801224
 42
-1
  0
SEQEND
  8
0
  0
POLYLINE
  8
0
  6
CONTINUOUS
 62
     7
 66
     1
 10
0
 20
0
  0
VERTEX
  8
0
  6
CONTINUOUS
 62
     7
 10
-41.2296625375889
 20
-320.3035107056703
 42
0.07398282385211347
  0
VERTEX
  8
0
  6
CONTINUOUS
 62
     7
 10
-41.17063684831582
 20
-321.0144752705023
 42
0.07398282385211347
  0
VERTEX
  8
0
  6
CONTINUOUS
 62
     7
 10
-40.95294657189208
 20
-321.6725866936118
 42
0.07398282385211347
  0
VERTEX
  8
0
  6
CONTINUOUS
 62
     7
 10
-40.5954490121909
 20
-322.2208364246312
 42
0.07398282385211347
  0
VERTEX
  8
0
  6
CONTINUOUS
 62
     7
 10
-40.12911220429394
 20
-322.6117326235662
 42
0.07398282385211347
  0
VERTEX
  8
0
  6
CONTINUOUS
 62
     7
 10
-39.59433232499996
 20
-322.811414116058
 42
0.07398282385211347
  0
VERTEX
  8
0
  6
CONTINUOUS
 62
     7
 10
-39.03743439559521
 20
-322.8025835995184
 42
0.07398282385211347
  0
VERTEX
  8
0
  6
CONTINUOUS
 62
     7
 10
-38.50665940163808
 20
-322.5860060127241
 42
0.07398282385211347
  0
VERTEX
  8
0
  6
CONTINUOUS
 62
     7
 10
-38.04798544336249
 20
-322.1804422734039
 42
0.07398282385211347
  0
VERTEX
  8
0
  6
CONTINUOUS
 62
     7
 10
-37.70114490731339
 20
-321.6210241237648
 42
0.07398282385211347
  0
VERTEX
  8
0
  6
CONTINUOUS
 62
     7
 10
-37.49618266959309
 20
-320.9562108620964
 42
0.07398282385211347
  0
VERTEX
  8
0
  6
CONTINUOUS
 62
     7
 10
-37.45085347452332
 20
-320.2435915819503
 42
0.07398282385211347
  0
VERTEX
  8
0
  6
CONTINUOUS
 62
     7
 10
-37.56908393940553
 20
-319.5448965476837
 42
0.07398282385211347
  0
VERTEX
  8
0
  6
CONTINUOUS
 62
     7
 10
-37.84063241339529
 20
-318.9206498432949
 42
0.07398282385211347
  0
VERTEX
  8
0
  6
CONTINUOUS
 62
     7
 10
-38.24197615503413
 20
-318.4249265059878
 42
0.07398282385211347
  0
VERTEX
  8
0
  6
CONTINUOUS
 62
     7
 10
-38.73834897715909
 20
-318.1006683049686
 42
0.07398282385211347
  0
VERTEX
  8
0
  6
CONTINUOUS
 62
     7
 10
-39.28675284928855
 20
-317.9759639336346
 42
-1
  0
SEQEND
  8
0
  0
LINE
  8
0
  6
CONTINUOUS
 62
     7
 10
235.8306844466041
 20
-336.4916378642182
 11
236.3831444659174
 21
-335.6244492675148
  0
LINE
  8
0
  6
CONTINUOUS
 62
     7
 10
235.6158931397582
 20
-331.9488615365505
 11
236.1311274200165
 21
-331.1401056504214
  0
POLYLINE
  8
0
  6
CONTINUOUS
 62
     7
 66
     1
 10
0
 20
0
  0
VERTEX
  8
0
  6
CONTINUOUS
 62
     7
 10
235.7943383633626
 20
-332.9732846793362
 42
0.07333214780387673
  0
VERTEX
  8
0
  6
CONTINUOUS
 62
     7
 10
235.7589662963355
 20
-332.622690418464
 42
0.07333214780387673
  0
VERTEX
  8
0
  6
CONTINUOUS
 62
     7
 10
235.6558610956953
 20
-332.3019400305348
 42
0.07333214780387673
  0
VERTEX
  8
0
  6
CONTINUOUS
 62
     7
 10
235.4937994553331
 20
-332.0383369682634
 42
0.07333214780387673
  0
VERTEX
  8
0
  6
CONTINUOUS
 62
     7
 10
235.2865766581262
 20
-331.8543200938213
 42
0.07333214780387673
  0
VERTEX
  8
0
  6
CONTINUOUS
 62
     7
 10
235.0518322707218
 20
-331.7655536003603
 42
0.07333214780387673
  0
VERTEX
  8
0
  6
CONTINUOUS
 62
     7
 10
234.8095485987468
 20
-331.7795936182799
 42
0.07333214780387673
  0
VERTEX
  8
0
  6
CONTINUOUS
 62
     7
 10
234.5803497194596
 20
-331.8952450096166
 42
0.07333214780387673
  0
VERTEX
  8
0
  6
CONTINUOUS
 62
     7
 10
234.3837458844403
 20
-332.1026631025835
 42
0.07333214780387673
  0
VERTEX
  8
0
  6
CONTINUOUS
 62
     7
 10
234.2364727352187
 20
-332.3841917062399
 42
0.07333214780387673
  0
VERTEX
  8
0
  6
CONTINUOUS
 62
     7
 10
234.1510667039157
 20
-332.715866070403
 42
0.07333214780387673
  0
VERTEX
  8
0
  6
CONTINUOUS
 62
     7
 10
234.1347978660321
 20
-333.0694528533235
 42
0.07333214780387673
  0
VERTEX
  8
0
  6
CONTINUOUS
 62
     7
 10
234.1890510848841
 20
-333.4148534475754
 42
0.07333214780387673
  0
VERTEX
  8
0
  6
CONTINUOUS
 62
     7
 10
234.3092081269441
 20
-333.7226660842202
 42
0.07333214780387673
  0
VERTEX
  8
0
  6
CONTINUOUS
 62
     7
 10
234.4850407828639
 20
-333.9666886195166
 42
0.07333214780387673
  0
VERTEX
  8
0
  6
CONTINUOUS
 62
     7
 10
234.7015815302732
 20
-334.1261489577647
 42
0.07333214780387673
  0
VERTEX
  8
0
  6
CONTINUOUS
 62
     7
 10
234.940397624333
 20
-334.1874732484905
 42
-1
  0
SEQEND
  8
0
  0
POLYLINE
  8
0
  6
CONTINUOUS
 62
     7
 66
     1
 10
0
 20
0
  0
VERTEX
  8
0
  6
CONTINUOUS
 62
     7
 10
236.7021277407827
 20
-332.9732846652083
 42
0.07332668712448476
  0
VERTEX
  8
0
  6
CONTINUOUS
 62
     7
 10
236.628129422497
 20
-332.3459507702949
 42
0.07332668712448476
  0
VERTEX
  8
0
  6
CONTINUOUS
 62
     7
 10
236.4124324611543
 20
-331.772009960033
 42
0.07332668712448476
  0
VERTEX
  8
0
  6
CONTINUOUS
 62
     7
 10
236.0733950702771
 20
-331.3003109890763
 42
0.07332668712448476
  0
VERTEX
  8
0
  6
CONTINUOUS
 62
     7
 10
235.639873107524
 20
-330.9710006929355
 42
0.07332668712448476
  0
VERTEX
  8
0
  6
CONTINUOUS
 62
     7
 10
235.1487641198489
 20
-330.8121070451813
 42
0.07332668712448476
  0
VERTEX
  8
0
  6
CONTINUOUS
 62
     7
 10
234.6418669513455
 20
-330.837153664759
 42
0.07332668712448476
  0
VERTEX
  8
0
  6
CONTINUOUS
 62
     7
 10
234.1623241961211
 20
-331.0440088054104
 42
0.07332668712448476
  0
VERTEX
  8
0
  6
CONTINUOUS
 62
     7
 10
233.7509502830803
 20
-331.4150667910208
 42
0.07332668712448476
  0
VERTEX
  8
0
  6
CONTINUOUS
 62
     7
 10
233.4427577134944
 20
-331.9187464547221
 42
0.07332668712448476
  0
VERTEX
  8
0
  6
CONTINUOUS
 62
     7
 10
233.2639771072262
 20
-332.5121790478974
 42
0.07332668712448476
  0
VERTEX
  8
0
  6
CONTINUOUS
 62
     7
 10
233.2298246848621
 20
-333.1448568480965
 42
0.07332668712448476
  0
VERTEX
  8
0
  6
CONTINUOUS
 62
     7
 10
233.3432071978841
 20
-333.7629319286971
 42
0.07332668712448476
  0
VERTEX
  8
0
  6
CONTINUOUS
 62
     7
 10
233.5944745317481
 20
-334.3137992171378
 42
0.07332668712448476
  0
VERTEX
  8
0
  6
CONTINUOUS
 62
     7
 10
233.9622410380998
 20
-334.7505737724308
 42
0.07332668712448476
  0
VERTEX
  8
0
  6
CONTINUOUS
 62
     7
 10
234.4152056916118
 20
-335.0360812157742
 42
0.07332668712448476
  0
VERTEX
  8
0
  6
CONTINUOUS
 62
     7
 10
234.9148161558225
 20
-335.1460216841818
 42
-1
  0
SEQEND
  8
0
  0
POLYLINE
  8
0
  6
CONTINUOUS
 62
     7
 66
     1
 10
0
 20
0
  0
VERTEX
  8
0
  6
CONTINUOUS
 62
     7
 10
236.2356278572727
 20
-334.3936275805634
 42
0.07459289906077718
  0
VERTEX
  8
0
  6
CONTINUOUS
 62
     7
 10
236.2557978342652
 20
-334.8099749784342
 42
0.07459289906077718
  0
VERTEX
  8
0
  6
CONTINUOUS
 62
     7
 10
236.3617107706189
 20
-335.1996473511847
 42
0.07459289906077718
  0
VERTEX
  8
0
  6
CONTINUOUS
 62
     7
 10
236.5440417607442
 20
-335.5283367265129
 42
0.07459289906077718
  0
VERTEX
  8
0
  6
CONTINUOUS
 62
     7
 10
236.7867378150105
 20
-335.7671042656061
 42
0.07459289906077718
  0
VERTEX
  8
0
  6
CONTINUOUS
 62
     7
 10
237.0684312150733
 20
-335.8949281288609
 42
0.07459289906077718
  0
VERTEX
  8
0
  6
CONTINUOUS
 62
     7
 10
237.3643207945096
 20
-335.9005543042745
 42
0.07459289906077718
  0
VERTEX
  8
0
  6
CONTINUOUS
 62
     7
 10
237.648355510942
 20
-335.783487445798
 42
0.07459289906077718
  0
VERTEX
  8
0
  6
CONTINUOUS
 62
     7
 10
237.8955280611447
 20
-335.5540344851486
 42
0.07459289906077718
  0
VERTEX
  8
0
  6
CONTINUOUS
 62
     7
 10
238.0840766020945
 20
-335.2323971773624
 42
0.07459289906077718
  0
VERTEX
  8
0
  6
CONTINUOUS
 62
     7
 10
238.1974007315744
 20
-334.8468934752082
 42
0.07459289906077718
  0
VERTEX
  8
0
  6
CONTINUOUS
 62
     7
 10
238.2255230394133
 20
-334.4314643282136
 42
0.07459289906077718
  0
VERTEX
  8
0
  6
CONTINUOUS
 62
     7
 10
238.1659675498276
 20
-334.022685415501
 42
0.07459289906077718
  0
VERTEX
  8
0
  6
CONTINUOUS
 62
     7
 10
238.02397771406
 20
-333.6565469088037
 42
0.07459289906077718
  0
VERTEX
  8
0
  6
CONTINUOUS
 62
     7
 10
237.8120547605613
 20
-333.3652847853808
 42
0.07459289906077718
  0
VERTEX
  8
0
  6
CONTINUOUS
 62
     7
 10
237.5488570478071
 20
-333.1745426719348
 42
0.07459289906077718
  0
VERTEX
  8
0
  6
CONTINUOUS
 62
     7
 10
237.2575573241638
 20
-333.1011140996536
 42
-1
  0
SEQEND
  8
0
  0
POLYLINE
  8
0
  6
CONTINUOUS
 62
     7
 66
     1
 10
0
 20
0
  0
VERTEX
  8
0
  6
CONTINUOUS
 62
     7
 10
235.3284353017666
 20
-334.3990307252015
 42
0.07398282385211347
  0
VERTEX
  8
0
  6
CONTINUOUS
 62
     7
 10
235.3874609910397
 20
-335.1099952900335
 42
0.07398282385211347
  0
VERTEX
  8
0
  6
CONTINUOUS
 62
     7
 10
235.6051512674634
 20
-335.768106713143
 42
0.07398282385211347
  0
VERTEX
  8
0
  6
CONTINUOUS
 62
     7
 10
235.9626488271646
 20
-336.3163564441625
 42
0.07398282385211347
  0
VERTEX
  8
0
  6
CONTINUOUS
 62
     7
 10
236.4289856350615
 20
-336.7072526430975
 42
0.07398282385211347
  0
VERTEX
  8
0
  6
CONTINUOUS
 62
     7
 10
236.9637655143555
 20
-336.9069341355892
 42
0.07398282385211347
  0
VERTEX
  8
0
  6
CONTINUOUS
 62
     7
 10
237.5206634437603
 20
-336.8981036190496
 42
0.07398282385211347
  0
VERTEX
  8
0
  6
CONTINUOUS
 62
     7
 10
238.0514384377174
 20
-336.6815260322554
 42
0.07398282385211347
  0
VERTEX
  8
0
  6
CONTINUOUS
 62
     7
 10
238.510112395993
 20
-336.2759622929352
 42
0.07398282385211347
  0
VERTEX
  8
0
  6
CONTINUOUS
 62
     7
 10
238.8569529320421
 20
-335.7165441432961
 42
0.07398282385211347
  0
VERTEX
  8
0
  6
CONTINUOUS
 62
     7
 10
239.0619151697624
 20
-335.0517308816277
 42
0.07398282385211347
  0
VERTEX
  8
0
  6
CONTINUOUS
 62
     7
 10
239.1072443648322
 20
-334.3391116014816
 42
0.07398282385211347
  0
VERTEX
  8
0
  6
CONTINUOUS
 62
     7
 10
238.98901389995
 20
-333.640416567215
 42
0.07398282385211347
  0
VERTEX
  8
0
  6
CONTINUOUS
 62
     7
 10
238.7174654259602
 20
-333.0161698628262
 42
0.07398282385211347
  0
VERTEX
  8
0
  6
CONTINUOUS
 62
     7
 10
238.3161216843214
 20
-332.5204465255191
 42
0.07398282385211347
  0
VERTEX
  8
0
  6
CONTINUOUS
 62
     7
 10
237.8197488621964
 20
-332.1961883244999
 42
0.07398282385211347
  0
VERTEX
  8
0
  6
CONTINUOUS
 62
     7
 10
237.2713449900669
 20
-332.0714839531659
 42
-1
  0
SEQEND
  8
0
  0
LINE
  8
0
  6
CONTINUOUS
 62
     7
 10
243.9367635481666
 20
-316.9218136454682
 11
244.4892235674799
 21
-316.0546250487648
  0
LINE
  8
0
  6
CONTINUOUS
 62
     7
 10
243.7219722413207
 20
-312.3790373178005
 11
244.237206521579
 21
-311.5702814316714
  0
POLYLINE
  8
0
  6
CONTINUOUS
 62
     7
 66
     1
 10
0
 20
0
  0
VERTEX
  8
0
  6
CONTINUOUS
 62
     7
 10
243.9004174649251
 20
-313.4034604605862
 42
0.07333214780387673
  0
VERTEX
  8
0
  6
CONTINUOUS
 62
     7
 10
243.865045397898
 20
-313.052866199714
 42
0.07333214780387673
  0
VERTEX
  8
0
  6
CONTINUOUS
 62
     7
 10
243.7619401972578
 20
-312.7321158117848
 42
0.07333214780387673
  0
VERTEX
  8
0
  6
CONTINUOUS
 62
     7
 10
243.5998785568956
 20
-312.4685127495134
 42
0.07333214780387673
  0
VERTEX
  8
0
  6
CONTINUOUS
 62
     7
 10
243.3926557596887
 20
-312.2844958750713
 42
0.07333214780387673
  0
VERTEX
  8
0
  6
CONTINUOUS
 62
     7
 10
243.1579113722843
 20
-312.1957293816103
 42
0.07333214780387673
  0
VERTEX
  8
0
  6
CONTINUOUS
 62
     7
 10
242.9156277003093
 20
-312.2097693995299
 42
0.07333214780387673
  0
VERTEX
  8
0
  6
CONTINUOUS
 62
     7
 10
242.6864288210221
 20
-312.3254207908666
 42
0.07333214780387673
  0
VERTEX
  8
0
  6
CONTINUOUS
 62
     7
 10
242.4898249860028
 20
-312.5328388838335
 42
0.07333214780387673
  0
VERTEX
  8
0
  6
CONTINUOUS
 62
     7
 10
242.3425518367812
 20
-312.8143674874899
 42
0.07333214780387673
  0
VERTEX
  8
0
  6
CONTINUOUS
 62
     7
 10
242.2571458054782
 20
-313.146041851653
 42
0.07333214780387673
  0
VERTEX
  8
0
  6
CONTINUOUS
 62
     7
 10
242.2408769675946
 20
-313.4996286345735
 42
0.07333214780387673
  0
VERTEX
  8
0
  6
CONTINUOUS
 62
     7
 10
242.2951301864466
 20
-313.8450292288254
 42
0.07333214780387673
  0
VERTEX
  8
0
  6
CONTINUOUS
 62
     7
 10
242.4152872285066
 20
-314.1528418654702
 42
0.07333214780387673
  0
VERTEX
  8
0
  6
CONTINUOUS
 62
     7
 10
242.5911198844264
 20
-314.3968644007666
 42
0.07333214780387673
  0
VERTEX
  8
0
  6
CONTINUOUS
 62
     7
 10
242.8076606318357
 20
-314.5563247390147
 42
0.07333214780387673
  0
VERTEX
  8
0
  6
CONTINUOUS
 62
     7
 10
243.0464767258955
 20
-314.6176490297405
 42
-1
  0
SEQEND
  8
0
  0
POLYLINE
  8
0
  6
CONTINUOUS
 62
     7
 66
     1
 10
0
 20
0
  0
VERTEX
  8
0
  6
CONTINUOUS
 62
     7
 10
244.8082068423452
 20
-313.4034604464583
 42
0.07332668712448476
  0
VERTEX
  8
0
  6
CONTINUOUS
 62
     7
 10
244.7342085240595
 20
-312.7761265515449
 42
0.07332668712448476
  0
VERTEX
  8
0
  6
CONTINUOUS
 62
     7
 10
244.5185115627168
 20
-312.202185741283
 42
0.07332668712448476
  0
VERTEX
  8
0
  6
CONTINUOUS
 62
     7
 10
244.1794741718396
 20
-311.7304867703263
 42
0.07332668712448476
  0
VERTEX
  8
0
  6
CONTINUOUS
 62
     7
 10
243.7459522090865
 20
-311.4011764741855
 42
0.07332668712448476
  0
VERTEX
  8
0
  6
CONTINUOUS
 62
     7
 10
243.2548432214114
 20
-311.2422828264313
 42
0.07332668712448476
  0
VERTEX
  8
0
  6
CONTINUOUS
 62
     7
 10
242.747946052908
 20
-311.267329446009
 42
0.07332668712448476
  0
VERTEX
  8
0
  6
CONTINUOUS
 62
     7
 10
242.2684032976836
 20
-311.4741845866604
 42
0.07332668712448476
  0
VERTEX
  8
0
  6
CONTINUOUS
 62
     7
 10
241.8570293846428
 20
-311.8452425722708
 42
0.07332668712448476
  0
VERTEX
  8
0
  6
CONTINUOUS
 62
     7
 10
241.5488368150569
 20
-312.3489222359721
 42
0.07332668712448476
  0
VERTEX
  8
0
  6
CONTINUOUS
 62
     7
 10
241.3700562087887
 20
-312.9423548291474
 42
0.07332668712448476
  0
VERTEX
  8
0
  6
CONTINUOUS
 62
     7
 10
241.3359037864246
 20
-313.5750326293465
 42
0.07332668712448476
  0
VERTEX
  8
0
  6
CONTINUOUS
 62
     7
 10
241.4492862994466
 20
-314.1931077099471
 42
0.07332668712448476
  0
VERTEX
  8
0
  6
CONTINUOUS
 62
     7
 10
241.7005536333106
 20
-314.7439749983878
 42
0.07332668712448476
  0
VERTEX
  8
0
  6
CONTINUOUS
 62
     7
 10
242.0683201396623
 20
-315.1807495536808
 42
0.07332668712448476
  0
VERTEX
  8
0
  6
CONTINUOUS
 62
     7
 10
242.5212847931743
 20
-315.4662569970242
 42
0.07332668712448476
  0
VERTEX
  8
0
  6
CONTINUOUS
 62
     7
 10
243.020895257385
 20
-315.5761974654318
 42
-1
  0
SEQEND
  8
0
  0
POLYLINE
  8
0
  6
CONTINUOUS
 62
     7
 66
     1
 10
0
 20
0
  0
VERTEX
  8
0
  6
CONTINUOUS
 62
     7
 10
244.3417069588352
 20
-314.8238033618134
 42
0.07459289906077718
  0
VERTEX
  8
0
  6
CONTINUOUS
 62
     7
 10
244.3618769358277
 20
-315.2401507596842
 42
0.07459289906077718
  0
VERTEX
  8
0
  6
CONTINUOUS
 62
     7
 10
244.4677898721814
 20
-315.6298231324347
 42
0.07459289906077718
  0
VERTEX
  8
0
  6
CONTINUOUS
 62
     7
 10
244.6501208623067
 20
-315.9585125077629
 42
0.07459289906077718
  0
VERTEX
  8
0
  6
CONTINUOUS
 62
     7
 10
244.892816916573
 20
-316.1972800468561
 42
0.07459289906077718
  0
VERTEX
  8
0
  6
CONTINUOUS
 62
     7
 10
245.1745103166358
 20
-316.3251039101109
 42
0.07459289906077718
  0
VERTEX
  8
0
  6
CONTINUOUS
 62
     7
 10
245.4703998960721
 20
-316.3307300855245
 42
0.07459289906077718
  0
VERTEX
  8
0
  6
CONTINUOUS
 62
     7
 10
245.7544346125045
 20
-316.213663227048
 42
0.07459289906077718
  0
VERTEX
  8
0
  6
CONTINUOUS
 62
     7
 10
246.0016071627072
 20
-315.9842102663986
 42
0.07459289906077718
  0
VERTEX
  8
0
  6
CONTINUOUS
 62
     7
 10
246.190155703657
 20
-315.6625729586124
 42
0.07459289906077718
  0
VERTEX
  8
0
  6
CONTINUOUS
 62
     7
 10
246.3034798331369
 20
-315.2770692564582
 42
0.07459289906077718
  0
VERTEX
  8
0
  6
CONTINUOUS
 62
     7
 10
246.3316021409758
 20
-314.8616401094636
 42
0.07459289906077718
  0
VERTEX
  8
0
  6
CONTINUOUS
 62
     7
 10
246.2720466513901
 20
-314.452861196751
 42
0.07459289906077718
  0
VERTEX
  8
0
  6
CONTINUOUS
 62
     7
 10
246.1300568156225
 20
-314.0867226900537
 42
0.07459289906077718
  0
VERTEX
  8
0
  6
CONTINUOUS
 62
     7
 10
245.9181338621238
 20
-313.7954605666308
 42
0.07459289906077718
  0
VERTEX
  8
0
  6
CONTINUOUS
 62
     7
 10
245.6549361493696
 20
-313.6047184531848
 42
0.07459289906077718
  0
VERTEX
  8
0
  6
CONTINUOUS
 62
     7
 10
245.3636364257263
 20
-313.5312898809036
 42
-1
  0
SEQEND
  8
0
  0
POLYLINE
  8
0
  6
CONTINUOUS
 62
     7
 66
     1
 10
0
 20
0
  0
VERTEX
  8
0
  6
CONTINUOUS
 62
     7
 10
243.4345144033291
 20
-314.8292065064515
 42
0.07398282385211347
  0
VERTEX
  8
0
  6
CONTINUOUS
 62
     7
 10
243.4935400926022
 20
-315.5401710712835
 42
0.07398282385211347
  0
VERTEX
  8
0
  6
CONTINUOUS
 62
     7
 10
243.7112303690259
 20
-316.198282494393
 42
0.07398282385211347
  0
VERTEX
  8
0
  6
CONTINUOUS
 62
     7
 10
244.0687279287271
 20
-316.7465322254125
 42
0.07398282385211347
  0
VERTEX
  8
0
  6
CONTINUOUS
 62
     7
 10
244.535064736624
 20
-317.1374284243475
 42
0.07398282385211347
  0
VERTEX
  8
0
  6
CONTINUOUS
 62
     7
 10
245.069844615918
 20
-317.3371099168392
 42
0.07398282385211347
  0
VERTEX
  8
0
  6
CONTINUOUS
 62
     7
 10
245.6267425453228
 20
-317.3282794002996
 42
0.07398282385211347
  0
VERTEX
  8
0
  6
CONTINUOUS
 62
     7
 10
246.1575175392799
 20
-317.1117018135054
 42
0.07398282385211347
  0
VERTEX
  8
0
  6
CONTINUOUS
 62
     7
 10
246.6161914975555
 20
-316.7061380741852
 42
0.07398282385211347
  0
VERTEX
  8
0
  6
CONTINUOUS
 62
     7
 10
246.9630320336046
 20
-316.1467199245461
 42
0.07398282385211347
  0
VERTEX
  8
0
  6
CONTINUOUS
 62
     7
 10
247.1679942713249
 20
-315.4819066628777
 42
0.07398282385211347
  0
VERTEX
  8
0
  6
CONTINUOUS
 62
     7
 10
247.2133234663947
 20
-314.7692873827316
 42
0.07398282385211347
  0
VERTEX
  8
0
  6
CONTINUOUS
 62
     7
 10
247.0950930015125
 20
-314.070592348465
 42
0.07398282385211347
  0
VERTEX
  8
0
  6
CONTINUOUS
 62
     7
 10
246.8235445275227
 20
-313.4463456440762
 42
0.07398282385211347
  0
VERTEX
  8
0
  6
CONTINUOUS
 62
     7
 10
246.4222007858839
 20
-312.9506223067691
 42
0.07398282385211347
  0
VERTEX
  8
0
  6
CONTINUOUS
 62
     7
 10
245.9258279637589
 20
-312.6263641057499
 42
0.07398282385211347
  0
VERTEX
  8
0
  6
CONTINUOUS
 62
     7
 10
245.3774240916294
 20
-312.5016597344159
 42
-1
  0
SEQEND
  8
0
  0
LINE
  8
0
  6
CONTINUOUS
 62
     7
 10
-306.9527981653985
 20
-55.15603896091749
 11
-306.5672172055099
 21
-54.4881931030145
  0
LINE
  8
0
  6
CONTINUOUS
 62
     7
 10
-307.2623531153928
 20
-51.75922646865501
 11
-306.9027532866189
 21
-51.13638125290921
  0
POLYLINE
  8
0
  6
CONTINUOUS
 62
     7
 66
     1
 10
0
 20
0
  0
VERTEX
  8
0
  6
CONTINUOUS
 62
     7
 10
-307.0945398115661
 20
-52.54816298748173
 42
0.07333214780387673
  0
VERTEX
  8
0
  6
CONTINUOUS
 62
     7
 10
-307.1210688605093
 20
-52.28521730498139
 42
0.07333214780387673
  0
VERTEX
  8
0
  6
CONTINUOUS
 62
     7
 10
-307.1983977571211
 20
-52.04465452606863
 42
0.07333214780387673
  0
VERTEX
  8
0
  6
CONTINUOUS
 62
     7
 10
-307.3199439813124
 20
-51.84695223925512
 42
0.07333214780387673
  0
VERTEX
  8
0
  6
CONTINUOUS
 62
     7
 10
-307.4753610714428
 20
-51.70893959032762
 42
0.07333214780387673
  0
VERTEX
  8
0
  6
CONTINUOUS
 62
     7
 10
-307.6514193531888
 20
-51.64236472356228
 42
0.07333214780387673
  0
VERTEX
  8
0
  6
CONTINUOUS
 62
     7
 10
-307.8331320980799
 20
-51.6528947364752
 42
0.07333214780387673
  0
VERTEX
  8
0
  6
CONTINUOUS
 62
     7
 10
-308.0050312489461
 20
-51.7396332756387
 42
0.07333214780387673
  0
VERTEX
  8
0
  6
CONTINUOUS
 62
     7
 10
-308.1524841178343
 20
-51.89519683758176
 42
0.07333214780387673
  0
VERTEX
  8
0
  6
CONTINUOUS
 62
     7
 10
-308.2629389742249
 20
-52.10634327976149
 42
0.07333214780387673
  0
VERTEX
  8
0
  6
CONTINUOUS
 62
     7
 10
-308.3269934944979
 20
-52.35509904043985
 42
0.07333214780387673
  0
VERTEX
  8
0
  6
CONTINUOUS
 62
     7
 10
-308.3391951223002
 20
-52.62028911436414
 42
0.07333214780387673
  0
VERTEX
  8
0
  6
CONTINUOUS
 62
     7
 10
-308.2985052101967
 20
-52.87933954709409
 42
0.07333214780387673
  0
VERTEX
  8
0
  6
CONTINUOUS
 62
     7
 10
-308.2083874331599
 20
-53.11019901302898
 42
0.07333214780387673
  0
VERTEX
  8
0
  6
CONTINUOUS
 62
     7
 10
-308.076512947817
 20
-53.29321590534583
 42
0.07333214780387673
  0
VERTEX
  8
0
  6
CONTINUOUS
 62
     7
 10
-307.9141073953844
 20
-53.41281115304915
 42
0.07333214780387673
  0
VERTEX
  8
0
  6
CONTINUOUS
 62
     7
 10
-307.7349953337996
 20
-53.45880436879269
 42
-1
  0
SEQEND
  8
0
  0
POLYLINE
  8
0
  6
CONTINUOUS
 62
     7
 66
     1
 10
0
 20
0
  0
VERTEX
  8
0
  6
CONTINUOUS
 62
     7
 10
-306.4136978189898
 20
-52.54816298748174
 42
0.07332668712448476
  0
VERTEX
  8
0
  6
CONTINUOUS
 62
     7
 10
-306.4691965549278
 20
-52.07766258983339
 42
0.07332668712448476
  0
VERTEX
  8
0
  6
CONTINUOUS
 62
     7
 10
-306.6309692678422
 20
-51.64720700367049
 42
0.07332668712448476
  0
VERTEX
  8
0
  6
CONTINUOUS
 62
     7
 10
-306.8852472982799
 20
-51.29343279315044
 42
0.07332668712448476
  0
VERTEX
  8
0
  6
CONTINUOUS
 62
     7
 10
-307.2103887540795
 20
-51.04645008340017
 42
0.07332668712448476
  0
VERTEX
  8
0
  6
CONTINUOUS
 62
     7
 10
-307.5787204764101
 20
-50.927279853546
 42
0.07332668712448476
  0
VERTEX
  8
0
  6
CONTINUOUS
 62
     7
 10
-307.9588933337695
 20
-50.94606481728953
 42
0.07332668712448476
  0
VERTEX
  8
0
  6
CONTINUOUS
 62
     7
 10
-308.318550382196
 20
-51.10120616501717
 42
0.07332668712448476
  0
VERTEX
  8
0
  6
CONTINUOUS
 62
     7
 10
-308.6270808015424
 20
-51.37949964030338
 42
0.07332668712448476
  0
VERTEX
  8
0
  6
CONTINUOUS
 62
     7
 10
-308.8582252171689
 20
-51.75725936918197
 42
0.07332668712448476
  0
VERTEX
  8
0
  6
CONTINUOUS
 62
     7
 10
-308.9923106651624
 20
-52.20233379179859
 42
0.07332668712448476
  0
VERTEX
  8
0
  6
CONTINUOUS
 62
     7
 10
-309.0179249806541
 20
-52.67684211821076
 42
0.07332668712448476
  0
VERTEX
  8
0
  6
CONTINUOUS
 62
     7
 10
-308.9328881001416
 20
-53.14039840547186
 42
0.07332668712448476
  0
VERTEX
  8
0
  6
CONTINUOUS
 62
     7
 10
-308.7444376091708
 20
-53.55354885113459
 42
0.07332668712448476
  0
VERTEX
  8
0
  6
CONTINUOUS
 62
     7
 10
-308.4686127432051
 20
-53.88112975121707
 42
0.07332668712448476
  0
VERTEX
  8
0
  6
CONTINUOUS
 62
     7
 10
-308.1288892700658
 20
-54.09526032301277
 42
0.07332668712448476
  0
VERTEX
  8
0
  6
CONTINUOUS
 62
     7
 10
-307.7541814406524
 20
-54.17771567019364
 42
-1
  0
SEQEND
  8
0
  0
POLYLINE
  8
0
  6
CONTINUOUS
 62
     7
 66
     1
 10
0
 20
0
  0
VERTEX
  8
0
  6
CONTINUOUS
 62
     7
 10
-306.7150158269127
 20
-53.53818079176231
 42
0.07459289906077718
  0
VERTEX
  8
0
  6
CONTINUOUS
 62
     7
 10
-306.6998883449251
 20
-53.85044132454463
 42
0.07459289906077718
  0
VERTEX
  8
0
  6
CONTINUOUS
 62
     7
 10
-306.6204536466335
 20
-54.14269558948754
 42
0.07459289906077718
  0
VERTEX
  8
0
  6
CONTINUOUS
 62
     7
 10
-306.4837054108804
 20
-54.38921260865168
 42
0.07459289906077718
  0
VERTEX
  8
0
  6
CONTINUOUS
 62
     7
 10
-306.3016833792863
 20
-54.56828825401333
 42
0.07459289906077718
  0
VERTEX
  8
0
  6
CONTINUOUS
 62
     7
 10
-306.090413339808
 20
-54.66415614665867
 42
0.07459289906077718
  0
VERTEX
  8
0
  6
CONTINUOUS
 62
     7
 10
-305.8684961663321
 20
-54.66837577800781
 42
0.07459289906077718
  0
VERTEX
  8
0
  6
CONTINUOUS
 62
     7
 10
-305.6554701396644
 20
-54.58057563854258
 42
0.07459289906077718
  0
VERTEX
  8
0
  6
CONTINUOUS
 62
     7
 10
-305.470090736286
 20
-54.40848592666433
 42
0.07459289906077718
  0
VERTEX
  8
0
  6
CONTINUOUS
 62
     7
 10
-305.3286793376477
 20
-54.16725795789211
 42
0.07459289906077718
  0
VERTEX
  8
0
  6
CONTINUOUS
 62
     7
 10
-305.2436862447895
 20
-53.87813019574003
 42
0.07459289906077718
  0
VERTEX
  8
0
  6
CONTINUOUS
 62
     7
 10
-305.2225945149655
 20
-53.56655835108045
 42
0.07459289906077718
  0
VERTEX
  8
0
  6
CONTINUOUS
 62
     7
 10
-305.2672611299203
 20
-53.25997418188283
 42
0.07459289906077718
  0
VERTEX
  8
0
  6
CONTINUOUS
 62
     7
 10
-305.3737535014187
 20
-52.98537031559689
 42
0.07459289906077718
  0
VERTEX
  8
0
  6
CONTINUOUS
 62
     7
 10
-305.5326957085917
 20
-52.7669237339575
 42
0.07459289906077718
  0
VERTEX
  8
0
  6
CONTINUOUS
 62
     7
 10
-305.7300939832825
 20
-52.62386715602933
 42
0.07459289906077718
  0
VERTEX
  8
0
  6
CONTINUOUS
 62
     7
 10
-305.9485687650858
 20
-52.56879572957342
 42
-1
  0
SEQEND
  8
0
  0
POLYLINE
  8
0
  6
CONTINUOUS
 62
     7
 66
     1
 10
0
 20
0
  0
VERTEX
  8
0
  6
CONTINUOUS
 62
     7
 10
-307.3956363709092
 20
-53.54258418314088
 42
0.07398282385211347
  0
VERTEX
  8
0
  6
CONTINUOUS
 62
     7
 10
-307.3513671061689
 20
-54.07580758009046
 42
0.07398282385211347
  0
VERTEX
  8
0
  6
CONTINUOUS
 62
     7
 10
-307.1880994070186
 20
-54.56939112273111
 42
0.07398282385211347
  0
VERTEX
  8
0
  6
CONTINUOUS
 62
     7
 10
-306.9199762506556
 20
-54.9805784004261
 42
0.07398282385211347
  0
VERTEX
  8
0
  6
CONTINUOUS
 62
     7
 10
-306.5702236622292
 20
-55.27375053496146
 42
0.07398282385211347
  0
VERTEX
  8
0
  6
CONTINUOUS
 62
     7
 10
-306.1691387728229
 20
-55.42351164683847
 42
0.07398282385211347
  0
VERTEX
  8
0
  6
CONTINUOUS
 62
     7
 10
-305.7514653466635
 20
-55.41688875976509
 42
0.07398282385211347
  0
VERTEX
  8
0
  6
CONTINUOUS
 62
     7
 10
-305.3533841211096
 20
-55.25445557779511
 42
0.07398282385211347
  0
VERTEX
  8
0
  6
CONTINUOUS
 62
     7
 10
-305.0093786696117
 20
-54.95028278852114
 42
0.07398282385211347
  0
VERTEX
  8
0
  6
CONTINUOUS
 62
     7
 10
-304.7492482805879
 20
-54.53071919728046
 42
0.07398282385211347
  0
VERTEX
  8
0
  6
CONTINUOUS
 62
     7
 10
-304.5955266099876
 20
-54.03210927597208
 42
0.07398282385211347
  0
VERTEX
  8
0
  6
CONTINUOUS
 62
     7
 10
-304.5615297153859
 20
-53.49764484259902
 42
0.07398282385211347
  0
VERTEX
  8
0
  6
CONTINUOUS
 62
     7
 10
-304.6502025596117
 20
-52.97362359311317
 42
0.07398282385211347
  0
VERTEX
  8
0
  6
CONTINUOUS
 62
     7
 10
-304.8538639049159
 20
-52.50543858824248
 42
0.07398282385211347
  0
VERTEX
  8
0
  6
CONTINUOUS
 62
     7
 10
-305.1548716960872
 20
-52.13364610386099
 42
0.07398282385211347
  0
VERTEX
  8
0
  6
CONTINUOUS
 62
     7
 10
-305.5271512940576
 20
-51.89045246526234
 42
0.07398282385211347
  0
VERTEX
  8
0
  6
CONTINUOUS
 62
     7
 10
-305.9384541775793
 20
-51.79692419144055
 42
-1
  0
SEQEND
  8
0
  0
LINE
  8
0
  6
CONTINUOUS
 62
     7
 10
-301.5192349329766
 20
-40.22745772312452
 11
-301.133653973088
 21
-39.55961186522153
  0
LINE
  8
0
  6
CONTINUOUS
 62
     7
 10
-301.828789882971
 20
-36.83064523086204
 11
-301.469190054197
 21
-36.20780001511624
  0
POLYLINE
  8
0
  6
CONTINUOUS
 62
     7
 66
     1
 10
0
 20
0
  0
VERTEX
  8
0
  6
CONTINUOUS
 62
     7
 10
-301.6609765791442
 20
-37.61958174968876
 42
0.07333214780387673
  0
VERTEX
  8
0
  6
CONTINUOUS
 62
     7
 10
-301.6875056280874
 20
-37.35663606718842
 42
0.07333214780387673
  0
VERTEX
  8
0
  6
CONTINUOUS
 62
     7
 10
-301.7648345246992
 20
-37.11607328827566
 42
0.07333214780387673
  0
VERTEX
  8
0
  6
CONTINUOUS
 62
     7
 10
-301.8863807488905
 20
-36.91837100146216
 42
0.07333214780387673
  0
VERTEX
  8
0
  6
CONTINUOUS
 62
     7
 10
-302.0417978390209
 20
-36.78035835253465
 42
0.07333214780387673
  0
VERTEX
  8
0
  6
CONTINUOUS
 62
     7
 10
-302.217856120767
 20
-36.71378348576931
 42
0.07333214780387673
  0
VERTEX
  8
0
  6
CONTINUOUS
 62
     7
 10
-302.3995688656581
 20
-36.72431349868224
 42
0.07333214780387673
  0
VERTEX
  8
0
  6
CONTINUOUS
 62
     7
 10
-302.5714680165243
 20
-36.81105203784573
 42
0.07333214780387673
  0
VERTEX
  8
0
  6
CONTINUOUS
 62
     7
 10
-302.7189208854124
 20
-36.96661559978879
 42
0.07333214780387673
  0
VERTEX
  8
0
  6
CONTINUOUS
 62
     7
 10
-302.8293757418031
 20
-37.17776204196852
 42
0.07333214780387673
  0
VERTEX
  8
0
  6
CONTINUOUS
 62
     7
 10
-302.893430262076
 20
-37.42651780264688
 42
0.07333214780387673
  0
VERTEX
  8
0
  6
CONTINUOUS
 62
     7
 10
-302.9056318898784
 20
-37.69170787657117
 42
0.07333214780387673
  0
VERTEX
  8
0
  6
CONTINUOUS
 62
     7
 10
-302.8649419777748
 20
-37.95075830930112
 42
0.07333214780387673
  0
VERTEX
  8
0
  6
CONTINUOUS
 62
     7
 10
-302.774824200738
 20
-38.18161777523601
 42
0.07333214780387673
  0
VERTEX
  8
0
  6
CONTINUOUS
 62
     7
 10
-302.6429497153952
 20
-38.36463466755286
 42
0.07333214780387673
  0
VERTEX
  8
0
  6
CONTINUOUS
 62
     7
 10
-302.4805441629625
 20
-38.48422991525618
 42
0.07333214780387673
  0
VERTEX
  8
0
  6
CONTINUOUS
 62
     7
 10
-302.3014321013777
 20
-38.53022313099972
 42
-1
  0
SEQEND
  8
0
  0
POLYLINE
  8
0
  6
CONTINUOUS
 62
     7
 66
     1
 10
0
 20
0
  0
VERTEX
  8
0
  6
CONTINUOUS
 62
     7
 10
-300.9801345865679
 20
-37.61958174968877
 42
0.07332668712448476
  0
VERTEX
  8
0
  6
CONTINUOUS
 62
     7
 10
-301.0356333225059
 20
-37.14908135204042
 42
0.07332668712448476
  0
VERTEX
  8
0
  6
CONTINUOUS
 62
     7
 10
-301.1974060354203
 20
-36.71862576587752
 42
0.07332668712448476
  0
VERTEX
  8
0
  6
CONTINUOUS
 62
     7
 10
-301.451684065858
 20
-36.36485155535747
 42
0.07332668712448476
  0
VERTEX
  8
0
  6
CONTINUOUS
 62
     7
 10
-301.7768255216577
 20
-36.11786884560721
 42
0.07332668712448476
  0
VERTEX
  8
0
  6
CONTINUOUS
 62
     7
 10
-302.1451572439882
 20
-35.99869861575304
 42
0.07332668712448476
  0
VERTEX
  8
0
  6
CONTINUOUS
 62
     7
 10
-302.5253301013476
 20
-36.01748357949656
 42
0.07332668712448476
  0
VERTEX
  8
0
  6
CONTINUOUS
 62
     7
 10
-302.8849871497741
 20
-36.1726249272242
 42
0.07332668712448476
  0
VERTEX
  8
0
  6
CONTINUOUS
 62
     7
 10
-303.1935175691206
 20
-36.45091840251041
 42
0.07332668712448476
  0
VERTEX
  8
0
  6
CONTINUOUS
 62
     7
 10
-303.424661984747
 20
-36.828678131389
 42
0.07332668712448476
  0
VERTEX
  8
0
  6
CONTINUOUS
 62
     7
 10
-303.5587474327405
 20
-37.27375255400563
 42
0.07332668712448476
  0
VERTEX
  8
0
  6
CONTINUOUS
 62
     7
 10
-303.5843617482323
 20
-37.74826088041779
 42
0.07332668712448476
  0
VERTEX
  8
0
  6
CONTINUOUS
 62
     7
 10
-303.4993248677197
 20
-38.21181716767889
 42
0.07332668712448476
  0
VERTEX
  8
0
  6
CONTINUOUS
 62
     7
 10
-303.3108743767489
 20
-38.62496761334162
 42
0.07332668712448476
  0
VERTEX
  8
0
  6
CONTINUOUS
 62
     7
 10
-303.0350495107832
 20
-38.9525485134241
 42
0.07332668712448476
  0
VERTEX
  8
0
  6
CONTINUOUS
 62
     7
 10
-302.6953260376439
 20
-39.16667908521981
 42
0.07332668712448476
  0
VERTEX
  8
0
  6
CONTINUOUS
 62
     7
 10
-302.3206182082305
 20
-39.24913443240067
 42
-1
  0
SEQEND
  8
0
  0
POLYLINE
  8
0
  6
CONTINUOUS
 62
     7
 66
     1
 10
0
 20
0
  0
VERTEX
  8
0
  6
CONTINUOUS
 62
     7
 10
-301.2814525944908
 20
-38.60959955396934
 42
0.07459289906077718
  0
VERTEX
  8
0
  6
CONTINUOUS
 62
     7
 10
-301.2663251125032
 20
-38.92186008675166
 42
0.07459289906077718
  0
VERTEX
  8
0
  6
CONTINUOUS
 62
     7
 10
-301.1868904142116
 20
-39.21411435169457
 42
0.07459289906077718
  0
VERTEX
  8
0
  6
CONTINUOUS
 62
     7
 10
-301.0501421784585
 20
-39.46063137085871
 42
0.07459289906077718
  0
VERTEX
  8
0
  6
CONTINUOUS
 62
     7
 10
-300.8681201468644
 20
-39.63970701622036
 42
0.07459289906077718
  0
VERTEX
  8
0
  6
CONTINUOUS
 62
     7
 10
-300.6568501073861
 20
-39.7355749088657
 42
0.07459289906077718
  0
VERTEX
  8
0
  6
CONTINUOUS
 62
     7
 10
-300.4349329339103
 20
-39.73979454021485
 42
0.07459289906077718
  0
VERTEX
  8
0
  6
CONTINUOUS
 62
     7
 10
-300.2219069072425
 20
-39.65199440074961
 42
0.07459289906077718
  0
VERTEX
  8
0
  6
CONTINUOUS
 62
     7
 10
-300.0365275038641
 20
-39.47990468887137
 42
0.07459289906077718
  0
VERTEX
  8
0
  6
CONTINUOUS
 62
     7
 10
-299.8951161052258
 20
-39.23867672009914
 42
0.07459289906077718
  0
VERTEX
  8
0
  6
CONTINUOUS
 62
     7
 10
-299.8101230123676
 20
-38.94954895794707
 42
0.07459289906077718
  0
VERTEX
  8
0
  6
CONTINUOUS
 62
     7
 10
-299.7890312825436
 20
-38.63797711328748
 42
0.07459289906077718
  0
VERTEX
  8
0
  6
CONTINUOUS
 62
     7
 10
-299.8336978974984
 20
-38.33139294408986
 42
0.07459289906077718
  0
VERTEX
  8
0
  6
CONTINUOUS
 62
     7
 10
-299.9401902689968
 20
-38.05678907780392
 42
0.07459289906077718
  0
VERTEX
  8
0
  6
CONTINUOUS
 62
     7
 10
-300.0991324761698
 20
-37.83834249616453
 42
0.07459289906077718
  0
VERTEX
  8
0
  6
CONTINUOUS
 62
     7
 10
-300.2965307508607
 20
-37.69528591823636
 42
0.07459289906077718
  0
VERTEX
  8
0
  6
CONTINUOUS
 62
     7
 10
-300.5150055326639
 20
-37.64021449178045
 42
-1
  0
SEQEND
  8
0
  0
POLYLINE
  8
0
  6
CONTINUOUS
 62
     7
 66
     1
 10
0
 20
0
  0
VERTEX
  8
0
  6
CONTINUOUS
 62
     7
 10
-301.9620731384873
 20
-38.61400294534791
 42
0.07398282385211347
  0
VERTEX
  8
0
  6
CONTINUOUS
 62
     7
 10
-301.9178038737471
 20
-39.14722634229749
 42
0.07398282385211347
  0
VERTEX
  8
0
  6
CONTINUOUS
 62
     7
 10
-301.7545361745967
 20
-39.64080988493814
 42
0.07398282385211347
  0
VERTEX
  8
0
  6
CONTINUOUS
 62
     7
 10
-301.4864130182337
 20
-40.05199716263313
 42
0.07398282385211347
  0
VERTEX
  8
0
  6
CONTINUOUS
 62
     7
 10
-301.1366604298073
 20
-40.34516929716849
 42
0.07398282385211347
  0
VERTEX
  8
0
  6
CONTINUOUS
 62
     7
 10
-300.735575540401
 20
-40.4949304090455
 42
0.07398282385211347
  0
VERTEX
  8
0
  6
CONTINUOUS
 62
     7
 10
-300.3179021142416
 20
-40.48830752197212
 42
0.07398282385211347
  0
VERTEX
  8
0
  6
CONTINUOUS
 62
     7
 10
-299.9198208886877
 20
-40.32587434000214
 42
0.07398282385211347
  0
VERTEX
  8
0
  6
CONTINUOUS
 62
     7
 10
-299.5758154371898
 20
-40.02170155072817
 42
0.07398282385211347
  0
VERTEX
  8
0
  6
CONTINUOUS
 62
     7
 10
-299.315685048166
 20
-39.60213795948749
 42
0.07398282385211347
  0
VERTEX
  8
0
  6
CONTINUOUS
 62
     7
 10
-299.1619633775657
 20
-39.10352803817911
 42
0.07398282385211347
  0
VERTEX
  8
0
  6
CONTINUOUS
 62
     7
 10
-299.127966482964
 20
-38.56906360480605
 42
0.07398282385211347
  0
VERTEX
  8
0
  6
CONTINUOUS
 62
     7
 10
-299.2166393271899
 20
-38.04504235532021
 42
0.07398282385211347
  0
VERTEX
  8
0
  6
CONTINUOUS
 62
     7
 10
-299.420300672494
 20
-37.57685735044952
 42
0.07398282385211347
  0
VERTEX
  8
0
  6
CONTINUOUS
 62
     7
 10
-299.7213084636653
 20
-37.20506486606802
 42
0.07398282385211347
  0
VERTEX
  8
0
  6
CONTINUOUS
 62
     7
 10
-300.0935880616357
 20
-36.96187122746937
 42
0.07398282385211347
  0
VERTEX
  8
0
  6
CONTINUOUS
 62
     7
 10
-300.5048909451575
 20
-36.86834295364758
 42
-1
  0
SEQEND
  8
0
  0
ENDSEC
  0
EOF
