  0
SECTION
  2
HEADER
  9
$EXTMAX
 10
108.92817
 20
144.14287
  9
$EXTMIN
 10
-311.07183
 20
-153.71428
  0
ENDSEC
  0
SECTION
  2
TABLES
  0
TABLE
  2
LTYPE
 70
    22
  0
LTYPE
  2
CONTINUOUS
 70
    64
  3
Solid line
 72
    65
 73
     0
 40
0.000000
  0
LTYPE
  2
DASHED
 70
    64
  3
__ __ __ __ __ __ __ __ __ __ __ __ __ __ __
 72
    65
 73
     2
 40
3.500000
 49
2.000000
 49
-1.500000
  0
LTYPE
  2
CENTER
 70
    64
  3
____ _ ____ _ ____ _ ____ _ ____ _ ____ _ ____
 72
    65
 73
     4
 40
17.500000
 49
13.000000
 49
-1.500000
 49
1.500000
 49
-1.500000
  0
LTYPE
  2
PHANTOM
 70
    64
  3
_____ _ _ _____ _ _ _____ _ _ _____ _ _ ____  
 72
    65
 73
     6
 40
15.500000
 49
8.000000
 49
-1.500000
 49
1.500000
 49
-1.500000
 49
1.500000
 49
-1.500000
  0
LTYPE
  2
DOT
 70
    64
  3
. . . . . . . . . . . . . . . . . . . . . . . .
 72
    65
 73
     2
 40
0.25
 49
0.0
 49
-0.25
  0
ENDTAB
  0
TABLE
  2
LAYER
 70
     2
  0
LAYER
  2
0
 70
     0
 62
     7
  6
CONTINUOUS
  0
LAYER
  2
1
 70
     0
 62
     7
  6
CONTINUOUS
  0
ENDTAB
  0
TABLE
  2
STYLE
 70
     1
  0
STYLE
  2
STANDARD
 70
     0
 40
0.000000
 41
1.000000
 50
0.000000
 71
     0
 42
0.200000
  3
txt
  4
BIGFONT
  0
ENDTAB
  0
TABLE
  2
VIEW
 70
     0
  0
ENDTAB
  0
ENDSEC
  0
SECTION
  2
BLOCKS
  0
ENDSEC
  0
SECTION
  2
ENTITIES
  0
POINT
  8
0
  6
CONTINUOUS
 62
     7
 10
-226.38196
 20
-586.47162
  0
POINT
  8
0
  6
CONTINUOUS
 62
     7
 10
-6.2091584
 20
-586.47162
  0
POINT
  8
0
  6
CONTINUOUS
 62
     7
 10
-225.33449
 20
-382.26437
  0
POINT
  8
0
  6
CONTINUOUS
 62
     7
 10
-44.378193
 20
-382.26437
  0
POINT
  8
0
  6
CONTINUOUS
 62
     7
 10
-225.33449
 20
-264.08484
  0
POINT
  8
0
  6
CONTINUOUS
 62
     7
 10
-41.336807
 20
-264.08484
  0
POINT
  8
0
  6
CONTINUOUS
 62
     7
 10
-257.1441
 20
-75.518997
  0
POINT
  8
0
  6
CONTINUOUS
 62
     7
 10
-135.92319
 20
-75.518997
  0
POINT
  8
0
  6
CONTINUOUS
 62
     7
 10
-69.447205
 20
-78.1259
  0
POINT
  8
0
  6
CONTINUOUS
 62
     7
 10
83.056519
 20
-78.1259
  0
POINT
  8
0
  6
CONTINUOUS
 62
     7
 10
-61.114201
 20
51.60537
  0
POINT
  8
0
  6
CONTINUOUS
 62
     7
 10
62.068001
 20
51.60537
  0
POINT
  8
0
  6
CONTINUOUS
 62
     7
 10
-135.88597
 20
54.113754
  0
POINT
  8
0
  6
CONTINUOUS
 62
     7
 10
-252.20935
 20
54.113754
  0
LINE
  8
0
  6
CENTER
 62
     7
 10
-252.20935
 20
82.243179
 11
-252.20935
 21
26.538637
  0
LINE
  8
0
  6
CENTER
 62
     7
 10
-281.69318
 20
54.113754
 11
-224.22954
 21
54.113754
  0
LINE
  8
0
  6
CONTINUOUS
 62
     7
 10
-236.51468
 20
54.113754
 11
-241.11154
 21
65.211571
  0
LINE
  8
0
  6
CONTINUOUS
 62
     7
 10
-241.11153
 20
65.211578
 11
-252.20935
 21
69.808441
  0
LINE
  8
0
  6
CONTINUOUS
 62
     7
 10
-263.30716
 20
65.211571
 11
-252.20935
 21
69.808434
  0
LINE
  8
0
  6
CONTINUOUS
 62
     7
 10
-267.90402
 20
54.113754
 11
-263.30716
 21
65.211571
  0
LINE
  8
0
  6
CONTINUOUS
 62
     7
 10
-263.30719
 20
43.015934
 11
-267.90405
 21
54.11375
  0
LINE
  8
0
  6
CONTINUOUS
 62
     7
 10
-252.20935
 20
38.419071
 11
-263.30716
 21
43.015938
  0
LINE
  8
0
  6
CONTINUOUS
 62
     7
 10
-241.11153
 20
43.01593
 11
-252.20934
 21
38.419067
  0
LINE
  8
0
  6
CONTINUOUS
 62
     7
 10
-236.51466
 20
54.113758
 11
-241.11153
 21
43.015942
  0
LINE
  8
0
  6
CENTER
 62
     7
 10
-94.559418
 20
51.60537
 11
-29.564924
 21
51.60537
  0
LINE
  8
0
  6
CONTINUOUS
 62
     7
 10
-42.713547
 20
51.60537
 11
-48.102974
 21
64.6166
  0
LINE
  8
0
  6
CONTINUOUS
 62
     7
 10
-48.102966
 20
64.616608
 11
-61.114197
 21
70.006035
  0
LINE
  8
0
  6
CONTINUOUS
 62
     7
 10
-74.12545
 20
64.6166
 11
-61.114216
 21
70.006027
  0
LINE
  8
0
  6
CONTINUOUS
 62
     7
 10
-79.51487
 20
51.605366
 11
-74.125435
 21
64.6166
  0
LINE
  8
0
  6
CONTINUOUS
 62
     7
 10
-74.12545
 20
38.594131
 11
-79.514877
 21
51.605358
  0
LINE
  8
0
  6
CONTINUOUS
 62
     7
 10
-61.114204
 20
33.204704
 11
-74.125435
 21
38.594131
  0
LINE
  8
0
  6
CONTINUOUS
 62
     7
 10
-48.102978
 20
38.594124
 11
-61.114208
 21
33.204697
  0
LINE
  8
0
  6
CONTINUOUS
 62
     7
 10
-42.713535
 20
51.605366
 11
-48.102962
 21
38.594131
  0
LINE
  8
0
  6
CENTER
 62
     7
 10
-61.114201
 20
83.594254
 11
-61.114201
 21
18.842276
  0
LINE
  8
0
  6
CENTER
 62
     7
 10
-293.5444
 20
-75.518997
 11
-221.03191
 21
-75.518997
  0
LINE
  8
0
  6
CONTINUOUS
 62
     7
 10
-233.87268
 20
-75.519005
 11
-240.68872
 21
-59.06361
  0
LINE
  8
0
  6
CONTINUOUS
 62
     7
 10
-240.68869
 20
-59.063606
 11
-257.14407
 21
-52.247559
  0
LINE
  8
0
  6
CONTINUOUS
 62
     7
 10
-273.59946
 20
-59.063602
 11
-257.14407
 21
-52.247555
  0
LINE
  8
0
  6
CONTINUOUS
 62
     7
 10
-280.41553
 20
-75.51899
 11
-273.59949
 21
-59.063595
  0
LINE
  8
0
  6
CONTINUOUS
 62
     7
 10
-273.59949
 20
-91.97438
 11
-280.41553
 21
-75.518997
  0
LINE
  8
0
  6
CONTINUOUS
 62
     7
 10
-257.14407
 20
-98.790428
 11
-273.59949
 21
-91.97438
  0
LINE
  8
0
  6
CONTINUOUS
 62
     7
 10
-240.68869
 20
-91.974373
 11
-257.14407
 21
-98.790421
  0
LINE
  8
0
  6
CONTINUOUS
 62
     7
 10
-233.87267
 20
-75.518982
 11
-240.68871
 21
-91.974373
  0
LINE
  8
0
  6
CENTER
 62
     7
 10
-257.1441
 20
-39.119228
 11
-257.1441
 21
-112.60181
  0
LINE
  8
0
  6
CENTER
 62
     7
 10
-111.41433
 20
-78.1259
 11
-26.533464
 21
-78.1259
  0
LINE
  8
0
  6
CONTINUOUS
 62
     7
 10
-42.928593
 20
-78.1259
 11
-50.695713
 21
-59.374405
  0
LINE
  8
0
  6
CONTINUOUS
 62
     7
 10
-50.695709
 20
-59.374409
 11
-69.447212
 21
-51.607285
  0
LINE
  8
0
  6
CONTINUOUS
 62
     7
 10
-88.198685
 20
-59.374409
 11
-69.447212
 21
-51.607292
  0
LINE
  8
0
  6
CONTINUOUS
 62
     7
 10
-95.965828
 20
-78.125885
 11
-88.198708
 21
-59.374393
  0
LINE
  8
0
  6
CONTINUOUS
 62
     7
 10
-88.198685
 20
-96.877388
 11
-95.965813
 21
-78.125893
  0
LINE
  8
0
  6
CONTINUOUS
 62
     7
 10
-69.447197
 20
-104.64451
 11
-88.1987
 21
-96.87738
  0
LINE
  8
0
  6
CONTINUOUS
 62
     7
 10
-50.695721
 20
-96.877388
 11
-69.447197
 21
-104.6445
  0
LINE
  8
0
  6
CONTINUOUS
 62
     7
 10
-42.928608
 20
-78.125885
 11
-50.695728
 21
-96.877373
  0
LINE
  8
0
  6
CENTER
 62
     7
 10
-69.447205
 20
-38.876713
 11
-69.447205
 21
-117.45214
  0
LINE
  8
0
  6
CENTER
 62
     7
 10
-271.83917
 20
-264.08484
 11
-177.74266
 21
-264.08484
  0
LINE
  8
0
  6
CONTINUOUS
 62
     7
 10
-193.40393
 20
-264.08484
 11
-202.75618
 21
-241.50653
  0
LINE
  8
0
  6
CONTINUOUS
 62
     7
 10
-202.75618
 20
-241.50655
 11
-225.3345
 21
-232.1543
  0
LINE
  8
0
  6
CONTINUOUS
 62
     7
 10
-247.91283
 20
-241.50653
 11
-225.3345
 21
-232.15428
  0
LINE
  8
0
  6
CONTINUOUS
 62
     7
 10
-257.26508
 20
-264.08487
 11
-247.91283
 21
-241.50655
  0
LINE
  8
0
  6
CONTINUOUS
 62
     7
 10
-247.91283
 20
-286.66318
 11
-257.26508
 21
-264.08484
  0
LINE
  8
0
  6
CONTINUOUS
 62
     7
 10
-225.3345
 20
-296.01544
 11
-247.91283
 21
-286.66318
  0
LINE
  8
0
  6
CONTINUOUS
 62
     7
 10
-202.75618
 20
-286.66318
 11
-225.3345
 21
-296.01541
  0
LINE
  8
0
  6
CONTINUOUS
 62
     7
 10
-193.40393
 20
-264.08487
 11
-202.75618
 21
-286.66318
  0
LINE
  8
0
  6
CENTER
 62
     7
 10
-225.33449
 20
-219.06667
 11
-225.33449
 21
-310.49548
  0
LINE
  8
0
  6
CENTER
 62
     7
 10
-282.75241
 20
-382.26437
 11
-167.55696
 21
-382.26437
  0
LINE
  8
0
  6
CONTINUOUS
 62
     7
 10
-188.53316
 20
-382.26437
 11
-199.31201
 21
-356.24191
  0
LINE
  8
0
  6
CONTINUOUS
 62
     7
 10
-199.31201
 20
-356.24191
 11
-225.33449
 21
-345.46304
  0
LINE
  8
0
  6
CONTINUOUS
 62
     7
 10
-251.35696
 20
-356.24188
 11
-225.3345
 21
-345.46304
  0
LINE
  8
0
  6
CONTINUOUS
 62
     7
 10
-262.13583
 20
-382.26437
 11
-251.35696
 21
-356.24188
  0
LINE
  8
0
  6
CONTINUOUS
 62
     7
 10
-251.35696
 20
-408.28683
 11
-262.13583
 21
-382.26437
  0
LINE
  8
0
  6
CONTINUOUS
 62
     7
 10
-225.33449
 20
-419.0657
 11
-251.35696
 21
-408.28683
  0
LINE
  8
0
  6
CONTINUOUS
 62
     7
 10
-199.31203
 20
-408.28683
 11
-225.33449
 21
-419.0657
  0
LINE
  8
0
  6
CONTINUOUS
 62
     7
 10
-188.53314
 20
-382.26434
 11
-199.31201
 21
-408.28683
  0
LINE
  8
0
  6
CENTER
 62
     7
 10
-225.33449
 20
-329.6543
 11
-225.33449
 21
-434.42154
  0
LINE
  8
0
  6
CENTER
 62
     7
 10
-294.47745
 20
-586.47162
 11
-156.8441
 21
-586.47162
  0
LINE
  8
0
  6
CONTINUOUS
 62
     7
 10
-182.00389
 20
-586.47162
 11
-195.00192
 21
-555.09161
  0
LINE
  8
0
  6
CONTINUOUS
 62
     7
 10
-195.00191
 20
-555.09155
 11
-226.38196
 21
-542.09351
  0
LINE
  8
0
  6
CONTINUOUS
 62
     7
 10
-257.76199
 20
-555.09161
 11
-226.38196
 21
-542.09357
  0
LINE
  8
0
  6
CONTINUOUS
 62
     7
 10
-270.76004
 20
-586.47162
 11
-257.76202
 21
-555.09161
  0
LINE
  8
0
  6
CONTINUOUS
 62
     7
 10
-257.76196
 20
-617.85168
 11
-270.76001
 21
-586.47162
  0
LINE
  8
0
  6
CONTINUOUS
 62
     7
 10
-226.38197
 20
-630.84973
 11
-257.76202
 21
-617.85168
  0
LINE
  8
0
  6
CONTINUOUS
 62
     7
 10
-195.00192
 20
-617.85168
 11
-226.38197
 21
-630.84973
  0
LINE
  8
0
  6
CONTINUOUS
 62
     7
 10
-182.00389
 20
-586.47162
 11
-195.00192
 21
-617.85168
  0
LINE
  8
0
  6
CENTER
 62
     7
 10
-226.38196
 20
-522.09644
 11
-226.38196
 21
-654.51642
  0
LINE
  8
0
  6
CENTER
 62
     7
 10
-130.29929
 20
-75.518997
 11
-211.31747
 21
-75.518997
  0
LINE
  8
0
  6
CONTINUOUS
 62
     7
 10
-155.82651
 20
-107.44957
 11
-173.0199
 21
-107.44957
  0
LINE
  8
0
  6
CONTINUOUS
 62
     7
 10
-155.82648
 20
-98.097321
 11
-173.0199
 21
-98.097321
  0
LINE
  8
0
  6
CONTINUOUS
 62
     7
 10
-174.42317
 20
-105.01899
 11
-173.01988
 21
-107.44955
  0
LINE
  8
0
  6
CONTINUOUS
 62
     7
 10
-154.4232
 20
-105.019
 11
-155.82648
 21
-107.44956
  0
LINE
  8
0
  6
CONTINUOUS
 62
     6
 10
-150.03787
 20
-75.518997
 11
-136.92319
 21
-75.518997
  0
LINE
  8
0
  6
CONTINUOUS
 62
     7
 10
-186.76848
 20
-95.01899
 11
-187.92317
 21
-93.018982
  0
LINE
  8
0
  6
CONTINUOUS
 62
     7
 10
-174.92319
 20
-95.018997
 11
-174.92319
 21
-75.518997
  0
LINE
  8
0
  6
CONTINUOUS
 62
     7
 10
-190.51675
 20
-95.019012
 11
-191.9232
 21
-94.207001
  0
LINE
  8
0
  6
CONTINUOUS
 62
     7
 10
-187.92319
 20
-95.018997
 11
-174.42319
 21
-95.018997
  0
LINE
  8
0
  6
CONTINUOUS
 62
     7
 10
-186.76849
 20
-84.121323
 11
-186.76849
 21
-86.373276
  0
LINE
  8
0
  6
CONTINUOUS
 62
     7
 10
-192.42319
 20
-95.018997
 11
-187.92319
 21
-95.018997
  0
LINE
  8
0
  6
CONTINUOUS
 62
     7
 10
-192.42319
 20
-94.206993
 11
-191.92319
 21
-94.206993
  0
LINE
  8
0
  6
CONTINUOUS
 62
     7
 10
-187.92319
 20
-95.018997
 11
-187.92319
 21
-75.518997
  0
LINE
  8
0
  6
CONTINUOUS
 62
     7
 10
-181.42319
 20
-84.121323
 11
-186.76849
 21
-84.121323
  0
LINE
  8
0
  6
CONTINUOUS
 62
     7
 10
-181.42319
 20
-86.373276
 11
-186.76849
 21
-86.373276
  0
LINE
  8
0
  6
CONTINUOUS
 62
     7
 10
-191.92319
 20
-95.018997
 11
-191.92319
 21
-75.518997
  0
LINE
  8
0
  6
CONTINUOUS
 62
     7
 10
-176.07788
 20
-84.121323
 11
-176.07788
 21
-86.373276
  0
LINE
  8
0
  6
CONTINUOUS
 62
     7
 10
-181.42319
 20
-84.121323
 11
-176.07788
 21
-84.121323
  0
LINE
  8
0
  6
CONTINUOUS
 62
     7
 10
-181.42319
 20
-86.373276
 11
-176.07788
 21
-86.373276
  0
LINE
  8
0
  6
CONTINUOUS
 62
     7
 10
-176.07788
 20
-95.019012
 11
-174.92319
 21
-93.019005
  0
LINE
  8
0
  6
CONTINUOUS
 62
     7
 10
-174.42319
 20
-75.518997
 11
-174.42319
 21
-105.019
  0
LINE
  8
0
  6
CONTINUOUS
 62
     7
 10
-149.88493
 20
31.383516
 11
-164.88702
 21
31.383516
  0
LINE
  8
0
  6
CONTINUOUS
 62
     7
 10
-164.88701
 20
31.383514
 11
-165.88596
 21
33.113754
  0
LINE
  8
0
  6
CONTINUOUS
 62
     7
 10
-149.88493
 20
31.383516
 11
-148.88597
 21
33.11377
  0
LINE
  8
0
  6
CONTINUOUS
 62
     7
 10
-149.88493
 20
38.041035
 11
-164.88702
 21
38.041035
  0
LINE
  8
0
  6
CONTINUOUS
 62
     7
 10
-145.41026
 20
54.113754
 11
-135.88597
 21
54.113754
  0
LINE
  8
0
  6
CONTINUOUS
 62
     7
 10
-165.88597
 20
54.113754
 11
-165.88597
 21
33.113773
  0
LINE
  8
0
  6
CONTINUOUS
 62
     7
 10
-148.88597
 20
54.113754
 11
-148.88597
 21
33.113758
  0
LINE
  8
0
  6
CONTINUOUS
 62
     7
 10
-183.88597
 20
41.613758
 11
-183.88597
 21
54.113754
  0
LINE
  8
0
  6
CONTINUOUS
 62
     7
 10
-179.88599
 20
41.613758
 11
-166.88597
 21
41.613758
  0
LINE
  8
0
  6
CONTINUOUS
 62
     7
 10
-168.88597
 20
46.603954
 11
-177.88597
 21
46.603954
  0
LINE
  8
0
  6
CONTINUOUS
 62
     7
 10
-167.88597
 20
41.704975
 11
-178.88597
 21
41.704975
  0
LINE
  8
0
  6
CONTINUOUS
 62
     7
 10
-184.38597
 20
41.613758
 11
-179.88599
 21
41.613758
  0
LINE
  8
0
  6
CONTINUOUS
 62
     7
 10
-184.38597
 20
42.425762
 11
-183.88597
 21
42.425762
  0
LINE
  8
0
  6
CONTINUOUS
 62
     7
 10
-168.88597
 20
49.214779
 11
-177.88597
 21
49.214779
  0
LINE
  8
0
  6
CONTINUOUS
 62
     7
 10
-182.47954
 20
41.613758
 11
-183.88596
 21
42.425755
  0
LINE
  8
0
  6
CENTER
 62
     7
 10
-199.42889
 20
54.113754
 11
-131.30171
 21
54.113754
  0
LINE
  8
0
  6
CONTINUOUS
 62
     7
 10
-168.88597
 20
46.603954
 11
-168.88597
 21
49.214779
  0
LINE
  8
0
  6
CONTINUOUS
 62
     7
 10
-167.88597
 20
41.613758
 11
-167.88597
 21
54.113754
  0
LINE
  8
0
  6
CONTINUOUS
 62
     7
 10
-178.88597
 20
41.613758
 11
-178.88597
 21
54.113754
  0
LINE
  8
0
  6
CONTINUOUS
 62
     7
 10
-177.88597
 20
49.214779
 11
-177.88597
 21
46.603954
  0
LINE
  8
0
  6
CONTINUOUS
 62
     7
 10
44.567928
 20
27.105379
 11
43.402462
 21
25.086731
  0
LINE
  8
0
  6
CONTINUOUS
 62
     7
 10
26.06797
 20
27.105415
 11
27.233435
 21
25.086769
  0
LINE
  8
0
  6
CENTER
 62
     7
 10
-8.1928654
 20
51.60537
 11
67.708534
 21
51.60537
  0
LINE
  8
0
  6
CONTINUOUS
 62
     7
 10
43.402473
 20
32.853859
 11
27.233404
 21
32.853859
  0
LINE
  8
0
  6
CONTINUOUS
 62
     7
 10
43.402473
 20
25.086739
 11
27.233404
 21
25.086739
  0
LINE
  8
0
  6
CONTINUOUS
 62
     3
 10
50.320412
 20
51.605453
 11
62.068001
 21
51.605453
  0
LINE
  8
0
  6
CONTINUOUS
 62
     7
 10
44.56794
 20
51.60537
 11
44.56794
 21
27.105385
  0
LINE
  8
0
  6
CONTINUOUS
 62
     7
 10
26.067938
 20
51.60537
 11
26.067938
 21
27.105385
  0
LINE
  8
0
  6
CONTINUOUS
 62
     7
 10
25.567938
 20
36.60537
 11
25.567938
 21
51.60537
  0
LINE
  8
0
  6
CONTINUOUS
 62
     7
 10
25.567938
 20
43.183205
 11
14.911139
 21
43.183205
  0
LINE
  8
0
  6
CONTINUOUS
 62
     7
 10
14.067938
 20
36.60537
 11
14.067938
 21
51.60537
  0
LINE
  8
0
  6
CONTINUOUS
 62
     7
 10
14.911139
 20
45.067024
 11
14.911139
 21
43.183205
  0
LINE
  8
0
  6
CONTINUOUS
 62
     7
 10
9.5679379
 20
37.417374
 11
10.067938
 21
37.417374
  0
LINE
  8
0
  6
CONTINUOUS
 62
     7
 10
9.5679379
 20
36.60537
 11
14.067938
 21
36.60537
  0
LINE
  8
0
  6
CONTINUOUS
 62
     7
 10
25.567938
 20
45.067024
 11
14.911139
 21
45.067024
  0
LINE
  8
0
  6
CONTINUOUS
 62
     7
 10
11.474341
 20
36.605373
 11
10.067923
 21
37.41737
  0
LINE
  8
0
  6
CONTINUOUS
 62
     7
 10
10.067938
 20
36.60537
 11
10.067938
 21
51.60537
  0
LINE
  8
0
  6
CONTINUOUS
 62
     7
 10
25.567938
 20
36.60537
 11
14.067938
 21
36.60537
  0
LINE
  8
0
  6
CONTINUOUS
 62
     7
 10
-166.88597
 20
39.113758
 11
-165.88597
 21
39.113758
  0
LINE
  8
0
  6
CONTINUOUS
 62
     7
 10
-166.88597
 20
39.113758
 11
-166.88597
 21
54.113754
  0
LINE
  8
0
  6
CONTINUOUS
 62
     7
 10
25.567938
 20
36.505371
 11
26.067938
 21
36.505371
  0
LINE
  8
0
  6
CONTINUOUS
 62
     7
 10
25.567938
 20
33.35537
 11
25.567938
 21
36.505371
  0
LINE
  8
0
  6
CONTINUOUS
 62
     7
 10
25.567938
 20
33.35537
 11
26.067938
 21
33.35537
  0
LINE
  8
0
  6
CONTINUOUS
 62
     7
 10
-174.92319
 20
-98.268997
 11
-174.92319
 21
-95.118996
  0
LINE
  8
0
  6
CONTINUOUS
 62
     7
 10
-174.92319
 20
-95.118996
 11
-174.42319
 21
-95.118996
  0
LINE
  8
0
  6
CONTINUOUS
 62
     7
 10
-174.92319
 20
-98.268997
 11
-174.42319
 21
-98.268997
  0
LINE
  8
0
  6
CONTINUOUS
 62
     7
 10
-148.01093
 20
36.61375
 11
-147.08716
 21
38.21376
  0
LINE
  8
0
  6
CONTINUOUS
 62
     7
 10
-148.88597
 20
36.61375
 11
-148.01094
 21
36.61375
  0
LINE
  8
0
  6
CONTINUOUS
 62
     7
 10
-136.40556
 20
39.713764
 11
-135.88594
 21
40.613762
  0
LINE
  8
0
  6
CONTINUOUS
 62
     7
 10
-148.88597
 20
37.696255
 11
-147.38597
 21
37.696255
  0
LINE
  8
0
  6
CONTINUOUS
 62
     7
 10
-148.01094
 20
54.113754
 11
-148.01094
 21
36.61375
  0
LINE
  8
0
  6
CONTINUOUS
 62
     7
 10
-135.88597
 20
40.613766
 11
-135.88597
 21
54.113754
  0
LINE
  8
0
  6
CONTINUOUS
 62
     7
 10
-145.41026
 20
43.781345
 11
-136.40558
 21
43.781345
  0
LINE
  8
0
  6
CONTINUOUS
 62
     7
 10
-144.48909
 20
39.713764
 11
-136.40558
 21
39.713764
  0
LINE
  8
0
  6
CONTINUOUS
 62
     7
 10
62.068001
 20
35.10537
 11
62.068001
 21
51.605453
  0
LINE
  8
0
  6
CONTINUOUS
 62
     7
 10
44.56794
 20
30.60537
 11
46.44297
 21
30.60537
  0
LINE
  8
0
  6
CONTINUOUS
 62
     7
 10
44.56794
 20
31.687876
 11
47.06794
 21
31.687876
  0
LINE
  8
0
  6
CONTINUOUS
 62
     7
 10
47.222351
 20
31.955374
 11
46.442932
 21
30.605381
  0
LINE
  8
0
  6
CONTINUOUS
 62
     7
 10
61.404034
 20
33.955372
 11
62.067982
 21
35.105362
  0
LINE
  8
0
  6
CONTINUOUS
 62
     7
 10
50.320412
 20
38.97683
 11
61.40403
 21
38.97683
  0
LINE
  8
0
  6
CONTINUOUS
 62
     7
 10
50.320412
 20
51.605453
 11
62.068001
 21
51.605453
  0
LINE
  8
0
  6
CONTINUOUS
 62
     7
 10
46.44297
 20
51.60537
 11
46.44297
 21
30.60537
  0
LINE
  8
0
  6
CONTINUOUS
 62
     7
 10
50.68647
 20
33.955368
 11
61.40403
 21
33.955368
  0
LINE
  8
0
  6
CONTINUOUS
 62
     7
 10
-154.42319
 20
-101.019
 11
-153.54816
 21
-101.019
  0
LINE
  8
0
  6
CONTINUOUS
 62
     7
 10
-136.87581
 20
-97.669006
 11
-135.92319
 21
-96.01902
  0
LINE
  8
0
  6
CONTINUOUS
 62
     7
 10
-153.54819
 20
-101.019
 11
-152.76875
 21
-99.668991
  0
LINE
  8
0
  6
CONTINUOUS
 62
     7
 10
-149.03787
 20
-91.209015
 11
-136.87582
 21
-91.209015
  0
LINE
  8
0
  6
CONTINUOUS
 62
     7
 10
-149.03787
 20
-75.518997
 11
-135.92319
 21
-75.518997
  0
LINE
  8
0
  6
CONTINUOUS
 62
     7
 10
-152.92319
 20
-75.518997
 11
-152.92319
 21
-99.936493
  0
LINE
  8
0
  6
CONTINUOUS
 62
     7
 10
-154.42319
 20
-99.936493
 11
-152.92319
 21
-99.936493
  0
LINE
  8
0
  6
CONTINUOUS
 62
     7
 10
-135.92319
 20
-75.518997
 11
-135.92319
 21
-96.018997
  0
LINE
  8
0
  6
CONTINUOUS
 62
     7
 10
-149.30466
 20
-97.668999
 11
-136.87582
 21
-97.668999
  0
LINE
  8
0
  6
CONTINUOUS
 62
     7
 10
-154.42319
 20
-75.518997
 11
-154.42319
 21
-105.01899
  0
LINE
  8
0
  6
CONTINUOUS
 62
     7
 10
61.556519
 20
-78.101128
 11
61.556519
 21
-112.62589
  0
LINE
  8
0
  6
CONTINUOUS
 62
     7
 10
67.837265
 20
-86.248886
 11
82.313721
 21
-86.248886
  0
LINE
  8
0
  6
CONTINUOUS
 62
     7
 10
68.46225
 20
-104.41245
 11
82.313721
 21
-104.41245
  0
LINE
  8
0
  6
CONTINUOUS
 62
     7
 10
67.837265
 20
-99.392166
 11
82.313721
 21
-99.392166
  0
LINE
  8
0
  6
CONTINUOUS
 62
     7
 10
83.056519
 20
-78.1259
 11
83.056519
 21
-103.12589
  0
LINE
  8
0
  6
CONTINUOUS
 62
     7
 10
39.556519
 20
-78.1259
 11
39.556519
 21
-112.62589
  0
LINE
  8
0
  6
CONTINUOUS
 62
     7
 10
60.531464
 20
-99.448067
 11
40.581573
 21
-99.448067
  0
LINE
  8
0
  6
CONTINUOUS
 62
     7
 10
60.531464
 20
-114.40134
 11
40.581573
 21
-114.40134
  0
LINE
  8
0
  6
CONTINUOUS
 62
     7
 10
40.581577
 20
-114.40134
 11
39.556522
 21
-112.62589
  0
LINE
  8
0
  6
CONTINUOUS
 62
     7
 10
60.531467
 20
-114.40134
 11
61.556522
 21
-112.62589
  0
LINE
  8
0
  6
CONTINUOUS
 62
     7
 10
82.313721
 20
-104.41245
 11
83.056511
 21
-103.12589
  0
LINE
  8
0
  6
CONTINUOUS
 62
     7
 10
17.056517
 20
-100.62589
 11
39.556519
 21
-100.62589
  0
LINE
  8
0
  6
CONTINUOUS
 62
     7
 10
18.21121
 20
-87.399513
 11
18.21121
 21
-91.242607
  0
LINE
  8
0
  6
CONTINUOUS
 62
     7
 10
17.056517
 20
-100.62589
 11
10.956511
 21
-100.62589
  0
LINE
  8
0
  6
CONTINUOUS
 62
     7
 10
12.556517
 20
-100.62589
 11
12.556517
 21
-78.1259
  0
LINE
  8
0
  6
CONTINUOUS
 62
     7
 10
28.056517
 20
-91.242607
 11
18.21121
 21
-91.242607
  0
LINE
  8
0
  6
CONTINUOUS
 62
     7
 10
13.962954
 20
-100.6259
 11
12.556521
 21
-99.813896
  0
LINE
  8
0
  6
CONTINUOUS
 62
     7
 10
12.556517
 20
-99.813896
 11
10.956511
 21
-99.813896
  0
LINE
  8
0
  6
CONTINUOUS
 62
     7
 10
28.056517
 20
-87.399513
 11
18.21121
 21
-87.399513
  0
LINE
  8
0
  6
CONTINUOUS
 62
     7
 10
37.901825
 20
-87.399513
 11
37.901825
 21
-91.242607
  0
LINE
  8
0
  6
CONTINUOUS
 62
     7
 10
39.056519
 20
-100.62589
 11
39.056519
 21
-78.1259
  0
LINE
  8
0
  6
CONTINUOUS
 62
     7
 10
17.056517
 20
-100.62589
 11
17.056517
 21
-78.1259
  0
LINE
  8
0
  6
CENTER
 62
     7
 10
-12.346235
 20
-78.1259
 11
88.465881
 21
-78.1259
  0
LINE
  8
0
  6
CONTINUOUS
 62
     7
 10
28.056517
 20
-87.399513
 11
37.901825
 21
-87.399513
  0
LINE
  8
0
  6
CONTINUOUS
 62
     7
 10
28.056517
 20
-91.242607
 11
37.901825
 21
-91.242607
  0
LINE
  8
0
  6
CONTINUOUS
 62
     7
 10
-87.178055
 20
-305.09189
 11
-64.99556
 21
-305.09189
  0
LINE
  8
0
  6
CONTINUOUS
 62
     7
 10
-63.836807
 20
-264.08484
 11
-63.836807
 21
-303.08484
  0
LINE
  8
0
  6
CONTINUOUS
 62
     7
 10
-41.336807
 20
-264.08484
 11
-41.336807
 21
-292.08484
  0
LINE
  8
0
  6
CONTINUOUS
 62
     7
 10
-61.336807
 20
-264.08484
 11
-61.336807
 21
-297.00235
  0
LINE
  8
0
  6
CONTINUOUS
 62
     7
 10
-55.865524
 20
-287.90308
 11
-42.168747
 21
-287.90308
  0
LINE
  8
0
  6
CONTINUOUS
 62
     7
 10
-42.168732
 20
-293.52579
 11
-41.336807
 21
-292.08487
  0
LINE
  8
0
  6
CONTINUOUS
 62
     7
 10
-55.865524
 20
-293.52579
 11
-42.168747
 21
-293.52579
  0
LINE
  8
0
  6
CONTINUOUS
 62
     7
 10
-55.865524
 20
-273.18262
 11
-42.168747
 21
-273.18262
  0
LINE
  8
0
  6
CONTINUOUS
 62
     7
 10
-88.336807
 20
-264.08484
 11
-88.336807
 21
-303.08484
  0
LINE
  8
0
  6
CONTINUOUS
 62
     7
 10
-87.178055
 20
-276.75671
 11
-64.99556
 21
-276.75671
  0
LINE
  8
0
  6
CONTINUOUS
 62
     7
 10
-87.178055
 20
-297.26022
 11
-64.99556
 21
-297.26022
  0
LINE
  8
0
  6
CONTINUOUS
 62
     7
 10
-64.99556
 20
-305.09186
 11
-63.836807
 21
-303.08484
  0
LINE
  8
0
  6
CONTINUOUS
 62
     7
 10
-88.336815
 20
-303.08487
 11
-87.178055
 21
-305.09189
  0
LINE
  8
0
  6
CONTINUOUS
 62
     7
 10
-63.836807
 20
-297.00235
 11
-61.336807
 21
-297.00235
  0
LINE
  8
0
  6
CONTINUOUS
 62
     7
 10
-63.836807
 20
-298.08484
 11
-61.961807
 21
-298.08484
  0
LINE
  8
0
  6
CONTINUOUS
 62
     7
 10
-90.336472
 20
-274.38049
 11
-90.336472
 21
-281.02069
  0
LINE
  8
0
  6
CONTINUOUS
 62
     7
 10
-100.33681
 20
-291.31631
 11
-90.336472
 21
-291.31631
  0
LINE
  8
0
  6
CONTINUOUS
 62
     7
 10
-90.336472
 20
-291.31631
 11
-90.336472
 21
-291.58484
  0
LINE
  8
0
  6
CONTINUOUS
 62
     7
 10
-100.33681
 20
-281.02069
 11
-90.336472
 21
-281.02069
  0
LINE
  8
0
  6
CONTINUOUS
 62
     7
 10
-110.33714
 20
-274.38049
 11
-110.33714
 21
-281.02069
  0
LINE
  8
0
  6
CONTINUOUS
 62
     7
 10
-100.33681
 20
-274.38049
 11
-90.336472
 21
-274.38049
  0
LINE
  8
0
  6
CONTINUOUS
 62
     7
 10
-100.33681
 20
-291.31631
 11
-110.33714
 21
-291.31631
  0
LINE
  8
0
  6
CONTINUOUS
 62
     7
 10
-110.33714
 20
-291.31631
 11
-110.33714
 21
-291.58484
  0
LINE
  8
0
  6
CONTINUOUS
 62
     7
 10
-100.33681
 20
-281.02069
 11
-110.33714
 21
-281.02069
  0
LINE
  8
0
  6
CONTINUOUS
 62
     7
 10
-100.33681
 20
-274.38049
 11
-110.33714
 21
-274.38049
  0
LINE
  8
0
  6
CONTINUOUS
 62
     7
 10
-111.33681
 20
-291.58484
 11
-111.33681
 21
-264.08484
  0
LINE
  8
0
  6
CONTINUOUS
 62
     7
 10
-89.336807
 20
-291.58484
 11
-89.336807
 21
-264.08484
  0
LINE
  8
0
  6
CONTINUOUS
 62
     7
 10
-114.83681
 20
-290.77286
 11
-116.43681
 21
-290.77286
  0
LINE
  8
0
  6
CONTINUOUS
 62
     7
 10
-111.33681
 20
-291.58484
 11
-116.43681
 21
-291.58484
  0
LINE
  8
0
  6
CONTINUOUS
 62
     7
 10
-113.43039
 20
-291.58484
 11
-114.83681
 21
-290.77286
  0
LINE
  8
0
  6
CONTINUOUS
 62
     7
 10
-88.336807
 20
-291.58484
 11
-111.33681
 21
-291.58484
  0
LINE
  8
0
  6
CENTER
 62
     7
 10
-140.51634
 20
-264.08484
 11
-36.246628
 21
-264.08484
  0
LINE
  8
0
  6
CONTINUOUS
 62
     7
 10
-114.83681
 20
-291.58484
 11
-114.83681
 21
-264.08484
  0
LINE
  8
0
  6
CONTINUOUS
 62
     7
 10
-88.336807
 20
-294.73486
 11
-88.336807
 21
-291.68484
  0
LINE
  8
0
  6
CONTINUOUS
 62
     7
 10
39.056519
 20
-105.12589
 11
39.056519
 21
-100.7259
  0
LINE
  8
0
  6
CONTINUOUS
 62
     7
 10
39.056519
 20
-105.12589
 11
39.556519
 21
-105.12589
  0
LINE
  8
0
  6
CONTINUOUS
 62
     7
 10
39.056519
 20
-100.7259
 11
39.556519
 21
-100.7259
  0
LINE
  8
0
  6
CONTINUOUS
 62
     7
 10
61.556519
 20
-107.0434
 11
64.059113
 21
-107.0434
  0
LINE
  8
0
  6
CONTINUOUS
 62
     7
 10
63.431534
 20
-78.1259
 11
63.431534
 21
-108.12589
  0
LINE
  8
0
  6
CONTINUOUS
 62
     7
 10
63.431538
 20
-108.12589
 11
64.132118
 21
-106.91245
  0
LINE
  8
0
  6
CONTINUOUS
 62
     7
 10
61.556519
 20
-108.12589
 11
63.431534
 21
-108.12589
  0
LINE
  8
0
  6
CONTINUOUS
 62
     7
 10
-61.961781
 20
-298.08484
 11
-61.061665
 21
-296.52582
  0
LINE
  8
0
  6
CONTINUOUS
 62
     7
 10
-66.20916
 20
-632.87164
 11
-67.20916
 21
-632.87164
  0
LINE
  8
0
  6
CONTINUOUS
 62
     7
 10
-67.20916
 20
-632.87164
 11
-67.20916
 21
-628.82166
  0
LINE
  8
0
  6
CONTINUOUS
 62
     7
 10
-36.70916
 20
-635.38916
 11
-33.20916
 21
-635.38916
  0
LINE
  8
0
  6
CONTINUOUS
 62
     7
 10
-36.70916
 20
-636.47162
 11
-33.834129
 21
-636.47162
  0
LINE
  8
0
  6
CONTINUOUS
 62
     7
 10
-96.878197
 20
-419.66437
 11
-97.378197
 21
-419.66437
  0
LINE
  8
0
  6
CONTINUOUS
 62
     7
 10
-97.378197
 20
-419.66437
 11
-97.378197
 21
-415.11438
  0
LINE
  8
0
  6
CONTINUOUS
 62
     7
 10
-45.403248
 20
-418.53983
 11
-44.378193
 21
-416.7644
  0
LINE
  8
0
  6
CONTINUOUS
 62
     7
 10
-68.503166
 20
-382.26437
 11
-68.503166
 21
-423.26437
  0
LINE
  8
0
  6
CONTINUOUS
 62
     7
 10
-62.311329
 20
-393.47409
 11
-45.403217
 21
-393.47409
  0
LINE
  8
0
  6
CONTINUOUS
 62
     7
 10
-62.311329
 20
-411.61182
 11
-45.403217
 21
-411.61182
  0
LINE
  8
0
  6
CONTINUOUS
 62
     7
 10
-62.311329
 20
-418.53983
 11
-45.403217
 21
-418.53983
  0
LINE
  8
0
  6
CONTINUOUS
 62
     7
 10
-68.503181
 20
-423.26437
 11
-67.5075
 21
-421.53983
  0
LINE
  8
0
  6
CONTINUOUS
 62
     7
 10
-95.496605
 20
-431.15738
 11
-71.259789
 21
-431.15738
  0
LINE
  8
0
  6
CONTINUOUS
 62
     7
 10
-69.878197
 20
-422.18188
 11
-67.878197
 21
-422.18188
  0
LINE
  8
0
  6
CONTINUOUS
 62
     7
 10
-69.878197
 20
-423.26437
 11
-68.503166
 21
-423.26437
  0
LINE
  8
0
  6
CONTINUOUS
 62
     7
 10
-44.378193
 20
-382.26437
 11
-44.378193
 21
-416.76437
  0
LINE
  8
0
  6
CONTINUOUS
 62
     7
 10
-95.496605
 20
-421.81964
 11
-71.259789
 21
-421.81964
  0
LINE
  8
0
  6
CONTINUOUS
 62
     7
 10
-71.259789
 20
-431.15738
 11
-69.878197
 21
-428.76437
  0
LINE
  8
0
  6
CONTINUOUS
 62
     7
 10
-96.878181
 20
-428.76437
 11
-95.49659
 21
-431.15735
  0
LINE
  8
0
  6
CONTINUOUS
 62
     7
 10
-95.496605
 20
-397.37314
 11
-71.259789
 21
-397.37314
  0
LINE
  8
0
  6
CONTINUOUS
 62
     7
 10
-69.878197
 20
-382.26437
 11
-69.878197
 21
-428.76437
  0
LINE
  8
0
  6
CONTINUOUS
 62
     7
 10
-96.878197
 20
-382.26437
 11
-96.878197
 21
-428.76437
  0
LINE
  8
0
  6
CONTINUOUS
 62
     7
 10
-122.3782
 20
-382.26437
 11
-122.3782
 21
-413.26437
  0
LINE
  8
0
  6
CONTINUOUS
 62
     7
 10
-97.378197
 20
-413.26437
 11
-129.37819
 21
-413.26437
  0
LINE
  8
0
  6
CENTER
 62
     7
 10
-154.40764
 20
-382.26437
 11
-27.160847
 21
-382.26437
  0
LINE
  8
0
  6
CONTINUOUS
 62
     7
 10
-128.37819
 20
-412.18188
 11
-129.37819
 21
-412.18188
  0
LINE
  8
0
  6
CONTINUOUS
 62
     7
 10
-128.37819
 20
-382.26437
 11
-128.37819
 21
-413.26437
  0
LINE
  8
0
  6
CONTINUOUS
 62
     7
 10
-126.50324
 20
-413.2644
 11
-128.37819
 21
-412.18188
  0
LINE
  8
0
  6
CONTINUOUS
 62
     7
 10
-97.378197
 20
-415.01437
 11
-96.878197
 21
-415.01437
  0
LINE
  8
0
  6
CONTINUOUS
 62
     7
 10
-97.378197
 20
-382.26437
 11
-97.378197
 21
-415.01437
  0
LINE
  8
0
  6
CONTINUOUS
 62
     7
 10
-109.8782
 20
-394.46069
 11
-121.06191
 21
-394.46069
  0
LINE
  8
0
  6
CONTINUOUS
 62
     7
 10
-109.8782
 20
-400.84793
 11
-121.06191
 21
-400.84793
  0
LINE
  8
0
  6
CONTINUOUS
 62
     7
 10
-109.8782
 20
-413.04425
 11
-121.06191
 21
-413.04425
  0
LINE
  8
0
  6
CONTINUOUS
 62
     7
 10
-121.06191
 20
-413.04425
 11
-121.06191
 21
-413.26437
  0
LINE
  8
0
  6
CONTINUOUS
 62
     7
 10
-121.06191
 20
-394.46069
 11
-121.06191
 21
-400.84793
  0
LINE
  8
0
  6
CONTINUOUS
 62
     7
 10
-109.8782
 20
-413.04425
 11
-98.694481
 21
-413.04425
  0
LINE
  8
0
  6
CONTINUOUS
 62
     7
 10
-109.8782
 20
-400.84793
 11
-98.694481
 21
-400.84793
  0
LINE
  8
0
  6
CONTINUOUS
 62
     7
 10
-109.8782
 20
-394.46069
 11
-98.694481
 21
-394.46069
  0
LINE
  8
0
  6
CONTINUOUS
 62
     7
 10
-98.694481
 20
-413.04425
 11
-98.694481
 21
-413.26437
  0
LINE
  8
0
  6
CONTINUOUS
 62
     7
 10
-98.694481
 20
-394.46069
 11
-98.694481
 21
-400.84793
  0
LINE
  8
0
  6
CONTINUOUS
 62
     7
 10
-27.606192
 20
-631.68451
 11
-7.4867463
 21
-631.68451
  0
LINE
  8
0
  6
CONTINUOUS
 62
     7
 10
-28.089712
 20
-623.04962
 11
-7.4867463
 21
-623.04962
  0
LINE
  8
0
  6
CONTINUOUS
 62
     7
 10
-64.545311
 20
-645.35352
 11
-38.373009
 21
-645.35352
  0
LINE
  8
0
  6
CONTINUOUS
 62
     7
 10
-7.4867496
 20
-631.68451
 11
-6.2091312
 21
-629.47162
  0
LINE
  8
0
  6
CONTINUOUS
 62
     7
 10
-64.545311
 20
-634.10809
 11
-38.373009
 21
-634.10809
  0
LINE
  8
0
  6
CONTINUOUS
 62
     7
 10
-38.373009
 20
-645.35352
 11
-36.70916
 21
-642.47162
  0
LINE
  8
0
  6
CONTINUOUS
 62
     7
 10
-28.089712
 20
-600.44318
 11
-7.4867463
 21
-600.44318
  0
LINE
  8
0
  6
CONTINUOUS
 62
     7
 10
-33.20916
 20
-586.47162
 11
-33.20916
 21
-635.38916
  0
LINE
  8
0
  6
CONTINUOUS
 62
     7
 10
-64.545311
 20
-604.66711
 11
-38.373009
 21
-604.66711
  0
LINE
  8
0
  6
CONTINUOUS
 62
     7
 10
-66.209167
 20
-642.47162
 11
-64.545319
 21
-645.35352
  0
LINE
  8
0
  6
CONTINUOUS
 62
     7
 10
-6.2091584
 20
-586.47162
 11
-6.2091584
 21
-629.47162
  0
LINE
  8
0
  6
CONTINUOUS
 62
     7
 10
-66.20916
 20
-586.47162
 11
-66.20916
 21
-642.47162
  0
LINE
  8
0
  6
CONTINUOUS
 62
     7
 10
-36.70916
 20
-586.47162
 11
-36.70916
 21
-642.47162
  0
LINE
  8
0
  6
CENTER
 62
     7
 10
5.9515471
 20
-586.47162
 11
-135.43649
 21
-586.47162
  0
LINE
  8
0
  6
CONTINUOUS
 62
     7
 10
-103.83421
 20
-624.47162
 11
-105.70916
 21
-623.38916
  0
LINE
  8
0
  6
CONTINUOUS
 62
     7
 10
-66.20916
 20
-628.72162
 11
-67.20916
 21
-628.72162
  0
LINE
  8
0
  6
CONTINUOUS
 62
     7
 10
-105.70916
 20
-624.47162
 11
-105.70916
 21
-586.47162
  0
LINE
  8
0
  6
CONTINUOUS
 62
     7
 10
-96.301674
 20
-600.39105
 11
-96.301674
 21
-611.98785
  0
LINE
  8
0
  6
CONTINUOUS
 62
     7
 10
-105.70916
 20
-623.38916
 11
-106.70916
 21
-623.38916
  0
LINE
  8
0
  6
CONTINUOUS
 62
     7
 10
-101.20916
 20
-624.47162
 11
-106.70916
 21
-624.47162
  0
LINE
  8
0
  6
CONTINUOUS
 62
     7
 10
-82.477104
 20
-625.90729
 11
-96.301674
 21
-625.90729
  0
LINE
  8
0
  6
CONTINUOUS
 62
     7
 10
-82.477104
 20
-611.98785
 11
-96.301674
 21
-611.98785
  0
LINE
  8
0
  6
CONTINUOUS
 62
     7
 10
-97.745049
 20
-586.47162
 11
-97.745049
 21
-626.47162
  0
LINE
  8
0
  6
CONTINUOUS
 62
     7
 10
-67.20916
 20
-628.72162
 11
-67.20916
 21
-586.47162
  0
LINE
  8
0
  6
CONTINUOUS
 62
     7
 10
-82.477104
 20
-600.39105
 11
-96.301674
 21
-600.39105
  0
LINE
  8
0
  6
CONTINUOUS
 62
     7
 10
-67.20916
 20
-626.47162
 11
-97.60627
 21
-626.47162
  0
LINE
  8
0
  6
CONTINUOUS
 62
     7
 10
-96.301674
 20
-625.90729
 11
-96.301674
 21
-626.47162
  0
LINE
  8
0
  6
CONTINUOUS
 62
     7
 10
-68.652519
 20
-600.39105
 11
-68.652519
 21
-611.98785
  0
LINE
  8
0
  6
CONTINUOUS
 62
     7
 10
-82.477104
 20
-625.90729
 11
-68.652519
 21
-625.90729
  0
LINE
  8
0
  6
CONTINUOUS
 62
     7
 10
-82.477104
 20
-611.98785
 11
-68.652519
 21
-611.98785
  0
LINE
  8
0
  6
CONTINUOUS
 62
     7
 10
-82.477104
 20
-600.39105
 11
-68.652519
 21
-600.39105
  0
LINE
  8
0
  6
CONTINUOUS
 62
     7
 10
-68.652519
 20
-625.90729
 11
-68.652519
 21
-626.47162
  0
LINE
  8
0
  6
CONTINUOUS
 62
     7
 10
-101.20916
 20
-624.47162
 11
-101.20916
 21
-586.47162
  0
LINE
  8
0
  6
CONTINUOUS
 62
     7
 10
-97.745049
 20
-626.47162
 11
-101.20915
 21
-624.47162
  0
LINE
  8
0
  6
CONTINUOUS
 62
     7
 10
-33.834137
 20
-636.47162
 11
-32.802338
 21
-634.68451
  0
LINE
  8
0
  6
CONTINUOUS
 62
     7
 10
-66.20916
 20
-628.82166
 11
-67.20916
 21
-628.82166
  0
LINE
  8
0
  6
CONTINUOUS
 62
     7
 10
-96.878197
 20
-415.11438
 11
-97.378197
 21
-415.11438
  0
LINE
  8
0
  6
CONTINUOUS
 62
     7
 10
-195.88597
 20
54.113754
 11
-195.88597
 21
43.613758
  0
LINE
  8
0
  6
CONTINUOUS
 62
     7
 10
-184.88597
 20
40.492443
 11
-184.88597
 21
39.613758
  0
LINE
  8
0
  6
CONTINUOUS
 62
     7
 10
-184.88597
 20
39.613758
 11
-191.88597
 21
39.613758
  0
LINE
  8
0
  6
CONTINUOUS
 62
     7
 10
-184.38596
 20
40.113762
 11
-184.88596
 21
39.613762
  0
LINE
  8
0
  6
CONTINUOUS
 62
     7
 10
-184.88597
 20
49.350307
 11
-184.88597
 21
47.22842
  0
LINE
  8
0
  6
CONTINUOUS
 62
     7
 10
-184.88597
 20
40.492443
 11
-191.88597
 21
40.492443
  0
LINE
  8
0
  6
CONTINUOUS
 62
     7
 10
-184.88597
 20
49.350307
 11
-191.88597
 21
49.350307
  0
LINE
  8
0
  6
CONTINUOUS
 62
     7
 10
-184.88597
 20
47.22842
 11
-191.88597
 21
47.22842
  0
LINE
  8
0
  6
CONTINUOUS
 62
     7
 10
-191.88597
 20
54.113754
 11
-191.88597
 21
39.613758
  0
LINE
  8
0
  6
CONTINUOUS
 62
     7
 10
-184.38597
 20
54.113754
 11
-184.38597
 21
40.113758
  0
LINE
  8
0
  6
CONTINUOUS
 62
     7
 10
-3.9320617
 20
51.60537
 11
-3.9320617
 21
39.60537
  0
LINE
  8
0
  6
CONTINUOUS
 62
     7
 10
1.0679383
 20
51.60537
 11
1.0679383
 21
34.60537
  0
LINE
  8
0
  6
CONTINUOUS
 62
     7
 10
9.0679379
 20
45.806381
 11
1.0679383
 21
45.806381
  0
LINE
  8
0
  6
CONTINUOUS
 62
     7
 10
9.0679379
 20
45.806381
 11
9.0679379
 21
43.685059
  0
LINE
  8
0
  6
CONTINUOUS
 62
     7
 10
9.0679379
 20
35.484047
 11
9.0679379
 21
34.60537
  0
LINE
  8
0
  6
CONTINUOUS
 62
     7
 10
9.0679379
 20
35.484047
 11
1.0679383
 21
35.484047
  0
LINE
  8
0
  6
CONTINUOUS
 62
     7
 10
9.0679379
 20
34.60537
 11
1.0679383
 21
34.60537
  0
LINE
  8
0
  6
CONTINUOUS
 62
     7
 10
9.0679264
 20
34.605366
 11
9.5679264
 21
35.105366
  0
LINE
  8
0
  6
CONTINUOUS
 62
     7
 10
9.0679379
 20
43.685059
 11
1.0679383
 21
43.685059
  0
LINE
  8
0
  6
CONTINUOUS
 62
     7
 10
9.5679379
 20
51.60537
 11
9.5679379
 21
35.10537
  0
LINE
  8
0
  6
CONTINUOUS
 62
     7
 10
-192.92319
 20
-95.412209
 11
-201.92319
 21
-95.412209
  0
LINE
  8
0
  6
CONTINUOUS
 62
     7
 10
-192.42319
 20
-96.519012
 11
-192.92317
 21
-97.018997
  0
LINE
  8
0
  6
CONTINUOUS
 62
     7
 10
-192.92319
 20
-95.412209
 11
-192.92319
 21
-97.018997
  0
LINE
  8
0
  6
CONTINUOUS
 62
     7
 10
-192.92319
 20
-82.152245
 11
-192.92319
 21
-86.03138
  0
LINE
  8
0
  6
CONTINUOUS
 62
     7
 10
-192.92319
 20
-97.018997
 11
-201.92319
 21
-97.018997
  0
LINE
  8
0
  6
CONTINUOUS
 62
     7
 10
-206.92319
 20
-75.518997
 11
-206.92319
 21
-92.018997
  0
LINE
  8
0
  6
CONTINUOUS
 62
     7
 10
-201.92319
 20
-75.518997
 11
-201.92319
 21
-97.018997
  0
LINE
  8
0
  6
CONTINUOUS
 62
     7
 10
-192.92319
 20
-86.03138
 11
-201.92319
 21
-86.03138
  0
LINE
  8
0
  6
CONTINUOUS
 62
     7
 10
-192.92319
 20
-82.152245
 11
-201.92319
 21
-82.152245
  0
LINE
  8
0
  6
CONTINUOUS
 62
     7
 10
-192.42319
 20
-75.518997
 11
-192.42319
 21
-96.518997
  0
LINE
  8
0
  6
CONTINUOUS
 62
     7
 10
10.456511
 20
-101.60428
 11
10.456511
 21
-102.62589
  0
LINE
  8
0
  6
CONTINUOUS
 62
     7
 10
10.456511
 20
-101.60428
 11
0.056517061
 21
-101.60428
  0
LINE
  8
0
  6
CONTINUOUS
 62
     7
 10
10.456511
 20
-86.829346
 11
0.056517061
 21
-86.829346
  0
LINE
  8
0
  6
CONTINUOUS
 62
     7
 10
10.456511
 20
-86.829346
 11
10.456511
 21
-89.295746
  0
LINE
  8
0
  6
CONTINUOUS
 62
     7
 10
-4.9434829
 20
-78.1259
 11
-4.9434829
 21
-97.625893
  0
LINE
  8
0
  6
CONTINUOUS
 62
     7
 10
10.956526
 20
-102.12589
 11
10.456525
 21
-102.62589
  0
LINE
  8
0
  6
CONTINUOUS
 62
     7
 10
10.456511
 20
-102.62589
 11
0.056517061
 21
-102.62589
  0
LINE
  8
0
  6
CONTINUOUS
 62
     7
 10
0.056517061
 20
-78.1259
 11
0.056517061
 21
-102.62589
  0
LINE
  8
0
  6
CONTINUOUS
 62
     7
 10
10.456511
 20
-89.295746
 11
0.056517061
 21
-89.295746
  0
LINE
  8
0
  6
CONTINUOUS
 62
     7
 10
10.956511
 20
-78.1259
 11
10.956511
 21
-102.12589
  0
LINE
  8
0
  6
CONTINUOUS
 62
     7
 10
-116.93681
 20
-273.61115
 11
-128.33681
 21
-273.61115
  0
LINE
  8
0
  6
CONTINUOUS
 62
     7
 10
-128.33681
 20
-264.08484
 11
-128.33681
 21
-293.58484
  0
LINE
  8
0
  6
CONTINUOUS
 62
     7
 10
-116.43681
 20
-293.08484
 11
-116.93683
 21
-293.58484
  0
LINE
  8
0
  6
CONTINUOUS
 62
     7
 10
-116.93681
 20
-291.6806
 11
-128.33681
 21
-291.6806
  0
LINE
  8
0
  6
CONTINUOUS
 62
     7
 10
-116.93681
 20
-278.2084
 11
-128.33681
 21
-278.2084
  0
LINE
  8
0
  6
CONTINUOUS
 62
     7
 10
-116.93681
 20
-293.58484
 11
-128.33681
 21
-293.58484
  0
LINE
  8
0
  6
CONTINUOUS
 62
     7
 10
-134.33681
 20
-264.08484
 11
-134.33681
 21
-287.58484
  0
LINE
  8
0
  6
CONTINUOUS
 62
     7
 10
-116.93681
 20
-273.61115
 11
-116.93681
 21
-278.2084
  0
LINE
  8
0
  6
CONTINUOUS
 62
     7
 10
-116.93681
 20
-291.6806
 11
-116.93681
 21
-293.58484
  0
LINE
  8
0
  6
CONTINUOUS
 62
     7
 10
-116.43681
 20
-264.08484
 11
-116.43681
 21
-293.08484
  0
LINE
  8
0
  6
CONTINUOUS
 62
     7
 10
-129.8782
 20
-416.26437
 11
-129.3782
 21
-415.76437
  0
LINE
  8
0
  6
CONTINUOUS
 62
     7
 10
-129.87819
 20
-413.52576
 11
-129.87819
 21
-416.26437
  0
LINE
  8
0
  6
CONTINUOUS
 62
     7
 10
-129.87819
 20
-416.26437
 11
-141.37819
 21
-416.26437
  0
LINE
  8
0
  6
CONTINUOUS
 62
     7
 10
-129.87819
 20
-413.52576
 11
-141.37819
 21
-413.52576
  0
LINE
  8
0
  6
CONTINUOUS
 62
     7
 10
-149.37819
 20
-382.26437
 11
-149.37819
 21
-408.26437
  0
LINE
  8
0
  6
CONTINUOUS
 62
     7
 10
-129.87819
 20
-392.47467
 11
-129.87819
 21
-399.08624
  0
LINE
  8
0
  6
CONTINUOUS
 62
     7
 10
-129.87819
 20
-399.08624
 11
-141.37819
 21
-399.08624
  0
LINE
  8
0
  6
CONTINUOUS
 62
     7
 10
-141.37819
 20
-382.26437
 11
-141.37819
 21
-416.26437
  0
LINE
  8
0
  6
CONTINUOUS
 62
     7
 10
-129.87819
 20
-392.47467
 11
-141.37819
 21
-392.47467
  0
LINE
  8
0
  6
CONTINUOUS
 62
     7
 10
-129.37819
 20
-382.26437
 11
-129.37819
 21
-415.76437
  0
LINE
  8
0
  6
CONTINUOUS
 62
     7
 10
-107.20916
 20
-627.47162
 11
-122.20916
 21
-627.47162
  0
LINE
  8
0
  6
CONTINUOUS
 62
     7
 10
-107.20917
 20
-627.47162
 11
-106.70914
 21
-626.97162
  0
LINE
  8
0
  6
CONTINUOUS
 62
     7
 10
-107.20916
 20
-624.62817
 11
-107.20916
 21
-627.47162
  0
LINE
  8
0
  6
CONTINUOUS
 62
     7
 10
-130.20915
 20
-586.47162
 11
-130.20915
 21
-619.47162
  0
LINE
  8
0
  6
CONTINUOUS
 62
     7
 10
-107.20916
 20
-624.62817
 11
-122.20916
 21
-624.62817
  0
LINE
  8
0
  6
CONTINUOUS
 62
     7
 10
-107.20916
 20
-599.43311
 11
-122.20916
 21
-599.43311
  0
LINE
  8
0
  6
CONTINUOUS
 62
     7
 10
-122.20916
 20
-586.47162
 11
-122.20916
 21
-627.47162
  0
LINE
  8
0
  6
CONTINUOUS
 62
     7
 10
-107.20916
 20
-606.29785
 11
-122.20916
 21
-606.29785
  0
LINE
  8
0
  6
CONTINUOUS
 62
     7
 10
-107.20916
 20
-599.43311
 11
-107.20916
 21
-606.29785
  0
LINE
  8
0
  6
CONTINUOUS
 62
     7
 10
-106.70916
 20
-586.47162
 11
-106.70916
 21
-626.97162
  0
LINE
  8
0
  6
CONTINUOUS
 62
     7
 10
-149.88493
 20
76.843994
 11
-164.88702
 21
76.843994
  0
LINE
  8
0
  6
CONTINUOUS
 62
     7
 10
-164.88701
 20
76.843994
 11
-165.88597
 21
75.113762
  0
LINE
  8
0
  6
CONTINUOUS
 62
     7
 10
-149.88492
 20
76.843994
 11
-148.88596
 21
75.113739
  0
LINE
  8
0
  6
CONTINUOUS
 62
     7
 10
-149.88493
 20
70.186478
 11
-164.88702
 21
70.186478
  0
LINE
  8
0
  6
CONTINUOUS
 62
     7
 10
-165.88597
 20
54.113754
 11
-165.88597
 21
75.113739
  0
LINE
  8
0
  6
CONTINUOUS
 62
     7
 10
-148.88597
 20
54.113754
 11
-148.88597
 21
75.113754
  0
LINE
  8
0
  6
CONTINUOUS
 62
     7
 10
-183.88597
 20
66.613754
 11
-183.88597
 21
54.113754
  0
LINE
  8
0
  6
CONTINUOUS
 62
     7
 10
-179.88599
 20
66.613754
 11
-166.88597
 21
66.613754
  0
LINE
  8
0
  6
CONTINUOUS
 62
     7
 10
-168.88597
 20
61.623558
 11
-177.88597
 21
61.623558
  0
LINE
  8
0
  6
CONTINUOUS
 62
     7
 10
-167.88597
 20
66.522537
 11
-178.88597
 21
66.522537
  0
LINE
  8
0
  6
CONTINUOUS
 62
     7
 10
-184.38597
 20
66.613754
 11
-179.88599
 21
66.613754
  0
LINE
  8
0
  6
CONTINUOUS
 62
     7
 10
-184.38597
 20
65.80175
 11
-183.88597
 21
65.80175
  0
LINE
  8
0
  6
CONTINUOUS
 62
     7
 10
-168.88597
 20
59.012733
 11
-177.88597
 21
59.012733
  0
LINE
  8
0
  6
CONTINUOUS
 62
     7
 10
-182.47954
 20
66.613754
 11
-183.88596
 21
65.801758
  0
LINE
  8
0
  6
CONTINUOUS
 62
     7
 10
-168.88597
 20
61.623558
 11
-168.88597
 21
59.012733
  0
LINE
  8
0
  6
CONTINUOUS
 62
     7
 10
-167.88597
 20
66.613754
 11
-167.88597
 21
54.113754
  0
LINE
  8
0
  6
CONTINUOUS
 62
     7
 10
-178.88597
 20
66.613754
 11
-178.88597
 21
54.113754
  0
LINE
  8
0
  6
CONTINUOUS
 62
     7
 10
-177.88597
 20
59.012733
 11
-177.88597
 21
61.623558
  0
LINE
  8
0
  6
CONTINUOUS
 62
     7
 10
-166.88597
 20
69.113754
 11
-165.88597
 21
69.113754
  0
LINE
  8
0
  6
CONTINUOUS
 62
     7
 10
-166.88597
 20
69.113754
 11
-166.88597
 21
54.113754
  0
LINE
  8
0
  6
CONTINUOUS
 62
     7
 10
-148.01094
 20
71.613754
 11
-147.08717
 21
70.013741
  0
LINE
  8
0
  6
CONTINUOUS
 62
     7
 10
-148.88597
 20
71.613762
 11
-148.01094
 21
71.613762
  0
LINE
  8
0
  6
CONTINUOUS
 62
     7
 10
-136.40558
 20
68.513748
 11
-135.88596
 21
67.613754
  0
LINE
  8
0
  6
CONTINUOUS
 62
     7
 10
-148.88597
 20
70.531258
 11
-147.38597
 21
70.531258
  0
LINE
  8
0
  6
CONTINUOUS
 62
     7
 10
-148.01094
 20
54.113754
 11
-148.01094
 21
71.613762
  0
LINE
  8
0
  6
CONTINUOUS
 62
     7
 10
-135.88597
 20
67.613747
 11
-135.88597
 21
54.113754
  0
LINE
  8
0
  6
CONTINUOUS
 62
     7
 10
-145.41026
 20
64.446167
 11
-136.40558
 21
64.446167
  0
LINE
  8
0
  6
CONTINUOUS
 62
     7
 10
-144.48909
 20
68.513748
 11
-136.40558
 21
68.513748
  0
LINE
  8
0
  6
CONTINUOUS
 62
     7
 10
-195.88597
 20
54.113754
 11
-195.88597
 21
64.613754
  0
LINE
  8
0
  6
CONTINUOUS
 62
     7
 10
-184.88597
 20
67.735069
 11
-184.88597
 21
68.613754
  0
LINE
  8
0
  6
CONTINUOUS
 62
     7
 10
-184.88597
 20
68.613754
 11
-191.88597
 21
68.613754
  0
LINE
  8
0
  6
CONTINUOUS
 62
     7
 10
-184.38596
 20
68.113762
 11
-184.88596
 21
68.613762
  0
LINE
  8
0
  6
CONTINUOUS
 62
     7
 10
-184.88597
 20
58.877205
 11
-184.88597
 21
60.999092
  0
LINE
  8
0
  6
CONTINUOUS
 62
     7
 10
-184.88597
 20
67.735069
 11
-191.88597
 21
67.735069
  0
LINE
  8
0
  6
CONTINUOUS
 62
     7
 10
-184.88597
 20
58.877205
 11
-191.88597
 21
58.877205
  0
LINE
  8
0
  6
CONTINUOUS
 62
     7
 10
-184.88597
 20
60.999092
 11
-191.88597
 21
60.999092
  0
LINE
  8
0
  6
CONTINUOUS
 62
     7
 10
-191.88597
 20
54.113754
 11
-191.88597
 21
68.613754
  0
LINE
  8
0
  6
CONTINUOUS
 62
     7
 10
-184.38597
 20
54.113754
 11
-184.38597
 21
68.113754
  0
LINE
  8
0
  6
CONTINUOUS
 62
     7
 10
44.567928
 20
76.105362
 11
43.402462
 21
78.124008
  0
LINE
  8
0
  6
CONTINUOUS
 62
     7
 10
26.067955
 20
76.105324
 11
27.233421
 21
78.123978
  0
LINE
  8
0
  6
CONTINUOUS
 62
     7
 10
43.402473
 20
70.35688
 11
27.233404
 21
70.35688
  0
LINE
  8
0
  6
CONTINUOUS
 62
     7
 10
43.402473
 20
78.124001
 11
27.233404
 21
78.124001
  0
LINE
  8
0
  6
CONTINUOUS
 62
     7
 10
44.56794
 20
51.60537
 11
44.56794
 21
76.105354
  0
LINE
  8
0
  6
CONTINUOUS
 62
     7
 10
26.067938
 20
51.60537
 11
26.067938
 21
76.105354
  0
LINE
  8
0
  6
CONTINUOUS
 62
     7
 10
25.567938
 20
66.60537
 11
25.567938
 21
51.60537
  0
LINE
  8
0
  6
CONTINUOUS
 62
     7
 10
25.567938
 20
60.027534
 11
14.911139
 21
60.027534
  0
LINE
  8
0
  6
CONTINUOUS
 62
     7
 10
14.067938
 20
66.60537
 11
14.067938
 21
51.60537
  0
LINE
  8
0
  6
CONTINUOUS
 62
     7
 10
14.911139
 20
58.143715
 11
14.911139
 21
60.027534
  0
LINE
  8
0
  6
CONTINUOUS
 62
     7
 10
9.5679379
 20
65.793365
 11
10.067938
 21
65.793365
  0
LINE
  8
0
  6
CONTINUOUS
 62
     7
 10
9.5679379
 20
66.60537
 11
14.067938
 21
66.60537
  0
LINE
  8
0
  6
CONTINUOUS
 62
     7
 10
25.567938
 20
58.143715
 11
14.911139
 21
58.143715
  0
LINE
  8
0
  6
CONTINUOUS
 62
     7
 10
11.474358
 20
66.605377
 11
10.067912
 21
65.793365
  0
LINE
  8
0
  6
CONTINUOUS
 62
     7
 10
10.067938
 20
66.60537
 11
10.067938
 21
51.60537
  0
LINE
  8
0
  6
CONTINUOUS
 62
     7
 10
25.567938
 20
66.60537
 11
14.067938
 21
66.60537
  0
LINE
  8
0
  6
CONTINUOUS
 62
     7
 10
25.567938
 20
66.705368
 11
26.067938
 21
66.705368
  0
LINE
  8
0
  6
CONTINUOUS
 62
     7
 10
25.567938
 20
69.85537
 11
25.567938
 21
66.705368
  0
LINE
  8
0
  6
CONTINUOUS
 62
     7
 10
25.567938
 20
69.85537
 11
26.067938
 21
69.85537
  0
LINE
  8
0
  6
CONTINUOUS
 62
     7
 10
62.068001
 20
68.10537
 11
62.068001
 21
51.605286
  0
LINE
  8
0
  6
CONTINUOUS
 62
     7
 10
44.56794
 20
72.60537
 11
46.44297
 21
72.60537
  0
LINE
  8
0
  6
CONTINUOUS
 62
     7
 10
44.56794
 20
71.522865
 11
47.06794
 21
71.522865
  0
LINE
  8
0
  6
CONTINUOUS
 62
     7
 10
47.222351
 20
71.255363
 11
46.442932
 21
72.605354
  0
LINE
  8
0
  6
CONTINUOUS
 62
     7
 10
61.404034
 20
69.255371
 11
62.067986
 21
68.10537
  0
LINE
  8
0
  6
CONTINUOUS
 62
     7
 10
50.320412
 20
64.23391
 11
61.40403
 21
64.23391
  0
LINE
  8
0
  6
CONTINUOUS
 62
     7
 10
46.44297
 20
51.60537
 11
46.44297
 21
72.60537
  0
LINE
  8
0
  6
CONTINUOUS
 62
     7
 10
50.68647
 20
69.255371
 11
61.40403
 21
69.255371
  0
LINE
  8
0
  6
CONTINUOUS
 62
     7
 10
-3.9320617
 20
51.60537
 11
-3.9320617
 21
63.60537
  0
LINE
  8
0
  6
CONTINUOUS
 62
     7
 10
1.0679383
 20
51.60537
 11
1.0679383
 21
68.60537
  0
LINE
  8
0
  6
CONTINUOUS
 62
     7
 10
9.0679379
 20
57.404358
 11
1.0679383
 21
57.404358
  0
LINE
  8
0
  6
CONTINUOUS
 62
     7
 10
9.0679379
 20
57.404358
 11
9.0679379
 21
59.525681
  0
LINE
  8
0
  6
CONTINUOUS
 62
     7
 10
9.0679379
 20
67.726692
 11
9.0679379
 21
68.60537
  0
LINE
  8
0
  6
CONTINUOUS
 62
     7
 10
9.0679379
 20
67.726692
 11
1.0679383
 21
67.726692
  0
LINE
  8
0
  6
CONTINUOUS
 62
     7
 10
9.0679379
 20
68.60537
 11
1.0679383
 21
68.60537
  0
LINE
  8
0
  6
CONTINUOUS
 62
     7
 10
9.0679274
 20
68.605377
 11
9.5679283
 21
68.105377
  0
LINE
  8
0
  6
CONTINUOUS
 62
     7
 10
9.0679379
 20
59.525681
 11
1.0679383
 21
59.525681
  0
LINE
  8
0
  6
CONTINUOUS
 62
     7
 10
9.5679379
 20
51.60537
 11
9.5679379
 21
68.10537
  0
LINE
  8
0
  6
CONTINUOUS
 62
     7
 10
27.233404
 20
51.60537
 11
43.402473
 21
51.60537
  0
LINE
  8
0
  6
CONTINUOUS
 62
     7
 10
-164.88702
 20
54.113754
 11
-149.88493
 21
54.113754
  0
LINE
  8
0
  6
CONTINUOUS
 62
     7
 10
-173.0199
 20
-75.518997
 11
-155.82648
 21
-75.518997
  0
LINE
  8
0
  6
CONTINUOUS
 62
     7
 10
-155.82651
 20
-43.588421
 11
-173.0199
 21
-43.588421
  0
LINE
  8
0
  6
CONTINUOUS
 62
     7
 10
-155.82648
 20
-52.940674
 11
-173.0199
 21
-52.940674
  0
LINE
  8
0
  6
CONTINUOUS
 62
     7
 10
-174.42317
 20
-46.019005
 11
-173.0199
 21
-43.588436
  0
LINE
  8
0
  6
CONTINUOUS
 62
     7
 10
-154.4232
 20
-46.018986
 11
-155.82649
 21
-43.588428
  0
LINE
  8
0
  6
CONTINUOUS
 62
     7
 10
-186.76849
 20
-56.018993
 11
-187.92319
 21
-58.018997
  0
LINE
  8
0
  6
CONTINUOUS
 62
     7
 10
-174.92319
 20
-56.018997
 11
-174.92319
 21
-75.518997
  0
LINE
  8
0
  6
CONTINUOUS
 62
     7
 10
-190.51674
 20
-56.018986
 11
-191.92319
 21
-56.830997
  0
LINE
  8
0
  6
CONTINUOUS
 62
     7
 10
-187.92319
 20
-56.018997
 11
-174.42319
 21
-56.018997
  0
LINE
  8
0
  6
CONTINUOUS
 62
     7
 10
-186.76849
 20
-66.916672
 11
-186.76849
 21
-64.664719
  0
LINE
  8
0
  6
CONTINUOUS
 62
     7
 10
-192.42319
 20
-56.018997
 11
-187.92319
 21
-56.018997
  0
LINE
  8
0
  6
CONTINUOUS
 62
     7
 10
-192.42319
 20
-56.831001
 11
-191.92319
 21
-56.831001
  0
LINE
  8
0
  6
CONTINUOUS
 62
     7
 10
-187.92319
 20
-56.018997
 11
-187.92319
 21
-75.518997
  0
LINE
  8
0
  6
CONTINUOUS
 62
     7
 10
-181.42319
 20
-66.916672
 11
-186.76849
 21
-66.916672
  0
LINE
  8
0
  6
CONTINUOUS
 62
     7
 10
-181.42319
 20
-64.664719
 11
-186.76849
 21
-64.664719
  0
LINE
  8
0
  6
CONTINUOUS
 62
     7
 10
-191.92319
 20
-56.018997
 11
-191.92319
 21
-75.518997
  0
LINE
  8
0
  6
CONTINUOUS
 62
     7
 10
-176.07788
 20
-66.916672
 11
-176.07788
 21
-64.664719
  0
LINE
  8
0
  6
CONTINUOUS
 62
     7
 10
-181.42319
 20
-66.916672
 11
-176.07788
 21
-66.916672
  0
LINE
  8
0
  6
CONTINUOUS
 62
     7
 10
-181.42319
 20
-64.664719
 11
-176.07788
 21
-64.664719
  0
LINE
  8
0
  6
CONTINUOUS
 62
     7
 10
-176.07788
 20
-56.01899
 11
-174.92317
 21
-58.01899
  0
LINE
  8
0
  6
CONTINUOUS
 62
     7
 10
-174.42319
 20
-75.518997
 11
-174.42319
 21
-46.018993
  0
LINE
  8
0
  6
CONTINUOUS
 62
     7
 10
-174.92319
 20
-52.768997
 11
-174.92319
 21
-55.918999
  0
LINE
  8
0
  6
CONTINUOUS
 62
     7
 10
-174.92319
 20
-55.918999
 11
-174.42319
 21
-55.918999
  0
LINE
  8
0
  6
CONTINUOUS
 62
     7
 10
-174.92319
 20
-52.768997
 11
-174.42319
 21
-52.768997
  0
LINE
  8
0
  6
CONTINUOUS
 62
     7
 10
-154.42319
 20
-50.018997
 11
-153.54816
 21
-50.018997
  0
LINE
  8
0
  6
CONTINUOUS
 62
     7
 10
-136.87579
 20
-53.368992
 11
-135.92317
 21
-55.018982
  0
LINE
  8
0
  6
CONTINUOUS
 62
     7
 10
-153.54817
 20
-50.019001
 11
-152.76875
 21
-51.368996
  0
LINE
  8
0
  6
CONTINUOUS
 62
     7
 10
-149.03787
 20
-59.828979
 11
-136.87582
 21
-59.828979
  0
LINE
  8
0
  6
CONTINUOUS
 62
     7
 10
-152.92319
 20
-75.518997
 11
-152.92319
 21
-51.101501
  0
LINE
  8
0
  6
CONTINUOUS
 62
     7
 10
-154.42319
 20
-51.101501
 11
-152.92319
 21
-51.101501
  0
LINE
  8
0
  6
CONTINUOUS
 62
     7
 10
-135.92319
 20
-75.518997
 11
-135.92319
 21
-55.018997
  0
LINE
  8
0
  6
CONTINUOUS
 62
     7
 10
-149.30466
 20
-53.368996
 11
-136.87582
 21
-53.368996
  0
LINE
  8
0
  6
CONTINUOUS
 62
     7
 10
-154.42319
 20
-75.518997
 11
-154.42319
 21
-46.019001
  0
LINE
  8
0
  6
CONTINUOUS
 62
     7
 10
-192.92319
 20
-55.625786
 11
-201.92319
 21
-55.625786
  0
LINE
  8
0
  6
CONTINUOUS
 62
     7
 10
-192.42317
 20
-54.518986
 11
-192.92317
 21
-54.018986
  0
LINE
  8
0
  6
CONTINUOUS
 62
     7
 10
-192.92319
 20
-55.625786
 11
-192.92319
 21
-54.018997
  0
LINE
  8
0
  6
CONTINUOUS
 62
     7
 10
-192.92319
 20
-68.88575
 11
-192.92319
 21
-65.006615
  0
LINE
  8
0
  6
CONTINUOUS
 62
     7
 10
-192.92319
 20
-54.018997
 11
-201.92319
 21
-54.018997
  0
LINE
  8
0
  6
CONTINUOUS
 62
     7
 10
-206.92319
 20
-75.518997
 11
-206.92319
 21
-59.018997
  0
LINE
  8
0
  6
CONTINUOUS
 62
     7
 10
-201.92319
 20
-75.518997
 11
-201.92319
 21
-54.018997
  0
LINE
  8
0
  6
CONTINUOUS
 62
     7
 10
-192.92319
 20
-65.006615
 11
-201.92319
 21
-65.006615
  0
LINE
  8
0
  6
CONTINUOUS
 62
     7
 10
-192.92319
 20
-68.88575
 11
-201.92319
 21
-68.88575
  0
LINE
  8
0
  6
CONTINUOUS
 62
     7
 10
-192.42319
 20
-75.518997
 11
-192.42319
 21
-54.518997
  0
LINE
  8
0
  6
CONTINUOUS
 62
     7
 10
39.556519
 20
-78.1259
 11
61.556519
 21
-78.1259
  0
LINE
  8
0
  6
CONTINUOUS
 62
     7
 10
-229.47911
 20
54.11375
 11
-236.13664
 21
70.186455
  0
LINE
  8
0
  6
CONTINUOUS
 62
     7
 10
-236.13664
 20
70.186462
 11
-252.20934
 21
76.843994
  0
LINE
  8
0
  6
CONTINUOUS
 62
     7
 10
-268.28207
 20
70.186462
 11
-252.20937
 21
76.843994
  0
LINE
  8
0
  6
CONTINUOUS
 62
     7
 10
-274.93961
 20
54.113762
 11
-268.28207
 21
70.18647
  0
LINE
  8
0
  6
CONTINUOUS
 62
     7
 10
-268.28207
 20
38.041039
 11
-274.93961
 21
54.113747
  0
LINE
  8
0
  6
CONTINUOUS
 62
     7
 10
-252.20935
 20
31.383518
 11
-268.28204
 21
38.041046
  0
LINE
  8
0
  6
CONTINUOUS
 62
     7
 10
-236.13666
 20
38.041042
 11
-252.20935
 21
31.383509
  0
LINE
  8
0
  6
CONTINUOUS
 62
     7
 10
-229.47911
 20
54.113762
 11
-236.13664
 21
38.041054
  0
LINE
  8
0
  6
CONTINUOUS
 62
     7
 10
-34.59557
 20
51.60537
 11
-42.362698
 21
70.356873
  0
LINE
  8
0
  6
CONTINUOUS
 62
     7
 10
-42.362698
 20
70.356873
 11
-61.114197
 21
78.124001
  0
LINE
  8
0
  6
CONTINUOUS
 62
     7
 10
-79.865707
 20
70.356873
 11
-61.114204
 21
78.124001
  0
LINE
  8
0
  6
CONTINUOUS
 62
     7
 10
-87.632835
 20
51.60537
 11
-79.865707
 21
70.356873
  0
LINE
  8
0
  6
CONTINUOUS
 62
     7
 10
-79.865707
 20
32.853863
 11
-87.632835
 21
51.605366
  0
LINE
  8
0
  6
CONTINUOUS
 62
     7
 10
-61.114201
 20
25.086739
 11
-79.8657
 21
32.853867
  0
LINE
  8
0
  6
CONTINUOUS
 62
     7
 10
-42.362698
 20
32.853863
 11
-61.114201
 21
25.086735
  0
LINE
  8
0
  6
CONTINUOUS
 62
     7
 10
-34.59557
 20
51.60537
 11
-42.362698
 21
32.853867
  0
LINE
  8
0
  6
CONTINUOUS
 62
     7
 10
-225.21352
 20
-75.518997
 11
-234.56577
 21
-52.94067
  0
LINE
  8
0
  6
CONTINUOUS
 62
     7
 10
-234.56578
 20
-52.940662
 11
-257.1441
 21
-43.588417
  0
LINE
  8
0
  6
CONTINUOUS
 62
     7
 10
-279.72241
 20
-52.940666
 11
-257.1441
 21
-43.588417
  0
LINE
  8
0
  6
CONTINUOUS
 62
     7
 10
-289.07468
 20
-75.518997
 11
-279.72241
 21
-52.940662
  0
LINE
  8
0
  6
CONTINUOUS
 62
     7
 10
-279.72241
 20
-98.097321
 11
-289.07468
 21
-75.51899
  0
LINE
  8
0
  6
CONTINUOUS
 62
     7
 10
-257.1441
 20
-107.44957
 11
-279.72241
 21
-98.097321
  0
LINE
  8
0
  6
CONTINUOUS
 62
     7
 10
-234.56577
 20
-98.097321
 11
-257.14407
 21
-107.44957
  0
LINE
  8
0
  6
CONTINUOUS
 62
     7
 10
-225.21352
 20
-75.51899
 11
-234.56577
 21
-98.097328
  0
LINE
  8
0
  6
CONTINUOUS
 62
     7
 10
-167.50008
 20
-586.47162
 11
-178.74551
 21
-551.86176
  0
LINE
  8
0
  6
CONTINUOUS
 62
     7
 10
-178.7455
 20
-551.86169
 11
-208.18643
 21
-530.47162
  0
LINE
  8
0
  6
CONTINUOUS
 62
     7
 10
-244.57747
 20
-530.47162
 11
-208.18646
 21
-530.47162
  0
LINE
  8
0
  6
CONTINUOUS
 62
     7
 10
-274.01843
 20
-551.86176
 11
-244.57748
 21
-530.47168
  0
LINE
  8
0
  6
CONTINUOUS
 62
     7
 10
-285.26385
 20
-586.47168
 11
-274.0184
 21
-551.86176
  0
LINE
  8
0
  6
CONTINUOUS
 62
     7
 10
-274.0184
 20
-621.08154
 11
-285.26385
 21
-586.47162
  0
LINE
  8
0
  6
CONTINUOUS
 62
     7
 10
-244.57744
 20
-642.47162
 11
-274.01837
 21
-621.08154
  0
LINE
  8
0
  6
CONTINUOUS
 62
     7
 10
-208.18646
 20
-642.47162
 11
-244.57747
 21
-642.47162
  0
LINE
  8
0
  6
CONTINUOUS
 62
     7
 10
-178.74553
 20
-621.08154
 11
-208.18649
 21
-642.47168
  0
LINE
  8
0
  6
CONTINUOUS
 62
     7
 10
-167.50009
 20
-586.47168
 11
-178.74551
 21
-621.08154
  0
LINE
  8
0
  6
CONTINUOUS
 62
     7
 10
-176.44151
 20
-382.2644
 11
-185.77924
 21
-353.52582
  0
LINE
  8
0
  6
CONTINUOUS
 62
     7
 10
-185.77922
 20
-353.52579
 11
-210.22572
 21
-335.76437
  0
LINE
  8
0
  6
CONTINUOUS
 62
     7
 10
-240.44325
 20
-335.76437
 11
-210.22572
 21
-335.76437
  0
LINE
  8
0
  6
CONTINUOUS
 62
     7
 10
-264.88977
 20
-353.52579
 11
-240.44327
 21
-335.76437
  0
LINE
  8
0
  6
CONTINUOUS
 62
     7
 10
-274.22748
 20
-382.26437
 11
-264.88974
 21
-353.52582
  0
LINE
  8
0
  6
CONTINUOUS
 62
     7
 10
-264.88977
 20
-411.00296
 11
-274.22748
 21
-382.2644
  0
LINE
  8
0
  6
CONTINUOUS
 62
     7
 10
-240.44325
 20
-428.76437
 11
-264.88974
 21
-411.00296
  0
LINE
  8
0
  6
CONTINUOUS
 62
     7
 10
-210.22572
 20
-428.76437
 11
-240.44325
 21
-428.76437
  0
LINE
  8
0
  6
CONTINUOUS
 62
     7
 10
-185.77924
 20
-411.00296
 11
-210.22574
 21
-428.76437
  0
LINE
  8
0
  6
CONTINUOUS
 62
     7
 10
-176.4415
 20
-382.26437
 11
-185.77924
 21
-411.00296
  0
LINE
  8
0
  6
CONTINUOUS
 62
     7
 10
-184.32745
 20
-264.08484
 11
-192.1591
 21
-239.98152
  0
LINE
  8
0
  6
CONTINUOUS
 62
     7
 10
-192.1591
 20
-239.98152
 11
-212.66261
 21
-225.08484
  0
LINE
  8
0
  6
CONTINUOUS
 62
     7
 10
-238.00636
 20
-225.08485
 11
-212.66263
 21
-225.08485
  0
LINE
  8
0
  6
CONTINUOUS
 62
     7
 10
-258.50986
 20
-239.98152
 11
-238.00636
 21
-225.08485
  0
LINE
  8
0
  6
CONTINUOUS
 62
     7
 10
-266.34152
 20
-264.08487
 11
-258.50986
 21
-239.98152
  0
LINE
  8
0
  6
CONTINUOUS
 62
     7
 10
-258.50986
 20
-288.18817
 11
-266.34152
 21
-264.08484
  0
LINE
  8
0
  6
CONTINUOUS
 62
     7
 10
-238.00635
 20
-303.08484
 11
-258.50986
 21
-288.18817
  0
LINE
  8
0
  6
CONTINUOUS
 62
     7
 10
-212.66263
 20
-303.08484
 11
-238.00636
 21
-303.08484
  0
LINE
  8
0
  6
CONTINUOUS
 62
     7
 10
-192.15912
 20
-288.18817
 11
-212.66261
 21
-303.08484
  0
LINE
  8
0
  6
CONTINUOUS
 62
     7
 10
-184.32747
 20
-264.08484
 11
-192.1591
 21
-288.1882
  0
LINE
  8
0
  6
CONTINUOUS
 62
     7
 10
-33.171761
 20
-78.1259
 11
-40.099754
 21
-56.803722
  0
LINE
  8
0
  6
CONTINUOUS
 62
     7
 10
-40.099754
 20
-56.803726
 11
-58.237476
 21
-43.6259
  0
LINE
  8
0
  6
CONTINUOUS
 62
     7
 10
-80.656937
 20
-43.625896
 11
-58.237476
 21
-43.625896
  0
LINE
  8
0
  6
CONTINUOUS
 62
     7
 10
-98.794662
 20
-56.803722
 11
-80.656937
 21
-43.625896
  0
LINE
  8
0
  6
CONTINUOUS
 62
     7
 10
-105.72266
 20
-78.125893
 11
-98.794662
 21
-56.803722
  0
LINE
  8
0
  6
CONTINUOUS
 62
     7
 10
-98.794655
 20
-99.448067
 11
-105.72265
 21
-78.125893
  0
LINE
  8
0
  6
CONTINUOUS
 62
     7
 10
-80.656937
 20
-112.6259
 11
-98.794655
 21
-99.448074
  0
LINE
  8
0
  6
CONTINUOUS
 62
     7
 10
-58.237476
 20
-112.6259
 11
-80.656937
 21
-112.6259
  0
LINE
  8
0
  6
CONTINUOUS
 62
     7
 10
-40.099754
 20
-99.448074
 11
-58.237476
 21
-112.6259
  0
LINE
  8
0
  6
CONTINUOUS
 62
     7
 10
-33.171761
 20
-78.125893
 11
-40.099754
 21
-99.448067
  0
LINE
  8
0
  6
CONTINUOUS
 62
     7
 10
61.556519
 20
-78.150673
 11
61.556519
 21
-43.6259
  0
LINE
  8
0
  6
CONTINUOUS
 62
     7
 10
67.837265
 20
-70.002907
 11
82.313721
 21
-70.002907
  0
LINE
  8
0
  6
CONTINUOUS
 62
     7
 10
68.46225
 20
-51.83934
 11
82.313721
 21
-51.83934
  0
LINE
  8
0
  6
CONTINUOUS
 62
     7
 10
67.837265
 20
-56.859627
 11
82.313721
 21
-56.859627
  0
LINE
  8
0
  6
CONTINUOUS
 62
     7
 10
83.056519
 20
-78.1259
 11
83.056519
 21
-53.1259
  0
LINE
  8
0
  6
CONTINUOUS
 62
     7
 10
39.556519
 20
-78.1259
 11
39.556519
 21
-43.6259
  0
LINE
  8
0
  6
CONTINUOUS
 62
     7
 10
60.531464
 20
-56.803726
 11
40.581573
 21
-56.803726
  0
LINE
  8
0
  6
CONTINUOUS
 62
     7
 10
60.531464
 20
-41.850449
 11
40.581573
 21
-41.850449
  0
LINE
  8
0
  6
CONTINUOUS
 62
     7
 10
40.581581
 20
-41.850456
 11
39.556526
 21
-43.625904
  0
LINE
  8
0
  6
CONTINUOUS
 62
     7
 10
60.531471
 20
-41.850456
 11
61.556526
 21
-43.625904
  0
LINE
  8
0
  6
CONTINUOUS
 62
     7
 10
82.313721
 20
-51.839348
 11
83.056511
 21
-53.1259
  0
LINE
  8
0
  6
CONTINUOUS
 62
     7
 10
17.056517
 20
-55.6259
 11
39.556519
 21
-55.6259
  0
LINE
  8
0
  6
CONTINUOUS
 62
     7
 10
18.21121
 20
-68.85228
 11
18.21121
 21
-65.009186
  0
LINE
  8
0
  6
CONTINUOUS
 62
     7
 10
17.056517
 20
-55.6259
 11
10.956511
 21
-55.6259
  0
LINE
  8
0
  6
CONTINUOUS
 62
     7
 10
12.556517
 20
-55.6259
 11
12.556517
 21
-78.1259
  0
LINE
  8
0
  6
CONTINUOUS
 62
     7
 10
28.056517
 20
-65.009186
 11
18.21121
 21
-65.009186
  0
LINE
  8
0
  6
CONTINUOUS
 62
     7
 10
13.962951
 20
-55.625893
 11
12.556519
 21
-56.437897
  0
LINE
  8
0
  6
CONTINUOUS
 62
     7
 10
12.556517
 20
-56.437897
 11
10.956511
 21
-56.437897
  0
LINE
  8
0
  6
CONTINUOUS
 62
     7
 10
28.056517
 20
-68.85228
 11
18.21121
 21
-68.85228
  0
LINE
  8
0
  6
CONTINUOUS
 62
     7
 10
37.901825
 20
-68.85228
 11
37.901825
 21
-65.009186
  0
LINE
  8
0
  6
CONTINUOUS
 62
     7
 10
39.056519
 20
-55.6259
 11
39.056519
 21
-78.1259
  0
LINE
  8
0
  6
CONTINUOUS
 62
     7
 10
17.056517
 20
-55.6259
 11
17.056517
 21
-78.1259
  0
LINE
  8
0
  6
CONTINUOUS
 62
     7
 10
28.056517
 20
-68.85228
 11
37.901825
 21
-68.85228
  0
LINE
  8
0
  6
CONTINUOUS
 62
     7
 10
28.056517
 20
-65.009186
 11
37.901825
 21
-65.009186
  0
LINE
  8
0
  6
CONTINUOUS
 62
     7
 10
39.056519
 20
-51.1259
 11
39.056519
 21
-55.525894
  0
LINE
  8
0
  6
CONTINUOUS
 62
     7
 10
39.056519
 20
-51.1259
 11
39.556519
 21
-51.1259
  0
LINE
  8
0
  6
CONTINUOUS
 62
     7
 10
39.056519
 20
-55.525894
 11
39.556519
 21
-55.525894
  0
LINE
  8
0
  6
CONTINUOUS
 62
     7
 10
61.556519
 20
-49.208397
 11
64.059113
 21
-49.208397
  0
LINE
  8
0
  6
CONTINUOUS
 62
     7
 10
63.431534
 20
-78.1259
 11
63.431534
 21
-48.1259
  0
LINE
  8
0
  6
CONTINUOUS
 62
     7
 10
63.431541
 20
-48.125904
 11
64.132118
 21
-49.339348
  0
LINE
  8
0
  6
CONTINUOUS
 62
     7
 10
61.556519
 20
-48.1259
 11
63.431534
 21
-48.1259
  0
LINE
  8
0
  6
CONTINUOUS
 62
     7
 10
10.456511
 20
-54.647514
 11
10.456511
 21
-53.6259
  0
LINE
  8
0
  6
CONTINUOUS
 62
     7
 10
10.456511
 20
-54.647514
 11
0.056517061
 21
-54.647514
  0
LINE
  8
0
  6
CONTINUOUS
 62
     7
 10
10.456511
 20
-69.422455
 11
0.056517061
 21
-69.422455
  0
LINE
  8
0
  6
CONTINUOUS
 62
     7
 10
10.456511
 20
-69.422455
 11
10.456511
 21
-66.956047
  0
LINE
  8
0
  6
CONTINUOUS
 62
     7
 10
-4.9434829
 20
-78.1259
 11
-4.9434829
 21
-58.6259
  0
LINE
  8
0
  6
CONTINUOUS
 62
     7
 10
10.956524
 20
-54.1259
 11
10.456524
 21
-53.6259
  0
LINE
  8
0
  6
CONTINUOUS
 62
     7
 10
10.456511
 20
-53.6259
 11
0.056517061
 21
-53.6259
  0
LINE
  8
0
  6
CONTINUOUS
 62
     7
 10
0.056517061
 20
-78.1259
 11
0.056517061
 21
-53.6259
  0
LINE
  8
0
  6
CONTINUOUS
 62
     7
 10
10.456511
 20
-66.956047
 11
0.056517061
 21
-66.956047
  0
LINE
  8
0
  6
CONTINUOUS
 62
     7
 10
10.956511
 20
-78.1259
 11
10.956511
 21
-54.1259
  0
LINE
  8
0
  6
CONTINUOUS
 62
     7
 10
-87.178055
 20
-223.07784
 11
-64.99556
 21
-223.07784
  0
LINE
  8
0
  6
CONTINUOUS
 62
     7
 10
-63.836807
 20
-264.08484
 11
-63.836807
 21
-225.08485
  0
LINE
  8
0
  6
CONTINUOUS
 62
     7
 10
-41.336807
 20
-264.08484
 11
-41.336807
 21
-236.08485
  0
LINE
  8
0
  6
CONTINUOUS
 62
     7
 10
-61.336807
 20
-264.08484
 11
-61.336807
 21
-231.16736
  0
LINE
  8
0
  6
CONTINUOUS
 62
     7
 10
-55.865524
 20
-240.26663
 11
-42.168747
 21
-240.26663
  0
LINE
  8
0
  6
CONTINUOUS
 62
     7
 10
-42.168739
 20
-234.64391
 11
-41.336807
 21
-236.08485
  0
LINE
  8
0
  6
CONTINUOUS
 62
     7
 10
-55.865524
 20
-234.64391
 11
-42.168747
 21
-234.64391
  0
LINE
  8
0
  6
CONTINUOUS
 62
     7
 10
-55.865524
 20
-254.98711
 11
-42.168747
 21
-254.98711
  0
LINE
  8
0
  6
CONTINUOUS
 62
     7
 10
-88.336807
 20
-264.08484
 11
-88.336807
 21
-225.08485
  0
LINE
  8
0
  6
CONTINUOUS
 62
     7
 10
-87.178055
 20
-251.41299
 11
-64.99556
 21
-251.41299
  0
LINE
  8
0
  6
CONTINUOUS
 62
     7
 10
-87.178055
 20
-230.90947
 11
-64.99556
 21
-230.90947
  0
LINE
  8
0
  6
CONTINUOUS
 62
     7
 10
-64.99556
 20
-223.07782
 11
-63.836807
 21
-225.08484
  0
LINE
  8
0
  6
CONTINUOUS
 62
     7
 10
-88.336823
 20
-225.08485
 11
-87.178062
 21
-223.07782
  0
LINE
  8
0
  6
CONTINUOUS
 62
     7
 10
-63.836807
 20
-231.16736
 11
-61.336807
 21
-231.16736
  0
LINE
  8
0
  6
CONTINUOUS
 62
     7
 10
-63.836807
 20
-230.08485
 11
-61.961807
 21
-230.08485
  0
LINE
  8
0
  6
CONTINUOUS
 62
     7
 10
-90.336472
 20
-253.78923
 11
-90.336472
 21
-247.14902
  0
LINE
  8
0
  6
CONTINUOUS
 62
     7
 10
-100.33681
 20
-236.85339
 11
-90.336472
 21
-236.85339
  0
LINE
  8
0
  6
CONTINUOUS
 62
     7
 10
-90.336472
 20
-236.85339
 11
-90.336472
 21
-236.58485
  0
LINE
  8
0
  6
CONTINUOUS
 62
     7
 10
-100.33681
 20
-247.14902
 11
-90.336472
 21
-247.14902
  0
LINE
  8
0
  6
CONTINUOUS
 62
     7
 10
-110.33714
 20
-253.78923
 11
-110.33714
 21
-247.14902
  0
LINE
  8
0
  6
CONTINUOUS
 62
     7
 10
-100.33681
 20
-253.78923
 11
-90.336472
 21
-253.78923
  0
LINE
  8
0
  6
CONTINUOUS
 62
     7
 10
-100.33681
 20
-236.85339
 11
-110.33714
 21
-236.85339
  0
LINE
  8
0
  6
CONTINUOUS
 62
     7
 10
-110.33714
 20
-236.85339
 11
-110.33714
 21
-236.58485
  0
LINE
  8
0
  6
CONTINUOUS
 62
     7
 10
-100.33681
 20
-247.14902
 11
-110.33714
 21
-247.14902
  0
LINE
  8
0
  6
CONTINUOUS
 62
     7
 10
-100.33681
 20
-253.78923
 11
-110.33714
 21
-253.78923
  0
LINE
  8
0
  6
CONTINUOUS
 62
     7
 10
-111.33681
 20
-236.58485
 11
-111.33681
 21
-264.08484
  0
LINE
  8
0
  6
CONTINUOUS
 62
     7
 10
-89.336807
 20
-236.58485
 11
-89.336807
 21
-264.08484
  0
LINE
  8
0
  6
CONTINUOUS
 62
     7
 10
-114.83681
 20
-237.39685
 11
-116.43681
 21
-237.39685
  0
LINE
  8
0
  6
CONTINUOUS
 62
     7
 10
-111.33681
 20
-236.58485
 11
-116.43681
 21
-236.58485
  0
LINE
  8
0
  6
CONTINUOUS
 62
     7
 10
-113.4304
 20
-236.58485
 11
-114.83681
 21
-237.39685
  0
LINE
  8
0
  6
CONTINUOUS
 62
     7
 10
-88.336807
 20
-236.58485
 11
-111.33681
 21
-236.58485
  0
LINE
  8
0
  6
CONTINUOUS
 62
     7
 10
-114.83681
 20
-236.58485
 11
-114.83681
 21
-264.08484
  0
LINE
  8
0
  6
CONTINUOUS
 62
     7
 10
-88.336807
 20
-233.43486
 11
-88.336807
 21
-236.48485
  0
LINE
  8
0
  6
CONTINUOUS
 62
     7
 10
-61.961792
 20
-230.08485
 11
-61.061668
 21
-231.64391
  0
LINE
  8
0
  6
CONTINUOUS
 62
     7
 10
-116.93681
 20
-254.55858
 11
-128.33681
 21
-254.55858
  0
LINE
  8
0
  6
CONTINUOUS
 62
     7
 10
-128.33681
 20
-264.08484
 11
-128.33681
 21
-234.58485
  0
LINE
  8
0
  6
CONTINUOUS
 62
     7
 10
-116.43682
 20
-235.08487
 11
-116.93682
 21
-234.58487
  0
LINE
  8
0
  6
CONTINUOUS
 62
     7
 10
-116.93681
 20
-236.48911
 11
-128.33681
 21
-236.48911
  0
LINE
  8
0
  6
CONTINUOUS
 62
     7
 10
-116.93681
 20
-249.9613
 11
-128.33681
 21
-249.9613
  0
LINE
  8
0
  6
CONTINUOUS
 62
     7
 10
-116.93681
 20
-234.58485
 11
-128.33681
 21
-234.58485
  0
LINE
  8
0
  6
CONTINUOUS
 62
     7
 10
-134.33681
 20
-264.08484
 11
-134.33681
 21
-240.58485
  0
LINE
  8
0
  6
CONTINUOUS
 62
     7
 10
-116.93681
 20
-254.55858
 11
-116.93681
 21
-249.9613
  0
LINE
  8
0
  6
CONTINUOUS
 62
     7
 10
-116.93681
 20
-236.48911
 11
-116.93681
 21
-234.58485
  0
LINE
  8
0
  6
CONTINUOUS
 62
     7
 10
-116.43681
 20
-264.08484
 11
-116.43681
 21
-235.08485
  0
LINE
  8
0
  6
CONTINUOUS
 62
     7
 10
-96.878197
 20
-344.86438
 11
-97.378197
 21
-344.86438
  0
LINE
  8
0
  6
CONTINUOUS
 62
     7
 10
-97.378197
 20
-344.86438
 11
-97.378197
 21
-349.41437
  0
LINE
  8
0
  6
CONTINUOUS
 62
     7
 10
-45.403244
 20
-345.98892
 11
-44.378189
 21
-347.76434
  0
LINE
  8
0
  6
CONTINUOUS
 62
     7
 10
-68.503166
 20
-382.26437
 11
-68.503166
 21
-341.26437
  0
LINE
  8
0
  6
CONTINUOUS
 62
     7
 10
-62.311329
 20
-371.05466
 11
-45.403217
 21
-371.05466
  0
LINE
  8
0
  6
CONTINUOUS
 62
     7
 10
-62.311329
 20
-352.91693
 11
-45.403217
 21
-352.91693
  0
LINE
  8
0
  6
CONTINUOUS
 62
     7
 10
-62.311329
 20
-345.98892
 11
-45.403217
 21
-345.98892
  0
LINE
  8
0
  6
CONTINUOUS
 62
     7
 10
-68.503174
 20
-341.26437
 11
-67.507492
 21
-342.98895
  0
LINE
  8
0
  6
CONTINUOUS
 62
     7
 10
-95.496605
 20
-333.37137
 11
-71.259789
 21
-333.37137
  0
LINE
  8
0
  6
CONTINUOUS
 62
     7
 10
-69.878197
 20
-342.34686
 11
-67.878197
 21
-342.34686
  0
LINE
  8
0
  6
CONTINUOUS
 62
     7
 10
-69.878197
 20
-341.26437
 11
-68.503166
 21
-341.26437
  0
LINE
  8
0
  6
CONTINUOUS
 62
     7
 10
-44.378193
 20
-382.26437
 11
-44.378193
 21
-347.76437
  0
LINE
  8
0
  6
CONTINUOUS
 62
     7
 10
-95.496605
 20
-342.70911
 11
-71.259789
 21
-342.70911
  0
LINE
  8
0
  6
CONTINUOUS
 62
     7
 10
-71.259773
 20
-333.3714
 11
-69.878181
 21
-335.76437
  0
LINE
  8
0
  6
CONTINUOUS
 62
     7
 10
-96.878181
 20
-335.76437
 11
-95.49659
 21
-333.3714
  0
LINE
  8
0
  6
CONTINUOUS
 62
     7
 10
-95.496605
 20
-367.15561
 11
-71.259789
 21
-367.15561
  0
LINE
  8
0
  6
CONTINUOUS
 62
     7
 10
-69.878197
 20
-382.26437
 11
-69.878197
 21
-335.76437
  0
LINE
  8
0
  6
CONTINUOUS
 62
     7
 10
-96.878197
 20
-382.26437
 11
-96.878197
 21
-335.76437
  0
LINE
  8
0
  6
CONTINUOUS
 62
     7
 10
-122.3782
 20
-382.26437
 11
-122.3782
 21
-351.26437
  0
LINE
  8
0
  6
CONTINUOUS
 62
     7
 10
-97.378197
 20
-351.26437
 11
-129.37819
 21
-351.26437
  0
LINE
  8
0
  6
CONTINUOUS
 62
     7
 10
-128.37819
 20
-352.34686
 11
-129.37819
 21
-352.34686
  0
LINE
  8
0
  6
CONTINUOUS
 62
     7
 10
-128.37819
 20
-382.26437
 11
-128.37819
 21
-351.26437
  0
LINE
  8
0
  6
CONTINUOUS
 62
     7
 10
-126.50323
 20
-351.26437
 11
-128.37817
 21
-352.34686
  0
LINE
  8
0
  6
CONTINUOUS
 62
     7
 10
-97.378197
 20
-349.51437
 11
-96.878197
 21
-349.51437
  0
LINE
  8
0
  6
CONTINUOUS
 62
     7
 10
-97.378197
 20
-382.26437
 11
-97.378197
 21
-349.51437
  0
LINE
  8
0
  6
CONTINUOUS
 62
     7
 10
-109.8782
 20
-370.06805
 11
-121.06191
 21
-370.06805
  0
LINE
  8
0
  6
CONTINUOUS
 62
     7
 10
-109.8782
 20
-363.68082
 11
-121.06191
 21
-363.68082
  0
LINE
  8
0
  6
CONTINUOUS
 62
     7
 10
-109.8782
 20
-351.4845
 11
-121.06191
 21
-351.4845
  0
LINE
  8
0
  6
CONTINUOUS
 62
     7
 10
-121.06191
 20
-351.4845
 11
-121.06191
 21
-351.26437
  0
LINE
  8
0
  6
CONTINUOUS
 62
     7
 10
-121.06191
 20
-370.06805
 11
-121.06191
 21
-363.68082
  0
LINE
  8
0
  6
CONTINUOUS
 62
     7
 10
-109.8782
 20
-351.4845
 11
-98.694481
 21
-351.4845
  0
LINE
  8
0
  6
CONTINUOUS
 62
     7
 10
-109.8782
 20
-363.68082
 11
-98.694481
 21
-363.68082
  0
LINE
  8
0
  6
CONTINUOUS
 62
     7
 10
-109.8782
 20
-370.06805
 11
-98.694481
 21
-370.06805
  0
LINE
  8
0
  6
CONTINUOUS
 62
     7
 10
-98.694481
 20
-351.4845
 11
-98.694481
 21
-351.26437
  0
LINE
  8
0
  6
CONTINUOUS
 62
     7
 10
-98.694481
 20
-370.06805
 11
-98.694481
 21
-363.68082
  0
LINE
  8
0
  6
CONTINUOUS
 62
     7
 10
-96.878197
 20
-349.41437
 11
-97.378197
 21
-349.41437
  0
LINE
  8
0
  6
CONTINUOUS
 62
     7
 10
-129.87817
 20
-348.26437
 11
-129.37819
 21
-348.76437
  0
LINE
  8
0
  6
CONTINUOUS
 62
     7
 10
-129.87819
 20
-351.00299
 11
-129.87819
 21
-348.26437
  0
LINE
  8
0
  6
CONTINUOUS
 62
     7
 10
-129.87819
 20
-348.26437
 11
-141.37819
 21
-348.26437
  0
LINE
  8
0
  6
CONTINUOUS
 62
     7
 10
-129.87819
 20
-351.00299
 11
-141.37819
 21
-351.00299
  0
LINE
  8
0
  6
CONTINUOUS
 62
     7
 10
-149.37819
 20
-382.26437
 11
-149.37819
 21
-356.26437
  0
LINE
  8
0
  6
CONTINUOUS
 62
     7
 10
-129.87819
 20
-372.05408
 11
-129.87819
 21
-365.4425
  0
LINE
  8
0
  6
CONTINUOUS
 62
     7
 10
-129.87819
 20
-365.4425
 11
-141.37819
 21
-365.4425
  0
LINE
  8
0
  6
CONTINUOUS
 62
     7
 10
-141.37819
 20
-382.26437
 11
-141.37819
 21
-348.26437
  0
LINE
  8
0
  6
CONTINUOUS
 62
     7
 10
-129.87819
 20
-372.05408
 11
-141.37819
 21
-372.05408
  0
LINE
  8
0
  6
CONTINUOUS
 62
     7
 10
-129.37819
 20
-382.26437
 11
-129.37819
 21
-348.76437
  0
LINE
  8
0
  6
CONTINUOUS
 62
     7
 10
-66.20916
 20
-540.07166
 11
-67.20916
 21
-540.07166
  0
LINE
  8
0
  6
CONTINUOUS
 62
     7
 10
-67.20916
 20
-540.07166
 11
-67.20916
 21
-544.12164
  0
LINE
  8
0
  6
CONTINUOUS
 62
     7
 10
-36.70916
 20
-537.55414
 11
-33.20916
 21
-537.55414
  0
LINE
  8
0
  6
CONTINUOUS
 62
     7
 10
-36.70916
 20
-536.47168
 11
-33.834129
 21
-536.47168
  0
LINE
  8
0
  6
CONTINUOUS
 62
     7
 10
-27.606192
 20
-541.25879
 11
-7.4867463
 21
-541.25879
  0
LINE
  8
0
  6
CONTINUOUS
 62
     7
 10
-28.089712
 20
-549.89368
 11
-7.4867463
 21
-549.89368
  0
LINE
  8
0
  6
CONTINUOUS
 62
     7
 10
-64.545311
 20
-527.58978
 11
-38.373009
 21
-527.58978
  0
LINE
  8
0
  6
CONTINUOUS
 62
     7
 10
-7.4867496
 20
-541.25873
 11
-6.2091465
 21
-543.47162
  0
LINE
  8
0
  6
CONTINUOUS
 62
     7
 10
-64.545311
 20
-538.83521
 11
-38.373009
 21
-538.83521
  0
LINE
  8
0
  6
CONTINUOUS
 62
     7
 10
-38.373009
 20
-527.58978
 11
-36.70916
 21
-530.47162
  0
LINE
  8
0
  6
CONTINUOUS
 62
     7
 10
-28.089712
 20
-572.50012
 11
-7.4867463
 21
-572.50012
  0
LINE
  8
0
  6
CONTINUOUS
 62
     7
 10
-33.20916
 20
-586.47162
 11
-33.20916
 21
-537.55414
  0
LINE
  8
0
  6
CONTINUOUS
 62
     7
 10
-64.545311
 20
-568.27612
 11
-38.373009
 21
-568.27612
  0
LINE
  8
0
  6
CONTINUOUS
 62
     7
 10
-66.209152
 20
-530.47168
 11
-64.545288
 21
-527.58978
  0
LINE
  8
0
  6
CONTINUOUS
 62
     7
 10
-6.2091584
 20
-586.47162
 11
-6.2091584
 21
-543.47168
  0
LINE
  8
0
  6
CONTINUOUS
 62
     7
 10
-66.20916
 20
-586.47162
 11
-66.20916
 21
-530.47168
  0
LINE
  8
0
  6
CONTINUOUS
 62
     7
 10
-36.70916
 20
-586.47162
 11
-36.70916
 21
-530.47168
  0
LINE
  8
0
  6
CONTINUOUS
 62
     7
 10
-103.8342
 20
-548.47162
 11
-105.70914
 21
-549.55414
  0
LINE
  8
0
  6
CONTINUOUS
 62
     7
 10
-66.20916
 20
-544.22168
 11
-67.20916
 21
-544.22168
  0
LINE
  8
0
  6
CONTINUOUS
 62
     7
 10
-105.70916
 20
-548.47168
 11
-105.70916
 21
-586.47162
  0
LINE
  8
0
  6
CONTINUOUS
 62
     7
 10
-96.301674
 20
-572.55225
 11
-96.301674
 21
-560.95538
  0
LINE
  8
0
  6
CONTINUOUS
 62
     7
 10
-105.70916
 20
-549.55414
 11
-106.70916
 21
-549.55414
  0
LINE
  8
0
  6
CONTINUOUS
 62
     7
 10
-101.20916
 20
-548.47168
 11
-106.70916
 21
-548.47168
  0
LINE
  8
0
  6
CONTINUOUS
 62
     7
 10
-82.477104
 20
-547.03601
 11
-96.301674
 21
-547.03601
  0
LINE
  8
0
  6
CONTINUOUS
 62
     7
 10
-82.477104
 20
-560.95538
 11
-96.301674
 21
-560.95538
  0
LINE
  8
0
  6
CONTINUOUS
 62
     7
 10
-97.745049
 20
-586.47162
 11
-97.745049
 21
-546.47168
  0
LINE
  8
0
  6
CONTINUOUS
 62
     7
 10
-67.20916
 20
-544.22168
 11
-67.20916
 21
-586.47162
  0
LINE
  8
0
  6
CONTINUOUS
 62
     7
 10
-82.477104
 20
-572.55225
 11
-96.301674
 21
-572.55225
  0
LINE
  8
0
  6
CONTINUOUS
 62
     7
 10
-67.20916
 20
-546.47168
 11
-97.60627
 21
-546.47168
  0
LINE
  8
0
  6
CONTINUOUS
 62
     7
 10
-96.301674
 20
-547.03601
 11
-96.301674
 21
-546.47168
  0
LINE
  8
0
  6
CONTINUOUS
 62
     7
 10
-68.652519
 20
-572.55225
 11
-68.652519
 21
-560.95538
  0
LINE
  8
0
  6
CONTINUOUS
 62
     7
 10
-82.477104
 20
-547.03601
 11
-68.652519
 21
-547.03601
  0
LINE
  8
0
  6
CONTINUOUS
 62
     7
 10
-82.477104
 20
-560.95538
 11
-68.652519
 21
-560.95538
  0
LINE
  8
0
  6
CONTINUOUS
 62
     7
 10
-82.477104
 20
-572.55225
 11
-68.652519
 21
-572.55225
  0
LINE
  8
0
  6
CONTINUOUS
 62
     7
 10
-68.652519
 20
-547.03601
 11
-68.652519
 21
-546.47168
  0
LINE
  8
0
  6
CONTINUOUS
 62
     7
 10
-101.20916
 20
-548.47168
 11
-101.20916
 21
-586.47162
  0
LINE
  8
0
  6
CONTINUOUS
 62
     7
 10
-97.745056
 20
-546.47168
 11
-101.20915
 21
-548.47168
  0
LINE
  8
0
  6
CONTINUOUS
 62
     7
 10
-33.834137
 20
-536.47162
 11
-32.802338
 21
-538.25879
  0
LINE
  8
0
  6
CONTINUOUS
 62
     7
 10
-66.20916
 20
-544.12164
 11
-67.20916
 21
-544.12164
  0
LINE
  8
0
  6
CONTINUOUS
 62
     7
 10
-107.20916
 20
-545.47168
 11
-122.20916
 21
-545.47168
  0
LINE
  8
0
  6
CONTINUOUS
 62
     7
 10
-107.20915
 20
-545.47168
 11
-106.70917
 21
-545.97162
  0
LINE
  8
0
  6
CONTINUOUS
 62
     7
 10
-107.20916
 20
-548.31512
 11
-107.20916
 21
-545.47168
  0
LINE
  8
0
  6
CONTINUOUS
 62
     7
 10
-130.20915
 20
-586.47162
 11
-130.20915
 21
-553.47162
  0
LINE
  8
0
  6
CONTINUOUS
 62
     7
 10
-107.20916
 20
-548.31512
 11
-122.20916
 21
-548.31512
  0
LINE
  8
0
  6
CONTINUOUS
 62
     7
 10
-107.20916
 20
-573.51019
 11
-122.20916
 21
-573.51019
  0
LINE
  8
0
  6
CONTINUOUS
 62
     7
 10
-122.20916
 20
-586.47162
 11
-122.20916
 21
-545.47168
  0
LINE
  8
0
  6
CONTINUOUS
 62
     7
 10
-107.20916
 20
-566.64545
 11
-122.20916
 21
-566.64545
  0
LINE
  8
0
  6
CONTINUOUS
 62
     7
 10
-107.20916
 20
-573.51019
 11
-107.20916
 21
-566.64545
  0
LINE
  8
0
  6
CONTINUOUS
 62
     7
 10
-106.70916
 20
-586.47162
 11
-106.70916
 21
-545.97168
  0
CIRCLE
  8
0
  6
CONTINUOUS
 62
     7
 10
-252.20935
 20
54.113754
 40
14.5
  0
CIRCLE
  8
0
  6
CONTINUOUS
 62
     7
 10
-252.20935
 20
54.113754
 40
8.0500002
  0
CIRCLE
  8
0
  6
CONTINUOUS
 62
     7
 10
-61.114201
 20
51.60537
 40
17
  0
CIRCLE
  8
0
  6
CONTINUOUS
 62
     7
 10
-61.114201
 20
51.60537
 40
11.25
  0
CIRCLE
  8
0
  6
CONTINUOUS
 62
     7
 10
-257.1441
 20
-75.518997
 40
21.5
  0
CIRCLE
  8
0
  6
CONTINUOUS
 62
     7
 10
-257.1441
 20
-75.518997
 40
14.4
  0
CIRCLE
  8
0
  6
CONTINUOUS
 62
     7
 10
-69.447205
 20
-78.1259
 40
24.5
  0
CIRCLE
  8
0
  6
CONTINUOUS
 62
     7
 10
-69.447205
 20
-78.1259
 40
17.25
  0
CIRCLE
  8
0
  6
CONTINUOUS
 62
     7
 10
-225.33449
 20
-264.08484
 40
29.5
  0
CIRCLE
  8
0
  6
CONTINUOUS
 62
     7
 10
-225.33449
 20
-264.08484
 40
21.65
  0
CIRCLE
  8
0
  6
CONTINUOUS
 62
     7
 10
-225.33449
 20
-382.26437
 40
34
  0
CIRCLE
  8
0
  6
CONTINUOUS
 62
     7
 10
-225.33449
 20
-382.26437
 40
24.65
  0
CIRCLE
  8
0
  6
CONTINUOUS
 62
     7
 10
-226.38196
 20
-586.47162
 40
41
  0
CIRCLE
  8
0
  6
CONTINUOUS
 62
     7
 10
-226.38196
 20
-586.47162
 40
30.65
  0
ARC
  8
0
  6
CONTINUOUS
 62
     7
 10
-155.30292
 20
-75.518997
 40
32.62027
 50
180.00001
 51
195.29038
  0
ARC
  8
0
  6
CONTINUOUS
 62
     7
 10
-179.25409
 20
-90.696136
 40
8.6691046
 50
150.0892
 51
209.91081
  0
ARC
  8
0
  6
CONTINUOUS
 62
     7
 10
-207.54346
 20
-75.518997
 40
32.62027
 50
344.70962
 51
1.0856313E-006
  0
ARC
  8
0
  6
CONTINUOUS
 62
     7
 10
-183.59229
 20
-90.696136
 40
8.6691046
 50
330.08919
 51
29.910805
  0
ARC
  8
0
  6
CONTINUOUS
 62
     7
 10
-166.38597
 20
54.113754
 40
12.499999
 50
180.00001
 51
203.07392
  0
ARC
  8
0
  6
CONTINUOUS
 62
     7
 10
-180.38597
 20
54.113754
 40
12.499999
 50
336.92608
 51
8.3652399E-007
  0
ARC
  8
0
  6
CONTINUOUS
 62
     7
 10
-171.38597
 20
44.154469
 40
3.5
 50
315.58469
 51
44.41531
  0
ARC
  8
0
  6
CONTINUOUS
 62
     7
 10
-175.38597
 20
44.154469
 40
3.5
 50
135.58469
 51
224.4153
  0
ARC
  8
0
  6
CONTINUOUS
 62
     7
 10
39.838509
 20
51.60537
 40
25.770571
 50
179.99999
 51
194.69738
  0
ARC
  8
0
  6
CONTINUOUS
 62
     7
 10
20.826788
 20
39.914032
 40
6.7588539
 50
151.07347
 51
208.92653
  0
ARC
  8
0
  6
CONTINUOUS
 62
     7
 10
-238.87442
 20
54.113754
 40
102.98846
 50
354.24206
 51
1.2363324E-007
  0
ARC
  8
0
  6
CONTINUOUS
 62
     7
 10
-145.01094
 20
46.75465
 40
3
 50
179.99999
 51
277.6494
  0
ARC
  8
0
  6
CONTINUOUS
 62
     7
 10
-145.01094
 20
40.808041
 40
3
 50
82.350594
 51
180.00001
  0
ARC
  8
0
  6
CONTINUOUS
 62
     7
 10
-145.01094
 20
51.14045
 40
3
 50
82.350594
 51
180.00001
  0
ARC
  8
0
  6
CONTINUOUS
 62
     7
 10
-140.12595
 20
41.747555
 40
4.2399731
 50
331.33609
 51
28.663913
  0
ARC
  8
0
  6
CONTINUOUS
 62
     7
 10
-144.48909
 20
36.713764
 40
3
 50
90.000003
 51
150
  0
ARC
  8
0
  6
CONTINUOUS
 62
     7
 10
50.44297
 20
47.60733
 40
4
 50
88.244207
 51
180.00001
  0
ARC
  8
0
  6
CONTINUOUS
 62
     7
 10
50.44297
 20
34.978706
 40
4
 50
91.755798
 51
180.00001
  0
ARC
  8
0
  6
CONTINUOUS
 62
     7
 10
50.44297
 20
42.974945
 40
4
 50
179.99999
 51
271.7558
  0
ARC
  8
0
  6
CONTINUOUS
 62
     7
 10
50.68647
 20
29.955368
 40
4
 50
90.000003
 51
150
  0
ARC
  8
0
  6
CONTINUOUS
 62
     7
 10
-58.362984
 20
51.60537
 40
120.43096
 50
353.98083
 51
3.8038761E-005
  0
ARC
  8
0
  6
CONTINUOUS
 62
     7
 10
56.988869
 20
36.466103
 40
5.0791154
 50
330
 51
29.625167
  0
ARC
  8
0
  6
CONTINUOUS
 62
     7
 10
-141.87531
 20
-94.439003
 40
5.9521313
 50
327.13503
 51
32.864971
  0
ARC
  8
0
  6
CONTINUOUS
 62
     7
 10
-148.92319
 20
-79.517349
 40
4
 50
88.357021
 51
180.00001
  0
ARC
  8
0
  6
CONTINUOUS
 62
     7
 10
-148.92319
 20
-87.210663
 40
4
 50
179.99999
 51
271.64299
  0
ARC
  8
0
  6
CONTINUOUS
 62
     7
 10
-148.92319
 20
-95.207375
 40
4
 50
88.357021
 51
180.00001
  0
ARC
  8
0
  6
CONTINUOUS
 62
     7
 10
-149.30466
 20
-101.669
 40
4
 50
90.000003
 51
150
  0
ARC
  8
0
  6
CONTINUOUS
 62
     7
 10
-265.6088
 20
-75.518997
 40
129.68559
 50
353.05104
 51
360
  0
ARC
  8
0
  6
CONTINUOUS
 62
     7
 10
68.431534
 20
-91.213448
 40
5
 50
96.825991
 51
180.00001
  0
ARC
  8
0
  6
CONTINUOUS
 62
     7
 10
68.431534
 20
-94.427605
 40
5
 50
179.99999
 51
263.17402
  0
ARC
  8
0
  6
CONTINUOUS
 62
     7
 10
68.46225
 20
-109.41245
 40
5
 50
90.000003
 51
150
  0
ARC
  8
0
  6
CONTINUOUS
 62
     7
 10
67.335938
 20
-106.92471
 40
27.779415
 50
164.38673
 51
195.61328
  0
ARC
  8
0
  6
CONTINUOUS
 62
     7
 10
68.431534
 20
-81.284332
 40
5
 50
179.99999
 51
276.82598
  0
ARC
  8
0
  6
CONTINUOUS
 62
     7
 10
68.431534
 20
-104.35673
 40
5
 50
96.825991
 51
180.00001
  0
ARC
  8
0
  6
CONTINUOUS
 62
     7
 10
261.83044
 20
-78.1259
 40
222.27391
 50
179.99999
 51
185.5047
  0
ARC
  8
0
  6
CONTINUOUS
 62
     7
 10
33.7771
 20
-106.92471
 40
27.779415
 50
344.38672
 51
15.61328
  0
ARC
  8
0
  6
CONTINUOUS
 62
     7
 10
-160.71738
 20
-78.1259
 40
222.27391
 50
354.4953
 51
360
  0
ARC
  8
0
  6
CONTINUOUS
 62
     7
 10
38.269669
 20
-78.1259
 40
44.786858
 50
349.55043
 51
360
  0
ARC
  8
0
  6
CONTINUOUS
 62
     7
 10
53.614822
 20
-92.820526
 40
29.441692
 50
347.10244
 51
12.89756
  0
ARC
  8
0
  6
CONTINUOUS
 62
     7
 10
78.443832
 20
-101.90231
 40
4.6126957
 50
327.03126
 51
32.968736
  0
ARC
  8
0
  6
CONTINUOUS
 62
     7
 10
27.165144
 20
-95.93425
 40
10.108621
 50
152.34651
 51
207.65349
  0
ARC
  8
0
  6
CONTINUOUS
 62
     7
 10
54.872971
 20
-78.1259
 40
37.816444
 50
179.99999
 51
194.19526
  0
ARC
  8
0
  6
CONTINUOUS
 62
     7
 10
1.2400802
 20
-78.1259
 40
37.816444
 50
345.80474
 51
8.6123591E-014
  0
ARC
  8
0
  6
CONTINUOUS
 62
     7
 10
28.947905
 20
-95.93425
 40
10.108621
 50
332.34651
 51
27.653486
  0
ARC
  8
0
  6
CONTINUOUS
 62
     7
 10
-55.865524
 20
-299.52579
 40
6
 50
90.000003
 51
150
  0
ARC
  8
0
  6
CONTINUOUS
 62
     7
 10
-91.498093
 20
-264.08484
 40
50.161278
 50
349.55043
 51
360
  0
ARC
  8
0
  6
CONTINUOUS
 62
     7
 10
-74.311508
 20
-280.54285
 40
32.974697
 50
347.10244
 51
12.89756
  0
ARC
  8
0
  6
CONTINUOUS
 62
     7
 10
-46.503036
 20
-290.71445
 40
5.1662192
 50
327.03126
 51
32.968736
  0
ARC
  8
0
  6
CONTINUOUS
 62
     7
 10
-55.336807
 20
-267.20593
 40
6
 50
179.99999
 51
264.94468
  0
ARC
  8
0
  6
CONTINUOUS
 62
     7
 10
-55.336807
 20
-279.15927
 40
6
 50
95.055333
 51
180.00001
  0
ARC
  8
0
  6
CONTINUOUS
 62
     7
 10
-55.336807
 20
-281.92642
 40
6
 50
179.99999
 51
264.94468
  0
ARC
  8
0
  6
CONTINUOUS
 62
     7
 10
-55.336807
 20
-293.87973
 40
6
 50
95.055333
 51
180.00001
  0
ARC
  8
0
  6
CONTINUOUS
 62
     7
 10
-18.469316
 20
-264.08484
 40
69.867493
 50
179.99999
 51
190.44957
  0
ARC
  8
0
  6
CONTINUOUS
 62
     7
 10
-109.76585
 20
-287.00848
 40
45.929039
 50
347.10244
 51
12.89756
  0
ARC
  8
0
  6
CONTINUOUS
 62
     7
 10
-133.7043
 20
-264.08484
 40
69.867493
 50
349.55043
 51
0
  0
ARC
  8
0
  6
CONTINUOUS
 62
     7
 10
-81.141006
 20
-301.17606
 40
7.1958051
 50
147.03127
 51
212.96874
  0
ARC
  8
0
  6
CONTINUOUS
 62
     7
 10
-42.407791
 20
-287.00848
 40
45.929039
 50
167.10244
 51
192.89756
  0
ARC
  8
0
  6
CONTINUOUS
 62
     7
 10
-71.032608
 20
-301.17606
 40
7.1958051
 50
327.03126
 51
32.968736
  0
ARC
  8
0
  6
CONTINUOUS
 62
     7
 10
-103.09114
 20
-286.16849
 40
13.75433
 50
338.02088
 51
21.979122
  0
ARC
  8
0
  6
CONTINUOUS
 62
     7
 10
-142.85463
 20
-264.08484
 40
53.517822
 50
348.90843
 51
5.5717762E-007
  0
ARC
  8
0
  6
CONTINUOUS
 62
     7
 10
-97.582474
 20
-286.16849
 40
13.75433
 50
158.02088
 51
201.97912
  0
ARC
  8
0
  6
CONTINUOUS
 62
     7
 10
-57.818985
 20
-264.08484
 40
53.517822
 50
180.00001
 51
191.09158
  0
ARC
  8
0
  6
CONTINUOUS
 62
     7
 10
-85.007713
 20
-402.54297
 40
40.629536
 50
347.10244
 51
12.89756
  0
ARC
  8
0
  6
CONTINUOUS
 62
     7
 10
-106.18404
 20
-382.26437
 40
61.805862
 50
349.55043
 51
0
  0
ARC
  8
0
  6
CONTINUOUS
 62
     7
 10
-62.503162
 20
-405.6149
 40
6
 50
179.99999
 51
271.8321
  0
ARC
  8
0
  6
CONTINUOUS
 62
     7
 10
-50.743732
 20
-415.07584
 40
6.36552
 50
327.03126
 51
32.968736
  0
ARC
  8
0
  6
CONTINUOUS
 62
     7
 10
-62.311329
 20
-424.53983
 40
6
 50
90.000003
 51
150
  0
ARC
  8
0
  6
CONTINUOUS
 62
     7
 10
-62.503162
 20
-399.47104
 40
6
 50
88.167907
 51
180.00001
  0
ARC
  8
0
  6
CONTINUOUS
 62
     7
 10
-62.503162
 20
-417.60876
 40
6
 50
88.167907
 51
180.00001
  0
ARC
  8
0
  6
CONTINUOUS
 62
     7
 10
-62.503162
 20
-387.47717
 40
6
 50
179.99999
 51
271.8321
  0
ARC
  8
0
  6
CONTINUOUS
 62
     7
 10
-124.63973
 20
-409.59637
 40
54.761547
 50
347.10244
 51
12.89756
  0
ARC
  8
0
  6
CONTINUOUS
 62
     7
 10
-153.18175
 20
-382.26437
 40
83.303558
 50
349.55043
 51
360
  0
ARC
  8
0
  6
CONTINUOUS
 62
     7
 10
-78.457817
 20
-426.48849
 40
8.5796137
 50
327.03126
 51
32.968736
  0
ARC
  8
0
  6
CONTINUOUS
 62
     7
 10
-13.574666
 20
-382.26437
 40
83.303551
 50
179.99999
 51
190.44957
  0
ARC
  8
0
  6
CONTINUOUS
 62
     7
 10
-42.116657
 20
-409.59637
 40
54.761547
 50
167.10244
 51
192.89756
  0
ARC
  8
0
  6
CONTINUOUS
 62
     7
 10
-88.298576
 20
-426.48849
 40
8.5796137
 50
147.03127
 51
212.96874
  0
ARC
  8
0
  6
CONTINUOUS
 62
     7
 10
-65.216484
 20
-382.26437
 40
57.161694
 50
179.99999
 51
192.31963
  0
ARC
  8
0
  6
CONTINUOUS
 62
     7
 10
-107.59417
 20
-406.94611
 40
14.784032
 50
155.63912
 51
204.36089
  0
ARC
  8
0
  6
CONTINUOUS
 62
     7
 10
-154.53987
 20
-382.26437
 40
57.161694
 50
347.68037
 51
0
  0
ARC
  8
0
  6
CONTINUOUS
 62
     7
 10
-112.16222
 20
-406.94611
 40
14.784032
 50
335.63912
 51
24.360882
  0
ARC
  8
0
  6
CONTINUOUS
 62
     7
 10
-27.606192
 20
-637.68451
 40
6
 50
90.000003
 51
150
  0
ARC
  8
0
  6
CONTINUOUS
 62
     7
 10
-27.209158
 20
-606.37823
 40
6
 50
98.439323
 51
180.00001
  0
ARC
  8
0
  6
CONTINUOUS
 62
     7
 10
-83.242546
 20
-586.47162
 40
77.033394
 50
349.55043
 51
0
  0
ARC
  8
0
  6
CONTINUOUS
 62
     7
 10
-14.964805
 20
-627.36707
 40
8.6348906
 50
330
 51
30.000001
  0
ARC
  8
0
  6
CONTINUOUS
 62
     7
 10
-27.209158
 20
-628.98462
 40
6
 50
98.439323
 51
180.00001
  0
ARC
  8
0
  6
CONTINUOUS
 62
     7
 10
-56.848869
 20
-611.7464
 40
50.639709
 50
347.10244
 51
12.89756
  0
ARC
  8
0
  6
CONTINUOUS
 62
     7
 10
-27.209158
 20
-594.50818
 40
6
 50
179.99999
 51
261.56067
  0
ARC
  8
0
  6
CONTINUOUS
 62
     7
 10
-27.209158
 20
-617.11456
 40
6
 50
179.99999
 51
261.56067
  0
ARC
  8
0
  6
CONTINUOUS
 62
     7
 10
-102.65855
 20
-619.38763
 40
65.949394
 50
347.10244
 51
12.89756
  0
ARC
  8
0
  6
CONTINUOUS
 62
     7
 10
-55.876732
 20
-639.73077
 40
10.332438
 50
147.03127
 51
207.03127
  0
ARC
  8
0
  6
CONTINUOUS
 62
     7
 10
34.113411
 20
-586.47162
 40
100.32256
 50
179.99999
 51
190.44957
  0
ARC
  8
0
  6
CONTINUOUS
 62
     7
 10
-137.03171
 20
-586.47162
 40
100.32256
 50
349.55043
 51
360
  0
ARC
  8
0
  6
CONTINUOUS
 62
     7
 10
-47.041588
 20
-639.73077
 40
10.332438
 50
332.96873
 51
32.968736
  0
ARC
  8
0
  6
CONTINUOUS
 62
     7
 10
-0.25975659
 20
-619.38763
 40
65.949394
 50
167.10244
 51
192.89756
  0
ARC
  8
0
  6
CONTINUOUS
 62
     7
 10
-80.244133
 20
-618.94757
 40
17.500931
 50
156.56701
 51
203.43299
  0
ARC
  8
0
  6
CONTINUOUS
 62
     7
 10
-29.906393
 20
-586.47162
 40
67.838669
 50
179.99999
 51
191.84027
  0
ARC
  8
0
  6
CONTINUOUS
 62
     7
 10
-84.710075
 20
-618.94757
 40
17.500931
 50
336.56701
 51
23.432994
  0
ARC
  8
0
  6
CONTINUOUS
 62
     7
 10
-135.04782
 20
-586.47162
 40
67.838669
 50
348.15973
 51
360
  0
ARC
  8
0
  6
CONTINUOUS
 62
     7
 10
-191.88597
 20
43.613758
 40
4
 50
179.99999
 51
270
  0
ARC
  8
0
  6
CONTINUOUS
 62
     7
 10
-195.97934
 20
43.860432
 40
11.59337
 50
343.11152
 51
16.888485
  0
ARC
  8
0
  6
CONTINUOUS
 62
     7
 10
-207.32652
 20
54.113754
 40
22.940548
 50
348.0157
 51
8.6514222E-006
  0
ARC
  8
0
  6
CONTINUOUS
 62
     7
 10
-7.4963012
 20
39.584557
 40
17.064236
 50
346.09586
 51
13.904143
  0
ARC
  8
0
  6
CONTINUOUS
 62
     7
 10
-24.310541
 20
51.60537
 40
33.878471
 50
350.14412
 51
359.99999
  0
ARC
  8
0
  6
CONTINUOUS
 62
     7
 10
1.0679383
 20
39.60537
 40
5
 50
179.99999
 51
270
  0
ARC
  8
0
  6
CONTINUOUS
 62
     7
 10
-214.67319
 20
-90.721794
 40
22.249998
 50
347.83046
 51
12.169548
  0
ARC
  8
0
  6
CONTINUOUS
 62
     7
 10
-236.67316
 20
-75.518997
 40
44.249989
 50
351.37864
 51
359.99999
  0
ARC
  8
0
  6
CONTINUOUS
 62
     7
 10
-201.92319
 20
-92.018997
 40
5
 50
179.99999
 51
270
  0
ARC
  8
0
  6
CONTINUOUS
 62
     7
 10
-27.168505
 20
-95.450012
 40
38.125019
 50
350.71047
 51
9.2895166
  0
ARC
  8
0
  6
CONTINUOUS
 62
     7
 10
0.056517061
 20
-97.625893
 40
5
 50
179.99999
 51
270
  0
ARC
  8
0
  6
CONTINUOUS
 62
     7
 10
-65.043495
 20
-78.1259
 40
76.000023
 50
353.42412
 51
359.99999
  0
ARC
  8
0
  6
CONTINUOUS
 62
     7
 10
-162.06203
 20
-284.94449
 40
45.625206
 50
351.50982
 51
8.4901796
  0
ARC
  8
0
  6
CONTINUOUS
 62
     7
 10
-207.43721
 20
-264.08484
 40
91.000397
 50
353.99104
 51
359.99999
  0
ARC
  8
0
  6
CONTINUOUS
 62
     7
 10
-128.33681
 20
-287.58484
 40
6
 50
179.99999
 51
270
  0
ARC
  8
0
  6
CONTINUOUS
 62
     7
 10
-141.37819
 20
-408.26437
 40
8
 50
179.99999
 51
270
  0
ARC
  8
0
  6
CONTINUOUS
 62
     7
 10
-181.75319
 20
-406.306
 40
52.375008
 50
352.07669
 51
7.9233148
  0
ARC
  8
0
  6
CONTINUOUS
 62
     7
 10
-233.87819
 20
-382.26437
 40
104.50002
 50
354.3929
 51
359.99999
  0
ARC
  8
0
  6
CONTINUOUS
 62
     7
 10
-122.20916
 20
-619.47162
 40
8
 50
179.99999
 51
270
  0
ARC
  8
0
  6
CONTINUOUS
 62
     7
 10
-274.95877
 20
-586.47162
 40
168.24962
 50
355.58172
 51
5.0089565E-006
  0
ARC
  8
0
  6
CONTINUOUS
 62
     7
 10
-190.95895
 20
-615.46301
 40
84.249809
 50
353.75469
 51
6.2453013
  0
ARC
  8
0
  6
CONTINUOUS
 62
     7
 10
-166.38597
 20
54.113754
 40
12.499999
 50
156.92608
 51
179.99999
  0
ARC
  8
0
  6
CONTINUOUS
 62
     7
 10
-180.38597
 20
54.113754
 40
12.499999
 50
360
 51
23.073919
  0
ARC
  8
0
  6
CONTINUOUS
 62
     7
 10
-171.38597
 20
64.073044
 40
3.5
 50
315.58469
 51
44.41531
  0
ARC
  8
0
  6
CONTINUOUS
 62
     7
 10
-175.38597
 20
64.073044
 40
3.5
 50
135.58469
 51
224.4153
  0
ARC
  8
0
  6
CONTINUOUS
 62
     7
 10
-238.87442
 20
54.113754
 40
102.98846
 50
360
 51
5.7579391
  0
ARC
  8
0
  6
CONTINUOUS
 62
     7
 10
-145.01094
 20
61.472862
 40
3
 50
82.350594
 51
180.00001
  0
ARC
  8
0
  6
CONTINUOUS
 62
     7
 10
-145.01094
 20
67.419472
 40
3
 50
179.99999
 51
277.6494
  0
ARC
  8
0
  6
CONTINUOUS
 62
     7
 10
-145.01094
 20
57.087059
 40
3
 50
179.99999
 51
277.6494
  0
ARC
  8
0
  6
CONTINUOUS
 62
     7
 10
-140.12595
 20
66.479958
 40
4.2399731
 50
331.33609
 51
28.663913
  0
ARC
  8
0
  6
CONTINUOUS
 62
     7
 10
-144.48909
 20
71.513748
 40
3
 50
210
 51
270
  0
ARC
  8
0
  6
CONTINUOUS
 62
     7
 10
-191.88597
 20
64.613754
 40
4
 50
89.999996
 51
180.00001
  0
ARC
  8
0
  6
CONTINUOUS
 62
     7
 10
-195.97934
 20
64.367081
 40
11.59337
 50
343.11152
 51
16.888481
  0
ARC
  8
0
  6
CONTINUOUS
 62
     7
 10
-207.32652
 20
54.113754
 40
22.940548
 50
359.99999
 51
11.984296
  0
ARC
  8
0
  6
CONTINUOUS
 62
     7
 10
39.838509
 20
51.60537
 40
25.770571
 50
165.30261
 51
180.00001
  0
ARC
  8
0
  6
CONTINUOUS
 62
     7
 10
20.826788
 20
63.296707
 40
6.7588539
 50
151.07347
 51
208.92653
  0
ARC
  8
0
  6
CONTINUOUS
 62
     7
 10
50.44297
 20
55.603409
 40
4
 50
179.99999
 51
271.7558
  0
ARC
  8
0
  6
CONTINUOUS
 62
     7
 10
50.44297
 20
68.232033
 40
4
 50
179.99999
 51
268.2442
  0
ARC
  8
0
  6
CONTINUOUS
 62
     7
 10
50.44297
 20
60.235794
 40
4
 50
88.244207
 51
180.00001
  0
ARC
  8
0
  6
CONTINUOUS
 62
     7
 10
50.68647
 20
73.255371
 40
4
 50
210
 51
270
  0
ARC
  8
0
  6
CONTINUOUS
 62
     7
 10
-58.362984
 20
51.60537
 40
120.43096
 50
359.99996
 51
6.0191738
  0
ARC
  8
0
  6
CONTINUOUS
 62
     7
 10
56.988869
 20
66.744637
 40
5.0791154
 50
330.37483
 51
30.000001
  0
ARC
  8
0
  6
CONTINUOUS
 62
     7
 10
-7.4963012
 20
63.626183
 40
17.064236
 50
346.09586
 51
13.904139
  0
ARC
  8
0
  6
CONTINUOUS
 62
     7
 10
-24.310541
 20
51.60537
 40
33.878471
 50
8.6514222E-006
 51
9.8558759
  0
ARC
  8
0
  6
CONTINUOUS
 62
     7
 10
1.0679383
 20
63.60537
 40
5
 50
89.999996
 51
180.00001
  0
ARC
  8
0
  6
CONTINUOUS
 62
     7
 10
-155.30292
 20
-75.518997
 40
32.62027
 50
164.70962
 51
179.99999
  0
ARC
  8
0
  6
CONTINUOUS
 62
     7
 10
-179.25409
 20
-60.341858
 40
8.6691046
 50
150.08919
 51
209.9108
  0
ARC
  8
0
  6
CONTINUOUS
 62
     7
 10
-207.54346
 20
-75.518997
 40
32.62027
 50
360
 51
15.290376
  0
ARC
  8
0
  6
CONTINUOUS
 62
     7
 10
-183.59229
 20
-60.341858
 40
8.6691046
 50
330.08919
 51
29.910805
  0
ARC
  8
0
  6
CONTINUOUS
 62
     7
 10
-141.87531
 20
-56.598991
 40
5.9521313
 50
327.13503
 51
32.864971
  0
ARC
  8
0
  6
CONTINUOUS
 62
     7
 10
-148.92319
 20
-71.520645
 40
4
 50
179.99999
 51
271.64299
  0
ARC
  8
0
  6
CONTINUOUS
 62
     7
 10
-148.92319
 20
-63.827332
 40
4
 50
88.357021
 51
180.00001
  0
ARC
  8
0
  6
CONTINUOUS
 62
     7
 10
-148.92319
 20
-55.83062
 40
4
 50
179.99999
 51
271.64299
  0
ARC
  8
0
  6
CONTINUOUS
 62
     7
 10
-149.30466
 20
-49.368996
 40
4
 50
210
 51
270
  0
ARC
  8
0
  6
CONTINUOUS
 62
     7
 10
-265.6088
 20
-75.518997
 40
129.68559
 50
0
 51
6.9489568
  0
ARC
  8
0
  6
CONTINUOUS
 62
     7
 10
-214.67319
 20
-60.3162
 40
22.249998
 50
347.83045
 51
12.169544
  0
ARC
  8
0
  6
CONTINUOUS
 62
     7
 10
-236.67316
 20
-75.518997
 40
44.249989
 50
5.0089561E-006
 51
8.6213568
  0
ARC
  8
0
  6
CONTINUOUS
 62
     7
 10
-201.92319
 20
-59.018997
 40
5
 50
89.999996
 51
180.00001
  0
CIRCLE
  8
0
  6
CONTINUOUS
 62
     7
 10
-252.20935
 20
54.113754
 40
21.000004
  0
CIRCLE
  8
0
  6
CONTINUOUS
 62
     7
 10
-61.114201
 20
51.60537
 40
24.500021
  0
CIRCLE
  8
0
  6
CONTINUOUS
 62
     7
 10
-257.1441
 20
-75.518997
 40
29.500006
  0
CIRCLE
  8
0
  6
CONTINUOUS
 62
     7
 10
-226.38196
 20
-586.47162
 40
56
  0
CIRCLE
  8
0
  6
CONTINUOUS
 62
     7
 10
-225.33449
 20
-382.26437
 40
46.5
  0
CIRCLE
  8
0
  6
CONTINUOUS
 62
     7
 10
-225.33449
 20
-264.08484
 40
39
  0
CIRCLE
  8
0
  6
CONTINUOUS
 62
     7
 10
-69.447205
 20
-78.1259
 40
34.5
  0
ARC
  8
0
  6
CONTINUOUS
 62
     7
 10
68.431534
 20
-65.038345
 40
5
 50
179.99999
 51
263.17402
  0
ARC
  8
0
  6
CONTINUOUS
 62
     7
 10
68.431534
 20
-61.824188
 40
5
 50
96.825991
 51
180.00001
  0
ARC
  8
0
  6
CONTINUOUS
 62
     7
 10
68.46225
 20
-46.83934
 40
5
 50
210
 51
270
  0
ARC
  8
0
  6
CONTINUOUS
 62
     7
 10
67.335938
 20
-49.327087
 40
27.779415
 50
164.38671
 51
195.61327
  0
ARC
  8
0
  6
CONTINUOUS
 62
     7
 10
68.431534
 20
-74.967468
 40
5
 50
83.174007
 51
180.00001
  0
ARC
  8
0
  6
CONTINUOUS
 62
     7
 10
68.431534
 20
-51.895065
 40
5
 50
179.99999
 51
263.17402
  0
ARC
  8
0
  6
CONTINUOUS
 62
     7
 10
261.83044
 20
-78.1259
 40
222.27391
 50
174.4953
 51
180.00001
  0
ARC
  8
0
  6
CONTINUOUS
 62
     7
 10
33.7771
 20
-49.327087
 40
27.779415
 50
344.38672
 51
15.61328
  0
ARC
  8
0
  6
CONTINUOUS
 62
     7
 10
-160.71738
 20
-78.1259
 40
222.27391
 50
1.6471497E-007
 51
5.5047034
  0
ARC
  8
0
  6
CONTINUOUS
 62
     7
 10
38.269669
 20
-78.1259
 40
44.786858
 50
1.6480877E-007
 51
10.449569
  0
ARC
  8
0
  6
CONTINUOUS
 62
     7
 10
53.614822
 20
-63.431267
 40
29.441692
 50
347.10244
 51
12.89756
  0
ARC
  8
0
  6
CONTINUOUS
 62
     7
 10
78.443832
 20
-54.349487
 40
4.6126957
 50
327.03126
 51
32.968736
  0
ARC
  8
0
  6
CONTINUOUS
 62
     7
 10
27.165144
 20
-60.317543
 40
10.108621
 50
152.34651
 51
207.65349
  0
ARC
  8
0
  6
CONTINUOUS
 62
     7
 10
54.872971
 20
-78.1259
 40
37.816444
 50
165.80474
 51
180.00001
  0
ARC
  8
0
  6
CONTINUOUS
 62
     7
 10
1.2400802
 20
-78.1259
 40
37.816444
 50
360
 51
14.195258
  0
ARC
  8
0
  6
CONTINUOUS
 62
     7
 10
28.947905
 20
-60.317543
 40
10.108621
 50
332.34651
 51
27.653486
  0
ARC
  8
0
  6
CONTINUOUS
 62
     7
 10
-27.168505
 20
-60.801781
 40
38.125019
 50
350.71048
 51
9.2895268
  0
ARC
  8
0
  6
CONTINUOUS
 62
     7
 10
0.056517061
 20
-58.6259
 40
5
 50
89.999996
 51
180.00001
  0
ARC
  8
0
  6
CONTINUOUS
 62
     7
 10
-65.043495
 20
-78.1259
 40
76.000023
 50
5.0089561E-006
 51
6.575879
  0
ARC
  8
0
  6
CONTINUOUS
 62
     7
 10
-55.865524
 20
-228.64391
 40
6
 50
210
 51
270
  0
ARC
  8
0
  6
CONTINUOUS
 62
     7
 10
-91.498093
 20
-264.08484
 40
50.161278
 50
1.2985666E-013
 51
10.449569
  0
ARC
  8
0
  6
CONTINUOUS
 62
     7
 10
-74.311508
 20
-247.62686
 40
32.974697
 50
347.10244
 51
12.89756
  0
ARC
  8
0
  6
CONTINUOUS
 62
     7
 10
-46.503036
 20
-237.45528
 40
5.1662192
 50
327.03126
 51
32.968736
  0
ARC
  8
0
  6
CONTINUOUS
 62
     7
 10
-55.336807
 20
-260.96378
 40
6
 50
95.055333
 51
180.00001
  0
ARC
  8
0
  6
CONTINUOUS
 62
     7
 10
-55.336807
 20
-249.01044
 40
6
 50
179.99999
 51
264.94468
  0
ARC
  8
0
  6
CONTINUOUS
 62
     7
 10
-55.336807
 20
-246.24329
 40
6
 50
95.055333
 51
180.00001
  0
ARC
  8
0
  6
CONTINUOUS
 62
     7
 10
-55.336807
 20
-234.28998
 40
6
 50
179.99999
 51
264.94468
  0
ARC
  8
0
  6
CONTINUOUS
 62
     7
 10
-18.469316
 20
-264.08484
 40
69.867493
 50
169.55043
 51
180.00001
  0
ARC
  8
0
  6
CONTINUOUS
 62
     7
 10
-109.76585
 20
-241.16122
 40
45.929039
 50
347.10244
 51
12.89756
  0
ARC
  8
0
  6
CONTINUOUS
 62
     7
 10
-133.7043
 20
-264.08484
 40
69.867493
 50
0
 51
10.449569
  0
ARC
  8
0
  6
CONTINUOUS
 62
     7
 10
-81.141006
 20
-226.99365
 40
7.1958051
 50
147.03126
 51
212.96873
  0
ARC
  8
0
  6
CONTINUOUS
 62
     7
 10
-42.407791
 20
-241.16122
 40
45.929039
 50
167.10244
 51
192.89756
  0
ARC
  8
0
  6
CONTINUOUS
 62
     7
 10
-71.032608
 20
-226.99365
 40
7.1958051
 50
327.03126
 51
32.968736
  0
ARC
  8
0
  6
CONTINUOUS
 62
     7
 10
-103.09114
 20
-242.00121
 40
13.75433
 50
338.02088
 51
21.979122
  0
ARC
  8
0
  6
CONTINUOUS
 62
     7
 10
-142.85463
 20
-264.08484
 40
53.517822
 50
360
 51
11.091571
  0
ARC
  8
0
  6
CONTINUOUS
 62
     7
 10
-97.582474
 20
-242.00121
 40
13.75433
 50
158.02088
 51
201.97912
  0
ARC
  8
0
  6
CONTINUOUS
 62
     7
 10
-57.818985
 20
-264.08484
 40
53.517822
 50
168.90842
 51
179.99999
  0
ARC
  8
0
  6
CONTINUOUS
 62
     7
 10
-162.06203
 20
-243.2252
 40
45.625206
 50
351.50982
 51
8.4901761
  0
ARC
  8
0
  6
CONTINUOUS
 62
     7
 10
-207.43721
 20
-264.08484
 40
91.000397
 50
5.0089561E-006
 51
6.0089597
  0
ARC
  8
0
  6
CONTINUOUS
 62
     7
 10
-128.33681
 20
-240.58485
 40
6
 50
89.999996
 51
180.00001
  0
ARC
  8
0
  6
CONTINUOUS
 62
     7
 10
-85.007713
 20
-361.98578
 40
40.629536
 50
347.10244
 51
12.89756
  0
ARC
  8
0
  6
CONTINUOUS
 62
     7
 10
-106.18404
 20
-382.26437
 40
61.805862
 50
0
 51
10.449569
  0
ARC
  8
0
  6
CONTINUOUS
 62
     7
 10
-62.503162
 20
-358.91385
 40
6
 50
88.167907
 51
180.00001
  0
ARC
  8
0
  6
CONTINUOUS
 62
     7
 10
-50.743732
 20
-349.45291
 40
6.36552
 50
327.03126
 51
32.968736
  0
ARC
  8
0
  6
CONTINUOUS
 62
     7
 10
-62.311329
 20
-339.98892
 40
6
 50
210
 51
270
  0
ARC
  8
0
  6
CONTINUOUS
 62
     7
 10
-62.503162
 20
-365.05771
 40
6
 50
179.99999
 51
271.8321
  0
ARC
  8
0
  6
CONTINUOUS
 62
     7
 10
-62.503162
 20
-346.91998
 40
6
 50
179.99999
 51
271.8321
  0
ARC
  8
0
  6
CONTINUOUS
 62
     7
 10
-62.503162
 20
-377.05157
 40
6
 50
88.167907
 51
180.00001
  0
ARC
  8
0
  6
CONTINUOUS
 62
     7
 10
-124.63973
 20
-354.93237
 40
54.761547
 50
347.10244
 51
12.89756
  0
ARC
  8
0
  6
CONTINUOUS
 62
     7
 10
-153.18175
 20
-382.26437
 40
83.303558
 50
3.7172661E-007
 51
10.449569
  0
ARC
  8
0
  6
CONTINUOUS
 62
     7
 10
-78.457817
 20
-338.04025
 40
8.5796137
 50
327.03126
 51
32.968736
  0
ARC
  8
0
  6
CONTINUOUS
 62
     7
 10
-13.574666
 20
-382.26437
 40
83.303551
 50
169.55043
 51
180.00001
  0
ARC
  8
0
  6
CONTINUOUS
 62
     7
 10
-42.116657
 20
-354.93237
 40
54.761547
 50
167.10244
 51
192.89756
  0
ARC
  8
0
  6
CONTINUOUS
 62
     7
 10
-88.298576
 20
-338.04025
 40
8.5796137
 50
147.03126
 51
212.96873
  0
ARC
  8
0
  6
CONTINUOUS
 62
     7
 10
-65.216484
 20
-382.26437
 40
57.161694
 50
167.68037
 51
180.00001
  0
ARC
  8
0
  6
CONTINUOUS
 62
     7
 10
-107.59417
 20
-357.58264
 40
14.784032
 50
155.63911
 51
204.36087
  0
ARC
  8
0
  6
CONTINUOUS
 62
     7
 10
-154.53987
 20
-382.26437
 40
57.161694
 50
0
 51
12.319629
  0
ARC
  8
0
  6
CONTINUOUS
 62
     7
 10
-112.16222
 20
-357.58264
 40
14.784032
 50
335.63912
 51
24.360882
  0
ARC
  8
0
  6
CONTINUOUS
 62
     7
 10
-141.37819
 20
-356.26437
 40
8
 50
89.999996
 51
180.00001
  0
ARC
  8
0
  6
CONTINUOUS
 62
     7
 10
-181.75319
 20
-358.22275
 40
52.375008
 50
352.07669
 51
7.9233114
  0
ARC
  8
0
  6
CONTINUOUS
 62
     7
 10
-233.87819
 20
-382.26437
 40
104.50002
 50
5.0089561E-006
 51
5.6070987
  0
ARC
  8
0
  6
CONTINUOUS
 62
     7
 10
-27.606192
 20
-535.25879
 40
6
 50
210
 51
270
  0
ARC
  8
0
  6
CONTINUOUS
 62
     7
 10
-27.209158
 20
-566.56506
 40
6
 50
179.99999
 51
261.56067
  0
ARC
  8
0
  6
CONTINUOUS
 62
     7
 10
-83.242546
 20
-586.47162
 40
77.033394
 50
0
 51
10.449569
  0
ARC
  8
0
  6
CONTINUOUS
 62
     7
 10
-14.964805
 20
-545.57623
 40
8.6348906
 50
330
 51
30.000001
  0
ARC
  8
0
  6
CONTINUOUS
 62
     7
 10
-27.209158
 20
-543.95862
 40
6
 50
179.99999
 51
261.56067
  0
ARC
  8
0
  6
CONTINUOUS
 62
     7
 10
-56.848869
 20
-561.1969
 40
50.639709
 50
347.10244
 51
12.89756
  0
ARC
  8
0
  6
CONTINUOUS
 62
     7
 10
-27.209158
 20
-578.43512
 40
6
 50
98.43933
 51
180.00001
  0
ARC
  8
0
  6
CONTINUOUS
 62
     7
 10
-27.209158
 20
-555.82867
 40
6
 50
98.43933
 51
180.00001
  0
ARC
  8
0
  6
CONTINUOUS
 62
     7
 10
-102.65855
 20
-553.55566
 40
65.949394
 50
347.10244
 51
12.89756
  0
ARC
  8
0
  6
CONTINUOUS
 62
     7
 10
-55.876732
 20
-533.21246
 40
10.332438
 50
152.96873
 51
212.96873
  0
ARC
  8
0
  6
CONTINUOUS
 62
     7
 10
34.113411
 20
-586.47162
 40
100.32256
 50
169.55043
 51
180.00001
  0
ARC
  8
0
  6
CONTINUOUS
 62
     7
 10
-137.03171
 20
-586.47162
 40
100.32256
 50
1.1398245E-007
 51
10.449569
  0
ARC
  8
0
  6
CONTINUOUS
 62
     7
 10
-47.041588
 20
-533.21246
 40
10.332438
 50
327.03126
 51
27.031266
  0
ARC
  8
0
  6
CONTINUOUS
 62
     7
 10
-0.25975659
 20
-553.55566
 40
65.949394
 50
167.10244
 51
192.89756
  0
ARC
  8
0
  6
CONTINUOUS
 62
     7
 10
-80.244133
 20
-553.99567
 40
17.500931
 50
156.56701
 51
203.43299
  0
ARC
  8
0
  6
CONTINUOUS
 62
     7
 10
-29.906393
 20
-586.47162
 40
67.838669
 50
168.15972
 51
180.00001
  0
ARC
  8
0
  6
CONTINUOUS
 62
     7
 10
-84.710075
 20
-553.99567
 40
17.500931
 50
336.56701
 51
23.432994
  0
ARC
  8
0
  6
CONTINUOUS
 62
     7
 10
-135.04782
 20
-586.47162
 40
67.838669
 50
1.0440535E-006
 51
11.840273
  0
ARC
  8
0
  6
CONTINUOUS
 62
     7
 10
-122.20916
 20
-553.47162
 40
8
 50
90.000003
 51
180.00001
  0
ARC
  8
0
  6
CONTINUOUS
 62
     7
 10
-274.95877
 20
-586.47162
 40
168.24962
 50
359.99999
 51
4.4182803
  0
ARC
  8
0
  6
CONTINUOUS
 62
     7
 10
-190.95895
 20
-557.48029
 40
84.249809
 50
353.7547
 51
6.2453115
  0
POLYLINE
  8
0
  6
CONTINUOUS
 62
     7
 66
     1
 10
0
 20
0
  0
VERTEX
  8
0
  6
CONTINUOUS
 62
     7
 10
-173.0199
 20
-75.518997
 42
0.039940678
  0
VERTEX
  8
0
  6
CONTINUOUS
 62
     7
 10
-174.26287
 20
-83.010423
 42
0.042210471
  0
VERTEX
  8
0
  6
CONTINUOUS
 62
     7
 10
-174.26294
 20
-90.605042
 42
0.039945269
  0
VERTEX
  8
0
  6
CONTINUOUS
 62
     7
 10
-173.0199
 20
-98.097321
 42
0
  0
SEQEND
  8
0
  0
POLYLINE
  8
0
  6
CONTINUOUS
 62
     7
 66
     1
 10
0
 20
0
  0
VERTEX
  8
0
  6
CONTINUOUS
 62
     7
 10
-173.0199
 20
-98.097321
 42
0.038482871
  0
VERTEX
  8
0
  6
CONTINUOUS
 62
     7
 10
-173.75739
 20
-99.568878
 42
0.043870401
  0
VERTEX
  8
0
  6
CONTINUOUS
 62
     7
 10
-174.24499
 20
-101.13983
 42
0.052694742
  0
VERTEX
  8
0
  6
CONTINUOUS
 62
     7
 10
-174.42319
 20
-102.77342
 42
0
  0
SEQEND
  8
0
  0
POLYLINE
  8
0
  6
CONTINUOUS
 62
     7
 66
     1
 10
0
 20
0
  0
VERTEX
  8
0
  6
CONTINUOUS
 62
     7
 10
-155.82648
 20
-98.097321
 42
-0.038482871
  0
VERTEX
  8
0
  6
CONTINUOUS
 62
     7
 10
-155.08898
 20
-99.568878
 42
-0.043870401
  0
VERTEX
  8
0
  6
CONTINUOUS
 62
     7
 10
-154.60139
 20
-101.13983
 42
-0.052694742
  0
VERTEX
  8
0
  6
CONTINUOUS
 62
     7
 10
-154.42319
 20
-102.77342
 42
0
  0
SEQEND
  8
0
  0
POLYLINE
  8
0
  6
CONTINUOUS
 62
     7
 66
     1
 10
0
 20
0
  0
VERTEX
  8
0
  6
CONTINUOUS
 62
     7
 10
-155.82648
 20
-75.518997
 42
-0.039940678
  0
VERTEX
  8
0
  6
CONTINUOUS
 62
     7
 10
-154.58351
 20
-83.010423
 42
-0.042210471
  0
VERTEX
  8
0
  6
CONTINUOUS
 62
     7
 10
-154.58344
 20
-90.605042
 42
-0.039945269
  0
VERTEX
  8
0
  6
CONTINUOUS
 62
     7
 10
-155.82648
 20
-98.097321
 42
0
  0
SEQEND
  8
0
  0
POLYLINE
  8
0
  6
CONTINUOUS
 62
     7
 66
     1
 10
0
 20
0
  0
VERTEX
  8
0
  6
CONTINUOUS
 62
     7
 10
-164.88702
 20
54.113754
 42
0.039941052
  0
VERTEX
  8
0
  6
CONTINUOUS
 62
     7
 10
-165.77185
 20
48.78087
 42
0.042209849
  0
VERTEX
  8
0
  6
CONTINUOUS
 62
     7
 10
-165.7719
 20
43.374522
 42
0.039945596
  0
VERTEX
  8
0
  6
CONTINUOUS
 62
     7
 10
-164.88702
 20
38.041035
 42
0
  0
SEQEND
  8
0
  0
POLYLINE
  8
0
  6
CONTINUOUS
 62
     7
 66
     1
 10
0
 20
0
  0
VERTEX
  8
0
  6
CONTINUOUS
 62
     7
 10
-164.88702
 20
38.041035
 42
0.038483743
  0
VERTEX
  8
0
  6
CONTINUOUS
 62
     7
 10
-165.41202
 20
36.993486
 42
0.043870707
  0
VERTEX
  8
0
  6
CONTINUOUS
 62
     7
 10
-165.75912
 20
35.875181
 42
0.052696959
  0
VERTEX
  8
0
  6
CONTINUOUS
 62
     7
 10
-165.88597
 20
34.712284
 42
0
  0
SEQEND
  8
0
  0
POLYLINE
  8
0
  6
CONTINUOUS
 62
     7
 66
     1
 10
0
 20
0
  0
VERTEX
  8
0
  6
CONTINUOUS
 62
     7
 10
-149.88493
 20
38.041035
 42
-0.038482404
  0
VERTEX
  8
0
  6
CONTINUOUS
 62
     7
 10
-149.35993
 20
36.993486
 42
-0.043870594
  0
VERTEX
  8
0
  6
CONTINUOUS
 62
     7
 10
-149.01283
 20
35.875181
 42
-0.0526984
  0
VERTEX
  8
0
  6
CONTINUOUS
 62
     7
 10
-148.88597
 20
34.712284
 42
0
  0
SEQEND
  8
0
  0
POLYLINE
  8
0
  6
CONTINUOUS
 62
     7
 66
     1
 10
0
 20
0
  0
VERTEX
  8
0
  6
CONTINUOUS
 62
     7
 10
-149.88493
 20
54.113754
 42
-0.039940421
  0
VERTEX
  8
0
  6
CONTINUOUS
 62
     7
 10
-149.0001
 20
48.78087
 42
-0.042211314
  0
VERTEX
  8
0
  6
CONTINUOUS
 62
     7
 10
-149.00005
 20
43.374522
 42
-0.039944963
  0
VERTEX
  8
0
  6
CONTINUOUS
 62
     7
 10
-149.88493
 20
38.041035
 42
0
  0
SEQEND
  8
0
  0
POLYLINE
  8
0
  6
CONTINUOUS
 62
     7
 66
     1
 10
0
 20
0
  0
VERTEX
  8
0
  6
CONTINUOUS
 62
     7
 10
43.402473
 20
51.60537
 42
-0.039941353
  0
VERTEX
  8
0
  6
CONTINUOUS
 62
     7
 10
44.434788
 20
45.383671
 42
-0.042211346
  0
VERTEX
  8
0
  6
CONTINUOUS
 62
     7
 10
44.434847
 20
39.076252
 42
-0.039945837
  0
VERTEX
  8
0
  6
CONTINUOUS
 62
     7
 10
43.402473
 20
32.853859
 42
0
  0
SEQEND
  8
0
  0
POLYLINE
  8
0
  6
CONTINUOUS
 62
     7
 66
     1
 10
0
 20
0
  0
VERTEX
  8
0
  6
CONTINUOUS
 62
     7
 10
43.402473
 20
32.853859
 42
-0.038483445
  0
VERTEX
  8
0
  6
CONTINUOUS
 62
     7
 10
44.014983
 20
31.631714
 42
-0.04387121
  0
VERTEX
  8
0
  6
CONTINUOUS
 62
     7
 10
44.419941
 20
30.32702
 42
-0.052696052
  0
VERTEX
  8
0
  6
CONTINUOUS
 62
     7
 10
44.56794
 20
28.970299
 42
0
  0
SEQEND
  8
0
  0
POLYLINE
  8
0
  6
CONTINUOUS
 62
     7
 66
     1
 10
0
 20
0
  0
VERTEX
  8
0
  6
CONTINUOUS
 62
     7
 10
27.233404
 20
32.853859
 42
0.038483445
  0
VERTEX
  8
0
  6
CONTINUOUS
 62
     7
 10
26.620894
 20
31.631714
 42
0.04387121
  0
VERTEX
  8
0
  6
CONTINUOUS
 62
     7
 10
26.215936
 20
30.32702
 42
0.052696052
  0
VERTEX
  8
0
  6
CONTINUOUS
 62
     7
 10
26.067938
 20
28.970299
 42
0
  0
SEQEND
  8
0
  0
POLYLINE
  8
0
  6
CONTINUOUS
 62
     7
 66
     1
 10
0
 20
0
  0
VERTEX
  8
0
  6
CONTINUOUS
 62
     7
 10
27.233404
 20
51.60537
 42
0.039941353
  0
VERTEX
  8
0
  6
CONTINUOUS
 62
     7
 10
26.201089
 20
45.383671
 42
0.042211346
  0
VERTEX
  8
0
  6
CONTINUOUS
 62
     7
 10
26.201031
 20
39.076252
 42
0.039945837
  0
VERTEX
  8
0
  6
CONTINUOUS
 62
     7
 10
27.233404
 20
32.853859
 42
0
  0
SEQEND
  8
0
  0
POLYLINE
  8
0
  6
CONTINUOUS
 62
     7
 66
     1
 10
0
 20
0
  0
VERTEX
  8
0
  6
CONTINUOUS
 62
     7
 10
-164.88702
 20
54.113754
 42
-0.039941048
  0
VERTEX
  8
0
  6
CONTINUOUS
 62
     7
 10
-165.77185
 20
59.44664
 42
-0.042209855
  0
VERTEX
  8
0
  6
CONTINUOUS
 62
     7
 10
-165.7719
 20
64.852991
 42
-0.039945592
  0
VERTEX
  8
0
  6
CONTINUOUS
 62
     7
 10
-164.88702
 20
70.186478
 42
0
  0
SEQEND
  8
0
  0
POLYLINE
  8
0
  6
CONTINUOUS
 62
     7
 66
     1
 10
0
 20
0
  0
VERTEX
  8
0
  6
CONTINUOUS
 62
     7
 10
-164.88702
 20
70.186478
 42
-0.038483743
  0
VERTEX
  8
0
  6
CONTINUOUS
 62
     7
 10
-165.41202
 20
71.234027
 42
-0.043870707
  0
VERTEX
  8
0
  6
CONTINUOUS
 62
     7
 10
-165.75912
 20
72.352332
 42
-0.052696959
  0
VERTEX
  8
0
  6
CONTINUOUS
 62
     7
 10
-165.88597
 20
73.515228
 42
0
  0
SEQEND
  8
0
  0
POLYLINE
  8
0
  6
CONTINUOUS
 62
     7
 66
     1
 10
0
 20
0
  0
VERTEX
  8
0
  6
CONTINUOUS
 62
     7
 10
-149.88493
 20
70.186478
 42
0.038482404
  0
VERTEX
  8
0
  6
CONTINUOUS
 62
     7
 10
-149.35993
 20
71.234027
 42
0.043870594
  0
VERTEX
  8
0
  6
CONTINUOUS
 62
     7
 10
-149.01283
 20
72.352331
 42
0.0526984
  0
VERTEX
  8
0
  6
CONTINUOUS
 62
     7
 10
-148.88597
 20
73.515228
 42
0
  0
SEQEND
  8
0
  0
POLYLINE
  8
0
  6
CONTINUOUS
 62
     7
 66
     1
 10
0
 20
0
  0
VERTEX
  8
0
  6
CONTINUOUS
 62
     7
 10
-149.88493
 20
54.113754
 42
0.039940417
  0
VERTEX
  8
0
  6
CONTINUOUS
 62
     7
 10
-149.0001
 20
59.44664
 42
0.04221132
  0
VERTEX
  8
0
  6
CONTINUOUS
 62
     7
 10
-149.00005
 20
64.852991
 42
0.039944958
  0
VERTEX
  8
0
  6
CONTINUOUS
 62
     7
 10
-149.88493
 20
70.186478
 42
0
  0
SEQEND
  8
0
  0
POLYLINE
  8
0
  6
CONTINUOUS
 62
     7
 66
     1
 10
0
 20
0
  0
VERTEX
  8
0
  6
CONTINUOUS
 62
     7
 10
43.402473
 20
51.60537
 42
0.039941353
  0
VERTEX
  8
0
  6
CONTINUOUS
 62
     7
 10
44.434788
 20
57.827069
 42
0.042211346
  0
VERTEX
  8
0
  6
CONTINUOUS
 62
     7
 10
44.434847
 20
64.134487
 42
0.039945837
  0
VERTEX
  8
0
  6
CONTINUOUS
 62
     7
 10
43.402473
 20
70.35688
 42
0
  0
SEQEND
  8
0
  0
POLYLINE
  8
0
  6
CONTINUOUS
 62
     7
 66
     1
 10
0
 20
0
  0
VERTEX
  8
0
  6
CONTINUOUS
 62
     7
 10
43.402473
 20
70.35688
 42
0.038483445
  0
VERTEX
  8
0
  6
CONTINUOUS
 62
     7
 10
44.014983
 20
71.579025
 42
0.04387121
  0
VERTEX
  8
0
  6
CONTINUOUS
 62
     7
 10
44.419941
 20
72.88372
 42
0.052696052
  0
VERTEX
  8
0
  6
CONTINUOUS
 62
     7
 10
44.56794
 20
74.24044
 42
0
  0
SEQEND
  8
0
  0
POLYLINE
  8
0
  6
CONTINUOUS
 62
     7
 66
     1
 10
0
 20
0
  0
VERTEX
  8
0
  6
CONTINUOUS
 62
     7
 10
27.233404
 20
70.35688
 42
-0.038483445
  0
VERTEX
  8
0
  6
CONTINUOUS
 62
     7
 10
26.620894
 20
71.579025
 42
-0.04387121
  0
VERTEX
  8
0
  6
CONTINUOUS
 62
     7
 10
26.215936
 20
72.88372
 42
-0.052696052
  0
VERTEX
  8
0
  6
CONTINUOUS
 62
     7
 10
26.067938
 20
74.24044
 42
0
  0
SEQEND
  8
0
  0
POLYLINE
  8
0
  6
CONTINUOUS
 62
     7
 66
     1
 10
0
 20
0
  0
VERTEX
  8
0
  6
CONTINUOUS
 62
     7
 10
27.233404
 20
51.60537
 42
-0.039941353
  0
VERTEX
  8
0
  6
CONTINUOUS
 62
     7
 10
26.201089
 20
57.827069
 42
-0.042211346
  0
VERTEX
  8
0
  6
CONTINUOUS
 62
     7
 10
26.201031
 20
64.134487
 42
-0.039945837
  0
VERTEX
  8
0
  6
CONTINUOUS
 62
     7
 10
27.233404
 20
70.35688
 42
0
  0
SEQEND
  8
0
  0
POLYLINE
  8
0
  6
CONTINUOUS
 62
     7
 66
     1
 10
0
 20
0
  0
VERTEX
  8
0
  6
CONTINUOUS
 62
     7
 10
-173.0199
 20
-75.518997
 42
-0.039940678
  0
VERTEX
  8
0
  6
CONTINUOUS
 62
     7
 10
-174.26287
 20
-68.027571
 42
-0.042210471
  0
VERTEX
  8
0
  6
CONTINUOUS
 62
     7
 10
-174.26294
 20
-60.432952
 42
-0.039945269
  0
VERTEX
  8
0
  6
CONTINUOUS
 62
     7
 10
-173.0199
 20
-52.940674
 42
0
  0
SEQEND
  8
0
  0
POLYLINE
  8
0
  6
CONTINUOUS
 62
     7
 66
     1
 10
0
 20
0
  0
VERTEX
  8
0
  6
CONTINUOUS
 62
     7
 10
-173.0199
 20
-52.940674
 42
-0.038482871
  0
VERTEX
  8
0
  6
CONTINUOUS
 62
     7
 10
-173.75739
 20
-51.469116
 42
-0.043870401
  0
VERTEX
  8
0
  6
CONTINUOUS
 62
     7
 10
-174.24499
 20
-49.898165
 42
-0.052694742
  0
VERTEX
  8
0
  6
CONTINUOUS
 62
     7
 10
-174.42319
 20
-48.264572
 42
0
  0
SEQEND
  8
0
  0
POLYLINE
  8
0
  6
CONTINUOUS
 62
     7
 66
     1
 10
0
 20
0
  0
VERTEX
  8
0
  6
CONTINUOUS
 62
     7
 10
-155.82648
 20
-52.940674
 42
0.038482871
  0
VERTEX
  8
0
  6
CONTINUOUS
 62
     7
 10
-155.08898
 20
-51.469116
 42
0.043870401
  0
VERTEX
  8
0
  6
CONTINUOUS
 62
     7
 10
-154.60139
 20
-49.898165
 42
0.052694742
  0
VERTEX
  8
0
  6
CONTINUOUS
 62
     7
 10
-154.42319
 20
-48.264572
 42
0
  0
SEQEND
  8
0
  0
POLYLINE
  8
0
  6
CONTINUOUS
 62
     7
 66
     1
 10
0
 20
0
  0
VERTEX
  8
0
  6
CONTINUOUS
 62
     7
 10
-155.82648
 20
-75.518997
 42
0.039940678
  0
VERTEX
  8
0
  6
CONTINUOUS
 62
     7
 10
-154.58351
 20
-68.027571
 42
0.042210471
  0
VERTEX
  8
0
  6
CONTINUOUS
 62
     7
 10
-154.58344
 20
-60.432952
 42
0.039945269
  0
VERTEX
  8
0
  6
CONTINUOUS
 62
     7
 10
-155.82648
 20
-52.940674
 42
0
  0
SEQEND
  8
0
  0
TEXT
  8
0
  6
CONTINUOUS
 62
     7
 10
-282.77682
 20
118.76988
 40
8
 41
0.84210156
  1
コマサスフィット継手　絶縁ユニオン　ＳＧＰ管用
  0
TEXT
  8
0
  6
CONTINUOUS
 62
     7
 10
-227.38414
 20
-24.924566
 40
8
 41
0.85127006
  1
２５Ｘ１
  0
TEXT
  8
0
  6
CONTINUOUS
 62
     7
 10
-236.53949
 20
89.060616
 40
8
 41
0.84741103
  1
１３Ｘ１／２
  0
TEXT
  8
0
  6
CONTINUOUS
 62
     7
 10
-47.973627
 20
92.536484
 40
8
 41
0.84741103
  1
２０Ｘ３／４
  0
TEXT
  8
0
  6
CONTINUOUS
 62
     7
 10
-51.163504
 20
-22.066933
 40
8
 41
0.84634979
  1
３０Ｘ１１／４
  0
TEXT
  8
0
  6
CONTINUOUS
 62
     7
 10
-186.90102
 20
-197.33504
 40
8
 41
0.84634979
  1
４０Ｘ１１／２
  0
TEXT
  8
0
  6
CONTINUOUS
 62
     7
 10
-178.32813
 20
-324.02338
 40
8
 41
0.85127006
  1
５０Ｘ２
  0
TEXT
  8
0
  6
CONTINUOUS
 62
     7
 10
-178.3187
 20
-508.78873
 40
8
 41
0.84634979
  1
６０Ｘ２１／２
  0
POINT
  8
1
  6
CONTINUOUS
 62
     7
 10
-311.3107
 20
-470.71918
  0
POINT
  8
1
  6
CONTINUOUS
 62
     7
 10
-311.3107
 20
-153.71919
  0
POINT
  8
1
  6
CONTINUOUS
 62
     7
 10
-311.3107
 20
-767.71918
  0
POINT
  8
1
  6
CONTINUOUS
 62
     7
 10
108.68929
 20
-153.71919
  0
POINT
  8
1
  6
CONTINUOUS
 62
     7
 10
-311.3107
 20
-777.71918
  0
POINT
  8
1
  6
CONTINUOUS
 62
     7
 10
-311.3107
 20
143.28081
  0
POINT
  8
1
  6
CONTINUOUS
 62
     7
 10
-311.3107
 20
-153.71919
  0
POINT
  8
1
  6
CONTINUOUS
 62
     7
 10
-311.3107
 20
-163.71919
  0
POINT
  8
1
  6
CONTINUOUS
 62
     7
 10
-311.3107
 20
-163.71919
  0
POINT
  8
1
  6
CONTINUOUS
 62
     7
 10
-311.3107
 20
-460.71918
  0
POINT
  8
1
  6
CONTINUOUS
 62
     7
 10
-311.3107
 20
-470.71918
  0
LINE
  8
1
  6
CONTINUOUS
 62
     7
 10
108.68929
 20
143.28081
 11
108.68929
 21
-33.714287
  0
LINE
  8
1
  6
CONTINUOUS
 62
     2
 10
-311.3107
 20
-470.71918
 11
108.68929
 21
-470.71918
  0
LINE
  8
1
  6
CONTINUOUS
 62
     2
 10
-311.3107
 20
-470.71918
 11
-311.3107
 21
-767.71918
  0
LINE
  8
1
  6
CONTINUOUS
 62
     2
 10
-311.3107
 20
-767.71918
 11
108.68929
 21
-767.71918
  0
LINE
  8
1
  6
CONTINUOUS
 62
     2
 10
108.68929
 20
-470.71918
 11
108.68929
 21
-767.71918
  0
LINE
  8
1
  6
CONTINUOUS
 62
     2
 10
-311.3107
 20
143.28081
 11
-311.3107
 21
-153.71919
  0
LINE
  8
1
  6
CONTINUOUS
 62
     2
 10
-311.3107
 20
-153.71919
 11
108.68929
 21
-153.71919
  0
LINE
  8
1
  6
CONTINUOUS
 62
     2
 10
108.68929
 20
143.28081
 11
108.68929
 21
-153.71919
  0
LINE
  8
1
  6
CONTINUOUS
 62
     2
 10
-311.3107
 20
143.28081
 11
108.68929
 21
143.28081
  0
LINE
  8
1
  6
CONTINUOUS
 62
     2
 10
-311.3107
 20
-163.71919
 11
-311.3107
 21
-460.71918
  0
LINE
  8
1
  6
CONTINUOUS
 62
     2
 10
-311.3107
 20
-460.71918
 11
108.68929
 21
-460.71918
  0
LINE
  8
1
  6
CONTINUOUS
 62
     2
 10
108.68929
 20
-163.71919
 11
108.68929
 21
-460.71918
  0
LINE
  8
1
  6
CONTINUOUS
 62
     2
 10
-311.3107
 20
-163.71919
 11
108.68929
 21
-163.71919
  0
ENDSEC
  0
EOF
