  0
SECTION
  2
HEADER
  9
$EXTMAX
 10
108.92817
 20
144.14287
  9
$EXTMIN
 10
-311.07183
 20
-153.71428
  0
ENDSEC
  0
SECTION
  2
TABLES
  0
TABLE
  2
LTYPE
 70
    22
  0
LTYPE
  2
CONTINUOUS
 70
    64
  3
Solid line
 72
    65
 73
     0
 40
0.000000
  0
LTYPE
  2
DASHED
 70
    64
  3
__ __ __ __ __ __ __ __ __ __ __ __ __ __ __
 72
    65
 73
     2
 40
3.500000
 49
2.000000
 49
-1.500000
  0
LTYPE
  2
CENTER
 70
    64
  3
____ _ ____ _ ____ _ ____ _ ____ _ ____ _ ____
 72
    65
 73
     4
 40
17.500000
 49
13.000000
 49
-1.500000
 49
1.500000
 49
-1.500000
  0
LTYPE
  2
PHANTOM
 70
    64
  3
_____ _ _ _____ _ _ _____ _ _ _____ _ _ ____  
 72
    65
 73
     6
 40
15.500000
 49
8.000000
 49
-1.500000
 49
1.500000
 49
-1.500000
 49
1.500000
 49
-1.500000
  0
LTYPE
  2
DOT
 70
    64
  3
. . . . . . . . . . . . . . . . . . . . . . . .
 72
    65
 73
     2
 40
0.25
 49
0.0
 49
-0.25
  0
ENDTAB
  0
TABLE
  2
LAYER
 70
     2
  0
LAYER
  2
0
 70
     0
 62
     7
  6
CONTINUOUS
  0
LAYER
  2
1
 70
     0
 62
     7
  6
CONTINUOUS
  0
ENDTAB
  0
TABLE
  2
STYLE
 70
     1
  0
STYLE
  2
STANDARD
 70
     0
 40
0.000000
 41
1.000000
 50
0.000000
 71
     0
 42
0.200000
  3
txt
  4
BIGFONT
  0
ENDTAB
  0
TABLE
  2
VIEW
 70
     0
  0
ENDTAB
  0
ENDSEC
  0
SECTION
  2
BLOCKS
  0
ENDSEC
  0
SECTION
  2
ENTITIES
  0
POINT
  8
0
  6
CONTINUOUS
 62
     7
 10
-61.071651
 20
9.4796162
  0
POINT
  8
0
  6
CONTINUOUS
 62
     7
 10
-181.07166
 20
-70.520386
  0
POINT
  8
0
  6
CONTINUOUS
 62
     7
 10
-181.07166
 20
9.4796162
  0
POINT
  8
0
  6
CONTINUOUS
 62
     7
 10
-61.071651
 20
9.4796162
  0
LINE
  8
0
  6
CONTINUOUS
 62
     7
 10
-45.37698
 20
9.4796143
 11
-49.973846
 21
20.577433
  0
LINE
  8
0
  6
CONTINUOUS
 62
     7
 10
-49.973824
 20
20.577436
 11
-61.071659
 21
25.174311
  0
LINE
  8
0
  6
CONTINUOUS
 62
     7
 10
-72.169456
 20
20.577435
 11
-61.071655
 21
25.174295
  0
LINE
  8
0
  6
CONTINUOUS
 62
     7
 10
-76.766342
 20
9.4796219
 11
-72.169472
 21
20.57744
  0
LINE
  8
0
  6
CONTINUOUS
 62
     7
 10
-72.169487
 20
-1.6182071
 11
-76.766357
 21
9.4796114
  0
LINE
  8
0
  6
CONTINUOUS
 62
     7
 10
-61.071644
 20
-6.2150702
 11
-72.169479
 21
-1.6181961
  0
LINE
  8
0
  6
CONTINUOUS
 62
     7
 10
-49.973835
 20
-1.6182107
 11
-61.07164
 21
-6.2150717
  0
LINE
  8
0
  6
CONTINUOUS
 62
     7
 10
-45.376965
 20
9.4796181
 11
-49.973831
 21
-1.6181996
  0
LINE
  8
0
  6
CONTINUOUS
 62
     7
 10
-145.07166
 20
-70.520386
 11
-145.07166
 21
-60.020382
  0
LINE
  8
0
  6
CONTINUOUS
 62
     7
 10
-156.07166
 20
-56.899075
 11
-156.07166
 21
-56.020397
  0
LINE
  8
0
  6
CONTINUOUS
 62
     7
 10
-156.07166
 20
-56.020397
 11
-149.07166
 21
-56.020397
  0
LINE
  8
0
  6
CONTINUOUS
 62
     7
 10
-156.57166
 20
-56.520386
 11
-156.07166
 21
-56.020386
  0
LINE
  8
0
  6
CONTINUOUS
 62
     7
 10
-156.07166
 20
-65.756927
 11
-156.07166
 21
-63.635036
  0
LINE
  8
0
  6
CONTINUOUS
 62
     7
 10
-156.07166
 20
-56.899075
 11
-149.07166
 21
-56.899075
  0
LINE
  8
0
  6
CONTINUOUS
 62
     7
 10
-156.07166
 20
-65.756927
 11
-149.07166
 21
-65.756927
  0
LINE
  8
0
  6
CONTINUOUS
 62
     7
 10
-156.07166
 20
-63.635036
 11
-149.07166
 21
-63.635036
  0
LINE
  8
0
  6
CONTINUOUS
 62
     7
 10
-149.07166
 20
-70.520386
 11
-149.07166
 21
-56.020397
  0
LINE
  8
0
  6
CONTINUOUS
 62
     7
 10
-156.57166
 20
-70.520386
 11
-156.57166
 21
-56.520397
  0
LINE
  8
0
  6
CONTINUOUS
 62
     7
 10
-159.97165
 20
-56.806316
 11
-156.57166
 21
-56.806316
  0
LINE
  8
0
  6
CONTINUOUS
 62
     7
 10
-145.07166
 20
-70.520386
 11
-145.07166
 21
-81.02037
  0
LINE
  8
0
  6
CONTINUOUS
 62
     7
 10
-156.07166
 20
-84.141708
 11
-156.07166
 21
-85.02037
  0
LINE
  8
0
  6
CONTINUOUS
 62
     7
 10
-156.07166
 20
-85.02037
 11
-149.07166
 21
-85.02037
  0
LINE
  8
0
  6
CONTINUOUS
 62
     7
 10
-156.57166
 20
-84.520386
 11
-156.07166
 21
-85.020386
  0
LINE
  8
0
  6
CONTINUOUS
 62
     7
 10
-156.07166
 20
-75.283829
 11
-156.07166
 21
-77.405716
  0
LINE
  8
0
  6
CONTINUOUS
 62
     7
 10
-156.07166
 20
-84.141708
 11
-149.07166
 21
-84.141708
  0
LINE
  8
0
  6
CONTINUOUS
 62
     7
 10
-156.07166
 20
-75.283829
 11
-149.07166
 21
-75.283829
  0
LINE
  8
0
  6
CONTINUOUS
 62
     7
 10
-156.07166
 20
-77.405716
 11
-149.07166
 21
-77.405716
  0
LINE
  8
0
  6
CONTINUOUS
 62
     7
 10
-149.07166
 20
-70.520386
 11
-149.07166
 21
-85.02037
  0
LINE
  8
0
  6
CONTINUOUS
 62
     7
 10
-156.57166
 20
-70.520386
 11
-156.57166
 21
-84.52037
  0
LINE
  8
0
  6
CONTINUOUS
 62
     7
 10
-159.97165
 20
-84.234451
 11
-156.57166
 21
-84.234451
  0
LINE
  8
0
  6
CENTER
 62
     7
 10
-181.07166
 20
51.677959
 11
-181.07166
 21
-10.495565
  0
LINE
  8
0
  6
CENTER
 62
     7
 10
-219.20416
 20
9.4796162
 11
-138.40073
 21
9.4796162
  0
LINE
  8
0
  6
CONTINUOUS
 62
     7
 10
-194.57166
 20
35.273846
 11
-194.57166
 21
29.479616
  0
LINE
  8
0
  6
CONTINUOUS
 62
     7
 10
-202.17166
 20
9.4796162
 11
-202.17166
 21
-5.5203838
  0
LINE
  8
0
  6
CONTINUOUS
 62
     7
 10
-159.97165
 20
-5.5203838
 11
-161.97165
 21
-5.5203838
  0
LINE
  8
0
  6
CONTINUOUS
 62
     7
 10
-168.05078
 20
-0.020383757
 11
-171.57166
 21
-0.020383757
  0
LINE
  8
0
  6
CONTINUOUS
 62
     7
 10
-202.17166
 20
-5.5203838
 11
-200.17166
 21
-5.5203838
  0
LINE
  8
0
  6
CONTINUOUS
 62
     7
 10
-197.07166
 20
44.479618
 11
-197.07166
 21
42.479618
  0
LINE
  8
0
  6
DASHED
 62
     7
 10
-165.07166
 20
42.479618
 11
-165.4832
 21
42.479618
  0
LINE
  8
0
  6
CONTINUOUS
 62
     7
 10
-165.07166
 20
44.479618
 11
-165.07166
 21
42.479618
  0
LINE
  8
0
  6
CONTINUOUS
 62
     7
 10
-202.17166
 20
24.479616
 11
-202.17166
 21
9.4796162
  0
LINE
  8
0
  6
CONTINUOUS
 62
     7
 10
-167.57166
 20
35.273846
 11
-167.57166
 21
29.479616
  0
LINE
  8
0
  6
CONTINUOUS
 62
     7
 10
-165.07166
 20
44.479618
 11
-197.07166
 21
44.479618
  0
LINE
  8
0
  6
CONTINUOUS
 62
     7
 10
-202.17166
 20
24.479616
 11
-199.57166
 21
24.479616
  0
LINE
  8
0
  6
CONTINUOUS
 62
     7
 10
-162.57166
 20
24.479616
 11
-159.97165
 21
24.479616
  0
LINE
  8
0
  6
DASHED
 62
     7
 10
-196.66011
 20
42.479618
 11
-197.07166
 21
42.479618
  0
LINE
  8
0
  6
PHANTOM
 62
     7
 10
-159.97165
 20
24.479616
 11
-159.97165
 21
21.979616
  0
LINE
  8
0
  6
PHANTOM
 62
     7
 10
-159.97165
 20
-3.0203838
 11
-159.97165
 21
-5.5203838
  0
LINE
  8
0
  6
CONTINUOUS
 62
     7
 10
-165.07166
 20
42.479618
 11
-197.07166
 21
42.479618
  0
LINE
  8
0
  6
CONTINUOUS
 62
     7
 10
-187.61
 20
36.479618
 11
-189.49382
 21
36.479618
  0
LINE
  8
0
  6
CONTINUOUS
 62
     7
 10
-196.07166
 20
41.479618
 11
-196.07166
 21
36.479618
  0
LINE
  8
0
  6
CONTINUOUS
 62
     7
 10
-166.07166
 20
41.479618
 11
-166.07166
 21
36.479618
  0
LINE
  8
0
  6
CONTINUOUS
 62
     7
 10
-167.57166
 20
35.613586
 11
-166.07166
 21
36.479614
  0
LINE
  8
0
  6
CONTINUOUS
 62
     7
 10
-196.07164
 20
36.479614
 11
-194.57166
 21
35.613594
  0
LINE
  8
0
  6
CONTINUOUS
 62
     7
 10
-189.49382
 20
42.479618
 11
-189.49382
 21
36.479618
  0
LINE
  8
0
  6
CONTINUOUS
 62
     7
 10
-187.61
 20
42.479618
 11
-187.61
 21
36.479618
  0
LINE
  8
0
  6
CONTINUOUS
 62
     7
 10
-194.57166
 20
35.61359
 11
-181.07166
 21
35.61359
  0
LINE
  8
0
  6
CONTINUOUS
 62
     7
 10
-172.64949
 20
42.479618
 11
-172.64949
 21
36.479618
  0
LINE
  8
0
  6
CONTINUOUS
 62
     7
 10
-174.53331
 20
42.479618
 11
-174.53331
 21
36.479618
  0
LINE
  8
0
  6
CONTINUOUS
 62
     7
 10
-174.53331
 20
36.479618
 11
-172.64949
 21
36.479618
  0
LINE
  8
0
  6
CONTINUOUS
 62
     7
 10
-167.57166
 20
35.61359
 11
-181.07166
 21
35.61359
  0
LINE
  8
0
  6
CONTINUOUS
 62
     7
 10
-159.97165
 20
9.4796162
 11
-159.97165
 21
-5.5203838
  0
LINE
  8
0
  6
CONTINUOUS
 62
     7
 10
-159.97165
 20
24.479616
 11
-159.97165
 21
9.4796162
  0
LINE
  8
0
  6
CONTINUOUS
 62
     7
 10
-169.96489
 20
26.479616
 11
-192.17841
 21
26.479616
  0
LINE
  8
0
  6
CONTINUOUS
 62
     7
 10
-200.17166
 20
24.479616
 11
-200.17166
 21
9.4796162
  0
LINE
  8
0
  6
CONTINUOUS
 62
     7
 10
-200.17166
 20
9.4796162
 11
-200.17166
 21
-5.5203838
  0
LINE
  8
0
  6
CONTINUOUS
 62
     7
 10
-161.97165
 20
24.479616
 11
-161.97165
 21
9.4796162
  0
LINE
  8
0
  6
CONTINUOUS
 62
     7
 10
-161.97165
 20
9.4796162
 11
-161.97165
 21
-5.5203838
  0
LINE
  8
0
  6
CONTINUOUS
 62
     7
 10
-183.07166
 20
2.1758175
 11
-183.07166
 21
-6.5210743
  0
LINE
  8
0
  6
CONTINUOUS
 62
     7
 10
-168.57166
 20
-13.520384
 11
-168.57166
 21
-10.520384
  0
LINE
  8
0
  6
DASHED
 62
     7
 10
-183.07166
 20
-6.8745403
 11
-183.07166
 21
-6.5210743
  0
LINE
  8
0
  6
DASHED
 62
     7
 10
-191.57166
 20
-8.5203838
 11
-190.57166
 21
-8.5203838
  0
LINE
  8
0
  6
DASHED
 62
     7
 10
-171.57166
 20
-8.5203838
 11
-170.57166
 21
-8.5203838
  0
LINE
  8
0
  6
CONTINUOUS
 62
     7
 10
-193.57166
 20
-13.520384
 11
-168.57166
 21
-13.520384
  0
LINE
  8
0
  6
CONTINUOUS
 62
     7
 10
-173.57166
 20
-2.0203838
 11
-173.57166
 21
-6.5203838
  0
LINE
  8
0
  6
CONTINUOUS
 62
     7
 10
-193.57166
 20
-13.520384
 11
-193.57166
 21
-10.520384
  0
LINE
  8
0
  6
CONTINUOUS
 62
     7
 10
-170.57166
 20
-8.5203838
 11
-177.07166
 21
-8.5203838
  0
LINE
  8
0
  6
CONTINUOUS
 62
     7
 10
-185.07166
 20
-8.5203838
 11
-191.57166
 21
-8.5203838
  0
LINE
  8
0
  6
CONTINUOUS
 62
     7
 10
-188.57166
 20
-2.0203838
 11
-188.57166
 21
-6.5203838
  0
LINE
  8
0
  6
CONTINUOUS
 62
     7
 10
-179.07166
 20
2.4303885
 11
-179.07166
 21
-6.5203838
  0
LINE
  8
0
  6
CONTINUOUS
 62
     7
 10
-190.5697
 20
-0.020383757
 11
-194.09253
 21
-0.020383757
  0
LINE
  8
0
  6
CONTINUOUS
 62
     7
 10
-202.17166
 20
-83.020386
 11
-202.17166
 21
-85.520386
  0
LINE
  8
0
  6
CONTINUOUS
 62
     7
 10
-159.97165
 20
-85.520386
 11
-161.97165
 21
-85.520386
  0
LINE
  8
0
  6
CONTINUOUS
 62
     7
 10
-202.17166
 20
-85.520386
 11
-200.17166
 21
-85.520386
  0
LINE
  8
0
  6
CENTER
 62
     7
 10
-142.93915
 20
-70.520386
 11
-217.67514
 21
-70.520386
  0
LINE
  8
0
  6
CONTINUOUS
 62
     7
 10
-194.19254
 20
-80.020386
 11
-191.72697
 21
-80.020386
  0
LINE
  8
0
  6
CONTINUOUS
 62
     7
 10
-159.97165
 20
-83.020386
 11
-159.97165
 21
-85.520386
  0
LINE
  8
0
  6
CONTINUOUS
 62
     7
 10
-202.17166
 20
-83.020386
 11
-202.17166
 21
-55.52039
  0
LINE
  8
0
  6
CONTINUOUS
 62
     7
 10
-159.97165
 20
-55.52039
 11
-161.97165
 21
-55.52039
  0
LINE
  8
0
  6
CONTINUOUS
 62
     7
 10
-202.17166
 20
-55.52039
 11
-200.17166
 21
-55.52039
  0
LINE
  8
0
  6
CONTINUOUS
 62
     7
 10
-194.19254
 20
-61.02039
 11
-191.72696
 21
-61.02039
  0
LINE
  8
0
  6
CONTINUOUS
 62
     7
 10
-159.97165
 20
-83.020386
 11
-159.97165
 21
-55.52039
  0
LINE
  8
0
  6
CENTER
 62
     7
 10
-181.07166
 20
-42.34856
 11
-181.07166
 21
-98.088165
  0
LINE
  8
0
  6
CENTER
 62
     7
 10
-188.08916
 20
-48.020382
 11
-174.89256
 21
-48.020382
  0
LINE
  8
0
  6
CONTINUOUS
 62
     7
 10
-188.38412
 20
-94.687065
 11
-193.25911
 21
-73.298164
  0
LINE
  8
0
  6
CONTINUOUS
 62
     7
 10
-173.75919
 20
-46.353725
 11
-168.8842
 21
-67.742615
  0
LINE
  8
0
  6
CONTINUOUS
 62
     7
 10
-188.38412
 20
-46.35371
 11
-193.25911
 21
-67.742615
  0
LINE
  8
0
  6
CONTINUOUS
 62
     7
 10
-173.75919
 20
-94.687057
 11
-168.88422
 21
-73.298172
  0
LINE
  8
0
  6
CENTER
 62
     7
 10
-188.03075
 20
-93.020386
 11
-172.19939
 21
-93.020386
  0
LINE
  8
0
  6
CONTINUOUS
 62
     7
 10
-170.41634
 20
-61.02039
 11
-167.95078
 21
-61.02039
  0
LINE
  8
0
  6
CONTINUOUS
 62
     7
 10
-170.41634
 20
-80.020386
 11
-167.95078
 21
-80.020386
  0
LINE
  8
0
  6
CONTINUOUS
 62
     7
 10
-163.97165
 20
-72.520386
 11
-168.70694
 21
-72.520386
  0
LINE
  8
0
  6
CONTINUOUS
 62
     7
 10
-163.97165
 20
-68.520386
 11
-168.7327
 21
-68.520386
  0
LINE
  8
0
  6
CONTINUOUS
 62
     7
 10
-161.97165
 20
-55.52039
 11
-161.97165
 21
-66.520386
  0
LINE
  8
0
  6
CONTINUOUS
 62
     7
 10
-161.97165
 20
-74.520386
 11
-161.97165
 21
-85.520386
  0
LINE
  8
0
  6
CONTINUOUS
 62
     7
 10
-198.17166
 20
-72.520386
 11
-193.43637
 21
-72.520386
  0
LINE
  8
0
  6
CONTINUOUS
 62
     7
 10
-198.17166
 20
-68.520386
 11
-193.41061
 21
-68.520386
  0
LINE
  8
0
  6
CONTINUOUS
 62
     7
 10
-200.17166
 20
-55.52039
 11
-200.17166
 21
-66.520386
  0
LINE
  8
0
  6
CONTINUOUS
 62
     7
 10
-200.17166
 20
-74.520386
 11
-200.17166
 21
-85.520386
  0
LINE
  8
0
  6
CONTINUOUS
 62
     7
 10
-200.17166
 20
-5.5203838
 11
-198.57166
 21
-5.5203838
  0
LINE
  8
0
  6
CONTINUOUS
 62
     7
 10
-163.57166
 20
-5.5203838
 11
-161.97165
 21
-5.5203838
  0
LINE
  8
0
  6
CENTER
 62
     7
 10
-41.918369
 20
9.4796162
 11
-82.316536
 21
9.4796162
  0
LINE
  8
0
  6
CENTER
 62
     7
 10
-61.071651
 20
-18.099854
 11
-61.071651
 21
51.133675
  0
LINE
  8
0
  6
CONTINUOUS
 62
     7
 10
-77.071648
 20
43.479618
 11
-77.071648
 21
44.479618
  0
LINE
  8
0
  6
CONTINUOUS
 62
     7
 10
-74.571648
 20
29.479618
 11
-74.571648
 21
41.479618
  0
LINE
  8
0
  6
CONTINUOUS
 62
     7
 10
-66.071655
 20
26.479618
 11
-72.178413
 21
26.479618
  0
LINE
  8
0
  6
CONTINUOUS
 62
     7
 10
-65.071655
 20
25.38559
 11
-65.071655
 21
25.479618
  0
LINE
  8
0
  6
CONTINUOUS
 62
     7
 10
-61.071651
 20
44.479618
 11
-77.071648
 21
44.479618
  0
LINE
  8
0
  6
CONTINUOUS
 62
     7
 10
-61.071651
 20
42.479618
 11
-76.071648
 21
42.479618
  0
LINE
  8
0
  6
CONTINUOUS
 62
     7
 10
-70.571648
 20
20.994335
 11
-70.571648
 21
21.087803
  0
LINE
  8
0
  6
CONTINUOUS
 62
     7
 10
-73.484032
 20
42.479618
 11
-73.484032
 21
36.479618
  0
LINE
  8
0
  6
CONTINUOUS
 62
     7
 10
-62.159275
 20
42.479618
 11
-62.159275
 21
36.479618
  0
LINE
  8
0
  6
CONTINUOUS
 62
     7
 10
-74.571648
 20
36.479618
 11
-73.484032
 21
36.479618
  0
LINE
  8
0
  6
CONTINUOUS
 62
     7
 10
-62.159275
 20
36.479618
 11
-61.071651
 21
36.479618
  0
LINE
  8
0
  6
CONTINUOUS
 62
     7
 10
-74.571648
 20
35.613594
 11
-61.071651
 21
35.613594
  0
LINE
  8
0
  6
CONTINUOUS
 62
     7
 10
-68.571655
 20
-6.5203829
 11
-68.571655
 21
-3.5107641
  0
LINE
  8
0
  6
CONTINUOUS
 62
     7
 10
-91.071648
 20
-13.520383
 11
-61.071651
 21
-13.520383
  0
LINE
  8
0
  6
CONTINUOUS
 62
     7
 10
-89.071648
 20
-8.5203829
 11
-65.071655
 21
-8.5203829
  0
LINE
  8
0
  6
CONTINUOUS
 62
     7
 10
-91.071648
 20
-13.520383
 11
-91.071648
 21
-10.520383
  0
LINE
  8
0
  6
CONTINUOUS
 62
     7
 10
-63.071651
 20
-6.5203829
 11
-63.071651
 21
-5.3864527
  0
LINE
  8
0
  6
CENTER
 62
     7
 10
-83.571648
 20
-18.538435
 11
-83.571648
 21
-4.1702695
  0
LINE
  8
0
  6
CONTINUOUS
 62
     7
 10
-73.174454
 20
-7.0380225
 11
-71.609024
 21
-1.1957639
  0
LINE
  8
0
  6
CONTINUOUS
 62
     7
 10
-45.071659
 20
43.479618
 11
-45.071659
 21
44.479618
  0
LINE
  8
0
  6
CONTINUOUS
 62
     7
 10
-47.571659
 20
29.479618
 11
-47.571659
 21
41.479618
  0
LINE
  8
0
  6
CONTINUOUS
 62
     7
 10
-56.071651
 20
26.479618
 11
-49.964893
 21
26.479618
  0
LINE
  8
0
  6
CONTINUOUS
 62
     7
 10
-57.071651
 20
25.38559
 11
-57.071651
 21
25.479618
  0
LINE
  8
0
  6
CONTINUOUS
 62
     7
 10
-61.071651
 20
44.479618
 11
-45.071659
 21
44.479618
  0
LINE
  8
0
  6
CONTINUOUS
 62
     7
 10
-61.071651
 20
42.479618
 11
-46.071659
 21
42.479618
  0
LINE
  8
0
  6
CONTINUOUS
 62
     7
 10
-51.571659
 20
20.994335
 11
-51.571659
 21
21.087803
  0
LINE
  8
0
  6
CONTINUOUS
 62
     7
 10
-48.659275
 20
42.479618
 11
-48.659275
 21
36.479618
  0
LINE
  8
0
  6
CONTINUOUS
 62
     7
 10
-59.984028
 20
42.479618
 11
-59.984028
 21
36.479618
  0
LINE
  8
0
  6
CONTINUOUS
 62
     7
 10
-47.571659
 20
36.479618
 11
-48.659275
 21
36.479618
  0
LINE
  8
0
  6
CONTINUOUS
 62
     7
 10
-59.984028
 20
36.479618
 11
-61.071651
 21
36.479618
  0
LINE
  8
0
  6
CONTINUOUS
 62
     7
 10
-47.571659
 20
35.613594
 11
-61.071651
 21
35.613594
  0
LINE
  8
0
  6
CONTINUOUS
 62
     7
 10
-53.571651
 20
-6.5203829
 11
-53.571651
 21
-3.5107641
  0
LINE
  8
0
  6
CONTINUOUS
 62
     7
 10
-31.071659
 20
-13.520383
 11
-61.071651
 21
-13.520383
  0
LINE
  8
0
  6
CONTINUOUS
 62
     7
 10
-33.071659
 20
-8.5203829
 11
-57.071651
 21
-8.5203829
  0
LINE
  8
0
  6
CONTINUOUS
 62
     7
 10
-31.071659
 20
-13.520383
 11
-31.071659
 21
-10.520383
  0
LINE
  8
0
  6
CONTINUOUS
 62
     7
 10
-59.071651
 20
-6.5203829
 11
-59.071651
 21
-5.3864527
  0
LINE
  8
0
  6
CENTER
 62
     7
 10
-38.571659
 20
-18.538435
 11
-38.571659
 21
-4.1702695
  0
LINE
  8
0
  6
CONTINUOUS
 62
     7
 10
-48.968849
 20
-7.038022
 11
-50.534275
 21
-1.1957636
  0
LINE
  8
0
  6
CONTINUOUS
 62
     7
 10
-145.07166
 20
9.4796162
 11
-145.07166
 21
19.979616
  0
LINE
  8
0
  6
CONTINUOUS
 62
     7
 10
-156.07166
 20
23.100924
 11
-156.07166
 21
23.979601
  0
LINE
  8
0
  6
CONTINUOUS
 62
     7
 10
-156.07166
 20
23.979601
 11
-149.07166
 21
23.979601
  0
LINE
  8
0
  6
CONTINUOUS
 62
     7
 10
-156.57166
 20
23.479607
 11
-156.07166
 21
23.979609
  0
LINE
  8
0
  6
CONTINUOUS
 62
     7
 10
-156.07166
 20
14.243074
 11
-156.07166
 21
16.364962
  0
LINE
  8
0
  6
CONTINUOUS
 62
     7
 10
-156.07166
 20
23.100924
 11
-149.07166
 21
23.100924
  0
LINE
  8
0
  6
CONTINUOUS
 62
     7
 10
-156.07166
 20
14.243074
 11
-149.07166
 21
14.243074
  0
LINE
  8
0
  6
CONTINUOUS
 62
     7
 10
-156.07166
 20
16.364962
 11
-149.07166
 21
16.364962
  0
LINE
  8
0
  6
CONTINUOUS
 62
     7
 10
-149.07166
 20
9.4796162
 11
-149.07166
 21
23.979601
  0
LINE
  8
0
  6
CONTINUOUS
 62
     7
 10
-156.57166
 20
9.4796162
 11
-156.57166
 21
23.479601
  0
LINE
  8
0
  6
CONTINUOUS
 62
     7
 10
-159.97165
 20
23.193682
 11
-156.57166
 21
23.193682
  0
LINE
  8
0
  6
CONTINUOUS
 62
     7
 10
-145.07166
 20
9.4796162
 11
-145.07166
 21
-1.0203685
  0
LINE
  8
0
  6
CONTINUOUS
 62
     7
 10
-156.07166
 20
-4.1417065
 11
-156.07166
 21
-5.0203686
  0
LINE
  8
0
  6
CONTINUOUS
 62
     7
 10
-156.07166
 20
-5.0203686
 11
-149.07166
 21
-5.0203686
  0
LINE
  8
0
  6
CONTINUOUS
 62
     7
 10
-156.57166
 20
-4.5203824
 11
-156.07166
 21
-5.0203829
  0
LINE
  8
0
  6
CONTINUOUS
 62
     7
 10
-156.07166
 20
4.7161732
 11
-156.07166
 21
2.594286
  0
LINE
  8
0
  6
CONTINUOUS
 62
     7
 10
-156.07166
 20
-4.1417065
 11
-149.07166
 21
-4.1417065
  0
LINE
  8
0
  6
CONTINUOUS
 62
     7
 10
-156.07166
 20
4.7161732
 11
-149.07166
 21
4.7161732
  0
LINE
  8
0
  6
CONTINUOUS
 62
     7
 10
-156.07166
 20
2.594286
 11
-149.07166
 21
2.594286
  0
LINE
  8
0
  6
CONTINUOUS
 62
     7
 10
-149.07166
 20
9.4796162
 11
-149.07166
 21
-5.0203686
  0
LINE
  8
0
  6
CONTINUOUS
 62
     7
 10
-156.57166
 20
9.4796162
 11
-156.57166
 21
-4.5203686
  0
LINE
  8
0
  6
CONTINUOUS
 62
     7
 10
-159.97165
 20
-4.2344494
 11
-156.57166
 21
-4.2344494
  0
LINE
  8
0
  6
CONTINUOUS
 62
     7
 10
-217.07166
 20
-70.520386
 11
-217.07166
 21
-60.020382
  0
LINE
  8
0
  6
CONTINUOUS
 62
     7
 10
-206.07166
 20
-56.899075
 11
-206.07166
 21
-56.020397
  0
LINE
  8
0
  6
CONTINUOUS
 62
     7
 10
-206.07166
 20
-56.020397
 11
-213.07166
 21
-56.020397
  0
LINE
  8
0
  6
CONTINUOUS
 62
     7
 10
-205.57166
 20
-56.520393
 11
-206.07166
 21
-56.02039
  0
LINE
  8
0
  6
CONTINUOUS
 62
     7
 10
-206.07166
 20
-65.756927
 11
-206.07166
 21
-63.635036
  0
LINE
  8
0
  6
CONTINUOUS
 62
     7
 10
-206.07166
 20
-56.899075
 11
-213.07166
 21
-56.899075
  0
LINE
  8
0
  6
CONTINUOUS
 62
     7
 10
-206.07166
 20
-65.756927
 11
-213.07166
 21
-65.756927
  0
LINE
  8
0
  6
CONTINUOUS
 62
     7
 10
-206.07166
 20
-63.635036
 11
-213.07166
 21
-63.635036
  0
LINE
  8
0
  6
CONTINUOUS
 62
     7
 10
-213.07166
 20
-70.520386
 11
-213.07166
 21
-56.020397
  0
LINE
  8
0
  6
CONTINUOUS
 62
     7
 10
-205.57166
 20
-70.520386
 11
-205.57166
 21
-56.520397
  0
LINE
  8
0
  6
CONTINUOUS
 62
     7
 10
-202.17165
 20
-56.806316
 11
-205.57166
 21
-56.806316
  0
LINE
  8
0
  6
CONTINUOUS
 62
     7
 10
-217.07166
 20
-70.520386
 11
-217.07166
 21
-81.02037
  0
LINE
  8
0
  6
CONTINUOUS
 62
     7
 10
-206.07166
 20
-84.141708
 11
-206.07166
 21
-85.02037
  0
LINE
  8
0
  6
CONTINUOUS
 62
     7
 10
-206.07166
 20
-85.02037
 11
-213.07166
 21
-85.02037
  0
LINE
  8
0
  6
CONTINUOUS
 62
     7
 10
-205.57166
 20
-84.520386
 11
-206.07166
 21
-85.020386
  0
LINE
  8
0
  6
CONTINUOUS
 62
     7
 10
-206.07166
 20
-75.283829
 11
-206.07166
 21
-77.405716
  0
LINE
  8
0
  6
CONTINUOUS
 62
     7
 10
-206.07166
 20
-84.141708
 11
-213.07166
 21
-84.141708
  0
LINE
  8
0
  6
CONTINUOUS
 62
     7
 10
-206.07166
 20
-75.283829
 11
-213.07166
 21
-75.283829
  0
LINE
  8
0
  6
CONTINUOUS
 62
     7
 10
-206.07166
 20
-77.405716
 11
-213.07166
 21
-77.405716
  0
LINE
  8
0
  6
CONTINUOUS
 62
     7
 10
-213.07166
 20
-70.520386
 11
-213.07166
 21
-85.02037
  0
LINE
  8
0
  6
CONTINUOUS
 62
     7
 10
-205.57166
 20
-70.520386
 11
-205.57166
 21
-84.52037
  0
LINE
  8
0
  6
CONTINUOUS
 62
     7
 10
-202.17165
 20
-84.234451
 11
-205.57166
 21
-84.234451
  0
LINE
  8
0
  6
CONTINUOUS
 62
     7
 10
-217.07166
 20
9.4796162
 11
-217.07166
 21
19.979616
  0
LINE
  8
0
  6
CONTINUOUS
 62
     7
 10
-206.07166
 20
23.100924
 11
-206.07166
 21
23.979601
  0
LINE
  8
0
  6
CONTINUOUS
 62
     7
 10
-206.07166
 20
23.979601
 11
-213.07166
 21
23.979601
  0
LINE
  8
0
  6
CONTINUOUS
 62
     7
 10
-205.57166
 20
23.479603
 11
-206.07166
 21
23.979603
  0
LINE
  8
0
  6
CONTINUOUS
 62
     7
 10
-206.07166
 20
14.243074
 11
-206.07166
 21
16.364962
  0
LINE
  8
0
  6
CONTINUOUS
 62
     7
 10
-206.07166
 20
23.100924
 11
-213.07166
 21
23.100924
  0
LINE
  8
0
  6
CONTINUOUS
 62
     7
 10
-206.07166
 20
14.243074
 11
-213.07166
 21
14.243074
  0
LINE
  8
0
  6
CONTINUOUS
 62
     7
 10
-206.07166
 20
16.364962
 11
-213.07166
 21
16.364962
  0
LINE
  8
0
  6
CONTINUOUS
 62
     7
 10
-213.07166
 20
9.4796162
 11
-213.07166
 21
23.979601
  0
LINE
  8
0
  6
CONTINUOUS
 62
     7
 10
-205.57166
 20
9.4796162
 11
-205.57166
 21
23.479601
  0
LINE
  8
0
  6
CONTINUOUS
 62
     7
 10
-202.17165
 20
23.193682
 11
-205.57166
 21
23.193682
  0
LINE
  8
0
  6
CONTINUOUS
 62
     7
 10
-217.07166
 20
9.4796162
 11
-217.07166
 21
-1.0203685
  0
LINE
  8
0
  6
CONTINUOUS
 62
     7
 10
-206.07166
 20
-4.1417065
 11
-206.07166
 21
-5.0203686
  0
LINE
  8
0
  6
CONTINUOUS
 62
     7
 10
-206.07166
 20
-5.0203686
 11
-213.07166
 21
-5.0203686
  0
LINE
  8
0
  6
CONTINUOUS
 62
     7
 10
-205.57166
 20
-4.5203886
 11
-206.07166
 21
-5.0203891
  0
LINE
  8
0
  6
CONTINUOUS
 62
     7
 10
-206.07166
 20
4.7161732
 11
-206.07166
 21
2.594286
  0
LINE
  8
0
  6
CONTINUOUS
 62
     7
 10
-206.07166
 20
-4.1417065
 11
-213.07166
 21
-4.1417065
  0
LINE
  8
0
  6
CONTINUOUS
 62
     7
 10
-206.07166
 20
4.7161732
 11
-213.07166
 21
4.7161732
  0
LINE
  8
0
  6
CONTINUOUS
 62
     7
 10
-206.07166
 20
2.594286
 11
-213.07166
 21
2.594286
  0
LINE
  8
0
  6
CONTINUOUS
 62
     7
 10
-213.07166
 20
9.4796162
 11
-213.07166
 21
-5.0203686
  0
LINE
  8
0
  6
CONTINUOUS
 62
     7
 10
-205.57166
 20
9.4796162
 11
-205.57166
 21
-4.5203686
  0
LINE
  8
0
  6
CONTINUOUS
 62
     7
 10
-202.17165
 20
-4.2344494
 11
-205.57166
 21
-4.2344494
  0
CIRCLE
  8
0
  6
CONTINUOUS
 62
     7
 10
-61.071651
 20
9.4796162
 40
14.5
  0
CIRCLE
  8
0
  6
CONTINUOUS
 62
     7
 10
-61.071651
 20
9.4796162
 40
8.0500002
  0
ARC
  8
0
  6
CONTINUOUS
 62
     7
 10
-144.97827
 20
-80.773697
 40
11.59337
 50
163.11152
 51
196.88848
  0
ARC
  8
0
  6
CONTINUOUS
 62
     7
 10
-133.6311
 20
-70.520386
 40
22.940548
 50
179.99999
 51
191.9843
  0
ARC
  8
0
  6
CONTINUOUS
 62
     7
 10
-149.07166
 20
-60.020382
 40
4
 50
360
 51
90.000003
  0
ARC
  8
0
  6
CONTINUOUS
 62
     7
 10
-144.97827
 20
-60.267056
 40
11.59337
 50
163.11152
 51
196.88848
  0
ARC
  8
0
  6
CONTINUOUS
 62
     7
 10
-133.6311
 20
-70.520386
 40
22.940548
 50
168.0157
 51
180.00001
  0
ARC
  8
0
  6
CONTINUOUS
 62
     7
 10
-149.07166
 20
-81.02037
 40
4
 50
269.99999
 51
6.8324503E-007
  0
ARC
  8
0
  6
CONTINUOUS
 62
     7
 10
-162.57166
 20
29.479616
 40
5
 50
179.99999
 51
270
  0
ARC
  8
0
  6
CONTINUOUS
 62
     7
 10
-199.57166
 20
29.479616
 40
5
 50
270
 51
0
  0
ARC
  8
0
  6
CONTINUOUS
 62
     7
 10
-192.78275
 20
42.176189
 40
6.5778313
 50
240.00001
 51
299.99999
  0
ARC
  8
0
  6
CONTINUOUS
 62
     7
 10
-181.07166
 20
60.728329
 40
25.114733
 50
254.90981
 51
270
  0
ARC
  8
0
  6
CONTINUOUS
 62
     7
 10
-197.07166
 20
41.479618
 40
1
 50
0
 51
90.000003
  0
ARC
  8
0
  6
CONTINUOUS
 62
     7
 10
-165.07166
 20
41.479618
 40
1
 50
90.000003
 51
180.00001
  0
ARC
  8
0
  6
CONTINUOUS
 62
     7
 10
-169.36057
 20
42.176189
 40
6.5778313
 50
240
 51
300
  0
ARC
  8
0
  6
CONTINUOUS
 62
     7
 10
-181.07166
 20
60.728329
 40
25.114733
 50
270
 51
285.09019
  0
ARC
  8
0
  6
CONTINUOUS
 62
     7
 10
-191.57166
 20
29.479616
 40
3
 50
179.99999
 51
250.52877
  0
ARC
  8
0
  6
CONTINUOUS
 62
     7
 10
-193.59804
 20
24.908655
 40
2
 50
7.0411229
 51
66.091383
  0
ARC
  8
0
  6
CONTINUOUS
 62
     7
 10
-194.19252
 20
24.979616
 40
6
 50
184.7802
 51
248.1375
  0
ARC
  8
0
  6
CONTINUOUS
 62
     7
 10
-197.07166
 20
24.479616
 40
5.5
 50
293.3926
 51
7.0411229
  0
ARC
  8
0
  6
CONTINUOUS
 62
     7
 10
-195.68205
 20
21.267298
 40
2
 50
248.1375
 51
293.3926
  0
ARC
  8
0
  6
CONTINUOUS
 62
     7
 10
-167.95078
 20
24.979616
 40
6
 50
291.8625
 51
355.2198
  0
ARC
  8
0
  6
CONTINUOUS
 62
     7
 10
-165.07166
 20
24.479616
 40
5.5
 50
172.95887
 51
246.6074
  0
ARC
  8
0
  6
CONTINUOUS
 62
     7
 10
-166.46126
 20
21.267298
 40
2
 50
246.60741
 51
291.8625
  0
ARC
  8
0
  6
CONTINUOUS
 62
     7
 10
-168.54526
 20
24.908655
 40
2
 50
113.90862
 51
172.95887
  0
ARC
  8
0
  6
CONTINUOUS
 62
     7
 10
-170.57166
 20
29.479616
 40
3
 50
289.47122
 51
6.7851833E-014
  0
ARC
  8
0
  6
CONTINUOUS
 62
     7
 10
-194.19252
 20
-6.0203838
 40
6
 50
90.000003
 51
175.2198
  0
ARC
  8
0
  6
CONTINUOUS
 62
     7
 10
-167.95078
 20
-6.0203838
 40
6
 50
4.780192
 51
90.000003
  0
ARC
  8
0
  6
CONTINUOUS
 62
     7
 10
-191.57166
 20
-10.520384
 40
2
 50
90.000003
 51
180.00001
  0
ARC
  8
0
  6
CONTINUOUS
 62
     7
 10
-185.07166
 20
-6.5203838
 40
2
 50
269.99999
 51
6.8324541E-007
  0
ARC
  8
0
  6
CONTINUOUS
 62
     7
 10
-177.07166
 20
-6.5203838
 40
2
 50
179.99999
 51
270
  0
ARC
  8
0
  6
CONTINUOUS
 62
     7
 10
-170.57166
 20
-10.520384
 40
2
 50
360
 51
90.000003
  0
ARC
  8
0
  6
CONTINUOUS
 62
     7
 10
-190.57166
 20
-2.0203838
 40
2
 50
0
 51
90.000003
  0
ARC
  8
0
  6
CONTINUOUS
 62
     7
 10
-171.57166
 20
-6.5203838
 40
2
 50
179.99999
 51
270
  0
ARC
  8
0
  6
CONTINUOUS
 62
     7
 10
-190.57166
 20
-6.5203838
 40
2
 50
270
 51
360
  0
ARC
  8
0
  6
CONTINUOUS
 62
     7
 10
-185.07166
 20
2.175127
 40
2
 50
0
 51
90.000003
  0
ARC
  8
0
  6
CONTINUOUS
 62
     7
 10
-171.57166
 20
-2.0203838
 40
2
 50
90.000003
 51
180.00001
  0
ARC
  8
0
  6
CONTINUOUS
 62
     7
 10
-177.02061
 20
2.175127
 40
2
 50
90.000003
 51
169.91046
  0
ARC
  8
0
  6
CONTINUOUS
 62
     7
 10
-194.19254
 20
-86.020386
 40
6
 50
90.000003
 51
175.2198
  0
ARC
  8
0
  6
CONTINUOUS
 62
     7
 10
-167.95078
 20
-86.020386
 40
6
 50
4.780201
 51
90.000003
  0
ARC
  8
0
  6
CONTINUOUS
 62
     7
 10
-194.19254
 20
-55.02039
 40
6
 50
184.7802
 51
270
  0
ARC
  8
0
  6
CONTINUOUS
 62
     7
 10
-167.95078
 20
-55.02039
 40
6
 50
270
 51
355.2198
  0
ARC
  8
0
  6
CONTINUOUS
 62
     7
 10
-181.07166
 20
-70.520386
 40
12.5
 50
347.16041
 51
12.839585
  0
ARC
  8
0
  6
CONTINUOUS
 62
     7
 10
-181.07166
 20
-70.520386
 40
12.5
 50
167.16041
 51
192.83959
  0
CIRCLE
  8
0
  6
CONTINUOUS
 62
     7
 10
-181.07166
 20
-93.020386
 40
3
  0
CIRCLE
  8
0
  6
CONTINUOUS
 62
     7
 10
-181.07166
 20
-48.020382
 40
3
  0
CIRCLE
  8
0
  6
DASHED
 62
     7
 10
-181.07166
 20
-93.020386
 40
4.5
  0
ARC
  8
0
  6
CONTINUOUS
 62
     7
 10
-181.07166
 20
-48.020382
 40
7.5
 50
12.839585
 51
167.16041
  0
ARC
  8
0
  6
CONTINUOUS
 62
     7
 10
-181.07166
 20
-93.020386
 40
7.5
 50
192.83959
 51
347.16042
  0
CIRCLE
  8
0
  6
DASHED
 62
     7
 10
-181.07166
 20
-48.020382
 40
4.5
  0
ARC
  8
0
  6
CONTINUOUS
 62
     7
 10
-181.07166
 20
-70.520386
 40
16
 50
36.446825
 51
51.464424
  0
ARC
  8
0
  6
CONTINUOUS
 62
     7
 10
-181.07166
 20
-70.520386
 40
15
 50
40.557667
 51
46.396901
  0
ARC
  8
0
  6
CONTINUOUS
 62
     7
 10
-181.07166
 20
-70.520386
 40
16
 50
128.53558
 51
143.55317
  0
ARC
  8
0
  6
CONTINUOUS
 62
     7
 10
-181.07166
 20
-70.520386
 40
15
 50
133.6031
 51
139.44233
  0
ARC
  8
0
  6
CONTINUOUS
 62
     7
 10
-181.07166
 20
-70.520386
 40
15
 50
219.29648
 51
226.3969
  0
ARC
  8
0
  6
CONTINUOUS
 62
     7
 10
-181.07166
 20
-70.520386
 40
16
 50
216.44683
 51
231.46442
  0
ARC
  8
0
  6
CONTINUOUS
 62
     7
 10
-181.07166
 20
-70.520386
 40
15
 50
313.60311
 51
319.44233
  0
ARC
  8
0
  6
CONTINUOUS
 62
     7
 10
-181.07166
 20
-70.520386
 40
16
 50
308.53558
 51
323.55317
  0
ARC
  8
0
  6
CONTINUOUS
 62
     7
 10
-163.97165
 20
-66.520386
 40
2
 50
270
 51
0
  0
ARC
  8
0
  6
CONTINUOUS
 62
     7
 10
-163.97165
 20
-74.520386
 40
2
 50
0
 51
90.000003
  0
ARC
  8
0
  6
CONTINUOUS
 62
     7
 10
-198.17166
 20
-74.520386
 40
2
 50
90.000003
 51
180.00001
  0
ARC
  8
0
  6
CONTINUOUS
 62
     7
 10
-198.17166
 20
-66.520386
 40
2
 50
180.00001
 51
270
  0
ARC
  8
0
  6
CONTINUOUS
 62
     7
 10
-198.57166
 20
-10.520384
 40
5
 50
0
 51
90.000003
  0
ARC
  8
0
  6
CONTINUOUS
 62
     7
 10
-163.57166
 20
-10.520384
 40
5
 50
90.000003
 51
180.00001
  0
ARC
  8
0
  6
CONTINUOUS
 62
     7
 10
-71.571648
 20
29.479618
 40
3
 50
179.99999
 51
230.4788
  0
ARC
  8
0
  6
CONTINUOUS
 62
     7
 10
-76.071648
 20
43.479618
 40
1
 50
179.99999
 51
270
  0
ARC
  8
0
  6
CONTINUOUS
 62
     7
 10
-75.571648
 20
41.479618
 40
1
 50
0
 51
90.000003
  0
ARC
  8
0
  6
CONTINUOUS
 62
     7
 10
-67.071655
 20
25.38559
 40
2
 50
290.66732
 51
0
  0
ARC
  8
0
  6
CONTINUOUS
 62
     7
 10
-66.071655
 20
25.479618
 40
1
 50
0
 51
90.000003
  0
ARC
  8
0
  6
CONTINUOUS
 62
     7
 10
-67.821655
 20
54.557899
 40
18.944305
 50
252.6087
 51
287.3913
  0
ARC
  8
0
  6
CONTINUOUS
 62
     7
 10
-65.071655
 20
-6.5203829
 40
2
 50
269.99999
 51
6.8324531E-007
  0
ARC
  8
0
  6
CONTINUOUS
 62
     7
 10
-89.071648
 20
-10.520383
 40
2
 50
90.000003
 51
180.00001
  0
ARC
  8
0
  6
CONTINUOUS
 62
     7
 10
-75.106316
 20
-6.5203829
 40
2
 50
270
 51
345
  0
ARC
  8
0
  6
CONTINUOUS
 62
     7
 10
-70.571648
 20
-6.5203829
 40
2
 50
270
 51
360
  0
ARC
  8
0
  6
CONTINUOUS
 62
     7
 10
-78.571648
 20
20.994335
 40
8
 50
0
 51
50.478803
  0
ARC
  8
0
  6
CONTINUOUS
 62
     7
 10
-43.571659
 20
20.994335
 40
8
 50
129.52119
 51
180.00001
  0
ARC
  8
0
  6
CONTINUOUS
 62
     7
 10
-50.571659
 20
29.479618
 40
3
 50
309.5212
 51
8.6514222E-006
  0
ARC
  8
0
  6
CONTINUOUS
 62
     7
 10
-46.071659
 20
43.479618
 40
1
 50
270
 51
8.6514222E-006
  0
ARC
  8
0
  6
CONTINUOUS
 62
     7
 10
-46.571659
 20
41.479618
 40
1
 50
89.999996
 51
180.00001
  0
ARC
  8
0
  6
CONTINUOUS
 62
     7
 10
-55.071651
 20
25.38559
 40
2
 50
179.99999
 51
249.3327
  0
ARC
  8
0
  6
CONTINUOUS
 62
     7
 10
-56.071651
 20
25.479618
 40
1
 50
89.999996
 51
180.00001
  0
ARC
  8
0
  6
CONTINUOUS
 62
     7
 10
-54.321651
 20
54.557899
 40
18.944305
 50
252.6087
 51
287.39131
  0
ARC
  8
0
  6
CONTINUOUS
 62
     7
 10
-57.071651
 20
-6.5203829
 40
2
 50
180.00001
 51
270
  0
ARC
  8
0
  6
CONTINUOUS
 62
     7
 10
-33.071659
 20
-10.520383
 40
2
 50
359.99999
 51
89.999996
  0
ARC
  8
0
  6
CONTINUOUS
 62
     7
 10
-47.036991
 20
-6.5203829
 40
2
 50
194.99999
 51
270
  0
ARC
  8
0
  6
CONTINUOUS
 62
     7
 10
-51.571659
 20
-6.5203829
 40
2
 50
180.00001
 51
270
  0
ARC
  8
0
  6
CONTINUOUS
 62
     7
 10
-149.07166
 20
-1.0203685
 40
4
 50
269.99999
 51
6.8324512E-007
  0
ARC
  8
0
  6
CONTINUOUS
 62
     7
 10
-144.97827
 20
-0.77369493
 40
11.59337
 50
163.11152
 51
196.88848
  0
ARC
  8
0
  6
CONTINUOUS
 62
     7
 10
-133.6311
 20
9.4796162
 40
22.940548
 50
179.99999
 51
191.9843
  0
ARC
  8
0
  6
CONTINUOUS
 62
     7
 10
-149.07166
 20
19.979616
 40
4
 50
360
 51
90.000003
  0
ARC
  8
0
  6
CONTINUOUS
 62
     7
 10
-144.97827
 20
19.732943
 40
11.59337
 50
163.11152
 51
196.88848
  0
ARC
  8
0
  6
CONTINUOUS
 62
     7
 10
-133.6311
 20
9.4796162
 40
22.940548
 50
168.0157
 51
180.00001
  0
ARC
  8
0
  6
CONTINUOUS
 62
     7
 10
-228.51221
 20
9.4796162
 40
22.940548
 50
359.99999
 51
11.984295
  0
ARC
  8
0
  6
CONTINUOUS
 62
     7
 10
-228.51221
 20
9.4796162
 40
22.940548
 50
348.01571
 51
1.11559E-005
  0
ARC
  8
0
  6
CONTINUOUS
 62
     7
 10
-213.07166
 20
19.979616
 40
4
 50
89.999996
 51
180.00001
  0
ARC
  8
0
  6
CONTINUOUS
 62
     7
 10
-217.16502
 20
19.732943
 40
11.59337
 50
343.11152
 51
16.888481
  0
ARC
  8
0
  6
CONTINUOUS
 62
     7
 10
-217.16502
 20
-80.773697
 40
11.59337
 50
343.11152
 51
16.888488
  0
ARC
  8
0
  6
CONTINUOUS
 62
     7
 10
-228.51221
 20
-70.520386
 40
22.940548
 50
348.01571
 51
1.11559E-005
  0
ARC
  8
0
  6
CONTINUOUS
 62
     7
 10
-213.07166
 20
-60.020382
 40
4
 50
89.999996
 51
180.00001
  0
ARC
  8
0
  6
CONTINUOUS
 62
     7
 10
-217.16502
 20
-60.267056
 40
11.59337
 50
343.11152
 51
16.888481
  0
ARC
  8
0
  6
CONTINUOUS
 62
     7
 10
-228.51221
 20
-70.520386
 40
22.940548
 50
359.99999
 51
11.984295
  0
ARC
  8
0
  6
CONTINUOUS
 62
     7
 10
-213.07166
 20
-81.02037
 40
4
 50
180.00001
 51
270
  0
ARC
  8
0
  6
CONTINUOUS
 62
     7
 10
-213.07166
 20
-1.0203685
 40
4
 50
180.00001
 51
270
  0
ARC
  8
0
  6
CONTINUOUS
 62
     7
 10
-217.16502
 20
-0.77369493
 40
11.59337
 50
343.11152
 51
16.888488
  0
TEXT
  8
0
  6
CONTINUOUS
 62
     7
 10
-282.77682
 20
118.76988
 40
8
 41
0.84237086
  1
コマサスフィット継手　給水栓用座付チ－ズ
  0
TEXT
  8
0
  6
CONTINUOUS
 62
     7
 10
-89.469075
 20
-70.942368
 40
8
 41
1.0084034
  1
13X1/2
  0
POINT
  8
1
  6
CONTINUOUS
 62
     7
 10
-311.3107
 20
-470.71918
  0
POINT
  8
1
  6
CONTINUOUS
 62
     7
 10
-311.3107
 20
-153.71919
  0
POINT
  8
1
  6
CONTINUOUS
 62
     7
 10
-311.3107
 20
-767.71918
  0
POINT
  8
1
  6
CONTINUOUS
 62
     7
 10
108.68929
 20
-153.71919
  0
POINT
  8
1
  6
CONTINUOUS
 62
     7
 10
-311.3107
 20
-777.71918
  0
POINT
  8
1
  6
CONTINUOUS
 62
     7
 10
-311.3107
 20
143.28081
  0
POINT
  8
1
  6
CONTINUOUS
 62
     7
 10
-311.3107
 20
-153.71919
  0
POINT
  8
1
  6
CONTINUOUS
 62
     7
 10
-311.3107
 20
-163.71919
  0
POINT
  8
1
  6
CONTINUOUS
 62
     7
 10
-311.3107
 20
-163.71919
  0
POINT
  8
1
  6
CONTINUOUS
 62
     7
 10
-311.3107
 20
-460.71918
  0
POINT
  8
1
  6
CONTINUOUS
 62
     7
 10
-311.3107
 20
-470.71918
  0
LINE
  8
1
  6
CONTINUOUS
 62
     7
 10
108.68929
 20
143.28081
 11
108.68929
 21
-33.714287
  0
LINE
  8
1
  6
CONTINUOUS
 62
     2
 10
-311.3107
 20
-470.71918
 11
108.68929
 21
-470.71918
  0
LINE
  8
1
  6
CONTINUOUS
 62
     2
 10
-311.3107
 20
-470.71918
 11
-311.3107
 21
-767.71918
  0
LINE
  8
1
  6
CONTINUOUS
 62
     2
 10
-311.3107
 20
-767.71918
 11
108.68929
 21
-767.71918
  0
LINE
  8
1
  6
CONTINUOUS
 62
     2
 10
108.68929
 20
-470.71918
 11
108.68929
 21
-767.71918
  0
LINE
  8
1
  6
CONTINUOUS
 62
     2
 10
-311.3107
 20
143.28081
 11
-311.3107
 21
-153.71919
  0
LINE
  8
1
  6
CONTINUOUS
 62
     2
 10
-311.3107
 20
-153.71919
 11
108.68929
 21
-153.71919
  0
LINE
  8
1
  6
CONTINUOUS
 62
     2
 10
108.68929
 20
143.28081
 11
108.68929
 21
-153.71919
  0
LINE
  8
1
  6
CONTINUOUS
 62
     2
 10
-311.3107
 20
143.28081
 11
108.68929
 21
143.28081
  0
LINE
  8
1
  6
CONTINUOUS
 62
     2
 10
-311.3107
 20
-163.71919
 11
-311.3107
 21
-460.71918
  0
LINE
  8
1
  6
CONTINUOUS
 62
     2
 10
-311.3107
 20
-460.71918
 11
108.68929
 21
-460.71918
  0
LINE
  8
1
  6
CONTINUOUS
 62
     2
 10
108.68929
 20
-163.71919
 11
108.68929
 21
-460.71918
  0
LINE
  8
1
  6
CONTINUOUS
 62
     2
 10
-311.3107
 20
-163.71919
 11
108.68929
 21
-163.71919
  0
ENDSEC
  0
EOF
