  0
SECTION
  2
HEADER
  9
$EXTMAX
 10
108.92817
 20
144.14287
  9
$EXTMIN
 10
-311.07183
 20
-153.71428
  0
ENDSEC
  0
SECTION
  2
TABLES
  0
TABLE
  2
LTYPE
 70
    22
  0
LTYPE
  2
CONTINUOUS
 70
    64
  3
Solid line
 72
    65
 73
     0
 40
0.000000
  0
LTYPE
  2
DASHED
 70
    64
  3
__ __ __ __ __ __ __ __ __ __ __ __ __ __ __
 72
    65
 73
     2
 40
3.500000
 49
2.000000
 49
-1.500000
  0
LTYPE
  2
CENTER
 70
    64
  3
____ _ ____ _ ____ _ ____ _ ____ _ ____ _ ____
 72
    65
 73
     4
 40
17.500000
 49
13.000000
 49
-1.500000
 49
1.500000
 49
-1.500000
  0
LTYPE
  2
PHANTOM
 70
    64
  3
_____ _ _ _____ _ _ _____ _ _ _____ _ _ ____  
 72
    65
 73
     6
 40
15.500000
 49
8.000000
 49
-1.500000
 49
1.500000
 49
-1.500000
 49
1.500000
 49
-1.500000
  0
LTYPE
  2
DOT
 70
    64
  3
. . . . . . . . . . . . . . . . . . . . . . . .
 72
    65
 73
     2
 40
0.25
 49
0.0
 49
-0.25
  0
ENDTAB
  0
TABLE
  2
LAYER
 70
     2
  0
LAYER
  2
0
 70
     0
 62
     7
  6
CONTINUOUS
  0
LAYER
  2
1
 70
     0
 62
     7
  6
CONTINUOUS
  0
ENDTAB
  0
TABLE
  2
STYLE
 70
     1
  0
STYLE
  2
STANDARD
 70
     0
 40
0.000000
 41
1.000000
 50
0.000000
 71
     0
 42
0.200000
  3
txt
  4
BIGFONT
  0
ENDTAB
  0
TABLE
  2
VIEW
 70
     0
  0
ENDTAB
  0
ENDSEC
  0
SECTION
  2
BLOCKS
  0
ENDSEC
  0
SECTION
  2
ENTITIES
  0
POINT
  8
0
  6
CONTINUOUS
 62
     7
 10
-401.50162
 20
101.27591
  0
POINT
  8
0
  6
CONTINUOUS
 62
     7
 10
-401.50162
 20
56.199329
  0
POINT
  8
0
  6
CONTINUOUS
 62
     7
 10
-401.50162
 20
5.3851457
  0
POINT
  8
0
  6
CONTINUOUS
 62
     7
 10
-401.50162
 20
-50.685677
  0
POINT
  8
0
  6
CONTINUOUS
 62
     7
 10
-401.50162
 20
-137.66437
  0
POINT
  8
0
  6
CONTINUOUS
 62
     7
 10
-401.50162
 20
-241.56189
  0
POINT
  8
0
  6
CONTINUOUS
 62
     7
 10
-401.50162
 20
-347.29117
  0
POINT
  8
0
  6
CONTINUOUS
 62
     7
 10
-204.93864
 20
-32.49044
  0
POINT
  8
0
  6
CONTINUOUS
 62
     7
 10
-124.93864
 20
47.50956
  0
POINT
  8
0
  6
CONTINUOUS
 62
     7
 10
-88.793068
 20
-245.65611
  0
POINT
  8
0
  6
CONTINUOUS
 62
     7
 10
-208.79308
 20
-345.6561
  0
POINT
  8
0
  6
CONTINUOUS
 62
     7
 10
-105.44913
 20
-553.4823
  0
POINT
  8
0
  6
CONTINUOUS
 62
     7
 10
-124.93864
 20
-32.49044
  0
POINT
  8
0
  6
CONTINUOUS
 62
     7
 10
-88.793068
 20
-345.6561
  0
POINT
  8
0
  6
CONTINUOUS
 62
     7
 10
-199.44913
 20
-653.4823
  0
POINT
  8
0
  6
CONTINUOUS
 62
     7
 10
-79.449135
 20
-653.4823
  0
POINT
  8
0
  6
CONTINUOUS
 62
     7
 10
-105.44913
 20
-653.4823
  0
POINT
  8
0
  6
CONTINUOUS
 62
     7
 10
-114.79307
 20
-245.65611
  0
POINT
  8
0
  6
CONTINUOUS
 62
     7
 10
-147.93864
 20
47.50956
  0
LINE
  8
0
  6
CENTER
 62
     7
 10
-401.50162
 20
119.69923
 11
-401.50162
 21
80.453743
  0
LINE
  8
0
  6
CENTER
 62
     7
 10
-419.98352
 20
101.27591
 11
-383.7355
 21
101.27591
  0
LINE
  8
0
  6
CONTINUOUS
 62
     7
 10
-385.80695
 20
101.27591
 11
-390.40381
 21
112.37373
  0
LINE
  8
0
  6
CONTINUOUS
 62
     7
 10
-390.40378
 20
112.37373
 11
-401.50162
 21
116.9706
  0
LINE
  8
0
  6
CONTINUOUS
 62
     7
 10
-412.59943
 20
112.37373
 11
-401.50162
 21
116.97059
  0
LINE
  8
0
  6
CONTINUOUS
 62
     7
 10
-417.19629
 20
101.27592
 11
-412.59943
 21
112.37373
  0
LINE
  8
0
  6
CONTINUOUS
 62
     7
 10
-412.59946
 20
90.178085
 11
-417.19632
 21
101.2759
  0
LINE
  8
0
  6
CONTINUOUS
 62
     7
 10
-401.50162
 20
85.581223
 11
-412.59946
 21
90.178093
  0
LINE
  8
0
  6
CONTINUOUS
 62
     7
 10
-390.40381
 20
90.178085
 11
-401.50162
 21
85.581223
  0
LINE
  8
0
  6
CONTINUOUS
 62
     7
 10
-385.80692
 20
101.27591
 11
-390.40381
 21
90.178093
  0
LINE
  8
0
  6
CENTER
 62
     7
 10
-425.552
 20
56.199329
 11
-377.8042
 21
56.199329
  0
LINE
  8
0
  6
CONTINUOUS
 62
     7
 10
-383.10095
 20
56.199326
 11
-388.49039
 21
69.210556
  0
LINE
  8
0
  6
CONTINUOUS
 62
     7
 10
-388.49039
 20
69.210571
 11
-401.50162
 21
74.599998
  0
LINE
  8
0
  6
CONTINUOUS
 62
     7
 10
-414.51285
 20
69.210564
 11
-401.50165
 21
74.599991
  0
LINE
  8
0
  6
CONTINUOUS
 62
     7
 10
-419.90228
 20
56.199326
 11
-414.51285
 21
69.210564
  0
LINE
  8
0
  6
CONTINUOUS
 62
     7
 10
-414.51288
 20
43.188091
 11
-419.90228
 21
56.199318
  0
LINE
  8
0
  6
CONTINUOUS
 62
     7
 10
-401.50162
 20
37.798664
 11
-414.51285
 21
43.188091
  0
LINE
  8
0
  6
CONTINUOUS
 62
     7
 10
-388.49039
 20
43.188084
 11
-401.50162
 21
37.798656
  0
LINE
  8
0
  6
CONTINUOUS
 62
     7
 10
-383.10095
 20
56.199326
 11
-388.49039
 21
43.188091
  0
LINE
  8
0
  6
CENTER
 62
     7
 10
-401.50162
 20
78.522614
 11
-401.50162
 21
35.072231
  0
LINE
  8
0
  6
CENTER
 62
     7
 10
-430.80862
 20
5.3851457
 11
-372.54755
 21
5.3851457
  0
LINE
  8
0
  6
CONTINUOUS
 62
     7
 10
-378.23019
 20
5.3851414
 11
-385.04623
 21
21.840534
  0
LINE
  8
0
  6
CONTINUOUS
 62
     7
 10
-385.04623
 20
21.840532
 11
-401.50162
 21
28.656578
  0
LINE
  8
0
  6
CONTINUOUS
 62
     7
 10
-417.957
 20
21.840536
 11
-401.50162
 21
28.656582
  0
LINE
  8
0
  6
CONTINUOUS
 62
     7
 10
-424.77307
 20
5.3851485
 11
-417.957
 21
21.84054
  0
LINE
  8
0
  6
CONTINUOUS
 62
     7
 10
-417.957
 20
-11.070247
 11
-424.77307
 21
5.3851457
  0
LINE
  8
0
  6
CONTINUOUS
 62
     7
 10
-401.50162
 20
-17.886288
 11
-417.957
 21
-11.070242
  0
LINE
  8
0
  6
CONTINUOUS
 62
     7
 10
-385.04623
 20
-11.070237
 11
-401.50162
 21
-17.886284
  0
LINE
  8
0
  6
CONTINUOUS
 62
     7
 10
-378.23019
 20
5.3851528
 11
-385.04623
 21
-11.070239
  0
LINE
  8
0
  6
CENTER
 62
     7
 10
-401.50162
 20
31.209974
 11
-401.50162
 21
-20.447704
  0
LINE
  8
0
  6
CENTER
 62
     7
 10
-434.86905
 20
-50.685677
 11
-369.74557
 21
-50.685677
  0
LINE
  8
0
  6
CONTINUOUS
 62
     7
 10
-374.983
 20
-50.685677
 11
-382.75012
 21
-31.934185
  0
LINE
  8
0
  6
CONTINUOUS
 62
     7
 10
-382.75012
 20
-31.934193
 11
-401.50162
 21
-24.167067
  0
LINE
  8
0
  6
CONTINUOUS
 62
     7
 10
-420.25308
 20
-31.934187
 11
-401.50162
 21
-24.167074
  0
LINE
  8
0
  6
CONTINUOUS
 62
     7
 10
-428.02023
 20
-50.685665
 11
-420.25311
 21
-31.934177
  0
LINE
  8
0
  6
CONTINUOUS
 62
     7
 10
-420.25311
 20
-69.437164
 11
-428.02023
 21
-50.685673
  0
LINE
  8
0
  6
CONTINUOUS
 62
     7
 10
-401.50162
 20
-77.204292
 11
-420.25311
 21
-69.437164
  0
LINE
  8
0
  6
CONTINUOUS
 62
     7
 10
-382.75012
 20
-69.437172
 11
-401.50162
 21
-77.204285
  0
LINE
  8
0
  6
CONTINUOUS
 62
     7
 10
-374.98303
 20
-50.685665
 11
-382.75015
 21
-69.437149
  0
LINE
  8
0
  6
CENTER
 62
     7
 10
-401.50162
 20
-21.654659
 11
-401.50162
 21
-81.278244
  0
LINE
  8
0
  6
CENTER
 62
     7
 10
-437.92899
 20
-137.66437
 11
-365.00909
 21
-137.66437
  0
LINE
  8
0
  6
CONTINUOUS
 62
     7
 10
-369.57104
 20
-137.66437
 11
-378.92331
 21
-115.08604
  0
LINE
  8
0
  6
CONTINUOUS
 62
     7
 10
-378.92331
 20
-115.08604
 11
-401.50162
 21
-105.7338
  0
LINE
  8
0
  6
CONTINUOUS
 62
     7
 10
-424.07996
 20
-115.08604
 11
-401.50162
 21
-105.7338
  0
LINE
  8
0
  6
CONTINUOUS
 62
     7
 10
-433.43219
 20
-137.66437
 11
-424.07996
 21
-115.08604
  0
LINE
  8
0
  6
CONTINUOUS
 62
     7
 10
-424.07996
 20
-160.24269
 11
-433.43219
 21
-137.66437
  0
LINE
  8
0
  6
CONTINUOUS
 62
     7
 10
-401.50162
 20
-169.59494
 11
-424.07996
 21
-160.24269
  0
LINE
  8
0
  6
CONTINUOUS
 62
     7
 10
-378.92331
 20
-160.24269
 11
-401.50162
 21
-169.59494
  0
LINE
  8
0
  6
CONTINUOUS
 62
     7
 10
-369.57104
 20
-137.66437
 11
-378.92331
 21
-160.24269
  0
LINE
  8
0
  6
CENTER
 62
     7
 10
-401.50162
 20
-102.03787
 11
-401.50162
 21
-172.52405
  0
LINE
  8
0
  6
CENTER
 62
     7
 10
-448.31732
 20
-241.56189
 11
-358.51984
 21
-241.56189
  0
LINE
  8
0
  6
CONTINUOUS
 62
     7
 10
-364.70029
 20
-241.56189
 11
-375.47916
 21
-215.53941
  0
LINE
  8
0
  6
CONTINUOUS
 62
     7
 10
-375.47913
 20
-215.53943
 11
-401.50162
 21
-204.76056
  0
LINE
  8
0
  6
CONTINUOUS
 62
     7
 10
-427.52408
 20
-215.53941
 11
-401.50162
 21
-204.76056
  0
LINE
  8
0
  6
CONTINUOUS
 62
     7
 10
-438.30298
 20
-241.56189
 11
-427.52411
 21
-215.5394
  0
LINE
  8
0
  6
CONTINUOUS
 62
     7
 10
-427.52408
 20
-267.58435
 11
-438.30295
 21
-241.56189
  0
LINE
  8
0
  6
CONTINUOUS
 62
     7
 10
-401.50162
 20
-278.36322
 11
-427.52411
 21
-267.58438
  0
LINE
  8
0
  6
CONTINUOUS
 62
     7
 10
-375.47916
 20
-267.58435
 11
-401.50162
 21
-278.36322
  0
LINE
  8
0
  6
CONTINUOUS
 62
     7
 10
-364.70029
 20
-241.56187
 11
-375.47916
 21
-267.58435
  0
LINE
  8
0
  6
CENTER
 62
     7
 10
-401.50162
 20
-198.1115
 11
-401.50162
 21
-283.08115
  0
LINE
  8
0
  6
CENTER
 62
     7
 10
-450.48984
 20
-347.29117
 11
-351.5195
 21
-347.29117
  0
LINE
  8
0
  6
CONTINUOUS
 62
     7
 10
-357.12354
 20
-347.29117
 11
-370.12158
 21
-315.9111
  0
LINE
  8
0
  6
CONTINUOUS
 62
     7
 10
-370.12158
 20
-315.9111
 11
-401.50162
 21
-302.91306
  0
LINE
  8
0
  6
CONTINUOUS
 62
     7
 10
-432.88165
 20
-315.9111
 11
-401.50162
 21
-302.91309
  0
LINE
  8
0
  6
CONTINUOUS
 62
     7
 10
-445.8797
 20
-347.29114
 11
-432.88165
 21
-315.9111
  0
LINE
  8
0
  6
CONTINUOUS
 62
     7
 10
-432.88162
 20
-378.67117
 11
-445.87967
 21
-347.29114
  0
LINE
  8
0
  6
CONTINUOUS
 62
     7
 10
-401.50165
 20
-391.66925
 11
-432.88168
 21
-378.6712
  0
LINE
  8
0
  6
CONTINUOUS
 62
     7
 10
-370.12158
 20
-378.6712
 11
-401.50162
 21
-391.66925
  0
LINE
  8
0
  6
CONTINUOUS
 62
     7
 10
-357.12354
 20
-347.29114
 11
-370.12158
 21
-378.6712
  0
LINE
  8
0
  6
CENTER
 62
     7
 10
-401.50162
 20
-297.08182
 11
-401.50162
 21
-397.0177
  0
LINE
  8
0
  6
CONTINUOUS
 62
     7
 10
-124.93864
 20
-68.49044
 11
-114.43864
 21
-68.49044
  0
LINE
  8
0
  6
CONTINUOUS
 62
     7
 10
-111.31734
 20
-57.49044
 11
-110.43866
 21
-57.49044
  0
LINE
  8
0
  6
CONTINUOUS
 62
     7
 10
-110.43866
 20
-57.49044
 11
-110.43866
 21
-64.49044
  0
LINE
  8
0
  6
CONTINUOUS
 62
     7
 10
-110.93865
 20
-56.990437
 11
-110.43865
 21
-57.490437
  0
LINE
  8
0
  6
CONTINUOUS
 62
     7
 10
-120.17519
 20
-57.49044
 11
-118.0533
 21
-57.49044
  0
LINE
  8
0
  6
CONTINUOUS
 62
     7
 10
-111.31734
 20
-57.49044
 11
-111.31734
 21
-64.49044
  0
LINE
  8
0
  6
CONTINUOUS
 62
     7
 10
-120.17519
 20
-57.49044
 11
-120.17519
 21
-64.49044
  0
LINE
  8
0
  6
CONTINUOUS
 62
     7
 10
-118.0533
 20
-57.49044
 11
-118.0533
 21
-64.49044
  0
LINE
  8
0
  6
CONTINUOUS
 62
     7
 10
-124.93864
 20
-64.49044
 11
-110.43866
 21
-64.49044
  0
LINE
  8
0
  6
CONTINUOUS
 62
     7
 10
-124.93864
 20
-56.99044
 11
-110.93866
 21
-56.99044
  0
LINE
  8
0
  6
CONTINUOUS
 62
     7
 10
-111.22458
 20
-53.590439
 11
-111.22458
 21
-56.99044
  0
LINE
  8
0
  6
CONTINUOUS
 62
     7
 10
-124.93864
 20
-68.49044
 11
-135.43863
 21
-68.49044
  0
LINE
  8
0
  6
CONTINUOUS
 62
     7
 10
-138.55997
 20
-57.49044
 11
-139.43863
 21
-57.49044
  0
LINE
  8
0
  6
CONTINUOUS
 62
     7
 10
-139.43863
 20
-57.49044
 11
-139.43863
 21
-64.49044
  0
LINE
  8
0
  6
CONTINUOUS
 62
     7
 10
-138.93864
 20
-56.990444
 11
-139.43864
 21
-57.490444
  0
LINE
  8
0
  6
CONTINUOUS
 62
     7
 10
-129.70209
 20
-57.49044
 11
-131.82397
 21
-57.49044
  0
LINE
  8
0
  6
CONTINUOUS
 62
     7
 10
-138.55997
 20
-57.49044
 11
-138.55997
 21
-64.49044
  0
LINE
  8
0
  6
CONTINUOUS
 62
     7
 10
-129.70209
 20
-57.49044
 11
-129.70209
 21
-64.49044
  0
LINE
  8
0
  6
CONTINUOUS
 62
     7
 10
-131.82397
 20
-57.49044
 11
-131.82397
 21
-64.49044
  0
LINE
  8
0
  6
CONTINUOUS
 62
     7
 10
-124.93864
 20
-64.49044
 11
-139.43863
 21
-64.49044
  0
LINE
  8
0
  6
CONTINUOUS
 62
     7
 10
-124.93864
 20
-56.99044
 11
-138.93863
 21
-56.99044
  0
LINE
  8
0
  6
CONTINUOUS
 62
     7
 10
-138.65271
 20
-53.590439
 11
-138.65271
 21
-56.99044
  0
LINE
  8
0
  6
CONTINUOUS
 62
     7
 10
-219.93864
 20
-51.590446
 11
-219.93864
 21
-53.590446
  0
LINE
  8
0
  6
CONTINUOUS
 62
     7
 10
-189.93864
 20
-51.590446
 11
-189.93864
 21
-53.590446
  0
LINE
  8
0
  6
CENTER
 62
     7
 10
-124.93864
 20
74.606178
 11
-124.93864
 21
20.750244
  0
LINE
  8
0
  6
CENTER
 62
     7
 10
-236.0773
 20
-32.49044
 11
-177.18463
 21
-32.49044
  0
LINE
  8
0
  6
CENTER
 62
     7
 10
-150.24702
 20
-32.49044
 11
-93.429764
 21
-32.49044
  0
LINE
  8
0
  6
CENTER
 62
     7
 10
-124.93864
 20
-12.643103
 11
-124.93864
 21
-71.20092
  0
LINE
  8
0
  6
CENTER
 62
     7
 10
-182.43864
 20
-25.472942
 11
-182.43864
 21
-38.669533
  0
LINE
  8
0
  6
CONTINUOUS
 62
     7
 10
-229.10533
 20
-25.177975
 11
-207.71643
 21
-20.302992
  0
LINE
  8
0
  6
CONTINUOUS
 62
     7
 10
-180.77196
 20
-25.177971
 11
-202.16087
 21
-20.302988
  0
LINE
  8
0
  6
CONTINUOUS
 62
     7
 10
-229.1053
 20
-39.80291
 11
-207.71642
 21
-44.677891
  0
LINE
  8
0
  6
CONTINUOUS
 62
     7
 10
-180.77199
 20
-39.802914
 11
-202.16087
 21
-44.677891
  0
LINE
  8
0
  6
CENTER
 62
     7
 10
-204.93864
 20
-15.031587
 11
-204.93864
 21
-72.80423
  0
LINE
  8
0
  6
CENTER
 62
     7
 10
-227.43864
 20
-25.531342
 11
-227.43864
 21
-41.362717
  0
LINE
  8
0
  6
CENTER
 62
     7
 10
-150.86745
 20
47.50956
 11
-92.309921
 21
47.50956
  0
LINE
  8
0
  6
CONTINUOUS
 62
     7
 10
-125.43864
 20
34.009567
 11
-103.76707
 21
34.009567
  0
LINE
  8
0
  6
CONTINUOUS
 62
     7
 10
-127.93864
 20
61.009563
 11
-103.76707
 21
61.009563
  0
LINE
  8
0
  6
CONTINUOUS
 62
     7
 10
-97.938644
 20
63.009563
 11
-97.938644
 21
32.009563
  0
LINE
  8
0
  6
CONTINUOUS
 62
     7
 10
-147.93864
 20
77.50956
 11
-147.93864
 21
17.509563
  0
LINE
  8
0
  6
CONTINUOUS
 62
     7
 10
-142.93864
 20
75.50956
 11
-142.93864
 21
51.509563
  0
LINE
  8
0
  6
CONTINUOUS
 62
     7
 10
-147.93864
 20
77.50956
 11
-144.93864
 21
77.50956
  0
LINE
  8
0
  6
CONTINUOUS
 62
     7
 10
-147.93864
 20
17.509563
 11
-144.93864
 21
17.509563
  0
LINE
  8
0
  6
CONTINUOUS
 62
     7
 10
-140.93864
 20
45.50956
 11
-127.96245
 21
45.50956
  0
LINE
  8
0
  6
CONTINUOUS
 62
     7
 10
-140.93864
 20
49.509563
 11
-127.96245
 21
49.509563
  0
LINE
  8
0
  6
CONTINUOUS
 62
     7
 10
-142.93864
 20
43.50956
 11
-142.93864
 21
19.509563
  0
LINE
  8
0
  6
CONTINUOUS
 62
     7
 10
-100.93864
 20
63.009563
 11
-97.938644
 21
63.009563
  0
LINE
  8
0
  6
CONTINUOUS
 62
     7
 10
-100.93864
 20
32.009563
 11
-97.938644
 21
32.009563
  0
LINE
  8
0
  6
CONTINUOUS
 62
     7
 10
-100.93864
 20
63.009563
 11
-100.93864
 21
32.009563
  0
LINE
  8
0
  6
CONTINUOUS
 62
     7
 10
-215.43864
 20
-42.917835
 11
-215.43864
 21
-45.780972
  0
LINE
  8
0
  6
CONTINUOUS
 62
     7
 10
-194.43864
 20
-42.917835
 11
-194.43864
 21
-45.780972
  0
LINE
  8
0
  6
CENTER
 62
     7
 10
-153.71576
 20
70.00956
 11
-136.54167
 21
70.00956
  0
LINE
  8
0
  6
CENTER
 62
     7
 10
-151.24861
 20
25.00956
 11
-140.87193
 21
25.00956
  0
LINE
  8
0
  6
CONTINUOUS
 62
     7
 10
-219.93864
 20
-53.590446
 11
-189.93864
 21
-53.590446
  0
LINE
  8
0
  6
CONTINUOUS
 62
     7
 10
-100.80904
 20
-16.490442
 11
-97.938644
 21
-16.490442
  0
LINE
  8
0
  6
CONTINUOUS
 62
     7
 10
-147.93864
 20
-44.99044
 11
-144.93864
 21
-44.99044
  0
LINE
  8
0
  6
CONTINUOUS
 62
     7
 10
-140.93864
 20
-30.49044
 11
-136.7928
 21
-30.49044
  0
LINE
  8
0
  6
CONTINUOUS
 62
     7
 10
-97.938644
 20
-16.490442
 11
-97.938644
 21
-48.49044
  0
LINE
  8
0
  6
CONTINUOUS
 62
     7
 10
-140.93864
 20
-34.49044
 11
-137.43864
 21
-34.49044
  0
LINE
  8
0
  6
CONTINUOUS
 62
     7
 10
-140.93864
 20
-24.99044
 11
-133.92863
 21
-24.99044
  0
LINE
  8
0
  6
CONTINUOUS
 62
     7
 10
-139.93864
 20
-49.99044
 11
-139.93864
 21
-53.590443
  0
LINE
  8
0
  6
CONTINUOUS
 62
     7
 10
-109.93864
 20
-48.990444
 11
-109.93864
 21
-53.590443
  0
LINE
  8
0
  6
CONTINUOUS
 62
     7
 10
-142.93864
 20
-21.990438
 11
-142.93864
 21
-28.49044
  0
LINE
  8
0
  6
CONTINUOUS
 62
     7
 10
-147.93864
 20
-19.990438
 11
-126.43864
 21
-19.990438
  0
LINE
  8
0
  6
CONTINUOUS
 62
     7
 10
-142.93864
 20
-36.49044
 11
-142.93864
 21
-42.99044
  0
LINE
  8
0
  6
CONTINUOUS
 62
     7
 10
-147.93864
 20
-19.990438
 11
-147.93864
 21
-44.99044
  0
LINE
  8
0
  6
CONTINUOUS
 62
     7
 10
-121.43864
 20
-18.990438
 11
-103.76707
 21
-18.990438
  0
LINE
  8
0
  6
CONTINUOUS
 62
     7
 10
-140.93864
 20
-39.99044
 11
-137.43864
 21
-39.99044
  0
LINE
  8
0
  6
CONTINUOUS
 62
     7
 10
-134.43864
 20
-31.99044
 11
-134.43864
 21
-46.515503
  0
LINE
  8
0
  6
CONTINUOUS
 62
     7
 10
-100.93864
 20
-48.49044
 11
-97.938644
 21
-48.49044
  0
LINE
  8
0
  6
CONTINUOUS
 62
     7
 10
-139.93864
 20
-53.590443
 11
-124.93864
 21
-53.590443
  0
LINE
  8
0
  6
CONTINUOUS
 62
     7
 10
-124.93864
 20
-53.590443
 11
-109.93864
 21
-53.590443
  0
LINE
  8
0
  6
CONTINUOUS
 62
     7
 10
-141.45628
 20
59.612366
 11
-133.97493
 21
57.607742
  0
LINE
  8
0
  6
CONTINUOUS
 62
     7
 10
-141.45628
 20
35.406765
 11
-133.97491
 21
37.411392
  0
LINE
  8
0
  6
CONTINUOUS
 62
     7
 10
-100.93864
 20
-16.490442
 11
-100.93864
 21
-48.49044
  0
LINE
  8
0
  6
CONTINUOUS
 62
     7
 10
-139.93864
 20
-51.090443
 11
-109.93864
 21
-51.090443
  0
LINE
  8
0
  6
CONTINUOUS
 62
     7
 10
-112.21544
 20
-45.990444
 11
-105.81203
 21
-45.990444
  0
LINE
  8
0
  6
CONTINUOUS
 62
     7
 10
-140.93864
 20
40.00956
 11
-135.2366
 21
40.00956
  0
LINE
  8
0
  6
CONTINUOUS
 62
     7
 10
-140.93864
 20
55.009563
 11
-135.2366
 21
55.009563
  0
LINE
  8
0
  6
CONTINUOUS
 62
     7
 10
-134.43864
 20
52.009563
 11
-134.43864
 21
49.509563
  0
LINE
  8
0
  6
CONTINUOUS
 62
     7
 10
-134.43864
 20
45.50956
 11
-134.43864
 21
43.009567
  0
LINE
  8
0
  6
CONTINUOUS
 62
     7
 10
-219.93864
 20
-51.590446
 11
-208.18864
 21
-51.590446
  0
LINE
  8
0
  6
CONTINUOUS
 62
     7
 10
-201.68864
 20
-51.590446
 11
-189.93864
 21
-51.590446
  0
LINE
  8
0
  6
CONTINUOUS
 62
     7
 10
-203.68864
 20
-45.026104
 11
-203.68864
 21
-49.590446
  0
LINE
  8
0
  6
CONTINUOUS
 62
     7
 10
-206.18864
 20
-45.026108
 11
-206.18864
 21
-49.590446
  0
LINE
  8
0
  6
CENTER
 62
     7
 10
-88.793068
 20
-221.37193
 11
-88.793068
 21
-269.51794
  0
LINE
  8
0
  6
CENTER
 62
     7
 10
-119.43319
 20
-245.65611
 11
-51.408241
 21
-245.65611
  0
LINE
  8
0
  6
CONTINUOUS
 62
     7
 10
-58.793068
 20
-230.65611
 11
-58.793068
 21
-260.6561
  0
LINE
  8
0
  6
CONTINUOUS
 62
     7
 10
-114.79307
 20
-213.1561
 11
-114.79307
 21
-278.1561
  0
LINE
  8
0
  6
CONTINUOUS
 62
     7
 10
-62.793068
 20
-230.65611
 11
-62.793068
 21
-260.6561
  0
LINE
  8
0
  6
CONTINUOUS
 62
     7
 10
-109.79307
 20
-215.15611
 11
-109.79307
 21
-241.65611
  0
LINE
  8
0
  6
CONTINUOUS
 62
     7
 10
-114.79307
 20
-213.1561
 11
-111.79307
 21
-213.1561
  0
LINE
  8
0
  6
CONTINUOUS
 62
     7
 10
-114.79307
 20
-278.1561
 11
-111.79307
 21
-278.1561
  0
LINE
  8
0
  6
CONTINUOUS
 62
     7
 10
-109.79307
 20
-249.65611
 11
-109.79307
 21
-276.1561
  0
LINE
  8
0
  6
CENTER
 62
     7
 10
-117.59644
 20
-220.65611
 11
-106.50573
 21
-220.65611
  0
LINE
  8
0
  6
CENTER
 62
     7
 10
-117.59644
 20
-270.6561
 11
-107.31443
 21
-270.6561
  0
LINE
  8
0
  6
CENTER
 62
     7
 10
-239.93173
 20
-345.6561
 11
-176.63306
 21
-345.6561
  0
LINE
  8
0
  6
CENTER
 62
     7
 10
-208.79308
 20
-328.19724
 11
-208.79308
 21
-385.96988
  0
LINE
  8
0
  6
CONTINUOUS
 62
     7
 10
-191.29308
 20
-365.7561
 11
-191.29308
 21
-367.7561
  0
LINE
  8
0
  6
CONTINUOUS
 62
     7
 10
-226.29308
 20
-365.7561
 11
-226.29308
 21
-367.7561
  0
LINE
  8
0
  6
CENTER
 62
     7
 10
-183.79308
 20
-338.6553
 11
-183.79308
 21
-352.7966
  0
LINE
  8
0
  6
CONTINUOUS
 62
     7
 10
-235.29308
 20
-338.30765
 11
-211.29306
 21
-333.40866
  0
LINE
  8
0
  6
CONTINUOUS
 62
     7
 10
-206.29308
 20
-333.40866
 11
-182.29309
 21
-338.30765
  0
LINE
  8
0
  6
CONTINUOUS
 62
     7
 10
-182.29308
 20
-353.00458
 11
-206.29306
 21
-357.90356
  0
LINE
  8
0
  6
CONTINUOUS
 62
     7
 10
-235.29309
 20
-353.00458
 11
-211.29308
 21
-357.90356
  0
LINE
  8
0
  6
CONTINUOUS
 62
     7
 10
-221.29308
 20
-355.8623
 11
-221.29308
 21
-360.34003
  0
LINE
  8
0
  6
CONTINUOUS
 62
     7
 10
-196.29308
 20
-355.8623
 11
-196.29308
 21
-360.34003
  0
LINE
  8
0
  6
CENTER
 62
     7
 10
-233.79308
 20
-338.73877
 11
-233.79308
 21
-353.24316
  0
LINE
  8
0
  6
CONTINUOUS
 62
     7
 10
-226.29308
 20
-367.7561
 11
-191.29308
 21
-367.7561
  0
LINE
  8
0
  6
CONTINUOUS
 62
     7
 10
-92.543068
 20
-232.65611
 11
-65.621498
 21
-232.65611
  0
LINE
  8
0
  6
CONTINUOUS
 62
     7
 10
-92.543068
 20
-258.6561
 11
-65.621498
 21
-258.6561
  0
LINE
  8
0
  6
CONTINUOUS
 62
     7
 10
-62.793068
 20
-230.65611
 11
-58.793068
 21
-230.65611
  0
LINE
  8
0
  6
CONTINUOUS
 62
     7
 10
-62.793068
 20
-260.6561
 11
-58.793068
 21
-260.6561
  0
LINE
  8
0
  6
CONTINUOUS
 62
     7
 10
-108.3107
 20
-233.5533
 11
-100.5554
 21
-235.63133
  0
LINE
  8
0
  6
CONTINUOUS
 62
     7
 10
-108.31069
 20
-257.75888
 11
-100.55539
 21
-255.68086
  0
LINE
  8
0
  6
CONTINUOUS
 62
     7
 10
-107.79307
 20
-243.65611
 11
-103.29307
 21
-243.65611
  0
LINE
  8
0
  6
CONTINUOUS
 62
     7
 10
-107.79307
 20
-247.65611
 11
-103.29015
 21
-247.65611
  0
LINE
  8
0
  6
CONTINUOUS
 62
     7
 10
-107.79307
 20
-238.15611
 11
-101.9239
 21
-238.15611
  0
LINE
  8
0
  6
CONTINUOUS
 62
     7
 10
-107.79307
 20
-253.15611
 11
-101.9239
 21
-253.15611
  0
LINE
  8
0
  6
CONTINUOUS
 62
     7
 10
-101.29307
 20
-241.40611
 11
-101.29307
 21
-241.65611
  0
LINE
  8
0
  6
CONTINUOUS
 62
     7
 10
-101.29307
 20
-249.54832
 11
-101.29307
 21
-249.90611
  0
LINE
  8
0
  6
CONTINUOUS
 62
     7
 10
-226.29308
 20
-365.7561
 11
-212.04308
 21
-365.7561
  0
LINE
  8
0
  6
CONTINUOUS
 62
     7
 10
-207.54308
 20
-358.15869
 11
-207.54308
 21
-363.7561
  0
LINE
  8
0
  6
CONTINUOUS
 62
     7
 10
-210.04308
 20
-358.15869
 11
-210.04308
 21
-363.7561
  0
LINE
  8
0
  6
CONTINUOUS
 62
     7
 10
-205.54308
 20
-365.7561
 11
-191.29308
 21
-365.7561
  0
LINE
  8
0
  6
CENTER
 62
     7
 10
-88.793068
 20
-323.79919
 11
-88.793068
 21
-382.74976
  0
LINE
  8
0
  6
CENTER
 62
     7
 10
-117.85233
 20
-345.6561
 11
-56.009865
 21
-345.6561
  0
LINE
  8
0
  6
CONTINUOUS
 62
     7
 10
-62.793068
 20
-330.6561
 11
-58.793068
 21
-330.6561
  0
LINE
  8
0
  6
CONTINUOUS
 62
     7
 10
-62.793068
 20
-360.6561
 11
-58.793068
 21
-360.6561
  0
LINE
  8
0
  6
CONTINUOUS
 62
     7
 10
-66.293068
 20
-358.6561
 11
-65.621498
 21
-358.6561
  0
LINE
  8
0
  6
CONTINUOUS
 62
     3
 10
-83.793068
 20
-332.6561
 11
-65.621498
 21
-332.6561
  0
LINE
  8
0
  6
CONTINUOUS
 62
     7
 10
-107.79307
 20
-343.6561
 11
-101.34299
 21
-343.6561
  0
LINE
  8
0
  6
CONTINUOUS
 62
     7
 10
-107.79307
 20
-347.6561
 11
-103.28666
 21
-347.6561
  0
LINE
  8
0
  6
CONTINUOUS
 62
     7
 10
-101.29307
 20
-350.1561
 11
-101.29307
 21
-359.74002
  0
LINE
  8
0
  6
CONTINUOUS
 62
     7
 10
-71.293068
 20
-367.7561
 11
-71.293068
 21
-363.6561
  0
LINE
  8
0
  6
CONTINUOUS
 62
     7
 10
-106.29307
 20
-363.6561
 11
-106.29307
 21
-367.7561
  0
LINE
  8
0
  6
CONTINUOUS
 62
     7
 10
-58.793068
 20
-330.6561
 11
-58.793068
 21
-360.6561
  0
LINE
  8
0
  6
CONTINUOUS
 62
     7
 10
-107.79307
 20
-353.1561
 11
-104.29307
 21
-353.1561
  0
LINE
  8
0
  6
CONTINUOUS
 62
     7
 10
-107.79307
 20
-338.1561
 11
-97.766273
 21
-338.1561
  0
LINE
  8
0
  6
CONTINUOUS
 62
     7
 10
-109.79307
 20
-349.6561
 11
-109.79307
 21
-356.6561
  0
LINE
  8
0
  6
CONTINUOUS
 62
     7
 10
-114.79307
 20
-332.6561
 11
-83.793068
 21
-332.6561
  0
LINE
  8
0
  6
CONTINUOUS
 62
     7
 10
-114.79307
 20
-358.6561
 11
-111.79307
 21
-358.6561
  0
LINE
  8
0
  6
CONTINUOUS
 62
     7
 10
-109.79307
 20
-334.6561
 11
-109.79307
 21
-341.6561
  0
LINE
  8
0
  6
CONTINUOUS
 62
     7
 10
-114.79307
 20
-332.6561
 11
-114.79307
 21
-358.6561
  0
LINE
  8
0
  6
CONTINUOUS
 62
     7
 10
-106.29307
 20
-367.7561
 11
-88.793068
 21
-367.7561
  0
LINE
  8
0
  6
CONTINUOUS
 62
     7
 10
-71.293068
 20
-367.7561
 11
-88.793068
 21
-367.7561
  0
LINE
  8
0
  6
CONTINUOUS
 62
     7
 10
-62.793068
 20
-330.6561
 11
-62.793068
 21
-360.6561
  0
LINE
  8
0
  6
CONTINUOUS
 62
     7
 10
-71.293068
 20
-365.2561
 11
-88.793068
 21
-365.2561
  0
LINE
  8
0
  6
CONTINUOUS
 62
     3
 10
-72.199837
 20
-358.6561
 11
-65.621498
 21
-358.6561
  0
LINE
  8
0
  6
CONTINUOUS
 62
     7
 10
-106.29307
 20
-365.2561
 11
-88.793068
 21
-365.2561
  0
LINE
  8
0
  6
CENTER
 62
     7
 10
-109.38157
 20
-553.4823
 11
-45.398384
 21
-553.4823
  0
LINE
  8
0
  6
CONTINUOUS
 62
     7
 10
-49.449135
 20
-534.4823
 11
-49.449135
 21
-572.4823
  0
LINE
  8
0
  6
CONTINUOUS
 62
     7
 10
-105.44913
 20
-520.9823
 11
-105.44913
 21
-585.9823
  0
LINE
  8
0
  6
CONTINUOUS
 62
     7
 10
-100.44913
 20
-522.9823
 11
-100.44913
 21
-549.4823
  0
LINE
  8
0
  6
CONTINUOUS
 62
     7
 10
-53.449135
 20
-534.4823
 11
-49.449135
 21
-534.4823
  0
LINE
  8
0
  6
CONTINUOUS
 62
     7
 10
-53.449135
 20
-572.4823
 11
-49.449135
 21
-572.4823
  0
LINE
  8
0
  6
CONTINUOUS
 62
     7
 10
-53.449135
 20
-534.4823
 11
-53.449135
 21
-572.4823
  0
LINE
  8
0
  6
CENTER
 62
     7
 10
-109.38157
 20
-528.4823
 11
-96.907814
 21
-528.4823
  0
LINE
  8
0
  6
CENTER
 62
     7
 10
-109.38157
 20
-578.4823
 11
-96.422218
 21
-578.4823
  0
LINE
  8
0
  6
CONTINUOUS
 62
     7
 10
-105.44913
 20
-585.9823
 11
-102.44913
 21
-585.9823
  0
LINE
  8
0
  6
CONTINUOUS
 62
     7
 10
-105.44913
 20
-520.9823
 11
-102.44913
 21
-520.9823
  0
LINE
  8
0
  6
CONTINUOUS
 62
     7
 10
-100.44913
 20
-557.4823
 11
-100.44913
 21
-583.9823
  0
LINE
  8
0
  6
CENTER
 62
     7
 10
-230.58778
 20
-653.4823
 11
-167.28911
 21
-653.4823
  0
LINE
  8
0
  6
CENTER
 62
     7
 10
-199.44913
 20
-636.02344
 11
-199.44913
 21
-693.79608
  0
LINE
  8
0
  6
CENTER
 62
     7
 10
-174.44913
 20
-646.48151
 11
-174.44913
 21
-660.6228
  0
LINE
  8
0
  6
CONTINUOUS
 62
     7
 10
-225.94913
 20
-646.13385
 11
-201.94913
 21
-641.23486
  0
LINE
  8
0
  6
CONTINUOUS
 62
     7
 10
-196.94913
 20
-641.2348
 11
-172.94914
 21
-646.13379
  0
LINE
  8
0
  6
CONTINUOUS
 62
     7
 10
-172.94913
 20
-660.83081
 11
-196.94913
 21
-665.72974
  0
LINE
  8
0
  6
CONTINUOUS
 62
     7
 10
-225.94913
 20
-660.83075
 11
-201.94913
 21
-665.72974
  0
LINE
  8
0
  6
CONTINUOUS
 62
     7
 10
-211.94913
 20
-663.68848
 11
-211.94913
 21
-668.1662
  0
LINE
  8
0
  6
CONTINUOUS
 62
     7
 10
-186.94913
 20
-663.68848
 11
-186.94913
 21
-668.1662
  0
LINE
  8
0
  6
CENTER
 62
     7
 10
-224.44913
 20
-646.56494
 11
-224.44913
 21
-661.06934
  0
LINE
  8
0
  6
CONTINUOUS
 62
     7
 10
-216.94913
 20
-675.58228
 11
-181.94913
 21
-675.58228
  0
LINE
  8
0
  6
CONTINUOUS
 62
     7
 10
-79.949135
 20
-568.9823
 11
-56.407173
 21
-568.9823
  0
LINE
  8
0
  6
CONTINUOUS
 62
     7
 10
-79.949135
 20
-537.9823
 11
-56.407173
 21
-537.9823
  0
LINE
  8
0
  6
CONTINUOUS
 62
     7
 10
-98.449135
 20
-555.4823
 11
-87.803383
 21
-555.4823
  0
LINE
  8
0
  6
CONTINUOUS
 62
     7
 10
-98.449135
 20
-551.4823
 11
-87.803383
 21
-551.4823
  0
LINE
  8
0
  6
CONTINUOUS
 62
     7
 10
-98.966759
 20
-541.37946
 11
-91.553909
 21
-543.36572
  0
LINE
  8
0
  6
CONTINUOUS
 62
     7
 10
-98.966766
 20
-565.58508
 11
-91.553932
 21
-563.59882
  0
LINE
  8
0
  6
CONTINUOUS
 62
     7
 10
-98.449135
 20
-560.9823
 11
-92.598244
 21
-560.9823
  0
LINE
  8
0
  6
CONTINUOUS
 62
     7
 10
-98.449135
 20
-545.9823
 11
-92.598244
 21
-545.9823
  0
LINE
  8
0
  6
CONTINUOUS
 62
     7
 10
-91.949135
 20
-549.9823
 11
-91.949135
 21
-551.4823
  0
LINE
  8
0
  6
CONTINUOUS
 62
     7
 10
-91.949135
 20
-555.4823
 11
-91.949135
 21
-556.9823
  0
LINE
  8
0
  6
CONTINUOUS
 62
     7
 10
-216.94913
 20
-673.58228
 11
-202.69913
 21
-673.58228
  0
LINE
  8
0
  6
CONTINUOUS
 62
     7
 10
-198.19913
 20
-665.98486
 11
-198.19913
 21
-671.58228
  0
LINE
  8
0
  6
CONTINUOUS
 62
     7
 10
-200.69913
 20
-665.98486
 11
-200.69913
 21
-671.58228
  0
LINE
  8
0
  6
CONTINUOUS
 62
     7
 10
-196.19913
 20
-673.58228
 11
-181.94913
 21
-673.58228
  0
LINE
  8
0
  6
CONTINUOUS
 62
     7
 10
-216.94913
 20
-673.58228
 11
-216.94913
 21
-675.58228
  0
LINE
  8
0
  6
CONTINUOUS
 62
     7
 10
-181.94913
 20
-673.58228
 11
-181.94913
 21
-675.58228
  0
LINE
  8
0
  6
CONTINUOUS
 62
     7
 10
-91.949135
 20
-655.4823
 11
-91.949135
 21
-668.08228
  0
LINE
  8
0
  6
CONTINUOUS
 62
     7
 10
-61.949135
 20
-675.58228
 11
-61.949135
 21
-673.08228
  0
LINE
  8
0
  6
CONTINUOUS
 62
     7
 10
-96.949135
 20
-671.4823
 11
-96.949135
 21
-675.58228
  0
LINE
  8
0
  6
CONTINUOUS
 62
     7
 10
-49.449135
 20
-635.9823
 11
-49.449135
 21
-670.9823
  0
LINE
  8
0
  6
CONTINUOUS
 62
     7
 10
-100.44913
 20
-657.9823
 11
-100.44913
 21
-664.4823
  0
LINE
  8
0
  6
CONTINUOUS
 62
     7
 10
-98.449135
 20
-655.9823
 11
-94.949135
 21
-655.9823
  0
LINE
  8
0
  6
CONTINUOUS
 62
     7
 10
-98.449135
 20
-650.9823
 11
-93.748116
 21
-650.9823
  0
LINE
  8
0
  6
CONTINUOUS
 62
     7
 10
-105.44913
 20
-640.4823
 11
-84.765785
 21
-640.4823
  0
LINE
  8
0
  6
CENTER
 62
     7
 10
-79.449135
 20
-529.79749
 11
-79.449135
 21
-577.00519
  0
LINE
  8
0
  6
CENTER
 62
     7
 10
-109.55097
 20
-653.4823
 11
-47.310219
 21
-653.4823
  0
LINE
  8
0
  6
CONTINUOUS
 62
     7
 10
-105.44913
 20
-640.4823
 11
-105.44913
 21
-666.4823
  0
LINE
  8
0
  6
CONTINUOUS
 62
     7
 10
-100.44913
 20
-642.4823
 11
-100.44913
 21
-648.9823
  0
LINE
  8
0
  6
CONTINUOUS
 62
     7
 10
-96.949135
 20
-675.58228
 11
-79.449135
 21
-675.58228
  0
LINE
  8
0
  6
CONTINUOUS
 62
     7
 10
-65.149147
 20
-669.4823
 11
-56.047218
 21
-669.4823
  0
LINE
  8
0
  6
CONTINUOUS
 62
     7
 10
-73.949135
 20
-637.4823
 11
-56.047218
 21
-637.4823
  0
LINE
  8
0
  6
CONTINUOUS
 62
     7
 10
-53.449135
 20
-670.9823
 11
-49.449135
 21
-670.9823
  0
LINE
  8
0
  6
CONTINUOUS
 62
     7
 10
-53.449135
 20
-635.9823
 11
-49.449135
 21
-635.9823
  0
LINE
  8
0
  6
CONTINUOUS
 62
     7
 10
-61.949135
 20
-675.58228
 11
-79.449135
 21
-675.58228
  0
LINE
  8
0
  6
CONTINUOUS
 62
     7
 10
-105.44913
 20
-666.4823
 11
-102.44913
 21
-666.4823
  0
LINE
  8
0
  6
CONTINUOUS
 62
     7
 10
-61.949135
 20
-673.08228
 11
-79.449135
 21
-673.08228
  0
LINE
  8
0
  6
CONTINUOUS
 62
     7
 10
-53.449135
 20
-635.9823
 11
-53.449135
 21
-670.9823
  0
LINE
  8
0
  6
CONTINUOUS
 62
     7
 10
-96.949135
 20
-673.08228
 11
-79.449135
 21
-673.08228
  0
LINE
  8
0
  6
CONTINUOUS
 62
     7
 10
-204.93864
 20
-68.49044
 11
-194.43864
 21
-68.49044
  0
LINE
  8
0
  6
CONTINUOUS
 62
     7
 10
-191.31734
 20
-57.49044
 11
-190.43866
 21
-57.49044
  0
LINE
  8
0
  6
CONTINUOUS
 62
     7
 10
-190.43866
 20
-57.49044
 11
-190.43866
 21
-64.49044
  0
LINE
  8
0
  6
CONTINUOUS
 62
     7
 10
-190.93866
 20
-56.99044
 11
-190.43866
 21
-57.49044
  0
LINE
  8
0
  6
CONTINUOUS
 62
     7
 10
-200.17519
 20
-57.49044
 11
-198.0533
 21
-57.49044
  0
LINE
  8
0
  6
CONTINUOUS
 62
     7
 10
-191.31734
 20
-57.49044
 11
-191.31734
 21
-64.49044
  0
LINE
  8
0
  6
CONTINUOUS
 62
     7
 10
-200.17519
 20
-57.49044
 11
-200.17519
 21
-64.49044
  0
LINE
  8
0
  6
CONTINUOUS
 62
     7
 10
-198.0533
 20
-57.49044
 11
-198.0533
 21
-64.49044
  0
LINE
  8
0
  6
CONTINUOUS
 62
     7
 10
-204.93864
 20
-64.49044
 11
-190.43866
 21
-64.49044
  0
LINE
  8
0
  6
CONTINUOUS
 62
     7
 10
-204.93864
 20
-56.99044
 11
-190.93866
 21
-56.99044
  0
LINE
  8
0
  6
CONTINUOUS
 62
     7
 10
-191.22458
 20
-53.590439
 11
-191.22458
 21
-56.99044
  0
LINE
  8
0
  6
CONTINUOUS
 62
     7
 10
-204.93864
 20
-68.49044
 11
-215.43863
 21
-68.49044
  0
LINE
  8
0
  6
CONTINUOUS
 62
     7
 10
-218.55997
 20
-57.49044
 11
-219.43863
 21
-57.49044
  0
LINE
  8
0
  6
CONTINUOUS
 62
     7
 10
-219.43863
 20
-57.49044
 11
-219.43863
 21
-64.49044
  0
LINE
  8
0
  6
CONTINUOUS
 62
     7
 10
-218.93864
 20
-56.990448
 11
-219.43864
 21
-57.490448
  0
LINE
  8
0
  6
CONTINUOUS
 62
     7
 10
-209.70209
 20
-57.49044
 11
-211.82397
 21
-57.49044
  0
LINE
  8
0
  6
CONTINUOUS
 62
     7
 10
-218.55997
 20
-57.49044
 11
-218.55997
 21
-64.49044
  0
LINE
  8
0
  6
CONTINUOUS
 62
     7
 10
-209.70209
 20
-57.49044
 11
-209.70209
 21
-64.49044
  0
LINE
  8
0
  6
CONTINUOUS
 62
     7
 10
-211.82397
 20
-57.49044
 11
-211.82397
 21
-64.49044
  0
LINE
  8
0
  6
CONTINUOUS
 62
     7
 10
-204.93864
 20
-64.49044
 11
-219.43863
 21
-64.49044
  0
LINE
  8
0
  6
CONTINUOUS
 62
     7
 10
-204.93864
 20
-56.99044
 11
-218.93863
 21
-56.99044
  0
LINE
  8
0
  6
CONTINUOUS
 62
     7
 10
-218.65271
 20
-53.590439
 11
-218.65271
 21
-56.99044
  0
LINE
  8
0
  6
CONTINUOUS
 62
     7
 10
-79.449135
 20
-692.4823
 11
-67.449127
 21
-692.4823
  0
LINE
  8
0
  6
CONTINUOUS
 62
     7
 10
-79.449135
 20
-687.4823
 11
-62.449131
 21
-687.4823
  0
LINE
  8
0
  6
CONTINUOUS
 62
     7
 10
-73.650139
 20
-679.4823
 11
-73.650139
 21
-687.4823
  0
LINE
  8
0
  6
CONTINUOUS
 62
     7
 10
-73.650139
 20
-679.4823
 11
-71.528824
 21
-679.4823
  0
LINE
  8
0
  6
CONTINUOUS
 62
     7
 10
-63.327812
 20
-679.4823
 11
-62.449131
 21
-679.4823
  0
LINE
  8
0
  6
CONTINUOUS
 62
     7
 10
-63.327812
 20
-679.4823
 11
-63.327812
 21
-687.4823
  0
LINE
  8
0
  6
CONTINUOUS
 62
     7
 10
-62.449131
 20
-679.4823
 11
-62.449131
 21
-687.4823
  0
LINE
  8
0
  6
CONTINUOUS
 62
     7
 10
-62.449142
 20
-679.4823
 11
-62.949135
 21
-678.9823
  0
LINE
  8
0
  6
CONTINUOUS
 62
     7
 10
-71.528824
 20
-679.4823
 11
-71.528824
 21
-687.4823
  0
LINE
  8
0
  6
CONTINUOUS
 62
     7
 10
-79.449135
 20
-678.9823
 11
-62.949131
 21
-678.9823
  0
LINE
  8
0
  6
CONTINUOUS
 62
     7
 10
-63.279549
 20
-678.9823
 11
-63.279549
 21
-675.58228
  0
LINE
  8
0
  6
CONTINUOUS
 62
     7
 10
-79.449135
 20
-692.4823
 11
-91.449135
 21
-692.4823
  0
LINE
  8
0
  6
CONTINUOUS
 62
     7
 10
-79.449135
 20
-687.4823
 11
-96.449135
 21
-687.4823
  0
LINE
  8
0
  6
CONTINUOUS
 62
     7
 10
-85.248123
 20
-679.4823
 11
-85.248123
 21
-687.4823
  0
LINE
  8
0
  6
CONTINUOUS
 62
     7
 10
-85.248123
 20
-679.4823
 11
-87.369446
 21
-679.4823
  0
LINE
  8
0
  6
CONTINUOUS
 62
     7
 10
-95.570457
 20
-679.4823
 11
-96.449135
 21
-679.4823
  0
LINE
  8
0
  6
CONTINUOUS
 62
     7
 10
-95.570457
 20
-679.4823
 11
-95.570457
 21
-687.4823
  0
LINE
  8
0
  6
CONTINUOUS
 62
     7
 10
-96.449135
 20
-679.4823
 11
-96.449135
 21
-687.4823
  0
LINE
  8
0
  6
CONTINUOUS
 62
     7
 10
-96.449112
 20
-679.48224
 11
-95.94912
 21
-678.9823
  0
LINE
  8
0
  6
CONTINUOUS
 62
     7
 10
-87.369446
 20
-679.4823
 11
-87.369446
 21
-687.4823
  0
LINE
  8
0
  6
CONTINUOUS
 62
     7
 10
-79.449135
 20
-678.9823
 11
-95.949135
 21
-678.9823
  0
LINE
  8
0
  6
CONTINUOUS
 62
     7
 10
-95.618713
 20
-678.9823
 11
-95.618713
 21
-675.58228
  0
LINE
  8
0
  6
CONTINUOUS
 62
     7
 10
-88.793068
 20
-384.6561
 11
-76.793068
 21
-384.6561
  0
LINE
  8
0
  6
CONTINUOUS
 62
     7
 10
-88.793068
 20
-379.6561
 11
-71.793068
 21
-379.6561
  0
LINE
  8
0
  6
CONTINUOUS
 62
     7
 10
-82.99408
 20
-371.6561
 11
-82.99408
 21
-379.6561
  0
LINE
  8
0
  6
CONTINUOUS
 62
     7
 10
-82.99408
 20
-371.6561
 11
-80.872757
 21
-371.6561
  0
LINE
  8
0
  6
CONTINUOUS
 62
     7
 10
-72.671745
 20
-371.6561
 11
-71.793068
 21
-371.6561
  0
LINE
  8
0
  6
CONTINUOUS
 62
     7
 10
-72.671745
 20
-371.6561
 11
-72.671745
 21
-379.6561
  0
LINE
  8
0
  6
CONTINUOUS
 62
     7
 10
-71.793068
 20
-371.6561
 11
-71.793068
 21
-379.6561
  0
LINE
  8
0
  6
CONTINUOUS
 62
     7
 10
-71.79306
 20
-371.6561
 11
-72.293068
 21
-371.1561
  0
LINE
  8
0
  6
CONTINUOUS
 62
     7
 10
-80.872757
 20
-371.6561
 11
-80.872757
 21
-379.6561
  0
LINE
  8
0
  6
CONTINUOUS
 62
     7
 10
-88.793068
 20
-371.1561
 11
-72.293068
 21
-371.1561
  0
LINE
  8
0
  6
CONTINUOUS
 62
     7
 10
-72.623482
 20
-371.1561
 11
-72.623482
 21
-367.7561
  0
LINE
  8
0
  6
CONTINUOUS
 62
     7
 10
-88.793068
 20
-384.6561
 11
-100.79308
 21
-384.6561
  0
LINE
  8
0
  6
CONTINUOUS
 62
     7
 10
-88.793068
 20
-379.6561
 11
-105.79308
 21
-379.6561
  0
LINE
  8
0
  6
CONTINUOUS
 62
     7
 10
-94.592064
 20
-371.6561
 11
-94.592064
 21
-379.6561
  0
LINE
  8
0
  6
CONTINUOUS
 62
     7
 10
-94.592064
 20
-371.6561
 11
-96.713379
 21
-371.6561
  0
LINE
  8
0
  6
CONTINUOUS
 62
     7
 10
-104.91439
 20
-371.6561
 11
-105.79308
 21
-371.6561
  0
LINE
  8
0
  6
CONTINUOUS
 62
     7
 10
-104.91439
 20
-371.6561
 11
-104.91439
 21
-379.6561
  0
LINE
  8
0
  6
CONTINUOUS
 62
     7
 10
-105.79308
 20
-371.6561
 11
-105.79308
 21
-379.6561
  0
LINE
  8
0
  6
CONTINUOUS
 62
     7
 10
-105.79307
 20
-371.6561
 11
-105.29305
 21
-371.1561
  0
LINE
  8
0
  6
CONTINUOUS
 62
     7
 10
-96.713379
 20
-371.6561
 11
-96.713379
 21
-379.6561
  0
LINE
  8
0
  6
CONTINUOUS
 62
     7
 10
-88.793068
 20
-371.1561
 11
-105.29308
 21
-371.1561
  0
LINE
  8
0
  6
CONTINUOUS
 62
     7
 10
-104.96265
 20
-371.1561
 11
-104.96265
 21
-367.7561
  0
LINE
  8
0
  6
CONTINUOUS
 62
     7
 10
-208.79308
 20
-384.6561
 11
-196.79306
 21
-384.6561
  0
LINE
  8
0
  6
CONTINUOUS
 62
     7
 10
-208.79308
 20
-379.6561
 11
-191.79306
 21
-379.6561
  0
LINE
  8
0
  6
CONTINUOUS
 62
     7
 10
-202.99408
 20
-371.6561
 11
-202.99408
 21
-379.6561
  0
LINE
  8
0
  6
CONTINUOUS
 62
     7
 10
-202.99408
 20
-371.6561
 11
-200.87276
 21
-371.6561
  0
LINE
  8
0
  6
CONTINUOUS
 62
     7
 10
-192.67175
 20
-371.6561
 11
-191.79306
 21
-371.6561
  0
LINE
  8
0
  6
CONTINUOUS
 62
     7
 10
-192.67175
 20
-371.6561
 11
-192.67175
 21
-379.6561
  0
LINE
  8
0
  6
CONTINUOUS
 62
     7
 10
-191.79306
 20
-371.6561
 11
-191.79306
 21
-379.6561
  0
LINE
  8
0
  6
CONTINUOUS
 62
     7
 10
-191.79306
 20
-371.6561
 11
-192.29306
 21
-371.1561
  0
LINE
  8
0
  6
CONTINUOUS
 62
     7
 10
-200.87276
 20
-371.6561
 11
-200.87276
 21
-379.6561
  0
LINE
  8
0
  6
CONTINUOUS
 62
     7
 10
-208.79308
 20
-371.1561
 11
-192.29306
 21
-371.1561
  0
LINE
  8
0
  6
CONTINUOUS
 62
     7
 10
-192.62349
 20
-371.1561
 11
-192.62349
 21
-367.7561
  0
LINE
  8
0
  6
CONTINUOUS
 62
     7
 10
-208.79308
 20
-384.6561
 11
-220.79308
 21
-384.6561
  0
LINE
  8
0
  6
CONTINUOUS
 62
     7
 10
-208.79308
 20
-379.6561
 11
-225.79308
 21
-379.6561
  0
LINE
  8
0
  6
CONTINUOUS
 62
     7
 10
-214.59206
 20
-371.6561
 11
-214.59206
 21
-379.6561
  0
LINE
  8
0
  6
CONTINUOUS
 62
     7
 10
-214.59206
 20
-371.6561
 11
-216.71338
 21
-371.6561
  0
LINE
  8
0
  6
CONTINUOUS
 62
     7
 10
-224.9144
 20
-371.6561
 11
-225.79308
 21
-371.6561
  0
LINE
  8
0
  6
CONTINUOUS
 62
     7
 10
-224.9144
 20
-371.6561
 11
-224.9144
 21
-379.6561
  0
LINE
  8
0
  6
CONTINUOUS
 62
     7
 10
-225.79308
 20
-371.6561
 11
-225.79308
 21
-379.6561
  0
LINE
  8
0
  6
CONTINUOUS
 62
     7
 10
-225.79306
 20
-371.6561
 11
-225.29306
 21
-371.1561
  0
LINE
  8
0
  6
CONTINUOUS
 62
     7
 10
-216.71338
 20
-371.6561
 11
-216.71338
 21
-379.6561
  0
LINE
  8
0
  6
CONTINUOUS
 62
     7
 10
-208.79308
 20
-371.1561
 11
-225.29308
 21
-371.1561
  0
LINE
  8
0
  6
CONTINUOUS
 62
     7
 10
-224.96265
 20
-371.1561
 11
-224.96265
 21
-367.7561
  0
LINE
  8
0
  6
CONTINUOUS
 62
     7
 10
-199.44913
 20
-692.4823
 11
-187.44913
 21
-692.4823
  0
LINE
  8
0
  6
CONTINUOUS
 62
     7
 10
-199.44913
 20
-687.4823
 11
-182.44913
 21
-687.4823
  0
LINE
  8
0
  6
CONTINUOUS
 62
     7
 10
-193.65015
 20
-679.4823
 11
-193.65015
 21
-687.4823
  0
LINE
  8
0
  6
CONTINUOUS
 62
     7
 10
-193.65015
 20
-679.4823
 11
-191.52882
 21
-679.4823
  0
LINE
  8
0
  6
CONTINUOUS
 62
     7
 10
-183.3278
 20
-679.4823
 11
-182.44913
 21
-679.4823
  0
LINE
  8
0
  6
CONTINUOUS
 62
     7
 10
-183.3278
 20
-679.4823
 11
-183.3278
 21
-687.4823
  0
LINE
  8
0
  6
CONTINUOUS
 62
     7
 10
-182.44913
 20
-679.4823
 11
-182.44913
 21
-687.4823
  0
LINE
  8
0
  6
CONTINUOUS
 62
     7
 10
-182.44913
 20
-679.48224
 11
-182.94911
 21
-678.98224
  0
LINE
  8
0
  6
CONTINUOUS
 62
     7
 10
-191.52882
 20
-679.4823
 11
-191.52882
 21
-687.4823
  0
LINE
  8
0
  6
CONTINUOUS
 62
     7
 10
-199.44913
 20
-678.9823
 11
-182.94913
 21
-678.9823
  0
LINE
  8
0
  6
CONTINUOUS
 62
     7
 10
-183.27956
 20
-678.9823
 11
-183.27956
 21
-675.58228
  0
LINE
  8
0
  6
CONTINUOUS
 62
     7
 10
-199.44913
 20
-692.4823
 11
-211.44914
 21
-692.4823
  0
LINE
  8
0
  6
CONTINUOUS
 62
     7
 10
-199.44913
 20
-687.4823
 11
-216.44914
 21
-687.4823
  0
LINE
  8
0
  6
CONTINUOUS
 62
     7
 10
-205.24812
 20
-679.4823
 11
-205.24812
 21
-687.4823
  0
LINE
  8
0
  6
CONTINUOUS
 62
     7
 10
-205.24812
 20
-679.4823
 11
-207.36945
 21
-679.4823
  0
LINE
  8
0
  6
CONTINUOUS
 62
     7
 10
-215.57045
 20
-679.4823
 11
-216.44914
 21
-679.4823
  0
LINE
  8
0
  6
CONTINUOUS
 62
     7
 10
-215.57045
 20
-679.4823
 11
-215.57045
 21
-687.4823
  0
LINE
  8
0
  6
CONTINUOUS
 62
     7
 10
-216.44914
 20
-679.4823
 11
-216.44914
 21
-687.4823
  0
LINE
  8
0
  6
CONTINUOUS
 62
     7
 10
-216.44913
 20
-679.4823
 11
-215.94914
 21
-678.9823
  0
LINE
  8
0
  6
CONTINUOUS
 62
     7
 10
-207.36945
 20
-679.4823
 11
-207.36945
 21
-687.4823
  0
LINE
  8
0
  6
CONTINUOUS
 62
     7
 10
-199.44913
 20
-678.9823
 11
-215.94914
 21
-678.9823
  0
LINE
  8
0
  6
CONTINUOUS
 62
     7
 10
-215.61871
 20
-678.9823
 11
-215.61871
 21
-675.58228
  0
LINE
  8
0
  6
CENTER
 62
     7
 10
-79.449135
 20
-629.57739
 11
-79.449135
 21
-690.03589
  0
CIRCLE
  8
0
  6
CONTINUOUS
 62
     7
 10
-401.50162
 20
101.27591
 40
14.5
  0
CIRCLE
  8
0
  6
CONTINUOUS
 62
     7
 10
-401.50162
 20
101.27591
 40
8.0500002
  0
CIRCLE
  8
0
  6
CONTINUOUS
 62
     7
 10
-401.50162
 20
56.199329
 40
17
  0
CIRCLE
  8
0
  6
CONTINUOUS
 62
     7
 10
-401.50162
 20
56.199329
 40
11.25
  0
CIRCLE
  8
0
  6
CONTINUOUS
 62
     7
 10
-401.50162
 20
5.3851457
 40
21.5
  0
CIRCLE
  8
0
  6
CONTINUOUS
 62
     7
 10
-401.50162
 20
5.3851457
 40
14.4
  0
CIRCLE
  8
0
  6
CONTINUOUS
 62
     7
 10
-401.50162
 20
-50.685677
 40
24.5
  0
CIRCLE
  8
0
  6
CONTINUOUS
 62
     7
 10
-401.50162
 20
-50.685677
 40
17.25
  0
CIRCLE
  8
0
  6
CONTINUOUS
 62
     7
 10
-401.50162
 20
-137.66437
 40
29.5
  0
CIRCLE
  8
0
  6
CONTINUOUS
 62
     7
 10
-401.50162
 20
-137.66437
 40
21.65
  0
CIRCLE
  8
0
  6
CONTINUOUS
 62
     7
 10
-401.50162
 20
-241.56189
 40
34
  0
CIRCLE
  8
0
  6
CONTINUOUS
 62
     7
 10
-401.50162
 20
-241.56189
 40
24.65
  0
CIRCLE
  8
0
  6
CONTINUOUS
 62
     7
 10
-401.50162
 20
-347.29117
 40
41
  0
CIRCLE
  8
0
  6
CONTINUOUS
 62
     7
 10
-401.50162
 20
-347.29117
 40
30.65
  0
ARC
  8
0
  6
CONTINUOUS
 62
     7
 10
-135.19196
 20
-68.583817
 40
11.59337
 50
73.111513
 51
106.88848
  0
ARC
  8
0
  6
CONTINUOUS
 62
     7
 10
-124.93864
 20
-79.930992
 40
22.940548
 50
89.999989
 51
101.98429
  0
ARC
  8
0
  6
CONTINUOUS
 62
     7
 10
-114.43864
 20
-64.49044
 40
4
 50
270
 51
2.5044781E-006
  0
ARC
  8
0
  6
CONTINUOUS
 62
     7
 10
-114.68532
 20
-68.583817
 40
11.59337
 50
73.11152
 51
106.88849
  0
ARC
  8
0
  6
CONTINUOUS
 62
     7
 10
-124.93864
 20
-79.930992
 40
22.940548
 50
78.015705
 51
90.000009
  0
ARC
  8
0
  6
CONTINUOUS
 62
     7
 10
-135.43863
 20
-64.49044
 40
4
 50
179.99999
 51
270
  0
CIRCLE
  8
0
  6
CONTINUOUS
 62
     7
 10
-182.43864
 20
-32.49044
 40
3
  0
CIRCLE
  8
0
  6
CONTINUOUS
 62
     7
 10
-227.43864
 20
-32.49044
 40
3
  0
ARC
  8
0
  6
CONTINUOUS
 62
     7
 10
-227.43864
 20
-32.49044
 40
7.5
 50
102.83959
 51
257.16042
  0
ARC
  8
0
  6
CONTINUOUS
 62
     7
 10
-182.43864
 20
-32.49044
 40
7.5
 50
282.83959
 51
77.160415
  0
ARC
  8
0
  6
CONTINUOUS
 62
     7
 10
-204.93864
 20
-32.49044
 40
12.5
 50
77.160415
 51
102.83959
  0
ARC
  8
0
  6
CONTINUOUS
 62
     7
 10
-204.93864
 20
-32.49044
 40
12.5
 50
257.16041
 51
282.83959
  0
CIRCLE
  8
0
  6
DASHED
 62
     7
 10
-227.43864
 20
-32.49044
 40
4.5
  0
CIRCLE
  8
0
  6
DASHED
 62
     7
 10
-182.43864
 20
-32.49044
 40
4.5
  0
ARC
  8
0
  6
CONTINUOUS
 62
     7
 10
-140.93864
 20
51.509563
 40
2
 50
179.99999
 51
270
  0
ARC
  8
0
  6
CONTINUOUS
 62
     7
 10
-140.93864
 20
43.50956
 40
2
 50
90.000003
 51
180.00001
  0
ARC
  8
0
  6
CONTINUOUS
 62
     7
 10
-144.93864
 20
75.50956
 40
2
 50
0
 51
90.000003
  0
ARC
  8
0
  6
CONTINUOUS
 62
     7
 10
-144.93864
 20
19.509563
 40
2
 50
270
 51
0
  0
ARC
  8
0
  6
CONTINUOUS
 62
     7
 10
-103.76707
 20
64.00956
 40
3
 50
270
 51
340.52878
  0
ARC
  8
0
  6
CONTINUOUS
 62
     7
 10
-103.76707
 20
31.009563
 40
3
 50
19.47122
 51
90.000003
  0
ARC
  8
0
  6
CONTINUOUS
 62
     7
 10
-204.93864
 20
-32.49044
 40
16
 50
38.535576
 51
141.46442
  0
ARC
  8
0
  6
CONTINUOUS
 62
     7
 10
-204.93864
 20
-32.49044
 40
13.5
 50
54.968799
 51
125.03119
  0
ARC
  8
0
  6
CONTINUOUS
 62
     7
 10
-144.93864
 20
-21.990438
 40
2
 50
0
 51
90.000003
  0
ARC
  8
0
  6
CONTINUOUS
 62
     7
 10
-136.7928
 20
-27.49044
 40
3
 50
270
 51
343.66518
  0
ARC
  8
0
  6
CONTINUOUS
 62
     7
 10
-140.93864
 20
-22.990438
 40
2
 50
179.99999
 51
270
  0
ARC
  8
0
  6
CONTINUOUS
 62
     7
 10
-140.93864
 20
-28.49044
 40
2
 50
179.99999
 51
270
  0
ARC
  8
0
  6
CONTINUOUS
 62
     7
 10
-140.93864
 20
-36.49044
 40
2
 50
90.000003
 51
180.00001
  0
ARC
  8
0
  6
CONTINUOUS
 62
     7
 10
-144.93864
 20
-42.99044
 40
2
 50
270
 51
0
  0
ARC
  8
0
  6
CONTINUOUS
 62
     7
 10
-140.93864
 20
-41.99044
 40
2
 50
90.000003
 51
180.00001
  0
ARC
  8
0
  6
CONTINUOUS
 62
     7
 10
-144.93864
 20
-49.99044
 40
5
 50
0
 51
90.000003
  0
ARC
  8
0
  6
CONTINUOUS
 62
     7
 10
-139.43864
 20
-46.115505
 40
5
 50
264.26083
 51
0
  0
ARC
  8
0
  6
CONTINUOUS
 62
     7
 10
-103.89668
 20
-15.990438
 40
3
 50
270
 51
350.40592
  0
ARC
  8
0
  6
CONTINUOUS
 62
     7
 10
-137.43864
 20
-37.49044
 40
3
 50
0
 51
90.000003
  0
ARC
  8
0
  6
CONTINUOUS
 62
     7
 10
-121.43864
 20
-31.99044
 40
13
 50
90.000003
 51
180.00001
  0
ARC
  8
0
  6
CONTINUOUS
 62
     7
 10
-137.43864
 20
-42.99044
 40
3
 50
0
 51
90.000003
  0
ARC
  8
0
  6
CONTINUOUS
 62
     7
 10
-133.92863
 20
-21.990442
 40
3
 50
270
 51
321.31782
  0
ARC
  8
0
  6
CONTINUOUS
 62
     7
 10
-140.93864
 20
61.544216
 40
2
 50
179.99999
 51
255
  0
ARC
  8
0
  6
CONTINUOUS
 62
     7
 10
-140.93864
 20
33.474915
 40
2
 50
105
 51
180.00001
  0
ARC
  8
0
  6
CONTINUOUS
 62
     7
 10
-127.96245
 20
51.509563
 40
2
 50
270
 51
0
  0
ARC
  8
0
  6
CONTINUOUS
 62
     7
 10
-127.96245
 20
43.50956
 40
2
 50
0
 51
90.000003
  0
ARC
  8
0
  6
CONTINUOUS
 62
     7
 10
-109.43864
 20
-45.111313
 40
6
 50
226.03651
 51
265.21981
  0
ARC
  8
0
  6
CONTINUOUS
 62
     7
 10
-105.81203
 20
-51.990444
 40
6
 50
35.685362
 51
90.000003
  0
ARC
  8
0
  6
CONTINUOUS
 62
     7
 10
-106.93864
 20
-48.990444
 40
3
 50
90.000003
 51
180.00001
  0
ARC
  8
0
  6
CONTINUOUS
 62
     7
 10
-112.21544
 20
-47.990444
 40
2
 50
90.000003
 51
226.03652
  0
ARC
  8
0
  6
CONTINUOUS
 62
     7
 10
-140.93864
 20
57.009563
 40
2
 50
179.99999
 51
270
  0
ARC
  8
0
  6
CONTINUOUS
 62
     7
 10
-140.93864
 20
38.00956
 40
2
 50
90.000003
 51
180.00001
  0
ARC
  8
0
  6
CONTINUOUS
 62
     7
 10
-125.43864
 20
52.009563
 40
9
 50
90.000003
 51
180.00001
  0
ARC
  8
0
  6
CONTINUOUS
 62
     7
 10
-125.43864
 20
43.009567
 40
9
 50
180.00001
 51
270
  0
ARC
  8
0
  6
CONTINUOUS
 62
     7
 10
-133.45729
 20
59.539593
 40
2
 50
255
 51
316.79991
  0
ARC
  8
0
  6
CONTINUOUS
 62
     7
 10
-135.2366
 20
57.009563
 40
2
 50
270
 51
332.96431
  0
ARC
  8
0
  6
CONTINUOUS
 62
     7
 10
-135.2366
 20
38.00956
 40
2
 50
27.035736
 51
90.000003
  0
ARC
  8
0
  6
CONTINUOUS
 62
     7
 10
-133.45729
 20
35.479538
 40
2
 50
43.200089
 51
105
  0
ARC
  8
0
  6
CONTINUOUS
 62
     7
 10
-201.68864
 20
-49.590446
 40
2
 50
179.99999
 51
270
  0
ARC
  8
0
  6
CONTINUOUS
 62
     7
 10
-208.18864
 20
-49.590446
 40
2
 50
270
 51
0
  0
ARC
  8
0
  6
CONTINUOUS
 62
     7
 10
-188.43864
 20
-45.780972
 40
6
 50
179.99999
 51
255.52249
  0
ARC
  8
0
  6
CONTINUOUS
 62
     7
 10
-221.43864
 20
-45.780972
 40
6
 50
284.47751
 51
0
  0
ARC
  8
0
  6
CONTINUOUS
 62
     7
 10
-111.79307
 20
-276.1561
 40
2
 50
270
 51
0
  0
ARC
  8
0
  6
CONTINUOUS
 62
     7
 10
-111.79307
 20
-215.15611
 40
2
 50
0
 51
90.000003
  0
ARC
  8
0
  6
CONTINUOUS
 62
     7
 10
-208.79308
 20
-345.6561
 40
12.5
 50
77.160415
 51
102.83959
  0
ARC
  8
0
  6
CONTINUOUS
 62
     7
 10
-208.79308
 20
-345.6561
 40
12.5
 50
257.16041
 51
282.83959
  0
ARC
  8
0
  6
CONTINUOUS
 62
     7
 10
-183.79308
 20
-345.6561
 40
7.5
 50
281.53696
 51
78.463041
  0
CIRCLE
  8
0
  6
CONTINUOUS
 62
     7
 10
-183.79308
 20
-345.6561
 40
2.75
  0
CIRCLE
  8
0
  6
CONTINUOUS
 62
     7
 10
-233.79308
 20
-345.6561
 40
2.75
  0
CIRCLE
  8
0
  6
DASHED
 62
     7
 10
-183.79308
 20
-345.6561
 40
4.5
  0
CIRCLE
  8
0
  6
DASHED
 62
     7
 10
-233.79308
 20
-345.6561
 40
4.5
  0
ARC
  8
0
  6
CONTINUOUS
 62
     7
 10
-208.79308
 20
-345.6561
 40
16.5
 50
37.713989
 51
142.28602
  0
ARC
  8
0
  6
CONTINUOUS
 62
     7
 10
-208.79308
 20
-345.6561
 40
19
 50
29.602552
 51
150.39746
  0
ARC
  8
0
  6
CONTINUOUS
 62
     7
 10
-208.79308
 20
-345.6561
 40
19
 50
209.60255
 51
228.86049
  0
ARC
  8
0
  6
CONTINUOUS
 62
     7
 10
-208.79308
 20
-345.6561
 40
19
 50
311.25962
 51
330.39744
  0
ARC
  8
0
  6
CONTINUOUS
 62
     7
 10
-233.79308
 20
-345.6561
 40
7.5
 50
101.53696
 51
258.46305
  0
ARC
  8
0
  6
CONTINUOUS
 62
     7
 10
-107.79307
 20
-241.65611
 40
2
 50
179.99999
 51
270
  0
ARC
  8
0
  6
CONTINUOUS
 62
     7
 10
-107.79307
 20
-249.65611
 40
2
 50
90.000003
 51
180.00001
  0
ARC
  8
0
  6
CONTINUOUS
 62
     7
 10
-107.79307
 20
-231.62146
 40
2
 50
179.99999
 51
255
  0
ARC
  8
0
  6
CONTINUOUS
 62
     7
 10
-107.79307
 20
-259.69077
 40
2
 50
105
 51
180.00001
  0
ARC
  8
0
  6
CONTINUOUS
 62
     7
 10
-107.79307
 20
-236.15611
 40
2
 50
179.99999
 51
270
  0
ARC
  8
0
  6
CONTINUOUS
 62
     7
 10
-107.79307
 20
-255.15611
 40
2
 50
90.000003
 51
180.00001
  0
ARC
  8
0
  6
CONTINUOUS
 62
     7
 10
-65.621498
 20
-229.65611
 40
3
 50
270
 51
340.52878
  0
ARC
  8
0
  6
CONTINUOUS
 62
     7
 10
-65.621498
 20
-261.6561
 40
3
 50
19.47122
 51
90.000003
  0
ARC
  8
0
  6
CONTINUOUS
 62
     7
 10
-103.29307
 20
-241.65611
 40
2
 50
270
 51
0
  0
ARC
  8
0
  6
CONTINUOUS
 62
     7
 10
-103.29015
 20
-249.65611
 40
2
 50
358.66742
 51
90.000003
  0
ARC
  8
0
  6
CONTINUOUS
 62
     7
 10
-92.293068
 20
-241.65611
 40
9
 50
90.000003
 51
180.00001
  0
ARC
  8
0
  6
CONTINUOUS
 62
     7
 10
-92.293068
 20
-249.65611
 40
9
 50
180.00001
 51
270
  0
ARC
  8
0
  6
CONTINUOUS
 62
     7
 10
-99.921181
 20
-233.73071
 40
2
 50
255
 51
313.90506
  0
ARC
  8
0
  6
CONTINUOUS
 62
     7
 10
-101.81934
 20
-236.15611
 40
2
 50
270
 51
330
  0
ARC
  8
0
  6
CONTINUOUS
 62
     7
 10
-101.81934
 20
-255.15611
 40
2
 50
30.000001
 51
90.000003
  0
ARC
  8
0
  6
CONTINUOUS
 62
     7
 10
-99.921181
 20
-257.58148
 40
2
 50
46.094928
 51
105
  0
ARC
  8
0
  6
CONTINUOUS
 62
     7
 10
-227.29308
 20
-359.84003
 40
6
 50
279.59407
 51
0
  0
ARC
  8
0
  6
CONTINUOUS
 62
     7
 10
-190.29308
 20
-359.84003
 40
6
 50
180.00001
 51
260.40593
  0
ARC
  8
0
  6
CONTINUOUS
 62
     7
 10
-205.54308
 20
-363.7561
 40
2
 50
179.99999
 51
270
  0
ARC
  8
0
  6
CONTINUOUS
 62
     7
 10
-212.04308
 20
-363.7561
 40
2
 50
270
 51
0
  0
ARC
  8
0
  6
CONTINUOUS
 62
     7
 10
-65.621498
 20
-329.6561
 40
3
 50
270
 51
340.52878
  0
ARC
  8
0
  6
CONTINUOUS
 62
     3
 10
-83.793068
 20
-350.1561
 40
17.5
 50
90.000003
 51
180.00001
  0
ARC
  8
0
  6
CONTINUOUS
 62
     7
 10
-97.766273
 20
-335.1561
 40
3
 50
270
 51
312.97029
  0
ARC
  8
0
  6
CONTINUOUS
 62
     7
 10
-103.28666
 20
-349.6561
 40
2
 50
358.53072
 51
90.000003
  0
ARC
  8
0
  6
CONTINUOUS
 62
     7
 10
-66.293068
 20
-363.6561
 40
5
 50
90.000003
 51
180.00001
  0
ARC
  8
0
  6
CONTINUOUS
 62
     7
 10
-65.621498
 20
-361.6561
 40
3
 50
19.47122
 51
90.000003
  0
ARC
  8
0
  6
CONTINUOUS
 62
     7
 10
-107.79307
 20
-341.6561
 40
2
 50
179.99999
 51
270
  0
ARC
  8
0
  6
CONTINUOUS
 62
     7
 10
-107.29307
 20
-359.34003
 40
6
 50
279.59407
 51
0
  0
ARC
  8
0
  6
CONTINUOUS
 62
     7
 10
-104.29307
 20
-356.1561
 40
3
 50
0
 51
90.000003
  0
ARC
  8
0
  6
CONTINUOUS
 62
     7
 10
-101.34299
 20
-341.6561
 40
2
 50
270
 51
334.15759
  0
ARC
  8
0
  6
CONTINUOUS
 62
     7
 10
-111.29307
 20
-363.6561
 40
5
 50
0
 51
90.000003
  0
ARC
  8
0
  6
CONTINUOUS
 62
     7
 10
-107.79307
 20
-336.1561
 40
2
 50
179.99999
 51
270
  0
ARC
  8
0
  6
CONTINUOUS
 62
     7
 10
-107.79307
 20
-355.1561
 40
2
 50
90.000003
 51
180.00001
  0
ARC
  8
0
  6
CONTINUOUS
 62
     7
 10
-107.79307
 20
-349.6561
 40
2
 50
90.000003
 51
180.00001
  0
ARC
  8
0
  6
CONTINUOUS
 62
     7
 10
-111.79307
 20
-356.6561
 40
2
 50
270
 51
0
  0
ARC
  8
0
  6
CONTINUOUS
 62
     7
 10
-111.79307
 20
-334.6561
 40
2
 50
0
 51
90.000003
  0
ARC
  8
0
  6
CONTINUOUS
 62
     7
 10
-70.293068
 20
-359.34003
 40
6
 50
230.53635
 51
260.40593
  0
ARC
  8
0
  6
CONTINUOUS
 62
     7
 10
-72.199837
 20
-361.6561
 40
3
 50
90.000003
 51
230.53634
  0
ARC
  8
0
  6
CONTINUOUS
 62
     7
 10
-102.44913
 20
-583.9823
 40
2
 50
270
 51
0
  0
ARC
  8
0
  6
CONTINUOUS
 62
     7
 10
-102.44913
 20
-522.9823
 40
2
 50
0
 51
90.000003
  0
ARC
  8
0
  6
CONTINUOUS
 62
     7
 10
-199.44913
 20
-653.4823
 40
12.5
 50
77.160415
 51
102.83959
  0
ARC
  8
0
  6
CONTINUOUS
 62
     7
 10
-199.44913
 20
-653.4823
 40
12.5
 50
258.46304
 51
281.53696
  0
ARC
  8
0
  6
CONTINUOUS
 62
     7
 10
-174.44913
 20
-653.4823
 40
7.5
 50
281.53696
 51
78.463041
  0
CIRCLE
  8
0
  6
CONTINUOUS
 62
     7
 10
-174.44913
 20
-653.4823
 40
2.75
  0
CIRCLE
  8
0
  6
CONTINUOUS
 62
     7
 10
-224.44913
 20
-653.4823
 40
2.75
  0
CIRCLE
  8
0
  6
DASHED
 62
     7
 10
-174.44913
 20
-653.4823
 40
4.5
  0
CIRCLE
  8
0
  6
DASHED
 62
     7
 10
-224.44913
 20
-653.4823
 40
4.5
  0
ARC
  8
0
  6
CONTINUOUS
 62
     7
 10
-199.44913
 20
-653.4823
 40
16.5
 50
37.713989
 51
142.28602
  0
ARC
  8
0
  6
CONTINUOUS
 62
     7
 10
-199.44913
 20
-653.4823
 40
19
 50
29.602552
 51
150.39746
  0
ARC
  8
0
  6
CONTINUOUS
 62
     7
 10
-199.44913
 20
-653.4823
 40
19
 50
209.60255
 51
228.86049
  0
ARC
  8
0
  6
CONTINUOUS
 62
     7
 10
-199.44913
 20
-653.4823
 40
19
 50
311.13951
 51
330.39744
  0
ARC
  8
0
  6
CONTINUOUS
 62
     7
 10
-224.44913
 20
-653.4823
 40
7.5
 50
101.53696
 51
258.46305
  0
ARC
  8
0
  6
CONTINUOUS
 62
     7
 10
-56.407173
 20
-534.9823
 40
3
 50
270
 51
350.40594
  0
ARC
  8
0
  6
CONTINUOUS
 62
     7
 10
-56.407173
 20
-571.9823
 40
3
 50
9.5940679
 51
90.000003
  0
ARC
  8
0
  6
CONTINUOUS
 62
     7
 10
-98.449135
 20
-549.4823
 40
2
 50
179.99999
 51
270
  0
ARC
  8
0
  6
CONTINUOUS
 62
     7
 10
-98.449135
 20
-557.4823
 40
2
 50
90.000003
 51
180.00001
  0
ARC
  8
0
  6
CONTINUOUS
 62
     7
 10
-87.803383
 20
-549.4823
 40
2
 50
270
 51
0
  0
ARC
  8
0
  6
CONTINUOUS
 62
     7
 10
-87.803383
 20
-557.4823
 40
2
 50
0
 51
90.000003
  0
ARC
  8
0
  6
CONTINUOUS
 62
     7
 10
-98.449135
 20
-539.44763
 40
2
 50
179.99999
 51
255
  0
ARC
  8
0
  6
CONTINUOUS
 62
     7
 10
-98.449135
 20
-567.51697
 40
2
 50
105
 51
180.00001
  0
ARC
  8
0
  6
CONTINUOUS
 62
     7
 10
-98.449135
 20
-543.9823
 40
2
 50
179.99999
 51
270
  0
ARC
  8
0
  6
CONTINUOUS
 62
     7
 10
-98.449135
 20
-562.9823
 40
2
 50
90.000003
 51
180.00001
  0
ARC
  8
0
  6
CONTINUOUS
 62
     7
 10
-79.949135
 20
-549.9823
 40
12
 50
90.000003
 51
180.00001
  0
ARC
  8
0
  6
CONTINUOUS
 62
     7
 10
-79.949135
 20
-556.9823
 40
12
 50
180.00001
 51
270
  0
ARC
  8
0
  6
CONTINUOUS
 62
     7
 10
-91.036293
 20
-541.4339
 40
2
 50
255
 51
322.36714
  0
ARC
  8
0
  6
CONTINUOUS
 62
     7
 10
-92.598244
 20
-543.9823
 40
2
 50
270
 51
334.62307
  0
ARC
  8
0
  6
CONTINUOUS
 62
     7
 10
-92.598244
 20
-562.9823
 40
2
 50
25.376934
 51
90.000003
  0
ARC
  8
0
  6
CONTINUOUS
 62
     7
 10
-91.036293
 20
-565.5307
 40
2
 50
37.632833
 51
105
  0
ARC
  8
0
  6
CONTINUOUS
 62
     7
 10
-196.19913
 20
-671.58228
 40
2
 50
179.99999
 51
270
  0
ARC
  8
0
  6
CONTINUOUS
 62
     7
 10
-202.69913
 20
-671.58228
 40
2
 50
270
 51
0
  0
ARC
  8
0
  6
CONTINUOUS
 62
     7
 10
-217.94913
 20
-667.6662
 40
6
 50
279.59407
 51
0
  0
ARC
  8
0
  6
CONTINUOUS
 62
     7
 10
-180.94913
 20
-667.6662
 40
6
 50
180.00001
 51
260.40593
  0
ARC
  8
0
  6
CONTINUOUS
 62
     7
 10
-73.949135
 20
-655.4823
 40
18
 50
90.000003
 51
180.00001
  0
ARC
  8
0
  6
CONTINUOUS
 62
     7
 10
-56.047218
 20
-634.4823
 40
3
 50
270
 51
329.99999
  0
ARC
  8
0
  6
CONTINUOUS
 62
     7
 10
-57.949135
 20
-673.4823
 40
4
 50
90.000003
 51
174.26077
  0
ARC
  8
0
  6
CONTINUOUS
 62
     7
 10
-56.047218
 20
-672.4823
 40
3
 50
30.000001
 51
90.000003
  0
ARC
  8
0
  6
PHANTOM
 62
     7
 10
-84.765785
 20
-637.4823
 40
3
 50
270
 51
301.00272
  0
ARC
  8
0
  6
CONTINUOUS
 62
     7
 10
-96.949135
 20
-668.08228
 40
5
 50
270
 51
0
  0
ARC
  8
0
  6
CONTINUOUS
 62
     7
 10
-94.949135
 20
-658.9823
 40
3
 50
0
 51
90.000003
  0
ARC
  8
0
  6
CONTINUOUS
 62
     7
 10
-93.564186
 20
-647.9823
 40
3
 50
270
 51
339.07517
  0
ARC
  8
0
  6
CONTINUOUS
 62
     7
 10
-101.94913
 20
-671.4823
 40
5
 50
0
 51
90.000003
  0
ARC
  8
0
  6
CONTINUOUS
 62
     7
 10
-98.449135
 20
-657.9823
 40
2
 50
90.000003
 51
180.00001
  0
ARC
  8
0
  6
CONTINUOUS
 62
     7
 10
-98.449135
 20
-648.9823
 40
2
 50
179.99999
 51
270
  0
ARC
  8
0
  6
CONTINUOUS
 62
     7
 10
-102.44913
 20
-664.4823
 40
2
 50
270
 51
0
  0
ARC
  8
0
  6
CONTINUOUS
 62
     7
 10
-102.44913
 20
-642.4823
 40
2
 50
0
 51
90.000003
  0
ARC
  8
0
  6
CONTINUOUS
 62
     7
 10
-61.949135
 20
-668.08228
 40
5
 50
216.86997
 51
270
  0
ARC
  8
0
  6
CONTINUOUS
 62
     7
 10
-65.149147
 20
-670.4823
 40
1
 50
90.000003
 51
216.86997
  0
ARC
  8
0
  6
CONTINUOUS
 62
     7
 10
-215.43863
 20
-64.49044
 40
4
 50
179.99999
 51
270
  0
ARC
  8
0
  6
CONTINUOUS
 62
     7
 10
-215.19196
 20
-68.583817
 40
11.59337
 50
73.111513
 51
106.88848
  0
ARC
  8
0
  6
CONTINUOUS
 62
     7
 10
-204.93864
 20
-79.930992
 40
22.940548
 50
89.999989
 51
101.98429
  0
ARC
  8
0
  6
CONTINUOUS
 62
     7
 10
-194.43864
 20
-64.49044
 40
4
 50
270
 51
2.5044781E-006
  0
ARC
  8
0
  6
CONTINUOUS
 62
     7
 10
-194.68532
 20
-68.583817
 40
11.59337
 50
73.11152
 51
106.88849
  0
ARC
  8
0
  6
CONTINUOUS
 62
     7
 10
-204.93864
 20
-79.930992
 40
22.940548
 50
78.015705
 51
90.000009
  0
ARC
  8
0
  6
CONTINUOUS
 62
     7
 10
-91.449135
 20
-687.4823
 40
5
 50
179.99999
 51
270
  0
ARC
  8
0
  6
CONTINUOUS
 62
     7
 10
-67.428314
 20
-696.04651
 40
17.064236
 50
76.095862
 51
103.90414
  0
ARC
  8
0
  6
CONTINUOUS
 62
     7
 10
-79.449135
 20
-712.86072
 40
33.878471
 50
80.144121
 51
89.999989
  0
ARC
  8
0
  6
CONTINUOUS
 62
     7
 10
-67.449127
 20
-687.4823
 40
5
 50
269.99999
 51
6.832456E-007
  0
ARC
  8
0
  6
CONTINUOUS
 62
     7
 10
-91.469948
 20
-696.04651
 40
17.064236
 50
76.095855
 51
103.90414
  0
ARC
  8
0
  6
CONTINUOUS
 62
     7
 10
-79.449135
 20
-712.86072
 40
33.878471
 50
90.000009
 51
99.855877
  0
ARC
  8
0
  6
CONTINUOUS
 62
     7
 10
-100.79308
 20
-379.6561
 40
5
 50
179.99999
 51
270
  0
ARC
  8
0
  6
CONTINUOUS
 62
     7
 10
-76.772255
 20
-388.22034
 40
17.064236
 50
76.095862
 51
103.90414
  0
ARC
  8
0
  6
CONTINUOUS
 62
     7
 10
-88.793068
 20
-405.03458
 40
33.878471
 50
80.144121
 51
89.999989
  0
ARC
  8
0
  6
CONTINUOUS
 62
     7
 10
-76.793068
 20
-379.6561
 40
5
 50
269.99999
 51
6.8324495E-007
  0
ARC
  8
0
  6
CONTINUOUS
 62
     7
 10
-100.81389
 20
-388.22034
 40
17.064236
 50
76.095855
 51
103.90414
  0
ARC
  8
0
  6
CONTINUOUS
 62
     7
 10
-88.793068
 20
-405.03458
 40
33.878471
 50
90.000009
 51
99.855877
  0
ARC
  8
0
  6
CONTINUOUS
 62
     7
 10
-208.79308
 20
-405.03458
 40
33.878471
 50
90.000009
 51
99.855877
  0
ARC
  8
0
  6
CONTINUOUS
 62
     7
 10
-220.79308
 20
-379.6561
 40
5
 50
179.99999
 51
270
  0
ARC
  8
0
  6
CONTINUOUS
 62
     7
 10
-196.77225
 20
-388.22034
 40
17.064236
 50
76.095862
 51
103.90414
  0
ARC
  8
0
  6
CONTINUOUS
 62
     7
 10
-208.79308
 20
-405.03458
 40
33.878471
 50
80.144121
 51
89.999989
  0
ARC
  8
0
  6
CONTINUOUS
 62
     7
 10
-196.79306
 20
-379.6561
 40
5
 50
269.99999
 51
6.8324495E-007
  0
ARC
  8
0
  6
CONTINUOUS
 62
     7
 10
-220.81389
 20
-388.22034
 40
17.064236
 50
76.095855
 51
103.90414
  0
ARC
  8
0
  6
CONTINUOUS
 62
     7
 10
-199.44913
 20
-712.86072
 40
33.878471
 50
90.000009
 51
99.855877
  0
ARC
  8
0
  6
CONTINUOUS
 62
     7
 10
-211.44914
 20
-687.4823
 40
5
 50
179.99999
 51
270
  0
ARC
  8
0
  6
CONTINUOUS
 62
     7
 10
-187.42831
 20
-696.04651
 40
17.064236
 50
76.095862
 51
103.90414
  0
ARC
  8
0
  6
CONTINUOUS
 62
     7
 10
-199.44913
 20
-712.86072
 40
33.878471
 50
80.144121
 51
89.999989
  0
ARC
  8
0
  6
CONTINUOUS
 62
     7
 10
-187.44913
 20
-687.4823
 40
5
 50
269.99999
 51
6.832456E-007
  0
ARC
  8
0
  6
CONTINUOUS
 62
     7
 10
-211.46996
 20
-696.04651
 40
17.064236
 50
76.095855
 51
103.90414
  0
TEXT
  8
0
  6
CONTINUOUS
 62
     7
 10
-448.18668
 20
100.9722
 40
3.2
 41
1.0285716
  1
13
  0
TEXT
  8
0
  6
CONTINUOUS
 62
     7
 10
-449.74558
 20
58.88214
 40
3.2
 41
1.0285716
  1
20
  0
TEXT
  8
0
  6
CONTINUOUS
 62
     7
 10
-452.86335
 20
7.4387392
 40
3.2
 41
1.0285716
  1
25
  0
TEXT
  8
0
  6
CONTINUOUS
 62
     7
 10
-450.52503
 20
-56.47579
 40
3.2
 41
1.0285716
  1
30
  0
TEXT
  8
0
  6
CONTINUOUS
 62
     7
 10
-450.18433
 20
-132.60479
 40
3.2
 41
1.0285716
  1
40
  0
TEXT
  8
0
  6
CONTINUOUS
 62
     7
 10
-443.42539
 20
-210.33271
 40
3.2
 41
1.0285716
  1
50
  0
TEXT
  8
0
  6
CONTINUOUS
 62
     7
 10
-450.54114
 20
-310.81277
 40
3.2
 41
1.0285716
  1
60
  0
TEXT
  8
0
  6
CONTINUOUS
 62
     7
 10
-282.77682
 20
118.76988
 40
8
 41
0.84237086
  1
コマサスフィット継手　給水栓用座付エルボ
  0
TEXT
  8
0
  6
CONTINUOUS
 62
     7
 10
-230.46237
 20
43.278519
 40
8
 41
1.0084034
  1
13X1/2
  0
TEXT
  8
0
  6
CONTINUOUS
 62
     7
 10
-226.61393
 20
-259.70221
 40
8
 41
1.0084034
  1
20X1/2
  0
TEXT
  8
0
  6
CONTINUOUS
 62
     7
 10
-221.06613
 20
-568.53021
 40
8
 41
1.0084034
  1
20X3/4
  0
POINT
  8
1
  6
CONTINUOUS
 62
     7
 10
-311.3107
 20
-470.71918
  0
POINT
  8
1
  6
CONTINUOUS
 62
     7
 10
-311.3107
 20
-153.71919
  0
POINT
  8
1
  6
CONTINUOUS
 62
     7
 10
-311.3107
 20
-767.71918
  0
POINT
  8
1
  6
CONTINUOUS
 62
     7
 10
108.68929
 20
-153.71919
  0
POINT
  8
1
  6
CONTINUOUS
 62
     7
 10
-311.3107
 20
-777.71918
  0
POINT
  8
1
  6
CONTINUOUS
 62
     7
 10
-311.3107
 20
143.28081
  0
POINT
  8
1
  6
CONTINUOUS
 62
     7
 10
-311.3107
 20
-153.71919
  0
POINT
  8
1
  6
CONTINUOUS
 62
     7
 10
-311.3107
 20
-163.71919
  0
POINT
  8
1
  6
CONTINUOUS
 62
     7
 10
-311.3107
 20
-163.71919
  0
POINT
  8
1
  6
CONTINUOUS
 62
     7
 10
-311.3107
 20
-460.71918
  0
POINT
  8
1
  6
CONTINUOUS
 62
     7
 10
-311.3107
 20
-470.71918
  0
LINE
  8
1
  6
CONTINUOUS
 62
     7
 10
108.68929
 20
143.28081
 11
108.68929
 21
-33.714287
  0
LINE
  8
1
  6
CONTINUOUS
 62
     2
 10
-311.3107
 20
-470.71918
 11
108.68929
 21
-470.71918
  0
LINE
  8
1
  6
CONTINUOUS
 62
     2
 10
-311.3107
 20
-470.71918
 11
-311.3107
 21
-767.71918
  0
LINE
  8
1
  6
CONTINUOUS
 62
     2
 10
-311.3107
 20
-767.71918
 11
108.68929
 21
-767.71918
  0
LINE
  8
1
  6
CONTINUOUS
 62
     2
 10
108.68929
 20
-470.71918
 11
108.68929
 21
-767.71918
  0
LINE
  8
1
  6
CONTINUOUS
 62
     2
 10
-311.3107
 20
143.28081
 11
-311.3107
 21
-153.71919
  0
LINE
  8
1
  6
CONTINUOUS
 62
     2
 10
-311.3107
 20
-153.71919
 11
108.68929
 21
-153.71919
  0
LINE
  8
1
  6
CONTINUOUS
 62
     2
 10
108.68929
 20
143.28081
 11
108.68929
 21
-153.71919
  0
LINE
  8
1
  6
CONTINUOUS
 62
     2
 10
-311.3107
 20
143.28081
 11
108.68929
 21
143.28081
  0
LINE
  8
1
  6
CONTINUOUS
 62
     2
 10
-311.3107
 20
-163.71919
 11
-311.3107
 21
-460.71918
  0
LINE
  8
1
  6
CONTINUOUS
 62
     2
 10
-311.3107
 20
-460.71918
 11
108.68929
 21
-460.71918
  0
LINE
  8
1
  6
CONTINUOUS
 62
     2
 10
108.68929
 20
-163.71919
 11
108.68929
 21
-460.71918
  0
LINE
  8
1
  6
CONTINUOUS
 62
     2
 10
-311.3107
 20
-163.71919
 11
108.68929
 21
-163.71919
  0
ENDSEC
  0
EOF
