  0
SECTION
  2
HEADER
  9
$EXTMAX
 10
108.92817
 20
144.14287
  9
$EXTMIN
 10
-311.07183
 20
-153.71428
  0
ENDSEC
  0
SECTION
  2
TABLES
  0
TABLE
  2
LTYPE
 70
    22
  0
LTYPE
  2
CONTINUOUS
 70
    64
  3
Solid line
 72
    65
 73
     0
 40
0.000000
  0
LTYPE
  2
DASHED
 70
    64
  3
__ __ __ __ __ __ __ __ __ __ __ __ __ __ __
 72
    65
 73
     2
 40
3.500000
 49
2.000000
 49
-1.500000
  0
LTYPE
  2
CENTER
 70
    64
  3
____ _ ____ _ ____ _ ____ _ ____ _ ____ _ ____
 72
    65
 73
     4
 40
17.500000
 49
13.000000
 49
-1.500000
 49
1.500000
 49
-1.500000
  0
LTYPE
  2
PHANTOM
 70
    64
  3
_____ _ _ _____ _ _ _____ _ _ _____ _ _ ____  
 72
    65
 73
     6
 40
15.500000
 49
8.000000
 49
-1.500000
 49
1.500000
 49
-1.500000
 49
1.500000
 49
-1.500000
  0
LTYPE
  2
DOT
 70
    64
  3
. . . . . . . . . . . . . . . . . . . . . . . .
 72
    65
 73
     2
 40
0.25
 49
0.0
 49
-0.25
  0
ENDTAB
  0
TABLE
  2
LAYER
 70
     2
  0
LAYER
  2
0
 70
     0
 62
     7
  6
CONTINUOUS
  0
LAYER
  2
1
 70
     0
 62
     7
  6
CONTINUOUS
  0
ENDTAB
  0
TABLE
  2
STYLE
 70
     1
  0
STYLE
  2
STANDARD
 70
     0
 40
0.000000
 41
1.000000
 50
0.000000
 71
     0
 42
0.200000
  3
txt
  4
BIGFONT
  0
ENDTAB
  0
TABLE
  2
VIEW
 70
     0
  0
ENDTAB
  0
ENDSEC
  0
SECTION
  2
BLOCKS
  0
ENDSEC
  0
SECTION
  2
ENTITIES
  0
POINT
  8
0
  6
CONTINUOUS
 62
     7
 10
-231.13127
 20
-110.54394
  0
POINT
  8
0
  6
CONTINUOUS
 62
     7
 10
-231.13127
 20
13.37895
  0
POINT
  8
0
  6
CONTINUOUS
 62
     7
 10
-122.1949
 20
14.819733
  0
POINT
  8
0
  6
CONTINUOUS
 62
     7
 10
-0.5251596
 20
14.819733
  0
LINE
  8
0
  6
CENTER
 62
     7
 10
-401.50162
 20
119.69923
 11
-401.50162
 21
80.453743
  0
LINE
  8
0
  6
CENTER
 62
     7
 10
-419.98352
 20
101.27591
 11
-383.7355
 21
101.27591
  0
LINE
  8
0
  6
CONTINUOUS
 62
     7
 10
-385.80695
 20
101.27591
 11
-390.40381
 21
112.37373
  0
LINE
  8
0
  6
CONTINUOUS
 62
     7
 10
-390.40378
 20
112.37373
 11
-401.50162
 21
116.9706
  0
LINE
  8
0
  6
CONTINUOUS
 62
     7
 10
-412.59943
 20
112.37373
 11
-401.50162
 21
116.97059
  0
LINE
  8
0
  6
CONTINUOUS
 62
     7
 10
-417.19629
 20
101.27592
 11
-412.59943
 21
112.37373
  0
LINE
  8
0
  6
CONTINUOUS
 62
     7
 10
-412.59946
 20
90.178085
 11
-417.19632
 21
101.2759
  0
LINE
  8
0
  6
CONTINUOUS
 62
     7
 10
-401.50162
 20
85.581223
 11
-412.59946
 21
90.178093
  0
LINE
  8
0
  6
CONTINUOUS
 62
     7
 10
-390.40381
 20
90.178085
 11
-401.50162
 21
85.581223
  0
LINE
  8
0
  6
CONTINUOUS
 62
     7
 10
-385.80692
 20
101.27591
 11
-390.40381
 21
90.178093
  0
LINE
  8
0
  6
CENTER
 62
     7
 10
-425.552
 20
56.199329
 11
-377.8042
 21
56.199329
  0
LINE
  8
0
  6
CONTINUOUS
 62
     7
 10
-383.10095
 20
56.199326
 11
-388.49039
 21
69.210556
  0
LINE
  8
0
  6
CONTINUOUS
 62
     7
 10
-388.49039
 20
69.210571
 11
-401.50162
 21
74.599998
  0
LINE
  8
0
  6
CONTINUOUS
 62
     7
 10
-414.51285
 20
69.210564
 11
-401.50165
 21
74.599991
  0
LINE
  8
0
  6
CONTINUOUS
 62
     7
 10
-419.90228
 20
56.199326
 11
-414.51285
 21
69.210564
  0
LINE
  8
0
  6
CONTINUOUS
 62
     7
 10
-414.51288
 20
43.188091
 11
-419.90228
 21
56.199318
  0
LINE
  8
0
  6
CONTINUOUS
 62
     7
 10
-401.50162
 20
37.798664
 11
-414.51285
 21
43.188091
  0
LINE
  8
0
  6
CONTINUOUS
 62
     7
 10
-388.49039
 20
43.188084
 11
-401.50162
 21
37.798656
  0
LINE
  8
0
  6
CONTINUOUS
 62
     7
 10
-383.10095
 20
56.199326
 11
-388.49039
 21
43.188091
  0
LINE
  8
0
  6
CENTER
 62
     7
 10
-401.50162
 20
78.522614
 11
-401.50162
 21
35.072231
  0
LINE
  8
0
  6
CENTER
 62
     7
 10
-430.80862
 20
5.3851457
 11
-372.54755
 21
5.3851457
  0
LINE
  8
0
  6
CONTINUOUS
 62
     7
 10
-378.23019
 20
5.3851414
 11
-385.04623
 21
21.840534
  0
LINE
  8
0
  6
CONTINUOUS
 62
     7
 10
-385.04623
 20
21.840532
 11
-401.50162
 21
28.656578
  0
LINE
  8
0
  6
CONTINUOUS
 62
     7
 10
-417.957
 20
21.840536
 11
-401.50162
 21
28.656582
  0
LINE
  8
0
  6
CONTINUOUS
 62
     7
 10
-424.77307
 20
5.3851485
 11
-417.957
 21
21.84054
  0
LINE
  8
0
  6
CONTINUOUS
 62
     7
 10
-417.957
 20
-11.070247
 11
-424.77307
 21
5.3851457
  0
LINE
  8
0
  6
CONTINUOUS
 62
     7
 10
-401.50162
 20
-17.886288
 11
-417.957
 21
-11.070242
  0
LINE
  8
0
  6
CONTINUOUS
 62
     7
 10
-385.04623
 20
-11.070237
 11
-401.50162
 21
-17.886284
  0
LINE
  8
0
  6
CONTINUOUS
 62
     7
 10
-378.23019
 20
5.3851528
 11
-385.04623
 21
-11.070239
  0
LINE
  8
0
  6
CENTER
 62
     7
 10
-401.50162
 20
31.209974
 11
-401.50162
 21
-20.447704
  0
LINE
  8
0
  6
CENTER
 62
     7
 10
-434.86905
 20
-50.685677
 11
-369.74557
 21
-50.685677
  0
LINE
  8
0
  6
CONTINUOUS
 62
     7
 10
-374.983
 20
-50.685677
 11
-382.75012
 21
-31.934185
  0
LINE
  8
0
  6
CONTINUOUS
 62
     7
 10
-382.75012
 20
-31.934193
 11
-401.50162
 21
-24.167067
  0
LINE
  8
0
  6
CONTINUOUS
 62
     7
 10
-420.25308
 20
-31.934187
 11
-401.50162
 21
-24.167074
  0
LINE
  8
0
  6
CONTINUOUS
 62
     7
 10
-428.02023
 20
-50.685665
 11
-420.25311
 21
-31.934177
  0
LINE
  8
0
  6
CONTINUOUS
 62
     7
 10
-420.25311
 20
-69.437164
 11
-428.02023
 21
-50.685673
  0
LINE
  8
0
  6
CONTINUOUS
 62
     7
 10
-401.50162
 20
-77.204292
 11
-420.25311
 21
-69.437164
  0
LINE
  8
0
  6
CONTINUOUS
 62
     7
 10
-382.75012
 20
-69.437172
 11
-401.50162
 21
-77.204285
  0
LINE
  8
0
  6
CONTINUOUS
 62
     7
 10
-374.98303
 20
-50.685665
 11
-382.75015
 21
-69.437149
  0
LINE
  8
0
  6
CENTER
 62
     7
 10
-401.50162
 20
-21.654659
 11
-401.50162
 21
-81.278244
  0
LINE
  8
0
  6
CENTER
 62
     7
 10
-437.92899
 20
-137.66437
 11
-365.00909
 21
-137.66437
  0
LINE
  8
0
  6
CONTINUOUS
 62
     7
 10
-369.57104
 20
-137.66437
 11
-378.92331
 21
-115.08604
  0
LINE
  8
0
  6
CONTINUOUS
 62
     7
 10
-378.92331
 20
-115.08604
 11
-401.50162
 21
-105.7338
  0
LINE
  8
0
  6
CONTINUOUS
 62
     7
 10
-424.07996
 20
-115.08604
 11
-401.50162
 21
-105.7338
  0
LINE
  8
0
  6
CONTINUOUS
 62
     7
 10
-433.43219
 20
-137.66437
 11
-424.07996
 21
-115.08604
  0
LINE
  8
0
  6
CONTINUOUS
 62
     7
 10
-424.07996
 20
-160.24269
 11
-433.43219
 21
-137.66437
  0
LINE
  8
0
  6
CONTINUOUS
 62
     7
 10
-401.50162
 20
-169.59494
 11
-424.07996
 21
-160.24269
  0
LINE
  8
0
  6
CONTINUOUS
 62
     7
 10
-378.92331
 20
-160.24269
 11
-401.50162
 21
-169.59494
  0
LINE
  8
0
  6
CONTINUOUS
 62
     7
 10
-369.57104
 20
-137.66437
 11
-378.92331
 21
-160.24269
  0
LINE
  8
0
  6
CENTER
 62
     7
 10
-401.50162
 20
-102.03787
 11
-401.50162
 21
-172.52405
  0
LINE
  8
0
  6
CENTER
 62
     7
 10
-448.31732
 20
-241.56189
 11
-358.51984
 21
-241.56189
  0
LINE
  8
0
  6
CONTINUOUS
 62
     7
 10
-364.70029
 20
-241.56189
 11
-375.47916
 21
-215.53941
  0
LINE
  8
0
  6
CONTINUOUS
 62
     7
 10
-375.47913
 20
-215.53943
 11
-401.50162
 21
-204.76056
  0
LINE
  8
0
  6
CONTINUOUS
 62
     7
 10
-427.52408
 20
-215.53941
 11
-401.50162
 21
-204.76056
  0
LINE
  8
0
  6
CONTINUOUS
 62
     7
 10
-438.30298
 20
-241.56189
 11
-427.52411
 21
-215.5394
  0
LINE
  8
0
  6
CONTINUOUS
 62
     7
 10
-427.52408
 20
-267.58435
 11
-438.30295
 21
-241.56189
  0
LINE
  8
0
  6
CONTINUOUS
 62
     7
 10
-401.50162
 20
-278.36322
 11
-427.52411
 21
-267.58438
  0
LINE
  8
0
  6
CONTINUOUS
 62
     7
 10
-375.47916
 20
-267.58435
 11
-401.50162
 21
-278.36322
  0
LINE
  8
0
  6
CONTINUOUS
 62
     7
 10
-364.70029
 20
-241.56187
 11
-375.47916
 21
-267.58435
  0
LINE
  8
0
  6
CENTER
 62
     7
 10
-401.50162
 20
-198.1115
 11
-401.50162
 21
-283.08115
  0
LINE
  8
0
  6
CENTER
 62
     7
 10
-450.48984
 20
-347.29117
 11
-351.5195
 21
-347.29117
  0
LINE
  8
0
  6
CONTINUOUS
 62
     7
 10
-357.12354
 20
-347.29117
 11
-370.12158
 21
-315.9111
  0
LINE
  8
0
  6
CONTINUOUS
 62
     7
 10
-370.12158
 20
-315.9111
 11
-401.50162
 21
-302.91306
  0
LINE
  8
0
  6
CONTINUOUS
 62
     7
 10
-432.88165
 20
-315.9111
 11
-401.50162
 21
-302.91309
  0
LINE
  8
0
  6
CONTINUOUS
 62
     7
 10
-445.8797
 20
-347.29114
 11
-432.88165
 21
-315.9111
  0
LINE
  8
0
  6
CONTINUOUS
 62
     7
 10
-432.88162
 20
-378.67117
 11
-445.87967
 21
-347.29114
  0
LINE
  8
0
  6
CONTINUOUS
 62
     7
 10
-401.50165
 20
-391.66925
 11
-432.88168
 21
-378.6712
  0
LINE
  8
0
  6
CONTINUOUS
 62
     7
 10
-370.12158
 20
-378.6712
 11
-401.50162
 21
-391.66925
  0
LINE
  8
0
  6
CONTINUOUS
 62
     7
 10
-357.12354
 20
-347.29114
 11
-370.12158
 21
-378.6712
  0
LINE
  8
0
  6
CENTER
 62
     7
 10
-401.50162
 20
-297.08182
 11
-401.50162
 21
-397.0177
  0
LINE
  8
0
  6
CENTER
 62
     7
 10
-192.99876
 20
13.37895
 11
-267.73474
 21
13.37895
  0
LINE
  8
0
  6
CENTER
 62
     7
 10
-231.13127
 20
51.33894
 11
-231.13127
 21
-10.37446
  0
LINE
  8
0
  6
DASHED
 62
     7
 10
-215.13127
 20
46.378948
 11
-215.54282
 21
46.378948
  0
LINE
  8
0
  6
CONTINUOUS
 62
     7
 10
-215.13127
 20
46.378948
 11
-231.13127
 21
46.378948
  0
LINE
  8
0
  6
CONTINUOUS
 62
     7
 10
-215.13127
 20
48.378948
 11
-215.13127
 21
46.378948
  0
LINE
  8
0
  6
CONTINUOUS
 62
     7
 10
-218.1104
 20
3.8789499
 11
-231.13127
 21
3.8789499
  0
LINE
  8
0
  6
CONTINUOUS
 62
     7
 10
-210.03127
 20
-1.6210501
 11
-212.03127
 21
-1.6210501
  0
LINE
  8
0
  6
CONTINUOUS
 62
     7
 10
-224.59293
 20
40.378948
 11
-222.70911
 21
40.378948
  0
LINE
  8
0
  6
CONTINUOUS
 62
     7
 10
-217.63127
 20
39.173176
 11
-217.63127
 21
33.378948
  0
LINE
  8
0
  6
CONTINUOUS
 62
     7
 10
-215.13127
 20
48.378948
 11
-231.13127
 21
48.378948
  0
LINE
  8
0
  6
CONTINUOUS
 62
     7
 10
-217.63127
 20
39.512928
 11
-216.13127
 21
40.378948
  0
LINE
  8
0
  6
CONTINUOUS
 62
     7
 10
-212.63127
 20
28.37895
 11
-210.03127
 21
28.37895
  0
LINE
  8
0
  6
PHANTOM
 62
     7
 10
-210.03127
 20
28.37895
 11
-210.03127
 21
25.87895
  0
LINE
  8
0
  6
PHANTOM
 62
     7
 10
-210.03127
 20
0.87894994
 11
-210.03127
 21
-1.6210501
  0
LINE
  8
0
  6
CONTINUOUS
 62
     7
 10
-216.13127
 20
45.378948
 11
-216.13127
 21
40.378948
  0
LINE
  8
0
  6
CONTINUOUS
 62
     7
 10
-224.59293
 20
46.378948
 11
-224.59293
 21
40.378948
  0
LINE
  8
0
  6
CONTINUOUS
 62
     7
 10
-212.03127
 20
13.37895
 11
-212.03127
 21
-1.6210501
  0
LINE
  8
0
  6
CONTINUOUS
 62
     7
 10
-222.70911
 20
46.378948
 11
-222.70911
 21
40.378948
  0
LINE
  8
0
  6
CONTINUOUS
 62
     7
 10
-217.63127
 20
39.51292
 11
-231.13127
 21
39.51292
  0
LINE
  8
0
  6
CONTINUOUS
 62
     7
 10
-210.03127
 20
13.37895
 11
-210.03127
 21
-1.6210501
  0
LINE
  8
0
  6
CONTINUOUS
 62
     7
 10
-210.03127
 20
28.37895
 11
-210.03127
 21
13.37895
  0
LINE
  8
0
  6
CONTINUOUS
 62
     7
 10
-212.03127
 20
28.37895
 11
-212.03127
 21
13.37895
  0
LINE
  8
0
  6
CENTER
 62
     7
 10
-84.062386
 20
14.819733
 11
-160.85663
 21
14.819733
  0
LINE
  8
0
  6
CENTER
 62
     7
 10
-122.1949
 20
58.654716
 11
-122.1949
 21
-14.411339
  0
LINE
  8
0
  6
CONTINUOUS
 62
     7
 10
-106.1949
 20
49.819729
 11
-106.1949
 21
49.819729
  0
LINE
  8
0
  6
CONTINUOUS
 62
     7
 10
-107.69489
 20
32.319733
 11
-100.09489
 21
32.319733
  0
LINE
  8
0
  6
CONTINUOUS
 62
     7
 10
-106.19491
 20
49.819729
 11
-122.1949
 21
49.819729
  0
LINE
  8
0
  6
CONTINUOUS
 62
     7
 10
-100.09489
 20
32.319733
 11
-100.09489
 21
14.819733
  0
LINE
  8
0
  6
CONTINUOUS
 62
     7
 10
-100.09489
 20
-2.1802671
 11
-100.09489
 21
14.819733
  0
LINE
  8
0
  6
CONTINUOUS
 62
     7
 10
-106.19491
 20
52.819729
 11
-122.1949
 21
52.819729
  0
LINE
  8
0
  6
CONTINUOUS
 62
     7
 10
-106.19491
 20
52.819729
 11
-106.19491
 21
49.819729
  0
LINE
  8
0
  6
CONTINUOUS
 62
     7
 10
-108.69491
 20
42.819729
 11
-108.69491
 21
37.819733
  0
LINE
  8
0
  6
CONTINUOUS
 62
     7
 10
-108.69489
 20
42.819736
 11
-107.1949
 21
43.68576
  0
LINE
  8
0
  6
CONTINUOUS
 62
     7
 10
-113.77273
 20
49.819729
 11
-113.77273
 21
44.025501
  0
LINE
  8
0
  6
CONTINUOUS
 62
     7
 10
-122.1949
 20
42.819729
 11
-108.69491
 21
42.819729
  0
LINE
  8
0
  6
CONTINUOUS
 62
     7
 10
-115.65656
 20
44.025501
 11
-113.77273
 21
44.025501
  0
LINE
  8
0
  6
CONTINUOUS
 62
     7
 10
-115.65656
 20
49.819729
 11
-115.65656
 21
44.025501
  0
LINE
  8
0
  6
CONTINUOUS
 62
     7
 10
-107.19491
 20
49.319729
 11
-107.19491
 21
43.685757
  0
LINE
  8
0
  6
CONTINUOUS
 62
     7
 10
-109.69492
 20
34.319733
 11
-109.69492
 21
30.46563
  0
LINE
  8
0
  6
PHANTOM
 62
     7
 10
-109.69489
 20
34.503105
 11
-109.69489
 21
34.319733
  0
LINE
  8
0
  6
CONTINUOUS
 62
     7
 10
-102.09489
 20
-2.6802747
 11
-100.59489
 21
-2.6802747
  0
LINE
  8
0
  6
CONTINUOUS
 62
     7
 10
-122.1949
 20
2.6197283
 11
-108.05392
 21
2.6197283
  0
LINE
  8
0
  6
CONTINUOUS
 62
     7
 10
-100.09489
 20
-2.1802704
 11
-100.59489
 21
-2.6802709
  0
LINE
  8
0
  6
CENTER
 62
     7
 10
37.607361
 20
14.819733
 11
-37.234951
 21
14.819733
  0
LINE
  8
0
  6
CENTER
 62
     7
 10
-0.5251596
 20
58.654716
 11
-0.5251596
 21
-14.411339
  0
LINE
  8
0
  6
CONTINUOUS
 62
     7
 10
19.574839
 20
-2.6802671
 11
21.574839
 21
-2.6802671
  0
LINE
  8
0
  6
CONTINUOUS
 62
     7
 10
19.574839
 20
-2.6802671
 11
19.574839
 21
14.819733
  0
LINE
  8
0
  6
CONTINUOUS
 62
     7
 10
19.574839
 20
32.320564
 11
19.574839
 21
14.819733
  0
LINE
  8
0
  6
CONTINUOUS
 62
     7
 10
15.47484
 20
42.819729
 11
15.47484
 21
35.319733
  0
LINE
  8
0
  6
CONTINUOUS
 62
     7
 10
-0.5251596
 20
42.819729
 11
15.474836
 21
42.819729
  0
LINE
  8
0
  6
CONTINUOUS
 62
     7
 10
15.474837
 20
42.819736
 11
16.974834
 21
43.68576
  0
LINE
  8
0
  6
CONTINUOUS
 62
     7
 10
16.974836
 20
48.819729
 11
16.974836
 21
43.685757
  0
LINE
  8
0
  6
CONTINUOUS
 62
     7
 10
-0.5251596
 20
49.819729
 11
19.974833
 21
49.819729
  0
LINE
  8
0
  6
CONTINUOUS
 62
     7
 10
18.47484
 20
32.319733
 11
21.574846
 21
32.319733
  0
LINE
  8
0
  6
CONTINUOUS
 62
     7
 10
19.974833
 20
52.819729
 11
19.974833
 21
49.819729
  0
LINE
  8
0
  6
CONTINUOUS
 62
     7
 10
21.574839
 20
-2.6802671
 11
21.574839
 21
14.819733
  0
LINE
  8
0
  6
CONTINUOUS
 62
     7
 10
21.574839
 20
32.320564
 11
21.574839
 21
14.819733
  0
LINE
  8
0
  6
CONTINUOUS
 62
     7
 10
13.55876
 20
2.3197329
 11
-0.5251596
 21
2.3197329
  0
LINE
  8
0
  6
CONTINUOUS
 62
     7
 10
19.974833
 20
52.819729
 11
-0.5251596
 21
52.819729
  0
LINE
  8
0
  6
CONTINUOUS
 62
     7
 10
9.7868786
 20
43.685757
 11
6.5635629
 21
43.685757
  0
LINE
  8
0
  6
CONTINUOUS
 62
     7
 10
9.7868786
 20
49.819729
 11
9.7868786
 21
43.685757
  0
LINE
  8
0
  6
CONTINUOUS
 62
     7
 10
6.5635629
 20
49.819729
 11
6.5635629
 21
43.685757
  0
LINE
  8
0
  6
CONTINUOUS
 62
     7
 10
-122.1949
 20
36.739159
 11
-108.89626
 21
36.739159
  0
LINE
  8
0
  6
CONTINUOUS
 62
     7
 10
-231.13127
 20
31.646894
 11
-218.18178
 21
31.646894
  0
LINE
  8
0
  6
CONTINUOUS
 62
     7
 10
-0.5251596
 20
33.473076
 11
14.343847
 21
33.473076
  0
LINE
  8
0
  6
CONTINUOUS
 62
     7
 10
-198.13127
 20
-130.43715
 11
-189.13127
 21
-130.43715
  0
LINE
  8
0
  6
CONTINUOUS
 62
     7
 10
-198.63127
 20
-131.54393
 11
-198.13127
 21
-132.04393
  0
LINE
  8
0
  6
CONTINUOUS
 62
     7
 10
-198.13127
 20
-130.43715
 11
-198.13127
 21
-132.04393
  0
LINE
  8
0
  6
CONTINUOUS
 62
     7
 10
-198.13127
 20
-117.17719
 11
-198.13127
 21
-121.05631
  0
LINE
  8
0
  6
CONTINUOUS
 62
     7
 10
-198.13127
 20
-132.04393
 11
-189.13127
 21
-132.04393
  0
LINE
  8
0
  6
CONTINUOUS
 62
     7
 10
-184.13127
 20
-110.54394
 11
-184.13127
 21
-127.04393
  0
LINE
  8
0
  6
CONTINUOUS
 62
     7
 10
-189.13127
 20
-110.54394
 11
-189.13127
 21
-132.04393
  0
LINE
  8
0
  6
CONTINUOUS
 62
     7
 10
-198.13127
 20
-121.05631
 11
-189.13127
 21
-121.05631
  0
LINE
  8
0
  6
CONTINUOUS
 62
     7
 10
-198.13127
 20
-117.17719
 11
-189.13127
 21
-117.17719
  0
LINE
  8
0
  6
CONTINUOUS
 62
     7
 10
-198.63127
 20
-110.54394
 11
-198.63127
 21
-131.54393
  0
LINE
  8
0
  6
CONTINUOUS
 62
     7
 10
-195.13127
 20
13.37895
 11
-195.13127
 21
2.8789499
  0
LINE
  8
0
  6
CONTINUOUS
 62
     7
 10
-206.63127
 20
13.37895
 11
-206.63127
 21
-0.62105006
  0
LINE
  8
0
  6
CONTINUOUS
 62
     7
 10
-206.13127
 20
-0.24237271
 11
-206.13127
 21
-1.1210501
  0
LINE
  8
0
  6
CONTINUOUS
 62
     7
 10
-206.13127
 20
-1.1210501
 11
-199.13127
 21
-1.1210501
  0
LINE
  8
0
  6
CONTINUOUS
 62
     7
 10
-206.63127
 20
-0.6210469
 11
-206.13127
 21
-1.1210474
  0
LINE
  8
0
  6
CONTINUOUS
 62
     7
 10
-206.13127
 20
8.6154919
 11
-206.13127
 21
6.4936047
  0
LINE
  8
0
  6
CONTINUOUS
 62
     7
 10
-206.13127
 20
-0.24237271
 11
-199.13127
 21
-0.24237271
  0
LINE
  8
0
  6
CONTINUOUS
 62
     7
 10
-206.13127
 20
8.6154919
 11
-199.13127
 21
8.6154919
  0
LINE
  8
0
  6
CONTINUOUS
 62
     7
 10
-206.13127
 20
6.4936047
 11
-199.13127
 21
6.4936047
  0
LINE
  8
0
  6
CONTINUOUS
 62
     7
 10
-199.13127
 20
13.37895
 11
-199.13127
 21
-1.1210501
  0
LINE
  8
0
  6
CONTINUOUS
 62
     7
 10
-199.13127
 20
13.37895
 11
-199.13127
 21
27.87895
  0
LINE
  8
0
  6
CONTINUOUS
 62
     7
 10
-206.13127
 20
20.264288
 11
-199.13127
 21
20.264288
  0
LINE
  8
0
  6
CONTINUOUS
 62
     7
 10
-206.13127
 20
18.142401
 11
-199.13127
 21
18.142401
  0
LINE
  8
0
  6
CONTINUOUS
 62
     7
 10
-206.13127
 20
27.000265
 11
-199.13127
 21
27.000265
  0
LINE
  8
0
  6
CONTINUOUS
 62
     7
 10
-206.13127
 20
18.142401
 11
-206.13127
 21
20.264288
  0
LINE
  8
0
  6
CONTINUOUS
 62
     7
 10
-206.63127
 20
27.378952
 11
-206.13127
 21
27.878952
  0
LINE
  8
0
  6
CONTINUOUS
 62
     7
 10
-206.13127
 20
27.87895
 11
-199.13127
 21
27.87895
  0
LINE
  8
0
  6
CONTINUOUS
 62
     7
 10
-206.13127
 20
27.000265
 11
-206.13127
 21
27.87895
  0
LINE
  8
0
  6
CONTINUOUS
 62
     7
 10
-206.63127
 20
13.37895
 11
-206.63127
 21
27.37895
  0
LINE
  8
0
  6
CONTINUOUS
 62
     7
 10
-195.13127
 20
13.37895
 11
-195.13127
 21
23.87895
  0
LINE
  8
0
  6
CONTINUOUS
 62
     7
 10
-83.194901
 20
14.819733
 11
-83.194901
 21
2.8197329
  0
LINE
  8
0
  6
CONTINUOUS
 62
     7
 10
-88.194901
 20
14.819733
 11
-88.194901
 21
-2.1802671
  0
LINE
  8
0
  6
CONTINUOUS
 62
     7
 10
-96.694901
 20
14.819733
 11
-96.694901
 21
-1.6802671
  0
LINE
  8
0
  6
CONTINUOUS
 62
     7
 10
-96.194908
 20
9.0207367
 11
-88.194901
 21
9.0207367
  0
LINE
  8
0
  6
CONTINUOUS
 62
     7
 10
-96.194908
 20
9.0207367
 11
-96.194908
 21
6.8994222
  0
LINE
  8
0
  6
CONTINUOUS
 62
     7
 10
-96.194908
 20
-1.3015897
 11
-96.194908
 21
-2.1802671
  0
LINE
  8
0
  6
CONTINUOUS
 62
     7
 10
-96.194908
 20
-1.3015897
 11
-88.194901
 21
-1.3015897
  0
LINE
  8
0
  6
CONTINUOUS
 62
     7
 10
-96.194901
 20
-2.1802671
 11
-88.194901
 21
-2.1802671
  0
LINE
  8
0
  6
CONTINUOUS
 62
     7
 10
-96.194908
 20
-2.1802707
 11
-96.694908
 21
-1.6802701
  0
LINE
  8
0
  6
CONTINUOUS
 62
     7
 10
-96.194908
 20
6.8994222
 11
-88.194901
 21
6.8994222
  0
LINE
  8
0
  6
CONTINUOUS
 62
     7
 10
-96.194908
 20
22.740036
 11
-88.194901
 21
22.740036
  0
LINE
  8
0
  6
CONTINUOUS
 62
     7
 10
-96.194908
 20
31.819729
 11
-96.694908
 21
31.319727
  0
LINE
  8
0
  6
CONTINUOUS
 62
     7
 10
-96.194901
 20
31.819733
 11
-88.194901
 21
31.819733
  0
LINE
  8
0
  6
CONTINUOUS
 62
     7
 10
-96.194908
 20
30.941048
 11
-88.194901
 21
30.941048
  0
LINE
  8
0
  6
CONTINUOUS
 62
     7
 10
-96.194908
 20
30.941048
 11
-96.194908
 21
31.819733
  0
LINE
  8
0
  6
CONTINUOUS
 62
     7
 10
-96.194908
 20
20.618721
 11
-96.194908
 21
22.740036
  0
LINE
  8
0
  6
CONTINUOUS
 62
     7
 10
-96.194908
 20
20.618721
 11
-88.194901
 21
20.618721
  0
LINE
  8
0
  6
CONTINUOUS
 62
     7
 10
-96.694901
 20
14.819733
 11
-96.694901
 21
31.319733
  0
LINE
  8
0
  6
CONTINUOUS
 62
     7
 10
-88.194901
 20
14.819733
 11
-88.194901
 21
31.819733
  0
LINE
  8
0
  6
CONTINUOUS
 62
     7
 10
-83.194901
 20
14.819733
 11
-83.194901
 21
26.819733
  0
LINE
  8
0
  6
CONTINUOUS
 62
     7
 10
38.474831
 20
14.819733
 11
38.474831
 21
2.8197329
  0
LINE
  8
0
  6
CONTINUOUS
 62
     7
 10
33.474838
 20
14.819733
 11
33.474838
 21
-2.1802671
  0
LINE
  8
0
  6
CONTINUOUS
 62
     7
 10
24.974833
 20
14.819733
 11
24.974833
 21
-1.6802671
  0
LINE
  8
0
  6
CONTINUOUS
 62
     7
 10
25.474829
 20
9.0207367
 11
33.474838
 21
9.0207367
  0
LINE
  8
0
  6
CONTINUOUS
 62
     7
 10
25.474829
 20
9.0207367
 11
25.474829
 21
6.8994222
  0
LINE
  8
0
  6
CONTINUOUS
 62
     7
 10
25.474829
 20
-1.3015897
 11
25.474829
 21
-2.1802671
  0
LINE
  8
0
  6
CONTINUOUS
 62
     7
 10
25.474829
 20
-1.3015897
 11
33.474838
 21
-1.3015897
  0
LINE
  8
0
  6
CONTINUOUS
 62
     7
 10
25.474833
 20
-2.1802671
 11
33.474838
 21
-2.1802671
  0
LINE
  8
0
  6
CONTINUOUS
 62
     7
 10
25.474829
 20
-2.180269
 11
24.974829
 21
-1.6802684
  0
LINE
  8
0
  6
CONTINUOUS
 62
     7
 10
25.474829
 20
6.8994222
 11
33.474838
 21
6.8994222
  0
LINE
  8
0
  6
CONTINUOUS
 62
     7
 10
25.474829
 20
22.740036
 11
33.474838
 21
22.740036
  0
LINE
  8
0
  6
CONTINUOUS
 62
     7
 10
25.474827
 20
31.819731
 11
24.974827
 21
31.319731
  0
LINE
  8
0
  6
CONTINUOUS
 62
     7
 10
25.474833
 20
31.819733
 11
33.474838
 21
31.819733
  0
LINE
  8
0
  6
CONTINUOUS
 62
     7
 10
25.474829
 20
30.941048
 11
33.474838
 21
30.941048
  0
LINE
  8
0
  6
CONTINUOUS
 62
     7
 10
25.474829
 20
30.941048
 11
25.474829
 21
31.819733
  0
LINE
  8
0
  6
CONTINUOUS
 62
     7
 10
25.474829
 20
20.618721
 11
25.474829
 21
22.740036
  0
LINE
  8
0
  6
CONTINUOUS
 62
     7
 10
25.474829
 20
20.618721
 11
33.474838
 21
20.618721
  0
LINE
  8
0
  6
CONTINUOUS
 62
     7
 10
24.974833
 20
14.819733
 11
24.974833
 21
31.319733
  0
LINE
  8
0
  6
CONTINUOUS
 62
     7
 10
33.474838
 20
14.819733
 11
33.474838
 21
31.819733
  0
LINE
  8
0
  6
CONTINUOUS
 62
     7
 10
38.474831
 20
14.819733
 11
38.474831
 21
26.819733
  0
LINE
  8
0
  6
CENTER
 62
     7
 10
-186.45441
 20
-110.54394
 11
-278.30145
 21
-110.54394
  0
LINE
  8
0
  6
CENTER
 62
     7
 10
-231.13127
 20
-68.345596
 11
-231.13127
 21
-130.51912
  0
LINE
  8
0
  6
CONTINUOUS
 62
     7
 10
-237.66962
 20
-74.543938
 11
-237.66962
 21
-80.883682
  0
LINE
  8
0
  6
CONTINUOUS
 62
     7
 10
-244.63127
 20
-81.74971
 11
-231.13127
 21
-81.74971
  0
LINE
  8
0
  6
CONTINUOUS
 62
     7
 10
-239.55344
 20
-74.543938
 11
-239.55344
 21
-80.883682
  0
LINE
  8
0
  6
CONTINUOUS
 62
     7
 10
-246.71973
 20
-80.543938
 11
-244.63127
 21
-81.74971
  0
LINE
  8
0
  6
CONTINUOUS
 62
     7
 10
-217.63127
 20
-81.74971
 11
-217.63127
 21
-92.898781
  0
LINE
  8
0
  6
CONTINUOUS
 62
     7
 10
-246.71973
 20
-74.543938
 11
-246.71973
 21
-80.543938
  0
LINE
  8
0
  6
PHANTOM
 62
     7
 10
-247.13127
 20
-72.543938
 11
-247.13127
 21
-74.543938
  0
LINE
  8
0
  6
CONTINUOUS
 62
     7
 10
-204.13127
 20
-88.543938
 11
-204.13127
 21
-110.54394
  0
LINE
  8
0
  6
CONTINUOUS
 62
     7
 10
-215.54282
 20
-74.543938
 11
-215.54282
 21
-80.543938
  0
LINE
  8
0
  6
CONTINUOUS
 62
     7
 10
-202.13127
 20
-110.54394
 11
-202.13127
 21
-132.54393
  0
LINE
  8
0
  6
CONTINUOUS
 62
     7
 10
-224.59293
 20
-80.883682
 11
-222.70911
 21
-80.883682
  0
LINE
  8
0
  6
CONTINUOUS
 62
     7
 10
-237.66962
 20
-80.883682
 11
-239.55344
 21
-80.883682
  0
LINE
  8
0
  6
CONTINUOUS
 62
     7
 10
-217.63127
 20
-81.74971
 11
-231.13127
 21
-81.74971
  0
LINE
  8
0
  6
CONTINUOUS
 62
     7
 10
-215.13127
 20
-74.543938
 11
-247.13127
 21
-74.543938
  0
LINE
  8
0
  6
CONTINUOUS
 62
     7
 10
-217.63127
 20
-81.74971
 11
-215.5428
 21
-80.543938
  0
LINE
  8
0
  6
CONTINUOUS
 62
     7
 10
-247.63127
 20
-88.543938
 11
-260.13126
 21
-88.543938
  0
LINE
  8
0
  6
CONTINUOUS
 62
     7
 10
-244.63127
 20
-81.74971
 11
-244.63127
 21
-92.898781
  0
LINE
  8
0
  6
CONTINUOUS
 62
     7
 10
-260.13126
 20
-88.543938
 11
-260.13126
 21
-110.54394
  0
LINE
  8
0
  6
PHANTOM
 62
     7
 10
-215.13127
 20
-72.543938
 11
-215.13127
 21
-74.543938
  0
LINE
  8
0
  6
CONTINUOUS
 62
     7
 10
-215.13127
 20
-74.543938
 11
-215.54282
 21
-74.543938
  0
LINE
  8
0
  6
CONTINUOUS
 62
     7
 10
-202.13127
 20
-132.54393
 11
-204.13127
 21
-132.54393
  0
LINE
  8
0
  6
CONTINUOUS
 62
     7
 10
-260.13126
 20
-132.54393
 11
-258.13126
 21
-132.54393
  0
LINE
  8
0
  6
CONTINUOUS
 62
     7
 10
-202.13127
 20
-88.543938
 11
-214.63127
 21
-88.543938
  0
LINE
  8
0
  6
CONTINUOUS
 62
     7
 10
-202.13127
 20
-88.543938
 11
-202.13127
 21
-110.54394
  0
LINE
  8
0
  6
CONTINUOUS
 62
     7
 10
-211.11339
 20
-126.04394
 11
-251.14915
 21
-126.04394
  0
LINE
  8
0
  6
CONTINUOUS
 62
     7
 10
-260.13126
 20
-110.54394
 11
-260.13126
 21
-132.54393
  0
LINE
  8
0
  6
CONTINUOUS
 62
     7
 10
-224.59293
 20
-74.543938
 11
-224.59293
 21
-80.883682
  0
LINE
  8
0
  6
CONTINUOUS
 62
     7
 10
-222.70911
 20
-74.543938
 11
-222.70911
 21
-80.883682
  0
LINE
  8
0
  6
CONTINUOUS
 62
     7
 10
-214.63129
 20
-95.043938
 11
-211.11339
 21
-95.043938
  0
LINE
  8
0
  6
CONTINUOUS
 62
     7
 10
-215.13127
 20
-72.543938
 11
-215.13127
 21
-74.543938
  0
LINE
  8
0
  6
CONTINUOUS
 62
     7
 10
-215.13127
 20
-72.543938
 11
-247.13127
 21
-72.543938
  0
LINE
  8
0
  6
DASHED
 62
     7
 10
-215.13127
 20
-74.543938
 11
-215.54282
 21
-74.543938
  0
LINE
  8
0
  6
CONTINUOUS
 62
     7
 10
-247.13127
 20
-72.543938
 11
-247.13127
 21
-74.543938
  0
LINE
  8
0
  6
CONTINUOUS
 62
     7
 10
-204.13127
 20
-110.54394
 11
-204.13127
 21
-132.54393
  0
LINE
  8
0
  6
CONTINUOUS
 62
     7
 10
-247.63126
 20
-95.043938
 11
-251.14915
 21
-95.043938
  0
LINE
  8
0
  6
CONTINUOUS
 62
     7
 10
-258.13126
 20
-88.543938
 11
-258.13126
 21
-110.54394
  0
LINE
  8
0
  6
CONTINUOUS
 62
     7
 10
-258.13126
 20
-110.54394
 11
-258.13126
 21
-132.54393
  0
LINE
  8
0
  6
CONTINUOUS
 62
     7
 10
-202.13127
 20
-131.21733
 11
-198.63127
 21
-131.21733
  0
LINE
  8
0
  6
CONTINUOUS
 62
     7
 10
-198.13127
 20
-90.650726
 11
-189.13127
 21
-90.650726
  0
LINE
  8
0
  6
CONTINUOUS
 62
     7
 10
-198.63127
 20
-89.543938
 11
-198.13127
 21
-89.043938
  0
LINE
  8
0
  6
CONTINUOUS
 62
     7
 10
-198.13127
 20
-90.650726
 11
-198.13127
 21
-89.043938
  0
LINE
  8
0
  6
CONTINUOUS
 62
     7
 10
-198.13127
 20
-103.91068
 11
-198.13127
 21
-100.03156
  0
LINE
  8
0
  6
CONTINUOUS
 62
     7
 10
-198.13127
 20
-89.043938
 11
-189.13127
 21
-89.043938
  0
LINE
  8
0
  6
CONTINUOUS
 62
     7
 10
-184.13127
 20
-110.54394
 11
-184.13127
 21
-94.043938
  0
LINE
  8
0
  6
CONTINUOUS
 62
     7
 10
-189.13127
 20
-110.54394
 11
-189.13127
 21
-89.043938
  0
LINE
  8
0
  6
CONTINUOUS
 62
     7
 10
-198.13127
 20
-100.03156
 11
-189.13127
 21
-100.03156
  0
LINE
  8
0
  6
CONTINUOUS
 62
     7
 10
-198.13127
 20
-103.91068
 11
-189.13127
 21
-103.91068
  0
LINE
  8
0
  6
CONTINUOUS
 62
     7
 10
-198.63127
 20
-110.54394
 11
-198.63127
 21
-89.543938
  0
LINE
  8
0
  6
CONTINUOUS
 62
     7
 10
-202.13127
 20
-89.870544
 11
-198.63127
 21
-89.870544
  0
LINE
  8
0
  6
CONTINUOUS
 62
     7
 10
-264.13126
 20
-130.43715
 11
-273.13126
 21
-130.43715
  0
LINE
  8
0
  6
CONTINUOUS
 62
     7
 10
-263.63126
 20
-131.54393
 11
-264.13129
 21
-132.04393
  0
LINE
  8
0
  6
CONTINUOUS
 62
     7
 10
-264.13126
 20
-130.43715
 11
-264.13126
 21
-132.04393
  0
LINE
  8
0
  6
CONTINUOUS
 62
     7
 10
-264.13126
 20
-117.17719
 11
-264.13126
 21
-121.05631
  0
LINE
  8
0
  6
CONTINUOUS
 62
     7
 10
-264.13126
 20
-132.04393
 11
-273.13126
 21
-132.04393
  0
LINE
  8
0
  6
CONTINUOUS
 62
     7
 10
-278.13126
 20
-110.54394
 11
-278.13126
 21
-127.04393
  0
LINE
  8
0
  6
CONTINUOUS
 62
     7
 10
-273.13126
 20
-110.54394
 11
-273.13126
 21
-132.04393
  0
LINE
  8
0
  6
CONTINUOUS
 62
     7
 10
-264.13126
 20
-121.05631
 11
-273.13126
 21
-121.05631
  0
LINE
  8
0
  6
CONTINUOUS
 62
     7
 10
-264.13126
 20
-117.17719
 11
-273.13126
 21
-117.17719
  0
LINE
  8
0
  6
CONTINUOUS
 62
     7
 10
-263.63126
 20
-110.54394
 11
-263.63126
 21
-131.54393
  0
LINE
  8
0
  6
CONTINUOUS
 62
     7
 10
-260.13126
 20
-131.21733
 11
-263.63126
 21
-131.21733
  0
LINE
  8
0
  6
CONTINUOUS
 62
     7
 10
-264.13126
 20
-90.650726
 11
-273.13126
 21
-90.650726
  0
LINE
  8
0
  6
CONTINUOUS
 62
     7
 10
-263.63126
 20
-89.543938
 11
-264.13126
 21
-89.043938
  0
LINE
  8
0
  6
CONTINUOUS
 62
     7
 10
-264.13126
 20
-90.650726
 11
-264.13126
 21
-89.043938
  0
LINE
  8
0
  6
CONTINUOUS
 62
     7
 10
-264.13126
 20
-103.91068
 11
-264.13126
 21
-100.03156
  0
LINE
  8
0
  6
CONTINUOUS
 62
     7
 10
-264.13126
 20
-89.043938
 11
-273.13126
 21
-89.043938
  0
LINE
  8
0
  6
CONTINUOUS
 62
     7
 10
-278.13126
 20
-110.54394
 11
-278.13126
 21
-94.043938
  0
LINE
  8
0
  6
CONTINUOUS
 62
     7
 10
-273.13126
 20
-110.54394
 11
-273.13126
 21
-89.043938
  0
LINE
  8
0
  6
CONTINUOUS
 62
     7
 10
-264.13126
 20
-100.03156
 11
-273.13126
 21
-100.03156
  0
LINE
  8
0
  6
CONTINUOUS
 62
     7
 10
-264.13126
 20
-103.91068
 11
-273.13126
 21
-103.91068
  0
LINE
  8
0
  6
CONTINUOUS
 62
     7
 10
-263.63126
 20
-110.54394
 11
-263.63126
 21
-89.543938
  0
LINE
  8
0
  6
CONTINUOUS
 62
     7
 10
-260.13126
 20
-89.870544
 11
-263.63126
 21
-89.870544
  0
LINE
  8
0
  6
CONTINUOUS
 62
     7
 10
21.574839
 20
-1.3976063
 11
24.974833
 21
-1.3976063
  0
LINE
  8
0
  6
CONTINUOUS
 62
     7
 10
21.574839
 20
31.268042
 11
24.974833
 21
31.268042
  0
LINE
  8
0
  6
CONTINUOUS
 62
     7
 10
-100.09489
 20
31.170532
 11
-96.694901
 21
31.170532
  0
LINE
  8
0
  6
CONTINUOUS
 62
     7
 10
-100.09489
 20
-1.2025875
 11
-96.694901
 21
-1.2025875
  0
LINE
  8
0
  6
CONTINUOUS
 62
     7
 10
-102.09489
 20
32.319733
 11
-102.09489
 21
-2.6802747
  0
LINE
  8
0
  6
CONTINUOUS
 62
     7
 10
-210.03127
 20
27.194506
 11
-206.63127
 21
27.194506
  0
LINE
  8
0
  6
CONTINUOUS
 62
     7
 10
-210.03127
 20
-0.3031449
 11
-206.63127
 21
-0.3031449
  0
LINE
  8
0
  6
DASHED
 62
     7
 10
-247.13127
 20
46.378948
 11
-246.71973
 21
46.378948
  0
LINE
  8
0
  6
CONTINUOUS
 62
     7
 10
-247.13127
 20
46.378948
 11
-231.13127
 21
46.378948
  0
LINE
  8
0
  6
CONTINUOUS
 62
     7
 10
-247.13127
 20
48.378948
 11
-247.13127
 21
46.378948
  0
LINE
  8
0
  6
CONTINUOUS
 62
     7
 10
-244.15215
 20
3.8789499
 11
-231.13127
 21
3.8789499
  0
LINE
  8
0
  6
CONTINUOUS
 62
     7
 10
-252.23126
 20
-1.6210501
 11
-250.23126
 21
-1.6210501
  0
LINE
  8
0
  6
CONTINUOUS
 62
     7
 10
-237.66962
 20
40.378948
 11
-239.55344
 21
40.378948
  0
LINE
  8
0
  6
CONTINUOUS
 62
     7
 10
-244.63127
 20
39.173176
 11
-244.63127
 21
33.378948
  0
LINE
  8
0
  6
CONTINUOUS
 62
     7
 10
-247.13127
 20
48.378948
 11
-231.13127
 21
48.378948
  0
LINE
  8
0
  6
CONTINUOUS
 62
     7
 10
-244.63127
 20
39.512924
 11
-246.13127
 21
40.378944
  0
LINE
  8
0
  6
CONTINUOUS
 62
     7
 10
-249.63127
 20
28.37895
 11
-252.23126
 21
28.37895
  0
LINE
  8
0
  6
PHANTOM
 62
     7
 10
-252.23126
 20
28.37895
 11
-252.23126
 21
25.87895
  0
LINE
  8
0
  6
PHANTOM
 62
     7
 10
-252.23126
 20
0.87894994
 11
-252.23126
 21
-1.6210501
  0
LINE
  8
0
  6
CONTINUOUS
 62
     7
 10
-246.13127
 20
45.378948
 11
-246.13127
 21
40.378948
  0
LINE
  8
0
  6
CONTINUOUS
 62
     7
 10
-237.66962
 20
46.378948
 11
-237.66962
 21
40.378948
  0
LINE
  8
0
  6
CONTINUOUS
 62
     7
 10
-250.23126
 20
13.37895
 11
-250.23126
 21
-1.6210501
  0
LINE
  8
0
  6
CONTINUOUS
 62
     7
 10
-239.55344
 20
46.378948
 11
-239.55344
 21
40.378948
  0
LINE
  8
0
  6
CONTINUOUS
 62
     7
 10
-244.63127
 20
39.51292
 11
-231.13127
 21
39.51292
  0
LINE
  8
0
  6
CONTINUOUS
 62
     7
 10
-252.23126
 20
13.37895
 11
-252.23126
 21
-1.6210501
  0
LINE
  8
0
  6
CONTINUOUS
 62
     7
 10
-252.23126
 20
28.37895
 11
-252.23126
 21
13.37895
  0
LINE
  8
0
  6
CONTINUOUS
 62
     7
 10
-250.23126
 20
28.37895
 11
-250.23126
 21
13.37895
  0
LINE
  8
0
  6
CONTINUOUS
 62
     7
 10
-231.13127
 20
31.646894
 11
-244.08076
 21
31.646894
  0
LINE
  8
0
  6
CONTINUOUS
 62
     7
 10
-267.13126
 20
13.37895
 11
-267.13126
 21
2.8789499
  0
LINE
  8
0
  6
CONTINUOUS
 62
     7
 10
-255.63127
 20
13.37895
 11
-255.63127
 21
-0.62105006
  0
LINE
  8
0
  6
CONTINUOUS
 62
     7
 10
-256.13126
 20
-0.24237271
 11
-256.13126
 21
-1.1210501
  0
LINE
  8
0
  6
CONTINUOUS
 62
     7
 10
-256.13126
 20
-1.1210501
 11
-263.13126
 21
-1.1210501
  0
LINE
  8
0
  6
CONTINUOUS
 62
     7
 10
-255.63127
 20
-0.6210382
 11
-256.13129
 21
-1.1210387
  0
LINE
  8
0
  6
CONTINUOUS
 62
     7
 10
-256.13126
 20
8.6154919
 11
-256.13126
 21
6.4936047
  0
LINE
  8
0
  6
CONTINUOUS
 62
     7
 10
-256.13126
 20
-0.24237271
 11
-263.13126
 21
-0.24237271
  0
LINE
  8
0
  6
CONTINUOUS
 62
     7
 10
-256.13126
 20
8.6154919
 11
-263.13126
 21
8.6154919
  0
LINE
  8
0
  6
CONTINUOUS
 62
     7
 10
-256.13126
 20
6.4936047
 11
-263.13126
 21
6.4936047
  0
LINE
  8
0
  6
CONTINUOUS
 62
     7
 10
-263.13126
 20
13.37895
 11
-263.13126
 21
-1.1210501
  0
LINE
  8
0
  6
CONTINUOUS
 62
     7
 10
-263.13126
 20
13.37895
 11
-263.13126
 21
27.87895
  0
LINE
  8
0
  6
CONTINUOUS
 62
     7
 10
-256.13126
 20
20.264288
 11
-263.13126
 21
20.264288
  0
LINE
  8
0
  6
CONTINUOUS
 62
     7
 10
-256.13126
 20
18.142401
 11
-263.13126
 21
18.142401
  0
LINE
  8
0
  6
CONTINUOUS
 62
     7
 10
-256.13126
 20
27.000265
 11
-263.13126
 21
27.000265
  0
LINE
  8
0
  6
CONTINUOUS
 62
     7
 10
-256.13126
 20
18.142401
 11
-256.13126
 21
20.264288
  0
LINE
  8
0
  6
CONTINUOUS
 62
     7
 10
-255.63127
 20
27.378948
 11
-256.13129
 21
27.87895
  0
LINE
  8
0
  6
CONTINUOUS
 62
     7
 10
-256.13126
 20
27.87895
 11
-263.13126
 21
27.87895
  0
LINE
  8
0
  6
CONTINUOUS
 62
     7
 10
-256.13126
 20
27.000265
 11
-256.13126
 21
27.87895
  0
LINE
  8
0
  6
CONTINUOUS
 62
     7
 10
-255.63127
 20
13.37895
 11
-255.63127
 21
27.37895
  0
LINE
  8
0
  6
CONTINUOUS
 62
     7
 10
-267.13126
 20
13.37895
 11
-267.13126
 21
23.87895
  0
LINE
  8
0
  6
CONTINUOUS
 62
     7
 10
-252.23126
 20
27.194506
 11
-255.63127
 21
27.194506
  0
LINE
  8
0
  6
CONTINUOUS
 62
     7
 10
-252.23126
 20
-0.3031449
 11
-255.63127
 21
-0.3031449
  0
LINE
  8
0
  6
CONTINUOUS
 62
     7
 10
-138.1949
 20
49.819729
 11
-138.1949
 21
49.819729
  0
LINE
  8
0
  6
CONTINUOUS
 62
     7
 10
-136.69492
 20
32.319733
 11
-144.29492
 21
32.319733
  0
LINE
  8
0
  6
CONTINUOUS
 62
     7
 10
-138.1949
 20
49.819729
 11
-122.1949
 21
49.819729
  0
LINE
  8
0
  6
CONTINUOUS
 62
     7
 10
-144.29491
 20
32.319733
 11
-144.29491
 21
14.819733
  0
LINE
  8
0
  6
CONTINUOUS
 62
     7
 10
-144.29491
 20
-2.1802671
 11
-144.29491
 21
14.819733
  0
LINE
  8
0
  6
CONTINUOUS
 62
     7
 10
-138.1949
 20
52.819729
 11
-122.1949
 21
52.819729
  0
LINE
  8
0
  6
CONTINUOUS
 62
     7
 10
-138.1949
 20
52.819729
 11
-138.1949
 21
49.819729
  0
LINE
  8
0
  6
CONTINUOUS
 62
     7
 10
-135.6949
 20
42.819729
 11
-135.6949
 21
37.819733
  0
LINE
  8
0
  6
CONTINUOUS
 62
     7
 10
-135.69492
 20
42.819736
 11
-137.1949
 21
43.685757
  0
LINE
  8
0
  6
CONTINUOUS
 62
     7
 10
-130.61708
 20
49.819729
 11
-130.61708
 21
44.025501
  0
LINE
  8
0
  6
CONTINUOUS
 62
     7
 10
-122.1949
 20
42.819729
 11
-135.6949
 21
42.819729
  0
LINE
  8
0
  6
CONTINUOUS
 62
     7
 10
-128.73325
 20
44.025501
 11
-130.61708
 21
44.025501
  0
LINE
  8
0
  6
CONTINUOUS
 62
     7
 10
-128.73325
 20
49.819729
 11
-128.73325
 21
44.025501
  0
LINE
  8
0
  6
CONTINUOUS
 62
     7
 10
-137.1949
 20
49.319729
 11
-137.1949
 21
43.685757
  0
LINE
  8
0
  6
CONTINUOUS
 62
     7
 10
-134.69489
 20
34.319733
 11
-134.69489
 21
30.46563
  0
LINE
  8
0
  6
PHANTOM
 62
     7
 10
-134.69492
 20
34.503105
 11
-134.69492
 21
34.319733
  0
LINE
  8
0
  6
CONTINUOUS
 62
     7
 10
-142.29491
 20
-2.6802747
 11
-143.79491
 21
-2.6802747
  0
LINE
  8
0
  6
CONTINUOUS
 62
     7
 10
-122.1949
 20
2.6197283
 11
-136.33588
 21
2.6197283
  0
LINE
  8
0
  6
CONTINUOUS
 62
     7
 10
-144.29492
 20
-2.18027
 11
-143.79492
 21
-2.6802704
  0
LINE
  8
0
  6
CONTINUOUS
 62
     7
 10
-122.1949
 20
36.739159
 11
-135.49355
 21
36.739159
  0
LINE
  8
0
  6
CONTINUOUS
 62
     7
 10
-161.1949
 20
14.819733
 11
-161.1949
 21
2.8197329
  0
LINE
  8
0
  6
CONTINUOUS
 62
     7
 10
-156.1949
 20
14.819733
 11
-156.1949
 21
-2.1802671
  0
LINE
  8
0
  6
CONTINUOUS
 62
     7
 10
-147.6949
 20
14.819733
 11
-147.6949
 21
-1.6802671
  0
LINE
  8
0
  6
CONTINUOUS
 62
     7
 10
-148.1949
 20
9.0207367
 11
-156.1949
 21
9.0207367
  0
LINE
  8
0
  6
CONTINUOUS
 62
     7
 10
-148.1949
 20
9.0207367
 11
-148.1949
 21
6.8994222
  0
LINE
  8
0
  6
CONTINUOUS
 62
     7
 10
-148.1949
 20
-1.3015897
 11
-148.1949
 21
-2.1802671
  0
LINE
  8
0
  6
CONTINUOUS
 62
     7
 10
-148.1949
 20
-1.3015897
 11
-156.1949
 21
-1.3015897
  0
LINE
  8
0
  6
CONTINUOUS
 62
     7
 10
-148.1949
 20
-2.1802671
 11
-156.1949
 21
-2.1802671
  0
LINE
  8
0
  6
CONTINUOUS
 62
     7
 10
-148.1949
 20
-2.1802702
 11
-147.6949
 21
-1.6802696
  0
LINE
  8
0
  6
CONTINUOUS
 62
     7
 10
-148.1949
 20
6.8994222
 11
-156.1949
 21
6.8994222
  0
LINE
  8
0
  6
CONTINUOUS
 62
     7
 10
-148.1949
 20
22.740036
 11
-156.1949
 21
22.740036
  0
LINE
  8
0
  6
CONTINUOUS
 62
     7
 10
-148.1949
 20
31.819731
 11
-147.6949
 21
31.319731
  0
LINE
  8
0
  6
CONTINUOUS
 62
     7
 10
-148.1949
 20
31.819733
 11
-156.1949
 21
31.819733
  0
LINE
  8
0
  6
CONTINUOUS
 62
     7
 10
-148.1949
 20
30.941048
 11
-156.1949
 21
30.941048
  0
LINE
  8
0
  6
CONTINUOUS
 62
     7
 10
-148.1949
 20
30.941048
 11
-148.1949
 21
31.819733
  0
LINE
  8
0
  6
CONTINUOUS
 62
     7
 10
-148.1949
 20
20.618721
 11
-148.1949
 21
22.740036
  0
LINE
  8
0
  6
CONTINUOUS
 62
     7
 10
-148.1949
 20
20.618721
 11
-156.1949
 21
20.618721
  0
LINE
  8
0
  6
CONTINUOUS
 62
     7
 10
-147.6949
 20
14.819733
 11
-147.6949
 21
31.319733
  0
LINE
  8
0
  6
CONTINUOUS
 62
     7
 10
-156.1949
 20
14.819733
 11
-156.1949
 21
31.819733
  0
LINE
  8
0
  6
CONTINUOUS
 62
     7
 10
-161.1949
 20
14.819733
 11
-161.1949
 21
26.819733
  0
LINE
  8
0
  6
CONTINUOUS
 62
     7
 10
-144.29491
 20
31.170532
 11
-147.6949
 21
31.170532
  0
LINE
  8
0
  6
CONTINUOUS
 62
     7
 10
-144.29491
 20
-1.2025875
 11
-147.6949
 21
-1.2025875
  0
LINE
  8
0
  6
CONTINUOUS
 62
     7
 10
-142.29491
 20
32.319733
 11
-142.29491
 21
-2.6802747
  0
LINE
  8
0
  6
CONTINUOUS
 62
     7
 10
-20.625158
 20
-2.6802671
 11
-22.625158
 21
-2.6802671
  0
LINE
  8
0
  6
CONTINUOUS
 62
     7
 10
-20.625158
 20
-2.6802671
 11
-20.625158
 21
14.819733
  0
LINE
  8
0
  6
CONTINUOUS
 62
     7
 10
-20.625158
 20
32.320564
 11
-20.625158
 21
14.819733
  0
LINE
  8
0
  6
CONTINUOUS
 62
     7
 10
-16.52516
 20
42.819729
 11
-16.52516
 21
35.319733
  0
LINE
  8
0
  6
CONTINUOUS
 62
     7
 10
-0.5251596
 20
42.819729
 11
-16.525156
 21
42.819729
  0
LINE
  8
0
  6
CONTINUOUS
 62
     7
 10
-16.525156
 20
42.819736
 11
-18.025152
 21
43.68576
  0
LINE
  8
0
  6
CONTINUOUS
 62
     7
 10
-18.025156
 20
48.819729
 11
-18.025156
 21
43.685757
  0
LINE
  8
0
  6
CONTINUOUS
 62
     7
 10
-0.5251596
 20
49.819729
 11
-21.025152
 21
49.819729
  0
LINE
  8
0
  6
CONTINUOUS
 62
     7
 10
-19.52516
 20
32.319733
 11
-22.625166
 21
32.319733
  0
LINE
  8
0
  6
CONTINUOUS
 62
     7
 10
-21.025152
 20
52.819729
 11
-21.025152
 21
49.819729
  0
LINE
  8
0
  6
CONTINUOUS
 62
     7
 10
-22.625158
 20
-2.6802671
 11
-22.625158
 21
14.819733
  0
LINE
  8
0
  6
CONTINUOUS
 62
     7
 10
-22.625158
 20
32.320564
 11
-22.625158
 21
14.819733
  0
LINE
  8
0
  6
CONTINUOUS
 62
     7
 10
-14.609079
 20
2.3197329
 11
-0.5251596
 21
2.3197329
  0
LINE
  8
0
  6
CONTINUOUS
 62
     7
 10
-21.025152
 20
52.819729
 11
-0.5251596
 21
52.819729
  0
LINE
  8
0
  6
CONTINUOUS
 62
     7
 10
-10.837198
 20
43.685757
 11
-7.6138816
 21
43.685757
  0
LINE
  8
0
  6
CONTINUOUS
 62
     7
 10
-10.837198
 20
49.819729
 11
-10.837198
 21
43.685757
  0
LINE
  8
0
  6
CONTINUOUS
 62
     7
 10
-7.6138816
 20
49.819729
 11
-7.6138816
 21
43.685757
  0
LINE
  8
0
  6
CONTINUOUS
 62
     7
 10
-0.5251596
 20
33.473076
 11
-15.394167
 21
33.473076
  0
LINE
  8
0
  6
CONTINUOUS
 62
     7
 10
-39.525146
 20
14.819733
 11
-39.525146
 21
2.8197329
  0
LINE
  8
0
  6
CONTINUOUS
 62
     7
 10
-34.525154
 20
14.819733
 11
-34.525154
 21
-2.1802671
  0
LINE
  8
0
  6
CONTINUOUS
 62
     7
 10
-26.025152
 20
14.819733
 11
-26.025152
 21
-1.6802671
  0
LINE
  8
0
  6
CONTINUOUS
 62
     7
 10
-26.525148
 20
9.0207367
 11
-34.525154
 21
9.0207367
  0
LINE
  8
0
  6
CONTINUOUS
 62
     7
 10
-26.525148
 20
9.0207367
 11
-26.525148
 21
6.8994222
  0
LINE
  8
0
  6
CONTINUOUS
 62
     7
 10
-26.525148
 20
-1.3015897
 11
-26.525148
 21
-2.1802671
  0
LINE
  8
0
  6
CONTINUOUS
 62
     7
 10
-26.525148
 20
-1.3015897
 11
-34.525154
 21
-1.3015897
  0
LINE
  8
0
  6
CONTINUOUS
 62
     7
 10
-26.525152
 20
-2.1802671
 11
-34.525154
 21
-2.1802671
  0
LINE
  8
0
  6
CONTINUOUS
 62
     7
 10
-26.52515
 20
-2.1802678
 11
-26.025148
 21
-1.6802671
  0
LINE
  8
0
  6
CONTINUOUS
 62
     7
 10
-26.525148
 20
6.8994222
 11
-34.525154
 21
6.8994222
  0
LINE
  8
0
  6
CONTINUOUS
 62
     7
 10
-26.525148
 20
22.740036
 11
-34.525154
 21
22.740036
  0
LINE
  8
0
  6
CONTINUOUS
 62
     7
 10
-26.525148
 20
31.819733
 11
-26.025148
 21
31.319733
  0
LINE
  8
0
  6
CONTINUOUS
 62
     7
 10
-26.525152
 20
31.819733
 11
-34.525154
 21
31.819733
  0
LINE
  8
0
  6
CONTINUOUS
 62
     7
 10
-26.525148
 20
30.941048
 11
-34.525154
 21
30.941048
  0
LINE
  8
0
  6
CONTINUOUS
 62
     7
 10
-26.525148
 20
30.941048
 11
-26.525148
 21
31.819733
  0
LINE
  8
0
  6
CONTINUOUS
 62
     7
 10
-26.525148
 20
20.618721
 11
-26.525148
 21
22.740036
  0
LINE
  8
0
  6
CONTINUOUS
 62
     7
 10
-26.525148
 20
20.618721
 11
-34.525154
 21
20.618721
  0
LINE
  8
0
  6
CONTINUOUS
 62
     7
 10
-26.025152
 20
14.819733
 11
-26.025152
 21
31.319733
  0
LINE
  8
0
  6
CONTINUOUS
 62
     7
 10
-34.525154
 20
14.819733
 11
-34.525154
 21
31.819733
  0
LINE
  8
0
  6
CONTINUOUS
 62
     7
 10
-39.525146
 20
14.819733
 11
-39.525146
 21
26.819733
  0
LINE
  8
0
  6
CONTINUOUS
 62
     7
 10
-22.625158
 20
-1.3976063
 11
-26.025152
 21
-1.3976063
  0
LINE
  8
0
  6
CONTINUOUS
 62
     7
 10
-22.625158
 20
31.268042
 11
-26.025152
 21
31.268042
  0
CIRCLE
  8
0
  6
CONTINUOUS
 62
     7
 10
-401.50162
 20
101.27591
 40
14.5
  0
CIRCLE
  8
0
  6
CONTINUOUS
 62
     7
 10
-401.50162
 20
101.27591
 40
8.0500002
  0
CIRCLE
  8
0
  6
CONTINUOUS
 62
     7
 10
-401.50162
 20
56.199329
 40
17
  0
CIRCLE
  8
0
  6
CONTINUOUS
 62
     7
 10
-401.50162
 20
56.199329
 40
11.25
  0
CIRCLE
  8
0
  6
CONTINUOUS
 62
     7
 10
-401.50162
 20
5.3851457
 40
21.5
  0
CIRCLE
  8
0
  6
CONTINUOUS
 62
     7
 10
-401.50162
 20
5.3851457
 40
14.4
  0
CIRCLE
  8
0
  6
CONTINUOUS
 62
     7
 10
-401.50162
 20
-50.685677
 40
24.5
  0
CIRCLE
  8
0
  6
CONTINUOUS
 62
     7
 10
-401.50162
 20
-50.685677
 40
17.25
  0
CIRCLE
  8
0
  6
CONTINUOUS
 62
     7
 10
-401.50162
 20
-137.66437
 40
29.5
  0
CIRCLE
  8
0
  6
CONTINUOUS
 62
     7
 10
-401.50162
 20
-137.66437
 40
21.65
  0
CIRCLE
  8
0
  6
CONTINUOUS
 62
     7
 10
-401.50162
 20
-241.56189
 40
34
  0
CIRCLE
  8
0
  6
CONTINUOUS
 62
     7
 10
-401.50162
 20
-241.56189
 40
24.65
  0
CIRCLE
  8
0
  6
CONTINUOUS
 62
     7
 10
-401.50162
 20
-347.29117
 40
41
  0
CIRCLE
  8
0
  6
CONTINUOUS
 62
     7
 10
-401.50162
 20
-347.29117
 40
30.65
  0
ARC
  8
0
  6
CONTINUOUS
 62
     7
 10
-212.63127
 20
33.378948
 40
5
 50
179.99999
 51
270
  0
ARC
  8
0
  6
CONTINUOUS
 62
     7
 10
-218.60489
 20
28.807989
 40
2
 50
113.90862
 51
172.95887
  0
ARC
  8
0
  6
CONTINUOUS
 62
     7
 10
-215.13127
 20
28.37895
 40
5.5
 50
172.95887
 51
246.6074
  0
ARC
  8
0
  6
CONTINUOUS
 62
     7
 10
-215.13127
 20
45.378948
 40
1
 50
90.000003
 51
180.00001
  0
ARC
  8
0
  6
CONTINUOUS
 62
     7
 10
-219.4202
 20
46.07552
 40
6.5778313
 50
240
 51
300
  0
ARC
  8
0
  6
CONTINUOUS
 62
     7
 10
-231.13127
 20
64.627663
 40
25.114733
 50
270
 51
285.09019
  0
ARC
  8
0
  6
CONTINUOUS
 62
     7
 10
-220.63127
 20
33.378948
 40
3
 50
289.47122
 51
0
  0
ARC
  8
0
  6
CONTINUOUS
 62
     7
 10
-218.01041
 20
-2.1210501
 40
6
 50
4.780192
 51
90.000003
  0
ARC
  8
0
  6
CONTINUOUS
 62
     7
 10
-216.52087
 20
25.166632
 40
2
 50
246.60741
 51
291.8625
  0
ARC
  8
0
  6
CONTINUOUS
 62
     7
 10
-218.01041
 20
28.87895
 40
6
 50
291.8625
 51
355.2198
  0
ARC
  8
0
  6
CONTINUOUS
 62
     7
 10
-106.40378
 20
29.65683
 40
2
 50
247.68197
 51
293.69088
  0
ARC
  8
0
  6
CONTINUOUS
 62
     7
 10
-108.01099
 20
33.319733
 40
6
 50
293.69088
 51
350.40591
  0
ARC
  8
0
  6
CONTINUOUS
 62
     7
 10
-107.69489
 20
34.319733
 40
2
 50
179.99999
 51
270
  0
ARC
  8
0
  6
CONTINUOUS
 62
     7
 10
-111.69489
 20
37.819733
 40
3
 50
326.44269
 51
0
  0
ARC
  8
0
  6
CONTINUOUS
 62
     7
 10
-107.69492
 20
30.46563
 40
2
 50
179.99999
 51
228.18968
  0
ARC
  8
0
  6
CONTINUOUS
 62
     7
 10
-106.69491
 20
49.319729
 40
0.5
 50
90.000003
 51
180.00001
  0
ARC
  8
0
  6
CONTINUOUS
 62
     7
 10
-110.1896
 20
48.746563
 40
5.9268317
 50
232.80259
 51
292.80258
  0
ARC
  8
0
  6
CONTINUOUS
 62
     7
 10
-122.1949
 20
61.149853
 40
18.33012
 50
270
 51
290.89764
  0
ARC
  8
0
  6
CONTINUOUS
 62
     7
 10
-104.69492
 20
33.819733
 40
6.5
 50
228.18968
 51
247.68197
  0
ARC
  8
0
  6
CONTINUOUS
 62
     7
 10
-106.69489
 20
34.503105
 40
3
 50
146.44268
 51
180.00001
  0
ARC
  8
0
  6
CONTINUOUS
 62
     7
 10
-108.05392
 20
-3.3802717
 40
6
 50
6.699765
 51
90.000003
  0
ARC
  8
0
  6
CONTINUOUS
 62
     7
 10
13.658758
 20
-3.6802671
 40
6
 50
9.5940679
 51
90.000003
  0
ARC
  8
0
  6
CONTINUOUS
 62
     7
 10
13.658762
 20
33.319733
 40
6
 50
305.40521
 51
350.40593
  0
ARC
  8
0
  6
CONTINUOUS
 62
     7
 10
18.47484
 20
35.319733
 40
3
 50
179.99999
 51
270
  0
ARC
  8
0
  6
CONTINUOUS
 62
     7
 10
17.974836
 20
48.819729
 40
1
 50
90.000003
 51
180.00001
  0
ARC
  8
0
  6
CONTINUOUS
 62
     7
 10
-0.5251596
 20
72.264595
 40
29.444864
 50
270
 51
283.93056
  0
ARC
  8
0
  6
CONTINUOUS
 62
     7
 10
13.398359
 20
50.783001
 40
7.963275
 50
243.03044
 51
295.13923
  0
ARC
  8
0
  6
CONTINUOUS
 62
     7
 10
16.212862
 20
31.126427
 40
3
 50
128.53588
 51
230.31051
  0
ARC
  8
0
  6
CONTINUOUS
 62
     7
 10
15.976191
 20
30.059433
 40
2
 50
236.68065
 51
305.40521
  0
ARC
  8
0
  6
CONTINUOUS
 62
     7
 10
18.448053
 20
33.819733
 40
6.5
 50
230.31051
 51
236.68065
  0
ARC
  8
0
  6
CONTINUOUS
 62
     7
 10
12.474833
 20
35.819733
 40
3
 50
308.53588
 51
0
  0
ARC
  8
0
  6
CONTINUOUS
 62
     7
 10
-176.38127
 20
-125.74673
 40
22.249998
 50
167.83045
 51
192.16954
  0
ARC
  8
0
  6
CONTINUOUS
 62
     7
 10
-154.38129
 20
-110.54394
 40
44.249989
 50
180.00001
 51
188.62136
  0
ARC
  8
0
  6
CONTINUOUS
 62
     7
 10
-189.13127
 20
-127.04393
 40
5
 50
270
 51
0
  0
ARC
  8
0
  6
CONTINUOUS
 62
     7
 10
-199.13127
 20
2.8789499
 40
4
 50
270
 51
360
  0
ARC
  8
0
  6
CONTINUOUS
 62
     7
 10
-195.0379
 20
3.1256158
 40
11.59337
 50
163.11152
 51
196.88848
  0
ARC
  8
0
  6
CONTINUOUS
 62
     7
 10
-183.69072
 20
13.37895
 40
22.940548
 50
168.0157
 51
180.00001
  0
ARC
  8
0
  6
CONTINUOUS
 62
     7
 10
-183.69072
 20
13.37895
 40
22.940548
 50
179.99999
 51
191.9843
  0
ARC
  8
0
  6
CONTINUOUS
 62
     7
 10
-195.0379
 20
23.632277
 40
11.59337
 50
163.11152
 51
196.88848
  0
ARC
  8
0
  6
CONTINUOUS
 62
     7
 10
-199.13127
 20
23.87895
 40
4
 50
0
 51
90.000003
  0
ARC
  8
0
  6
CONTINUOUS
 62
     7
 10
-88.194901
 20
26.819733
 40
5
 50
0
 51
90.000003
  0
ARC
  8
0
  6
CONTINUOUS
 62
     7
 10
-62.816433
 20
14.819733
 40
33.878471
 50
170.14412
 51
179.99999
  0
ARC
  8
0
  6
CONTINUOUS
 62
     7
 10
-79.630669
 20
2.7989123
 40
17.064236
 50
166.09586
 51
193.90414
  0
ARC
  8
0
  6
CONTINUOUS
 62
     7
 10
-62.816433
 20
14.819733
 40
33.878471
 50
180.00001
 51
189.85588
  0
ARC
  8
0
  6
CONTINUOUS
 62
     7
 10
-88.194901
 20
2.8197329
 40
5
 50
270
 51
360
  0
ARC
  8
0
  6
CONTINUOUS
 62
     7
 10
-79.630669
 20
26.840546
 40
17.064236
 50
166.09586
 51
193.90414
  0
ARC
  8
0
  6
CONTINUOUS
 62
     7
 10
33.474838
 20
26.819733
 40
5
 50
0
 51
90.000003
  0
ARC
  8
0
  6
CONTINUOUS
 62
     7
 10
58.853302
 20
14.819733
 40
33.878471
 50
170.14412
 51
179.99999
  0
ARC
  8
0
  6
CONTINUOUS
 62
     7
 10
42.03907
 20
2.7989123
 40
17.064236
 50
166.09586
 51
193.90414
  0
ARC
  8
0
  6
CONTINUOUS
 62
     7
 10
58.853302
 20
14.819733
 40
33.878471
 50
180.00001
 51
189.85588
  0
ARC
  8
0
  6
CONTINUOUS
 62
     7
 10
33.474838
 20
2.8197329
 40
5
 50
270
 51
360
  0
ARC
  8
0
  6
CONTINUOUS
 62
     7
 10
42.03907
 20
26.840546
 40
17.064236
 50
166.09586
 51
193.90414
  0
ARC
  8
0
  6
CONTINUOUS
 62
     7
 10
-214.63127
 20
-85.543938
 40
3
 50
179.99999
 51
270
  0
ARC
  8
0
  6
CONTINUOUS
 62
     7
 10
-247.63127
 20
-85.543938
 40
3
 50
270
 51
0
  0
ARC
  8
0
  6
CONTINUOUS
 62
     7
 10
-231.13127
 20
-56.634968
 40
25.114733
 50
254.90981
 51
270
  0
ARC
  8
0
  6
CONTINUOUS
 62
     7
 10
-242.84236
 20
-75.187111
 40
6.5778313
 50
240.00001
 51
299.99999
  0
ARC
  8
0
  6
CONTINUOUS
 62
     7
 10
-231.13127
 20
-56.634968
 40
25.114733
 50
270
 51
285.09019
  0
ARC
  8
0
  6
CONTINUOUS
 62
     7
 10
-219.42018
 20
-75.187111
 40
6.5778313
 50
240
 51
300
  0
ARC
  8
0
  6
CONTINUOUS
 62
     7
 10
-211.11339
 20
-88.043938
 40
7
 50
270
 51
355.90396
  0
ARC
  8
0
  6
CONTINUOUS
 62
     7
 10
-215.63127
 20
-92.898041
 40
2
 50
179.99999
 51
253.39862
  0
ARC
  8
0
  6
CONTINUOUS
 62
     7
 10
-247.63126
 20
-89.543938
 40
5.5
 50
270
 51
286.60138
  0
ARC
  8
0
  6
CONTINUOUS
 62
     7
 10
-246.63127
 20
-92.898041
 40
2
 50
286.60138
 51
0
  0
ARC
  8
0
  6
CONTINUOUS
 62
     7
 10
-251.14915
 20
-88.043938
 40
7
 50
184.09605
 51
270
  0
ARC
  8
0
  6
CONTINUOUS
 62
     7
 10
-211.11339
 20
-133.04393
 40
7
 50
4.096044
 51
90.000003
  0
ARC
  8
0
  6
CONTINUOUS
 62
     7
 10
-251.14915
 20
-133.04393
 40
7
 50
90.000003
 51
175.90395
  0
ARC
  8
0
  6
CONTINUOUS
 62
     7
 10
-214.63129
 20
-89.543938
 40
5.5
 50
253.39862
 51
270
  0
ARC
  8
0
  6
CONTINUOUS
 62
     7
 10
-231.13127
 20
-89.64827
 40
13.885814
 50
193.53791
 51
346.46209
  0
ARC
  8
0
  6
CONTINUOUS
 62
     7
 10
-176.38127
 20
-95.341141
 40
22.249998
 50
167.83045
 51
192.16954
  0
ARC
  8
0
  6
CONTINUOUS
 62
     7
 10
-154.38129
 20
-110.54394
 40
44.249989
 50
171.37864
 51
179.99999
  0
ARC
  8
0
  6
CONTINUOUS
 62
     7
 10
-189.13127
 20
-94.043938
 40
5
 50
0
 51
90.000003
  0
ARC
  8
0
  6
CONTINUOUS
 62
     7
 10
-273.13126
 20
-94.043938
 40
5
 50
89.999996
 51
180.00001
  0
ARC
  8
0
  6
CONTINUOUS
 62
     7
 10
-285.88126
 20
-125.74673
 40
22.249998
 50
347.83046
 51
12.169548
  0
ARC
  8
0
  6
CONTINUOUS
 62
     7
 10
-307.88126
 20
-110.54394
 40
44.249989
 50
351.37864
 51
359.99999
  0
ARC
  8
0
  6
CONTINUOUS
 62
     7
 10
-273.13126
 20
-127.04393
 40
5
 50
179.99999
 51
270
  0
ARC
  8
0
  6
CONTINUOUS
 62
     7
 10
-285.88126
 20
-95.341141
 40
22.249998
 50
347.83045
 51
12.169544
  0
ARC
  8
0
  6
CONTINUOUS
 62
     7
 10
-307.88126
 20
-110.54394
 40
44.249989
 50
8.6514222E-006
 51
8.6213602
  0
ARC
  8
0
  6
CONTINUOUS
 62
     7
 10
-263.13126
 20
23.87895
 40
4
 50
89.999996
 51
180.00001
  0
ARC
  8
0
  6
CONTINUOUS
 62
     7
 10
-278.57181
 20
13.37895
 40
22.940548
 50
348.0157
 51
8.6514222E-006
  0
ARC
  8
0
  6
CONTINUOUS
 62
     7
 10
-267.22464
 20
23.632277
 40
11.59337
 50
343.11152
 51
16.888485
  0
ARC
  8
0
  6
CONTINUOUS
 62
     7
 10
-249.63127
 20
33.378948
 40
5
 50
270
 51
8.6514222E-006
  0
ARC
  8
0
  6
CONTINUOUS
 62
     7
 10
-243.65765
 20
28.807989
 40
2
 50
7.0411276
 51
66.091383
  0
ARC
  8
0
  6
CONTINUOUS
 62
     7
 10
-247.13126
 20
28.37895
 40
5.5
 50
293.3926
 51
7.0411276
  0
ARC
  8
0
  6
CONTINUOUS
 62
     7
 10
-247.13127
 20
45.378948
 40
1
 50
359.99999
 51
89.999996
  0
ARC
  8
0
  6
CONTINUOUS
 62
     7
 10
-242.84235
 20
46.07552
 40
6.5778313
 50
240
 51
300.00001
  0
ARC
  8
0
  6
CONTINUOUS
 62
     7
 10
-231.13127
 20
64.627663
 40
25.114733
 50
254.90981
 51
270
  0
ARC
  8
0
  6
CONTINUOUS
 62
     7
 10
-241.63127
 20
33.378948
 40
3
 50
180.00001
 51
250.52877
  0
ARC
  8
0
  6
CONTINUOUS
 62
     7
 10
-244.25214
 20
-2.1210501
 40
6
 50
89.999996
 51
175.2198
  0
ARC
  8
0
  6
CONTINUOUS
 62
     7
 10
-245.74165
 20
25.166632
 40
2
 50
248.1375
 51
293.3926
  0
ARC
  8
0
  6
CONTINUOUS
 62
     7
 10
-244.25214
 20
28.87895
 40
6
 50
184.7802
 51
248.1375
  0
ARC
  8
0
  6
CONTINUOUS
 62
     7
 10
-263.13126
 20
2.8789499
 40
4
 50
179.99999
 51
270
  0
ARC
  8
0
  6
CONTINUOUS
 62
     7
 10
-267.22464
 20
3.1256158
 40
11.59337
 50
343.11152
 51
16.888485
  0
ARC
  8
0
  6
CONTINUOUS
 62
     7
 10
-278.57181
 20
13.37895
 40
22.940548
 50
359.99999
 51
11.984299
  0
ARC
  8
0
  6
CONTINUOUS
 62
     7
 10
-164.75914
 20
26.840546
 40
17.064236
 50
346.09586
 51
13.904143
  0
ARC
  8
0
  6
CONTINUOUS
 62
     7
 10
-137.98602
 20
29.65683
 40
2
 50
246.30912
 51
292.31803
  0
ARC
  8
0
  6
CONTINUOUS
 62
     7
 10
-136.37881
 20
33.319733
 40
6
 50
189.59409
 51
246.30912
  0
ARC
  8
0
  6
CONTINUOUS
 62
     7
 10
-136.69492
 20
34.319733
 40
2
 50
270
 51
8.6514222E-006
  0
ARC
  8
0
  6
CONTINUOUS
 62
     7
 10
-132.69492
 20
37.819733
 40
3
 50
180.00001
 51
213.55731
  0
ARC
  8
0
  6
CONTINUOUS
 62
     7
 10
-136.69489
 20
30.46563
 40
2
 50
311.81032
 51
8.6514222E-006
  0
ARC
  8
0
  6
CONTINUOUS
 62
     7
 10
-137.6949
 20
49.319729
 40
0.5
 50
359.99999
 51
89.999996
  0
ARC
  8
0
  6
CONTINUOUS
 62
     7
 10
-134.20021
 20
48.746563
 40
5.9268317
 50
247.19742
 51
307.19741
  0
ARC
  8
0
  6
CONTINUOUS
 62
     7
 10
-122.1949
 20
61.149853
 40
18.33012
 50
249.10236
 51
270
  0
ARC
  8
0
  6
CONTINUOUS
 62
     7
 10
-139.69489
 20
33.819733
 40
6.5
 50
292.31803
 51
311.81031
  0
ARC
  8
0
  6
CONTINUOUS
 62
     7
 10
-137.69492
 20
34.503105
 40
3
 50
359.99999
 51
33.557317
  0
ARC
  8
0
  6
CONTINUOUS
 62
     7
 10
-136.33588
 20
-3.3802717
 40
6
 50
89.999996
 51
173.30023
  0
ARC
  8
0
  6
CONTINUOUS
 62
     7
 10
-156.1949
 20
26.819733
 40
5
 50
89.999996
 51
180.00001
  0
ARC
  8
0
  6
CONTINUOUS
 62
     7
 10
-181.57336
 20
14.819733
 40
33.878471
 50
8.6514222E-006
 51
9.8558759
  0
ARC
  8
0
  6
CONTINUOUS
 62
     7
 10
-164.75914
 20
2.7989123
 40
17.064236
 50
346.09586
 51
13.904143
  0
ARC
  8
0
  6
CONTINUOUS
 62
     7
 10
-181.57336
 20
14.819733
 40
33.878471
 50
350.14412
 51
359.99999
  0
ARC
  8
0
  6
CONTINUOUS
 62
     7
 10
-156.1949
 20
2.8197329
 40
5
 50
179.99999
 51
270
  0
ARC
  8
0
  6
CONTINUOUS
 62
     7
 10
-43.089386
 20
26.840546
 40
17.064236
 50
346.09586
 51
13.904143
  0
ARC
  8
0
  6
CONTINUOUS
 62
     7
 10
-14.709078
 20
-3.6802671
 40
6
 50
89.999996
 51
170.40594
  0
ARC
  8
0
  6
CONTINUOUS
 62
     7
 10
-14.709082
 20
33.319733
 40
6
 50
189.59407
 51
234.59479
  0
ARC
  8
0
  6
CONTINUOUS
 62
     7
 10
-19.52516
 20
35.319733
 40
3
 50
270
 51
8.6514222E-006
  0
ARC
  8
0
  6
CONTINUOUS
 62
     7
 10
-19.025156
 20
48.819729
 40
1
 50
359.99999
 51
89.999996
  0
ARC
  8
0
  6
CONTINUOUS
 62
     7
 10
-0.5251596
 20
72.264595
 40
29.444864
 50
256.06944
 51
270
  0
ARC
  8
0
  6
CONTINUOUS
 62
     7
 10
-14.448679
 20
50.783001
 40
7.963275
 50
244.86077
 51
296.96956
  0
ARC
  8
0
  6
CONTINUOUS
 62
     7
 10
-17.263182
 20
31.126427
 40
3
 50
309.68949
 51
51.46412
  0
ARC
  8
0
  6
CONTINUOUS
 62
     7
 10
-17.02651
 20
30.059433
 40
2
 50
234.59479
 51
303.31935
  0
ARC
  8
0
  6
CONTINUOUS
 62
     7
 10
-19.498373
 20
33.819733
 40
6.5
 50
303.31935
 51
309.68949
  0
ARC
  8
0
  6
CONTINUOUS
 62
     7
 10
-13.525152
 20
35.819733
 40
3
 50
180.00001
 51
231.46413
  0
ARC
  8
0
  6
CONTINUOUS
 62
     7
 10
-34.525154
 20
26.819733
 40
5
 50
89.999996
 51
180.00001
  0
ARC
  8
0
  6
CONTINUOUS
 62
     7
 10
-59.903618
 20
14.819733
 40
33.878471
 50
8.6514222E-006
 51
9.8558759
  0
ARC
  8
0
  6
CONTINUOUS
 62
     7
 10
-43.089386
 20
2.7989123
 40
17.064236
 50
346.09586
 51
13.904143
  0
ARC
  8
0
  6
CONTINUOUS
 62
     7
 10
-59.903618
 20
14.819733
 40
33.878471
 50
350.14412
 51
359.99999
  0
ARC
  8
0
  6
CONTINUOUS
 62
     7
 10
-34.525154
 20
2.8197329
 40
5
 50
179.99999
 51
270
  0
TEXT
  8
0
  6
CONTINUOUS
 62
     7
 10
-448.18668
 20
100.9722
 40
3.2
 41
1.0285716
  1
13
  0
TEXT
  8
0
  6
CONTINUOUS
 62
     7
 10
-449.74558
 20
58.88214
 40
3.2
 41
1.0285716
  1
20
  0
TEXT
  8
0
  6
CONTINUOUS
 62
     7
 10
-452.86335
 20
7.4387392
 40
3.2
 41
1.0285716
  1
25
  0
TEXT
  8
0
  6
CONTINUOUS
 62
     7
 10
-450.52503
 20
-56.47579
 40
3.2
 41
1.0285716
  1
30
  0
TEXT
  8
0
  6
CONTINUOUS
 62
     7
 10
-450.18433
 20
-132.60479
 40
3.2
 41
1.0285716
  1
40
  0
TEXT
  8
0
  6
CONTINUOUS
 62
     7
 10
-443.42539
 20
-210.33271
 40
3.2
 41
1.0285716
  1
50
  0
TEXT
  8
0
  6
CONTINUOUS
 62
     7
 10
-450.54114
 20
-310.81277
 40
3.2
 41
1.0285716
  1
60
  0
TEXT
  8
0
  6
CONTINUOUS
 62
     7
 10
-282.77682
 20
118.76988
 40
8
 41
0.84260121
  1
コマサスフィット継手　給水栓用チ－ズ
  0
TEXT
  8
0
  6
CONTINUOUS
 62
     7
 10
-249.74062
 20
70.168655
 40
8
 41
0.84741103
  1
１３×１／２
  0
TEXT
  8
0
  6
CONTINUOUS
 62
     7
 10
-143.06209
 20
72.93235
 40
8
 41
0.84741103
  1
２０×１／２
  0
TEXT
  8
0
  6
CONTINUOUS
 62
     7
 10
-24.223305
 20
72.93235
 40
8
 41
0.84741103
  1
２０×３／４
  0
TEXT
  8
0
  6
CONTINUOUS
 62
     7
 10
-255.82039
 20
-56.961201
 40
8
 41
0.84739783
  1
２５×１／２
  0
POINT
  8
1
  6
CONTINUOUS
 62
     7
 10
-311.3107
 20
-470.71918
  0
POINT
  8
1
  6
CONTINUOUS
 62
     7
 10
-311.3107
 20
-153.71919
  0
POINT
  8
1
  6
CONTINUOUS
 62
     7
 10
-311.3107
 20
-767.71918
  0
POINT
  8
1
  6
CONTINUOUS
 62
     7
 10
108.68929
 20
-153.71919
  0
POINT
  8
1
  6
CONTINUOUS
 62
     7
 10
-311.3107
 20
-777.71918
  0
POINT
  8
1
  6
CONTINUOUS
 62
     7
 10
-311.3107
 20
143.28081
  0
POINT
  8
1
  6
CONTINUOUS
 62
     7
 10
-311.3107
 20
-153.71919
  0
POINT
  8
1
  6
CONTINUOUS
 62
     7
 10
-311.3107
 20
-163.71919
  0
POINT
  8
1
  6
CONTINUOUS
 62
     7
 10
-311.3107
 20
-163.71919
  0
POINT
  8
1
  6
CONTINUOUS
 62
     7
 10
-311.3107
 20
-460.71918
  0
POINT
  8
1
  6
CONTINUOUS
 62
     7
 10
-311.3107
 20
-470.71918
  0
LINE
  8
1
  6
CONTINUOUS
 62
     7
 10
108.68929
 20
143.28081
 11
108.68929
 21
-33.714287
  0
LINE
  8
1
  6
CONTINUOUS
 62
     2
 10
-311.3107
 20
-470.71918
 11
108.68929
 21
-470.71918
  0
LINE
  8
1
  6
CONTINUOUS
 62
     2
 10
-311.3107
 20
-470.71918
 11
-311.3107
 21
-767.71918
  0
LINE
  8
1
  6
CONTINUOUS
 62
     2
 10
-311.3107
 20
-767.71918
 11
108.68929
 21
-767.71918
  0
LINE
  8
1
  6
CONTINUOUS
 62
     2
 10
108.68929
 20
-470.71918
 11
108.68929
 21
-767.71918
  0
LINE
  8
1
  6
CONTINUOUS
 62
     2
 10
-311.3107
 20
143.28081
 11
-311.3107
 21
-153.71919
  0
LINE
  8
1
  6
CONTINUOUS
 62
     2
 10
-311.3107
 20
-153.71919
 11
108.68929
 21
-153.71919
  0
LINE
  8
1
  6
CONTINUOUS
 62
     2
 10
108.68929
 20
143.28081
 11
108.68929
 21
-153.71919
  0
LINE
  8
1
  6
CONTINUOUS
 62
     2
 10
-311.3107
 20
143.28081
 11
108.68929
 21
143.28081
  0
LINE
  8
1
  6
CONTINUOUS
 62
     2
 10
-311.3107
 20
-163.71919
 11
-311.3107
 21
-460.71918
  0
LINE
  8
1
  6
CONTINUOUS
 62
     2
 10
-311.3107
 20
-460.71918
 11
108.68929
 21
-460.71918
  0
LINE
  8
1
  6
CONTINUOUS
 62
     2
 10
108.68929
 20
-163.71919
 11
108.68929
 21
-460.71918
  0
LINE
  8
1
  6
CONTINUOUS
 62
     2
 10
-311.3107
 20
-163.71919
 11
108.68929
 21
-163.71919
  0
ENDSEC
  0
EOF
