  0
SECTION
  2
HEADER
  9
$EXTMAX
 10
108.92817
 20
144.14287
  9
$EXTMIN
 10
-311.07183
 20
-153.71428
  0
ENDSEC
  0
SECTION
  2
TABLES
  0
TABLE
  2
LTYPE
 70
    22
  0
LTYPE
  2
CONTINUOUS
 70
    64
  3
Solid line
 72
    65
 73
     0
 40
0.000000
  0
LTYPE
  2
DASHED
 70
    64
  3
__ __ __ __ __ __ __ __ __ __ __ __ __ __ __
 72
    65
 73
     2
 40
3.500000
 49
2.000000
 49
-1.500000
  0
LTYPE
  2
CENTER
 70
    64
  3
____ _ ____ _ ____ _ ____ _ ____ _ ____ _ ____
 72
    65
 73
     4
 40
17.500000
 49
13.000000
 49
-1.500000
 49
1.500000
 49
-1.500000
  0
LTYPE
  2
PHANTOM
 70
    64
  3
_____ _ _ _____ _ _ _____ _ _ _____ _ _ ____  
 72
    65
 73
     6
 40
15.500000
 49
8.000000
 49
-1.500000
 49
1.500000
 49
-1.500000
 49
1.500000
 49
-1.500000
  0
LTYPE
  2
DOT
 70
    64
  3
. . . . . . . . . . . . . . . . . . . . . . . .
 72
    65
 73
     2
 40
0.25
 49
0.0
 49
-0.25
  0
ENDTAB
  0
TABLE
  2
LAYER
 70
     2
  0
LAYER
  2
0
 70
     0
 62
     7
  6
CONTINUOUS
  0
LAYER
  2
1
 70
     0
 62
     7
  6
CONTINUOUS
  0
ENDTAB
  0
TABLE
  2
STYLE
 70
     1
  0
STYLE
  2
STANDARD
 70
     0
 40
0.000000
 41
1.000000
 50
0.000000
 71
     0
 42
0.200000
  3
txt
  4
BIGFONT
  0
ENDTAB
  0
TABLE
  2
VIEW
 70
     0
  0
ENDTAB
  0
ENDSEC
  0
SECTION
  2
BLOCKS
  0
ENDSEC
  0
SECTION
  2
ENTITIES
  0
POINT
  8
0
  6
CONTINUOUS
 62
     7
 10
-252.4496
 20
26.091257
  0
POINT
  8
0
  6
CONTINUOUS
 62
     7
 10
-188.23962
 20
26.091257
  0
POINT
  8
0
  6
CONTINUOUS
 62
     7
 10
-112.95172
 20
26.091257
  0
POINT
  8
0
  6
CONTINUOUS
 62
     7
 10
-28.819387
 20
26.091257
  0
LINE
  8
0
  6
CENTER
 62
     7
 10
-401.50162
 20
119.69923
 11
-401.50162
 21
80.453743
  0
LINE
  8
0
  6
CENTER
 62
     7
 10
-419.98352
 20
101.27591
 11
-383.7355
 21
101.27591
  0
LINE
  8
0
  6
CONTINUOUS
 62
     7
 10
-385.80695
 20
101.27591
 11
-390.40381
 21
112.37373
  0
LINE
  8
0
  6
CONTINUOUS
 62
     7
 10
-390.40378
 20
112.37373
 11
-401.50162
 21
116.9706
  0
LINE
  8
0
  6
CONTINUOUS
 62
     7
 10
-412.59943
 20
112.37373
 11
-401.50162
 21
116.97059
  0
LINE
  8
0
  6
CONTINUOUS
 62
     7
 10
-417.19629
 20
101.27592
 11
-412.59943
 21
112.37373
  0
LINE
  8
0
  6
CONTINUOUS
 62
     7
 10
-412.59946
 20
90.178085
 11
-417.19632
 21
101.2759
  0
LINE
  8
0
  6
CONTINUOUS
 62
     7
 10
-401.50162
 20
85.581223
 11
-412.59946
 21
90.178093
  0
LINE
  8
0
  6
CONTINUOUS
 62
     7
 10
-390.40381
 20
90.178085
 11
-401.50162
 21
85.581223
  0
LINE
  8
0
  6
CONTINUOUS
 62
     7
 10
-385.80692
 20
101.27591
 11
-390.40381
 21
90.178093
  0
LINE
  8
0
  6
CENTER
 62
     7
 10
-425.552
 20
56.199329
 11
-377.8042
 21
56.199329
  0
LINE
  8
0
  6
CONTINUOUS
 62
     7
 10
-383.10095
 20
56.199326
 11
-388.49039
 21
69.210556
  0
LINE
  8
0
  6
CONTINUOUS
 62
     7
 10
-388.49039
 20
69.210571
 11
-401.50162
 21
74.599998
  0
LINE
  8
0
  6
CONTINUOUS
 62
     7
 10
-414.51285
 20
69.210564
 11
-401.50165
 21
74.599991
  0
LINE
  8
0
  6
CONTINUOUS
 62
     7
 10
-419.90228
 20
56.199326
 11
-414.51285
 21
69.210564
  0
LINE
  8
0
  6
CONTINUOUS
 62
     7
 10
-414.51288
 20
43.188091
 11
-419.90228
 21
56.199318
  0
LINE
  8
0
  6
CONTINUOUS
 62
     7
 10
-401.50162
 20
37.798664
 11
-414.51285
 21
43.188091
  0
LINE
  8
0
  6
CONTINUOUS
 62
     7
 10
-388.49039
 20
43.188084
 11
-401.50162
 21
37.798656
  0
LINE
  8
0
  6
CONTINUOUS
 62
     7
 10
-383.10095
 20
56.199326
 11
-388.49039
 21
43.188091
  0
LINE
  8
0
  6
CENTER
 62
     7
 10
-401.50162
 20
78.522614
 11
-401.50162
 21
35.072231
  0
LINE
  8
0
  6
CENTER
 62
     7
 10
-430.80862
 20
5.3851457
 11
-372.54755
 21
5.3851457
  0
LINE
  8
0
  6
CONTINUOUS
 62
     7
 10
-378.23019
 20
5.3851414
 11
-385.04623
 21
21.840534
  0
LINE
  8
0
  6
CONTINUOUS
 62
     7
 10
-385.04623
 20
21.840532
 11
-401.50162
 21
28.656578
  0
LINE
  8
0
  6
CONTINUOUS
 62
     7
 10
-417.957
 20
21.840536
 11
-401.50162
 21
28.656582
  0
LINE
  8
0
  6
CONTINUOUS
 62
     7
 10
-424.77307
 20
5.3851485
 11
-417.957
 21
21.84054
  0
LINE
  8
0
  6
CONTINUOUS
 62
     7
 10
-417.957
 20
-11.070247
 11
-424.77307
 21
5.3851457
  0
LINE
  8
0
  6
CONTINUOUS
 62
     7
 10
-401.50162
 20
-17.886288
 11
-417.957
 21
-11.070242
  0
LINE
  8
0
  6
CONTINUOUS
 62
     7
 10
-385.04623
 20
-11.070237
 11
-401.50162
 21
-17.886284
  0
LINE
  8
0
  6
CONTINUOUS
 62
     7
 10
-378.23019
 20
5.3851528
 11
-385.04623
 21
-11.070239
  0
LINE
  8
0
  6
CENTER
 62
     7
 10
-401.50162
 20
31.209974
 11
-401.50162
 21
-20.447704
  0
LINE
  8
0
  6
CENTER
 62
     7
 10
-434.86905
 20
-50.685677
 11
-369.74557
 21
-50.685677
  0
LINE
  8
0
  6
CONTINUOUS
 62
     7
 10
-374.983
 20
-50.685677
 11
-382.75012
 21
-31.934185
  0
LINE
  8
0
  6
CONTINUOUS
 62
     7
 10
-382.75012
 20
-31.934193
 11
-401.50162
 21
-24.167067
  0
LINE
  8
0
  6
CONTINUOUS
 62
     7
 10
-420.25308
 20
-31.934187
 11
-401.50162
 21
-24.167074
  0
LINE
  8
0
  6
CONTINUOUS
 62
     7
 10
-428.02023
 20
-50.685665
 11
-420.25311
 21
-31.934177
  0
LINE
  8
0
  6
CONTINUOUS
 62
     7
 10
-420.25311
 20
-69.437164
 11
-428.02023
 21
-50.685673
  0
LINE
  8
0
  6
CONTINUOUS
 62
     7
 10
-401.50162
 20
-77.204292
 11
-420.25311
 21
-69.437164
  0
LINE
  8
0
  6
CONTINUOUS
 62
     7
 10
-382.75012
 20
-69.437172
 11
-401.50162
 21
-77.204285
  0
LINE
  8
0
  6
CONTINUOUS
 62
     7
 10
-374.98303
 20
-50.685665
 11
-382.75015
 21
-69.437149
  0
LINE
  8
0
  6
CENTER
 62
     7
 10
-401.50162
 20
-21.654659
 11
-401.50162
 21
-81.278244
  0
LINE
  8
0
  6
CENTER
 62
     7
 10
-437.92899
 20
-137.66437
 11
-365.00909
 21
-137.66437
  0
LINE
  8
0
  6
CONTINUOUS
 62
     7
 10
-369.57104
 20
-137.66437
 11
-378.92331
 21
-115.08604
  0
LINE
  8
0
  6
CONTINUOUS
 62
     7
 10
-378.92331
 20
-115.08604
 11
-401.50162
 21
-105.7338
  0
LINE
  8
0
  6
CONTINUOUS
 62
     7
 10
-424.07996
 20
-115.08604
 11
-401.50162
 21
-105.7338
  0
LINE
  8
0
  6
CONTINUOUS
 62
     7
 10
-433.43219
 20
-137.66437
 11
-424.07996
 21
-115.08604
  0
LINE
  8
0
  6
CONTINUOUS
 62
     7
 10
-424.07996
 20
-160.24269
 11
-433.43219
 21
-137.66437
  0
LINE
  8
0
  6
CONTINUOUS
 62
     7
 10
-401.50162
 20
-169.59494
 11
-424.07996
 21
-160.24269
  0
LINE
  8
0
  6
CONTINUOUS
 62
     7
 10
-378.92331
 20
-160.24269
 11
-401.50162
 21
-169.59494
  0
LINE
  8
0
  6
CONTINUOUS
 62
     7
 10
-369.57104
 20
-137.66437
 11
-378.92331
 21
-160.24269
  0
LINE
  8
0
  6
CENTER
 62
     7
 10
-401.50162
 20
-102.03787
 11
-401.50162
 21
-172.52405
  0
LINE
  8
0
  6
CENTER
 62
     7
 10
-448.31732
 20
-241.56189
 11
-358.51984
 21
-241.56189
  0
LINE
  8
0
  6
CONTINUOUS
 62
     7
 10
-364.70029
 20
-241.56189
 11
-375.47916
 21
-215.53941
  0
LINE
  8
0
  6
CONTINUOUS
 62
     7
 10
-375.47913
 20
-215.53943
 11
-401.50162
 21
-204.76056
  0
LINE
  8
0
  6
CONTINUOUS
 62
     7
 10
-427.52408
 20
-215.53941
 11
-401.50162
 21
-204.76056
  0
LINE
  8
0
  6
CONTINUOUS
 62
     7
 10
-438.30298
 20
-241.56189
 11
-427.52411
 21
-215.5394
  0
LINE
  8
0
  6
CONTINUOUS
 62
     7
 10
-427.52408
 20
-267.58435
 11
-438.30295
 21
-241.56189
  0
LINE
  8
0
  6
CONTINUOUS
 62
     7
 10
-401.50162
 20
-278.36322
 11
-427.52411
 21
-267.58438
  0
LINE
  8
0
  6
CONTINUOUS
 62
     7
 10
-375.47916
 20
-267.58435
 11
-401.50162
 21
-278.36322
  0
LINE
  8
0
  6
CONTINUOUS
 62
     7
 10
-364.70029
 20
-241.56187
 11
-375.47916
 21
-267.58435
  0
LINE
  8
0
  6
CENTER
 62
     7
 10
-401.50162
 20
-198.1115
 11
-401.50162
 21
-283.08115
  0
LINE
  8
0
  6
CENTER
 62
     7
 10
-450.48984
 20
-347.29117
 11
-351.5195
 21
-347.29117
  0
LINE
  8
0
  6
CONTINUOUS
 62
     7
 10
-357.12354
 20
-347.29117
 11
-370.12158
 21
-315.9111
  0
LINE
  8
0
  6
CONTINUOUS
 62
     7
 10
-370.12158
 20
-315.9111
 11
-401.50162
 21
-302.91306
  0
LINE
  8
0
  6
CONTINUOUS
 62
     7
 10
-432.88165
 20
-315.9111
 11
-401.50162
 21
-302.91309
  0
LINE
  8
0
  6
CONTINUOUS
 62
     7
 10
-445.8797
 20
-347.29114
 11
-432.88165
 21
-315.9111
  0
LINE
  8
0
  6
CONTINUOUS
 62
     7
 10
-432.88162
 20
-378.67117
 11
-445.87967
 21
-347.29114
  0
LINE
  8
0
  6
CONTINUOUS
 62
     7
 10
-401.50165
 20
-391.66925
 11
-432.88168
 21
-378.6712
  0
LINE
  8
0
  6
CONTINUOUS
 62
     7
 10
-370.12158
 20
-378.6712
 11
-401.50162
 21
-391.66925
  0
LINE
  8
0
  6
CONTINUOUS
 62
     7
 10
-357.12354
 20
-347.29114
 11
-370.12158
 21
-378.6712
  0
LINE
  8
0
  6
CENTER
 62
     7
 10
-401.50162
 20
-297.08182
 11
-401.50162
 21
-397.0177
  0
LINE
  8
0
  6
CENTER
 62
     7
 10
-288.94949
 20
26.091257
 11
-249.95393
 21
26.091257
  0
LINE
  8
0
  6
CONTINUOUS
 62
     7
 10
-274.52695
 20
15.20706
 11
-274.52695
 21
14.363752
  0
LINE
  8
0
  6
CONTINUOUS
 62
     7
 10
-284.37225
 20
15.20706
 11
-284.37225
 21
14.363752
  0
LINE
  8
0
  6
CONTINUOUS
 62
     7
 10
-274.52695
 20
26.091257
 11
-274.52695
 21
25.494951
  0
LINE
  8
0
  6
CONTINUOUS
 62
     7
 10
-284.37225
 20
26.091257
 11
-284.37225
 21
25.494951
  0
LINE
  8
0
  6
CONTINUOUS
 62
     7
 10
-284.37225
 20
25.494951
 11
-274.52695
 21
25.494951
  0
LINE
  8
0
  6
CONTINUOUS
 62
     7
 10
-267.34961
 20
26.091257
 11
-267.34961
 21
11.591251
  0
LINE
  8
0
  6
CONTINUOUS
 62
     7
 10
-284.94958
 20
26.091257
 11
-284.94958
 21
11.091253
  0
LINE
  8
0
  6
CONTINUOUS
 62
     7
 10
-273.94958
 20
26.091257
 11
-273.94958
 21
11.091253
  0
LINE
  8
0
  6
CONTINUOUS
 62
     7
 10
-274.52695
 20
10.091262
 11
-273.94958
 21
11.091256
  0
LINE
  8
0
  6
CONTINUOUS
 62
     7
 10
-284.94962
 20
11.091252
 11
-284.37225
 21
10.091258
  0
LINE
  8
0
  6
CONTINUOUS
 62
     7
 10
-273.94958
 20
11.091251
 11
-267.84961
 21
11.091251
  0
LINE
  8
0
  6
CONTINUOUS
 62
     7
 10
-284.37225
 20
14.363752
 11
-274.52695
 21
14.363752
  0
LINE
  8
0
  6
CONTINUOUS
 62
     7
 10
-284.37225
 20
10.091257
 11
-274.52695
 21
10.091257
  0
LINE
  8
0
  6
CONTINUOUS
 62
     7
 10
-284.37225
 20
15.20706
 11
-274.52695
 21
15.20706
  0
LINE
  8
0
  6
CONTINUOUS
 62
     7
 10
-267.34958
 20
11.591249
 11
-267.84958
 21
11.091249
  0
LINE
  8
0
  6
CENTER
 62
     7
 10
-224.78827
 20
26.091257
 11
-183.01651
 21
26.091257
  0
LINE
  8
0
  6
CONTINUOUS
 62
     7
 10
-221.66226
 20
13.851019
 11
-221.66226
 21
12.219465
  0
LINE
  8
0
  6
CONTINUOUS
 62
     7
 10
-221.66226
 20
26.091257
 11
-221.66226
 21
24.937574
  0
LINE
  8
0
  6
CONTINUOUS
 62
     7
 10
-211.81697
 20
13.851019
 11
-211.81697
 21
12.219465
  0
LINE
  8
0
  6
CONTINUOUS
 62
     7
 10
-205.13962
 20
26.091257
 11
-205.13962
 21
9.0912571
  0
LINE
  8
0
  6
CONTINUOUS
 62
     7
 10
-222.23962
 20
8.591258
 11
-221.66226
 21
7.5912576
  0
LINE
  8
0
  6
CONTINUOUS
 62
     7
 10
-222.23961
 20
26.091257
 11
-222.23961
 21
8.5912571
  0
LINE
  8
0
  6
CONTINUOUS
 62
     7
 10
-211.23961
 20
26.091257
 11
-211.23961
 21
8.5912571
  0
LINE
  8
0
  6
CONTINUOUS
 62
     7
 10
-211.81697
 20
26.091257
 11
-211.81697
 21
24.937574
  0
LINE
  8
0
  6
CONTINUOUS
 62
     7
 10
-211.23961
 20
8.5912523
 11
-211.81697
 21
7.5912519
  0
LINE
  8
0
  6
CONTINUOUS
 62
     7
 10
-211.23961
 20
8.5912571
 11
-205.63962
 21
8.5912571
  0
LINE
  8
0
  6
CONTINUOUS
 62
     7
 10
-221.66226
 20
24.937574
 11
-211.81697
 21
24.937574
  0
LINE
  8
0
  6
CONTINUOUS
 62
     7
 10
-221.66226
 20
13.851019
 11
-211.81697
 21
13.851019
  0
LINE
  8
0
  6
CONTINUOUS
 62
     7
 10
-211.23961
 20
26.091257
 11
-211.23961
 21
8.5912571
  0
LINE
  8
0
  6
CONTINUOUS
 62
     7
 10
-221.66226
 20
12.219465
 11
-211.81697
 21
12.219465
  0
LINE
  8
0
  6
CONTINUOUS
 62
     7
 10
-221.66226
 20
7.5912566
 11
-211.81697
 21
7.5912566
  0
LINE
  8
0
  6
CONTINUOUS
 62
     7
 10
-205.63962
 20
8.5912485
 11
-205.13962
 21
9.0912485
  0
LINE
  8
0
  6
CONTINUOUS
 62
     7
 10
-149.37437
 20
24.937574
 11
-139.52907
 21
24.937574
  0
LINE
  8
0
  6
CONTINUOUS
 62
     7
 10
-139.52907
 20
13.851019
 11
-139.52907
 21
12.219465
  0
LINE
  8
0
  6
CENTER
 62
     7
 10
-108.36028
 20
26.091257
 11
-150.52364
 21
26.091257
  0
LINE
  8
0
  6
CONTINUOUS
 62
     7
 10
-130.95172
 20
26.187841
 11
-130.95172
 21
26.091257
  0
LINE
  8
0
  6
CONTINUOUS
 62
     7
 10
-149.37437
 20
12.219465
 11
-139.52907
 21
12.219465
  0
LINE
  8
0
  6
CONTINUOUS
 62
     7
 10
-149.37437
 20
13.851019
 11
-149.37437
 21
12.219465
  0
LINE
  8
0
  6
CONTINUOUS
 62
     7
 10
-129.85172
 20
26.091257
 11
-129.85172
 21
9.0912571
  0
LINE
  8
0
  6
CONTINUOUS
 62
     7
 10
-149.95172
 20
8.5912571
 11
-149.37437
 21
7.5912566
  0
LINE
  8
0
  6
CONTINUOUS
 62
     7
 10
-149.95172
 20
26.091257
 11
-149.95172
 21
8.5912571
  0
LINE
  8
0
  6
CONTINUOUS
 62
     7
 10
-138.95172
 20
26.091257
 11
-138.95172
 21
8.5912571
  0
LINE
  8
0
  6
CONTINUOUS
 62
     7
 10
-138.95172
 20
8.5912571
 11
-139.52907
 21
7.5912566
  0
LINE
  8
0
  6
CONTINUOUS
 62
     7
 10
-138.95172
 20
8.5912571
 11
-130.35172
 21
8.5912571
  0
LINE
  8
0
  6
CONTINUOUS
 62
     7
 10
-149.37437
 20
13.851019
 11
-139.52907
 21
13.851019
  0
LINE
  8
0
  6
CONTINUOUS
 62
     7
 10
-149.37437
 20
26.091257
 11
-149.37437
 21
24.937574
  0
LINE
  8
0
  6
CONTINUOUS
 62
     7
 10
-139.52907
 20
26.091257
 11
-139.52907
 21
24.937574
  0
LINE
  8
0
  6
CONTINUOUS
 62
     7
 10
-149.37437
 20
7.5912566
 11
-139.52907
 21
7.5912566
  0
LINE
  8
0
  6
CONTINUOUS
 62
     7
 10
-129.85173
 20
9.0912571
 11
-130.35173
 21
8.5912571
  0
LINE
  8
0
  6
CENTER
 62
     7
 10
-69.911583
 20
26.091257
 11
-29.887465
 21
26.091257
  0
LINE
  8
0
  6
CONTINUOUS
 62
     7
 10
-59.39674
 20
3.0912626
 11
-58.819393
 21
4.0912566
  0
LINE
  8
0
  6
CONTINUOUS
 62
     7
 10
-46.819386
 20
26.091257
 11
-46.819386
 21
4.5912566
  0
LINE
  8
0
  6
CONTINUOUS
 62
     7
 10
-69.819389
 20
4.0912523
 11
-69.242043
 21
3.0912549
  0
LINE
  8
0
  6
CONTINUOUS
 62
     7
 10
-58.819393
 20
4.0912566
 11
-47.319386
 21
4.0912566
  0
LINE
  8
0
  6
CONTINUOUS
 62
     7
 10
-58.819393
 20
26.091257
 11
-58.819393
 21
4.0912642
  0
LINE
  8
0
  6
CONTINUOUS
 62
     7
 10
-69.819389
 20
26.091257
 11
-69.819389
 21
4.0912642
  0
LINE
  8
0
  6
CONTINUOUS
 62
     7
 10
-59.39674
 20
11.474649
 11
-59.39674
 21
8.3330212
  0
LINE
  8
0
  6
CONTINUOUS
 62
     7
 10
-69.24205
 20
11.474649
 11
-69.24205
 21
8.3330212
  0
LINE
  8
0
  6
CONTINUOUS
 62
     7
 10
-59.39674
 20
26.091257
 11
-59.39674
 21
23.869791
  0
LINE
  8
0
  6
CONTINUOUS
 62
     7
 10
-69.24205
 20
23.869791
 11
-59.39674
 21
23.869791
  0
LINE
  8
0
  6
CONTINUOUS
 62
     7
 10
-69.24205
 20
11.474649
 11
-59.39674
 21
11.474649
  0
LINE
  8
0
  6
CONTINUOUS
 62
     7
 10
-69.24205
 20
8.3330212
 11
-59.39674
 21
8.3330212
  0
LINE
  8
0
  6
CONTINUOUS
 62
     7
 10
-69.24205
 20
26.091257
 11
-69.24205
 21
23.869791
  0
LINE
  8
0
  6
CONTINUOUS
 62
     7
 10
-69.24205
 20
3.0912566
 11
-59.39674
 21
3.0912566
  0
LINE
  8
0
  6
CONTINUOUS
 62
     7
 10
-47.319378
 20
4.0912552
 11
-46.819378
 21
4.5912557
  0
LINE
  8
0
  6
CONTINUOUS
 62
     7
 10
-252.4496
 20
26.091257
 11
-252.4496
 21
15.591257
  0
LINE
  8
0
  6
CONTINUOUS
 62
     7
 10
-263.44958
 20
12.469937
 11
-263.44958
 21
11.591257
  0
LINE
  8
0
  6
CONTINUOUS
 62
     7
 10
-263.44958
 20
11.591257
 11
-256.44958
 21
11.591257
  0
LINE
  8
0
  6
CONTINUOUS
 62
     7
 10
-263.94958
 20
12.09126
 11
-263.44958
 21
11.59126
  0
LINE
  8
0
  6
CONTINUOUS
 62
     7
 10
-263.44958
 20
21.327801
 11
-263.44958
 21
19.205914
  0
LINE
  8
0
  6
CONTINUOUS
 62
     7
 10
-263.44958
 20
12.469937
 11
-256.44958
 21
12.469937
  0
LINE
  8
0
  6
CONTINUOUS
 62
     7
 10
-263.44958
 20
21.327801
 11
-256.44958
 21
21.327801
  0
LINE
  8
0
  6
CONTINUOUS
 62
     7
 10
-263.44958
 20
19.205914
 11
-256.44958
 21
19.205914
  0
LINE
  8
0
  6
CONTINUOUS
 62
     7
 10
-256.44958
 20
26.091257
 11
-256.44958
 21
11.591257
  0
LINE
  8
0
  6
CONTINUOUS
 62
     7
 10
-263.94958
 20
26.091257
 11
-263.94958
 21
12.091257
  0
LINE
  8
0
  6
CONTINUOUS
 62
     7
 10
-188.23962
 20
26.091257
 11
-188.23962
 21
14.091257
  0
LINE
  8
0
  6
CONTINUOUS
 62
     7
 10
-193.23962
 20
26.091257
 11
-193.23962
 21
9.0912571
  0
LINE
  8
0
  6
CONTINUOUS
 62
     7
 10
-201.23962
 20
20.292267
 11
-193.23962
 21
20.292267
  0
LINE
  8
0
  6
CONTINUOUS
 62
     7
 10
-201.23962
 20
20.292267
 11
-201.23962
 21
18.170948
  0
LINE
  8
0
  6
CONTINUOUS
 62
     7
 10
-201.23962
 20
9.9699364
 11
-201.23962
 21
9.0912571
  0
LINE
  8
0
  6
CONTINUOUS
 62
     7
 10
-201.23962
 20
9.9699364
 11
-193.23962
 21
9.9699364
  0
LINE
  8
0
  6
CONTINUOUS
 62
     7
 10
-201.23962
 20
9.0912571
 11
-193.23962
 21
9.0912571
  0
LINE
  8
0
  6
CONTINUOUS
 62
     7
 10
-201.23962
 20
9.0912657
 11
-201.73962
 21
9.5912666
  0
LINE
  8
0
  6
CONTINUOUS
 62
     7
 10
-201.23962
 20
18.170948
 11
-193.23962
 21
18.170948
  0
LINE
  8
0
  6
CONTINUOUS
 62
     7
 10
-112.95172
 20
26.091257
 11
-112.95172
 21
14.091257
  0
LINE
  8
0
  6
CONTINUOUS
 62
     7
 10
-117.95172
 20
26.091257
 11
-117.95172
 21
9.0912571
  0
LINE
  8
0
  6
CONTINUOUS
 62
     7
 10
-125.95172
 20
20.292267
 11
-117.95172
 21
20.292267
  0
LINE
  8
0
  6
CONTINUOUS
 62
     7
 10
-125.95172
 20
20.292267
 11
-125.95172
 21
18.170948
  0
LINE
  8
0
  6
CONTINUOUS
 62
     7
 10
-125.95172
 20
9.9699364
 11
-125.95172
 21
9.0912571
  0
LINE
  8
0
  6
CONTINUOUS
 62
     7
 10
-125.95172
 20
9.9699364
 11
-117.95172
 21
9.9699364
  0
LINE
  8
0
  6
CONTINUOUS
 62
     7
 10
-125.95172
 20
9.0912571
 11
-117.95172
 21
9.0912571
  0
LINE
  8
0
  6
CONTINUOUS
 62
     7
 10
-125.95173
 20
9.0912571
 11
-126.45173
 21
9.591258
  0
LINE
  8
0
  6
CONTINUOUS
 62
     7
 10
-125.95172
 20
18.170948
 11
-117.95172
 21
18.170948
  0
LINE
  8
0
  6
CONTINUOUS
 62
     7
 10
-201.73962
 20
26.091257
 11
-201.73962
 21
9.5912571
  0
LINE
  8
0
  6
CONTINUOUS
 62
     7
 10
-126.45172
 20
26.091257
 11
-126.45172
 21
9.5912571
  0
LINE
  8
0
  6
CONTINUOUS
 62
     7
 10
-42.819386
 20
6.1980453
 11
-33.819386
 21
6.1980453
  0
LINE
  8
0
  6
CONTINUOUS
 62
     7
 10
-43.319386
 20
5.0912566
 11
-42.819386
 21
4.5912561
  0
LINE
  8
0
  6
CENTER
 62
     7
 10
-51.283474
 20
26.091257
 11
-24.077261
 21
26.091257
  0
LINE
  8
0
  6
CONTINUOUS
 62
     7
 10
-42.819386
 20
6.1980453
 11
-42.819386
 21
4.5912585
  0
LINE
  8
0
  6
CONTINUOUS
 62
     7
 10
-42.819386
 20
19.458008
 11
-42.819386
 21
15.578877
  0
LINE
  8
0
  6
CONTINUOUS
 62
     7
 10
-42.819386
 20
4.5912585
 11
-33.819386
 21
4.5912585
  0
LINE
  8
0
  6
CONTINUOUS
 62
     7
 10
-28.819387
 20
26.091257
 11
-28.819387
 21
9.591259
  0
LINE
  8
0
  6
CONTINUOUS
 62
     7
 10
-33.819386
 20
26.091257
 11
-33.819386
 21
4.5912585
  0
LINE
  8
0
  6
CONTINUOUS
 62
     7
 10
-42.819386
 20
15.578877
 11
-33.819386
 21
15.578877
  0
LINE
  8
0
  6
CONTINUOUS
 62
     7
 10
-42.819386
 20
19.458008
 11
-33.819386
 21
19.458008
  0
LINE
  8
0
  6
CONTINUOUS
 62
     7
 10
-43.319386
 20
26.091257
 11
-43.319386
 21
5.0912585
  0
LINE
  8
0
  6
CONTINUOUS
 62
     7
 10
-267.34961
 20
12.42773
 11
-263.94958
 21
12.42773
  0
LINE
  8
0
  6
CONTINUOUS
 62
     7
 10
-274.52695
 20
36.975452
 11
-274.52695
 21
37.81876
  0
LINE
  8
0
  6
CONTINUOUS
 62
     7
 10
-284.37225
 20
36.975452
 11
-284.37225
 21
37.81876
  0
LINE
  8
0
  6
CONTINUOUS
 62
     7
 10
-274.52695
 20
26.091257
 11
-274.52695
 21
26.687563
  0
LINE
  8
0
  6
CONTINUOUS
 62
     7
 10
-284.37225
 20
26.091257
 11
-284.37225
 21
26.687563
  0
LINE
  8
0
  6
CONTINUOUS
 62
     7
 10
-284.37225
 20
26.687563
 11
-274.52695
 21
26.687563
  0
LINE
  8
0
  6
CONTINUOUS
 62
     7
 10
-267.34961
 20
26.091257
 11
-267.34961
 21
40.591263
  0
LINE
  8
0
  6
CONTINUOUS
 62
     7
 10
-284.94958
 20
26.091257
 11
-284.94958
 21
41.091259
  0
LINE
  8
0
  6
CONTINUOUS
 62
     7
 10
-273.94958
 20
26.091257
 11
-273.94958
 21
41.091259
  0
LINE
  8
0
  6
CONTINUOUS
 62
     7
 10
-274.52695
 20
42.091263
 11
-273.94958
 21
41.091255
  0
LINE
  8
0
  6
CONTINUOUS
 62
     7
 10
-284.94958
 20
41.091259
 11
-284.37225
 21
42.091251
  0
LINE
  8
0
  6
CONTINUOUS
 62
     7
 10
-273.94958
 20
41.091263
 11
-267.84961
 21
41.091263
  0
LINE
  8
0
  6
CONTINUOUS
 62
     7
 10
-284.37225
 20
37.81876
 11
-274.52695
 21
37.81876
  0
LINE
  8
0
  6
CONTINUOUS
 62
     7
 10
-284.37225
 20
42.091255
 11
-274.52695
 21
42.091255
  0
LINE
  8
0
  6
CONTINUOUS
 62
     7
 10
-284.37225
 20
36.975452
 11
-274.52695
 21
36.975452
  0
LINE
  8
0
  6
CONTINUOUS
 62
     7
 10
-267.34958
 20
40.591259
 11
-267.84958
 21
41.091259
  0
LINE
  8
0
  6
CONTINUOUS
 62
     7
 10
-252.4496
 20
26.091257
 11
-252.4496
 21
36.591255
  0
LINE
  8
0
  6
CONTINUOUS
 62
     7
 10
-263.44958
 20
39.712578
 11
-263.44958
 21
40.591255
  0
LINE
  8
0
  6
CONTINUOUS
 62
     7
 10
-263.44958
 20
40.591255
 11
-256.44958
 21
40.591255
  0
LINE
  8
0
  6
CONTINUOUS
 62
     7
 10
-263.94962
 20
40.091259
 11
-263.44962
 21
40.591259
  0
LINE
  8
0
  6
CONTINUOUS
 62
     7
 10
-263.44958
 20
30.854713
 11
-263.44958
 21
32.976601
  0
LINE
  8
0
  6
CONTINUOUS
 62
     7
 10
-263.44958
 20
39.712578
 11
-256.44958
 21
39.712578
  0
LINE
  8
0
  6
CONTINUOUS
 62
     7
 10
-263.44958
 20
30.854713
 11
-256.44958
 21
30.854713
  0
LINE
  8
0
  6
CONTINUOUS
 62
     7
 10
-263.44958
 20
32.976601
 11
-256.44958
 21
32.976601
  0
LINE
  8
0
  6
CONTINUOUS
 62
     7
 10
-256.44958
 20
26.091257
 11
-256.44958
 21
40.591255
  0
LINE
  8
0
  6
CONTINUOUS
 62
     7
 10
-263.94958
 20
26.091257
 11
-263.94958
 21
40.091255
  0
LINE
  8
0
  6
CONTINUOUS
 62
     7
 10
-267.34961
 20
39.754784
 11
-263.94958
 21
39.754784
  0
LINE
  8
0
  6
CONTINUOUS
 62
     7
 10
-205.13962
 20
9.8455782
 11
-201.73962
 21
9.8455782
  0
LINE
  8
0
  6
CONTINUOUS
 62
     7
 10
-221.66226
 20
38.331493
 11
-221.66226
 21
39.963047
  0
LINE
  8
0
  6
CONTINUOUS
 62
     7
 10
-221.66226
 20
26.091257
 11
-221.66226
 21
27.24494
  0
LINE
  8
0
  6
CONTINUOUS
 62
     7
 10
-211.81697
 20
38.331493
 11
-211.81697
 21
39.963047
  0
LINE
  8
0
  6
CONTINUOUS
 62
     7
 10
-205.13962
 20
26.091257
 11
-205.13962
 21
43.091255
  0
LINE
  8
0
  6
CONTINUOUS
 62
     7
 10
-222.23962
 20
43.591259
 11
-221.66228
 21
44.591259
  0
LINE
  8
0
  6
CONTINUOUS
 62
     7
 10
-222.23961
 20
26.091257
 11
-222.23961
 21
43.591255
  0
LINE
  8
0
  6
CONTINUOUS
 62
     7
 10
-211.23961
 20
26.091257
 11
-211.23961
 21
43.591255
  0
LINE
  8
0
  6
CONTINUOUS
 62
     7
 10
-211.81697
 20
26.091257
 11
-211.81697
 21
27.24494
  0
LINE
  8
0
  6
CONTINUOUS
 62
     7
 10
-211.23962
 20
43.591251
 11
-211.81697
 21
44.591259
  0
LINE
  8
0
  6
CONTINUOUS
 62
     7
 10
-211.23961
 20
43.591255
 11
-205.63962
 21
43.591255
  0
LINE
  8
0
  6
CONTINUOUS
 62
     7
 10
-221.66226
 20
27.24494
 11
-211.81697
 21
27.24494
  0
LINE
  8
0
  6
CONTINUOUS
 62
     7
 10
-221.66226
 20
38.331493
 11
-211.81697
 21
38.331493
  0
LINE
  8
0
  6
CONTINUOUS
 62
     7
 10
-211.23961
 20
26.091257
 11
-211.23961
 21
43.591255
  0
LINE
  8
0
  6
CONTINUOUS
 62
     7
 10
-221.66226
 20
39.963047
 11
-211.81697
 21
39.963047
  0
LINE
  8
0
  6
CONTINUOUS
 62
     7
 10
-221.66226
 20
44.591255
 11
-211.81697
 21
44.591255
  0
LINE
  8
0
  6
CONTINUOUS
 62
     7
 10
-205.63962
 20
43.591255
 11
-205.13962
 21
43.091255
  0
LINE
  8
0
  6
CONTINUOUS
 62
     7
 10
-188.23962
 20
26.091257
 11
-188.23962
 21
38.091255
  0
LINE
  8
0
  6
CONTINUOUS
 62
     7
 10
-193.23962
 20
26.091257
 11
-193.23962
 21
43.091255
  0
LINE
  8
0
  6
CONTINUOUS
 62
     7
 10
-201.23962
 20
31.890247
 11
-193.23962
 21
31.890247
  0
LINE
  8
0
  6
CONTINUOUS
 62
     7
 10
-201.23962
 20
31.890247
 11
-201.23962
 21
34.011566
  0
LINE
  8
0
  6
CONTINUOUS
 62
     7
 10
-201.23962
 20
42.212578
 11
-201.23962
 21
43.091255
  0
LINE
  8
0
  6
CONTINUOUS
 62
     7
 10
-201.23962
 20
42.212578
 11
-193.23962
 21
42.212578
  0
LINE
  8
0
  6
CONTINUOUS
 62
     7
 10
-201.23962
 20
43.091255
 11
-193.23962
 21
43.091255
  0
LINE
  8
0
  6
CONTINUOUS
 62
     7
 10
-201.23962
 20
43.091251
 11
-201.73962
 21
42.591251
  0
LINE
  8
0
  6
CONTINUOUS
 62
     7
 10
-201.23962
 20
34.011566
 11
-193.23962
 21
34.011566
  0
LINE
  8
0
  6
CONTINUOUS
 62
     7
 10
-201.73962
 20
26.091257
 11
-201.73962
 21
42.591255
  0
LINE
  8
0
  6
CONTINUOUS
 62
     7
 10
-205.13962
 20
42.336937
 11
-201.73962
 21
42.336937
  0
LINE
  8
0
  6
CONTINUOUS
 62
     7
 10
-129.85172
 20
9.8455782
 11
-126.45172
 21
9.8455782
  0
LINE
  8
0
  6
CONTINUOUS
 62
     7
 10
-149.37437
 20
27.24494
 11
-139.52907
 21
27.24494
  0
LINE
  8
0
  6
CONTINUOUS
 62
     7
 10
-139.52907
 20
38.331493
 11
-139.52907
 21
39.963047
  0
LINE
  8
0
  6
CONTINUOUS
 62
     7
 10
-149.37437
 20
39.963047
 11
-139.52907
 21
39.963047
  0
LINE
  8
0
  6
CONTINUOUS
 62
     7
 10
-149.37437
 20
38.331493
 11
-149.37437
 21
39.963047
  0
LINE
  8
0
  6
CONTINUOUS
 62
     7
 10
-129.85172
 20
26.091257
 11
-129.85172
 21
43.091255
  0
LINE
  8
0
  6
CONTINUOUS
 62
     7
 10
-149.95172
 20
43.591251
 11
-149.37437
 21
44.591255
  0
LINE
  8
0
  6
CONTINUOUS
 62
     7
 10
-149.95172
 20
26.091257
 11
-149.95172
 21
43.591255
  0
LINE
  8
0
  6
CONTINUOUS
 62
     7
 10
-138.95172
 20
26.091257
 11
-138.95172
 21
43.591255
  0
LINE
  8
0
  6
CONTINUOUS
 62
     7
 10
-138.95172
 20
43.591255
 11
-139.52907
 21
44.591255
  0
LINE
  8
0
  6
CONTINUOUS
 62
     7
 10
-138.95172
 20
43.591255
 11
-130.35172
 21
43.591255
  0
LINE
  8
0
  6
CONTINUOUS
 62
     7
 10
-149.37437
 20
38.331493
 11
-139.52907
 21
38.331493
  0
LINE
  8
0
  6
CONTINUOUS
 62
     7
 10
-149.37437
 20
26.091257
 11
-149.37437
 21
27.24494
  0
LINE
  8
0
  6
CONTINUOUS
 62
     7
 10
-139.52907
 20
26.091257
 11
-139.52907
 21
27.24494
  0
LINE
  8
0
  6
CONTINUOUS
 62
     7
 10
-149.37437
 20
44.591255
 11
-139.52907
 21
44.591255
  0
LINE
  8
0
  6
CONTINUOUS
 62
     7
 10
-129.85172
 20
43.091255
 11
-130.35172
 21
43.591255
  0
LINE
  8
0
  6
CONTINUOUS
 62
     7
 10
-112.95172
 20
26.091257
 11
-112.95172
 21
38.091255
  0
LINE
  8
0
  6
CONTINUOUS
 62
     7
 10
-117.95172
 20
26.091257
 11
-117.95172
 21
43.091255
  0
LINE
  8
0
  6
CONTINUOUS
 62
     7
 10
-125.95172
 20
31.890247
 11
-117.95172
 21
31.890247
  0
LINE
  8
0
  6
CONTINUOUS
 62
     7
 10
-125.95172
 20
31.890247
 11
-125.95172
 21
34.011566
  0
LINE
  8
0
  6
CONTINUOUS
 62
     7
 10
-125.95172
 20
42.212578
 11
-125.95172
 21
43.091255
  0
LINE
  8
0
  6
CONTINUOUS
 62
     7
 10
-125.95172
 20
42.212578
 11
-117.95172
 21
42.212578
  0
LINE
  8
0
  6
CONTINUOUS
 62
     7
 10
-125.95172
 20
43.091255
 11
-117.95172
 21
43.091255
  0
LINE
  8
0
  6
CONTINUOUS
 62
     7
 10
-125.95172
 20
43.091255
 11
-126.45173
 21
42.591255
  0
LINE
  8
0
  6
CONTINUOUS
 62
     7
 10
-125.95172
 20
34.011566
 11
-117.95172
 21
34.011566
  0
LINE
  8
0
  6
CONTINUOUS
 62
     7
 10
-126.45172
 20
26.091257
 11
-126.45172
 21
42.591255
  0
LINE
  8
0
  6
CONTINUOUS
 62
     7
 10
-129.85172
 20
42.336937
 11
-126.45172
 21
42.336937
  0
LINE
  8
0
  6
CONTINUOUS
 62
     7
 10
-46.819386
 20
5.4597058
 11
-43.319386
 21
5.4597058
  0
LINE
  8
0
  6
CONTINUOUS
 62
     7
 10
-59.39674
 20
49.091248
 11
-58.819393
 21
48.091255
  0
LINE
  8
0
  6
CONTINUOUS
 62
     7
 10
-46.819386
 20
26.091257
 11
-46.819386
 21
47.591255
  0
LINE
  8
0
  6
CONTINUOUS
 62
     7
 10
-69.819389
 20
48.091259
 11
-69.242043
 21
49.091255
  0
LINE
  8
0
  6
CONTINUOUS
 62
     7
 10
-58.819393
 20
48.091255
 11
-47.319386
 21
48.091255
  0
LINE
  8
0
  6
CONTINUOUS
 62
     7
 10
-58.819393
 20
26.091257
 11
-58.819393
 21
48.091248
  0
LINE
  8
0
  6
CONTINUOUS
 62
     7
 10
-69.819389
 20
26.091257
 11
-69.819389
 21
48.091248
  0
LINE
  8
0
  6
CONTINUOUS
 62
     7
 10
-59.39674
 20
40.707863
 11
-59.39674
 21
43.849491
  0
LINE
  8
0
  6
CONTINUOUS
 62
     7
 10
-69.24205
 20
40.707863
 11
-69.24205
 21
43.849491
  0
LINE
  8
0
  6
CONTINUOUS
 62
     7
 10
-59.39674
 20
26.091257
 11
-59.39674
 21
28.312723
  0
LINE
  8
0
  6
CONTINUOUS
 62
     7
 10
-69.24205
 20
28.312723
 11
-59.39674
 21
28.312723
  0
LINE
  8
0
  6
CONTINUOUS
 62
     7
 10
-69.24205
 20
40.707863
 11
-59.39674
 21
40.707863
  0
LINE
  8
0
  6
CONTINUOUS
 62
     7
 10
-69.24205
 20
43.849491
 11
-59.39674
 21
43.849491
  0
LINE
  8
0
  6
CONTINUOUS
 62
     7
 10
-69.24205
 20
26.091257
 11
-69.24205
 21
28.312723
  0
LINE
  8
0
  6
CONTINUOUS
 62
     7
 10
-69.24205
 20
49.091255
 11
-59.39674
 21
49.091255
  0
LINE
  8
0
  6
CONTINUOUS
 62
     7
 10
-47.319378
 20
48.091259
 11
-46.819378
 21
47.591255
  0
LINE
  8
0
  6
CONTINUOUS
 62
     7
 10
-42.819386
 20
45.984467
 11
-33.819386
 21
45.984467
  0
LINE
  8
0
  6
CONTINUOUS
 62
     7
 10
-43.319386
 20
47.091255
 11
-42.819386
 21
47.591255
  0
LINE
  8
0
  6
CONTINUOUS
 62
     7
 10
-42.819386
 20
45.984467
 11
-42.819386
 21
47.591255
  0
LINE
  8
0
  6
CONTINUOUS
 62
     7
 10
-42.819386
 20
32.724506
 11
-42.819386
 21
36.603638
  0
LINE
  8
0
  6
CONTINUOUS
 62
     7
 10
-42.819386
 20
47.591255
 11
-33.819386
 21
47.591255
  0
LINE
  8
0
  6
CONTINUOUS
 62
     7
 10
-28.819387
 20
26.091257
 11
-28.819387
 21
42.591255
  0
LINE
  8
0
  6
CONTINUOUS
 62
     7
 10
-33.819386
 20
26.091257
 11
-33.819386
 21
47.591255
  0
LINE
  8
0
  6
CONTINUOUS
 62
     7
 10
-42.819386
 20
36.603638
 11
-33.819386
 21
36.603638
  0
LINE
  8
0
  6
CONTINUOUS
 62
     7
 10
-42.819386
 20
32.724506
 11
-33.819386
 21
32.724506
  0
LINE
  8
0
  6
CONTINUOUS
 62
     7
 10
-43.319386
 20
26.091257
 11
-43.319386
 21
47.091255
  0
LINE
  8
0
  6
CONTINUOUS
 62
     7
 10
-46.819386
 20
46.722809
 11
-43.319386
 21
46.722809
  0
CIRCLE
  8
0
  6
CONTINUOUS
 62
     7
 10
-401.50162
 20
101.27591
 40
14.5
  0
CIRCLE
  8
0
  6
CONTINUOUS
 62
     7
 10
-401.50162
 20
101.27591
 40
8.0500002
  0
CIRCLE
  8
0
  6
CONTINUOUS
 62
     7
 10
-401.50162
 20
56.199329
 40
17
  0
CIRCLE
  8
0
  6
CONTINUOUS
 62
     7
 10
-401.50162
 20
56.199329
 40
11.25
  0
CIRCLE
  8
0
  6
CONTINUOUS
 62
     7
 10
-401.50162
 20
5.3851457
 40
21.5
  0
CIRCLE
  8
0
  6
CONTINUOUS
 62
     7
 10
-401.50162
 20
5.3851457
 40
14.4
  0
CIRCLE
  8
0
  6
CONTINUOUS
 62
     7
 10
-401.50162
 20
-50.685677
 40
24.5
  0
CIRCLE
  8
0
  6
CONTINUOUS
 62
     7
 10
-401.50162
 20
-50.685677
 40
17.25
  0
CIRCLE
  8
0
  6
CONTINUOUS
 62
     7
 10
-401.50162
 20
-137.66437
 40
29.5
  0
CIRCLE
  8
0
  6
CONTINUOUS
 62
     7
 10
-401.50162
 20
-137.66437
 40
21.65
  0
CIRCLE
  8
0
  6
CONTINUOUS
 62
     7
 10
-401.50162
 20
-241.56189
 40
34
  0
CIRCLE
  8
0
  6
CONTINUOUS
 62
     7
 10
-401.50162
 20
-241.56189
 40
24.65
  0
CIRCLE
  8
0
  6
CONTINUOUS
 62
     7
 10
-401.50162
 20
-347.29117
 40
41
  0
CIRCLE
  8
0
  6
CONTINUOUS
 62
     7
 10
-401.50162
 20
-347.29117
 40
30.65
  0
ARC
  8
0
  6
CONTINUOUS
 62
     7
 10
-261.74561
 20
20.351007
 40
23.203985
 50
167.19206
 51
192.80795
  0
ARC
  8
0
  6
CONTINUOUS
 62
     7
 10
-280.70874
 20
12.227505
 40
4.24085
 50
149.75285
 51
210.24716
  0
ARC
  8
0
  6
CONTINUOUS
 62
     7
 10
-278.19046
 20
12.227505
 40
4.24085
 50
329.75285
 51
30.247151
  0
ARC
  8
0
  6
CONTINUOUS
 62
     7
 10
-297.15359
 20
20.351007
 40
23.203985
 50
347.19206
 51
12.807943
  0
ARC
  8
0
  6
CONTINUOUS
 62
     7
 10
-216.16592
 20
9.9053612
 40
4.926311
 50
331.98233
 51
28.017672
  0
ARC
  8
0
  6
CONTINUOUS
 62
     7
 10
-238.13945
 20
19.394297
 40
26.899845
 50
348.1078
 51
11.8922
  0
ARC
  8
0
  6
CONTINUOUS
 62
     7
 10
-217.31331
 20
9.9053612
 40
4.926311
 50
151.98232
 51
208.01767
  0
ARC
  8
0
  6
CONTINUOUS
 62
     7
 10
-195.33977
 20
19.394297
 40
26.899845
 50
168.1078
 51
191.8922
  0
ARC
  8
0
  6
CONTINUOUS
 62
     7
 10
-165.85161
 20
19.394297
 40
26.899881
 50
348.10782
 51
11.892183
  0
ARC
  8
0
  6
CONTINUOUS
 62
     7
 10
-143.87804
 20
9.9053612
 40
4.9263172
 50
331.98237
 51
28.017634
  0
ARC
  8
0
  6
CONTINUOUS
 62
     7
 10
-123.05184
 20
19.394297
 40
26.899881
 50
168.10781
 51
191.89218
  0
ARC
  8
0
  6
CONTINUOUS
 62
     7
 10
-145.02541
 20
9.9053612
 40
4.9263172
 50
151.98236
 51
208.01763
  0
ARC
  8
0
  6
CONTINUOUS
 62
     7
 10
-63.581951
 20
5.7121406
 40
6.2374358
 50
155.15368
 51
204.84632
  0
ARC
  8
0
  6
CONTINUOUS
 62
     7
 10
-65.056839
 20
5.7121406
 40
6.2374358
 50
335.15368
 51
24.846323
  0
ARC
  8
0
  6
CONTINUOUS
 62
     7
 10
-92.372047
 20
17.67222
 40
33.552666
 50
349.35568
 51
10.644325
  0
ARC
  8
0
  6
CONTINUOUS
 62
     7
 10
-36.266727
 20
17.67222
 40
33.552666
 50
169.35567
 51
190.64432
  0
ARC
  8
0
  6
CONTINUOUS
 62
     7
 10
-256.44958
 20
15.591257
 40
4
 50
270
 51
360
  0
ARC
  8
0
  6
CONTINUOUS
 62
     7
 10
-252.35623
 20
15.837926
 40
11.59337
 50
163.11152
 51
196.88848
  0
ARC
  8
0
  6
CONTINUOUS
 62
     7
 10
-241.00905
 20
26.091255
 40
22.940548
 50
179.99999
 51
191.9843
  0
ARC
  8
0
  6
CONTINUOUS
 62
     7
 10
-184.67538
 20
14.070442
 40
17.064236
 50
166.09586
 51
193.90414
  0
ARC
  8
0
  6
CONTINUOUS
 62
     7
 10
-167.86115
 20
26.091257
 40
33.878471
 50
180.00001
 51
189.85588
  0
ARC
  8
0
  6
CONTINUOUS
 62
     7
 10
-193.23962
 20
14.091257
 40
5
 50
270
 51
360
  0
ARC
  8
0
  6
CONTINUOUS
 62
     7
 10
-109.38749
 20
14.070442
 40
17.064236
 50
166.09586
 51
193.90414
  0
ARC
  8
0
  6
CONTINUOUS
 62
     7
 10
-92.57325
 20
26.091257
 40
33.878471
 50
180.00001
 51
189.85588
  0
ARC
  8
0
  6
CONTINUOUS
 62
     7
 10
-117.95172
 20
14.091257
 40
5
 50
270
 51
360
  0
ARC
  8
0
  6
CONTINUOUS
 62
     7
 10
-21.069387
 20
10.888462
 40
22.249998
 50
167.83045
 51
192.16954
  0
ARC
  8
0
  6
CONTINUOUS
 62
     7
 10
0.93059784
 20
26.091257
 40
44.249989
 50
180.00001
 51
188.62136
  0
ARC
  8
0
  6
CONTINUOUS
 62
     7
 10
-33.819386
 20
9.591259
 40
5
 50
270
 51
360
  0
ARC
  8
0
  6
CONTINUOUS
 62
     7
 10
-261.74561
 20
31.831507
 40
23.203985
 50
167.19205
 51
192.80793
  0
ARC
  8
0
  6
CONTINUOUS
 62
     7
 10
-280.70874
 20
39.955009
 40
4.24085
 50
149.75284
 51
210.24714
  0
ARC
  8
0
  6
CONTINUOUS
 62
     7
 10
-278.19046
 20
39.955009
 40
4.24085
 50
329.75285
 51
30.247151
  0
ARC
  8
0
  6
CONTINUOUS
 62
     7
 10
-297.15359
 20
31.831507
 40
23.203985
 50
347.19206
 51
12.807943
  0
ARC
  8
0
  6
CONTINUOUS
 62
     7
 10
-256.44958
 20
36.591255
 40
4
 50
0
 51
90.000003
  0
ARC
  8
0
  6
CONTINUOUS
 62
     7
 10
-252.35623
 20
36.344589
 40
11.59337
 50
163.11152
 51
196.88848
  0
ARC
  8
0
  6
CONTINUOUS
 62
     7
 10
-241.00905
 20
26.091257
 40
22.940548
 50
168.0157
 51
180.00001
  0
ARC
  8
0
  6
CONTINUOUS
 62
     7
 10
-216.16592
 20
42.277153
 40
4.926311
 50
331.98233
 51
28.017672
  0
ARC
  8
0
  6
CONTINUOUS
 62
     7
 10
-238.13945
 20
32.788216
 40
26.899845
 50
348.1078
 51
11.8922
  0
ARC
  8
0
  6
CONTINUOUS
 62
     7
 10
-217.31331
 20
42.277153
 40
4.926311
 50
151.98232
 51
208.01767
  0
ARC
  8
0
  6
CONTINUOUS
 62
     7
 10
-195.33977
 20
32.788216
 40
26.899845
 50
168.1078
 51
191.8922
  0
ARC
  8
0
  6
CONTINUOUS
 62
     7
 10
-184.67538
 20
38.112072
 40
17.064236
 50
166.09586
 51
193.90414
  0
ARC
  8
0
  6
CONTINUOUS
 62
     7
 10
-167.86115
 20
26.091257
 40
33.878471
 50
170.14412
 51
179.99999
  0
ARC
  8
0
  6
CONTINUOUS
 62
     7
 10
-193.23962
 20
38.091255
 40
5
 50
0
 51
90.000003
  0
ARC
  8
0
  6
CONTINUOUS
 62
     7
 10
-165.85161
 20
32.788216
 40
26.899881
 50
348.10782
 51
11.892183
  0
ARC
  8
0
  6
CONTINUOUS
 62
     7
 10
-143.87804
 20
42.277153
 40
4.9263172
 50
331.98237
 51
28.017634
  0
ARC
  8
0
  6
CONTINUOUS
 62
     7
 10
-123.05184
 20
32.788216
 40
26.899881
 50
168.10781
 51
191.89218
  0
ARC
  8
0
  6
CONTINUOUS
 62
     7
 10
-145.02541
 20
42.277153
 40
4.9263172
 50
151.98236
 51
208.01763
  0
ARC
  8
0
  6
CONTINUOUS
 62
     7
 10
-109.38749
 20
38.112072
 40
17.064236
 50
166.09586
 51
193.90414
  0
ARC
  8
0
  6
CONTINUOUS
 62
     7
 10
-92.57325
 20
26.091257
 40
33.878471
 50
170.14412
 51
179.99999
  0
ARC
  8
0
  6
CONTINUOUS
 62
     7
 10
-117.95172
 20
38.091255
 40
5
 50
0
 51
90.000003
  0
ARC
  8
0
  6
CONTINUOUS
 62
     7
 10
-63.581951
 20
46.470371
 40
6.2374358
 50
155.15368
 51
204.84632
  0
ARC
  8
0
  6
CONTINUOUS
 62
     7
 10
-65.056839
 20
46.470371
 40
6.2374358
 50
335.15368
 51
24.846323
  0
ARC
  8
0
  6
CONTINUOUS
 62
     7
 10
-92.372047
 20
34.510292
 40
33.552666
 50
349.35568
 51
10.644325
  0
ARC
  8
0
  6
CONTINUOUS
 62
     7
 10
-36.266727
 20
34.510292
 40
33.552666
 50
169.35567
 51
190.64432
  0
ARC
  8
0
  6
CONTINUOUS
 62
     7
 10
-21.069387
 20
41.294052
 40
22.249998
 50
167.83045
 51
192.16954
  0
ARC
  8
0
  6
CONTINUOUS
 62
     7
 10
0.93059784
 20
26.091257
 40
44.249989
 50
171.37864
 51
179.99999
  0
ARC
  8
0
  6
CONTINUOUS
 62
     7
 10
-33.819386
 20
42.591255
 40
5
 50
0
 51
90.000003
  0
TEXT
  8
0
  6
CONTINUOUS
 62
     7
 10
-448.18668
 20
100.9722
 40
3.2
 41
1.0285716
  1
13
  0
TEXT
  8
0
  6
CONTINUOUS
 62
     7
 10
-449.74558
 20
58.88214
 40
3.2
 41
1.0285716
  1
20
  0
TEXT
  8
0
  6
CONTINUOUS
 62
     7
 10
-452.86335
 20
7.4387392
 40
3.2
 41
1.0285716
  1
25
  0
TEXT
  8
0
  6
CONTINUOUS
 62
     7
 10
-450.52503
 20
-56.47579
 40
3.2
 41
1.0285716
  1
30
  0
TEXT
  8
0
  6
CONTINUOUS
 62
     7
 10
-450.18433
 20
-132.60479
 40
3.2
 41
1.0285716
  1
40
  0
TEXT
  8
0
  6
CONTINUOUS
 62
     7
 10
-443.42539
 20
-210.33271
 40
3.2
 41
1.0285716
  1
50
  0
TEXT
  8
0
  6
CONTINUOUS
 62
     7
 10
-450.54114
 20
-310.81277
 40
3.2
 41
1.0285716
  1
60
  0
TEXT
  8
0
  6
CONTINUOUS
 62
     7
 10
-282.77682
 20
118.76988
 40
8
 41
0.84247986
  1
コマサスフィット継手　給水栓用ソケット
  0
TEXT
  8
0
  6
CONTINUOUS
 62
     7
 10
-224.49615
 20
58.008312
 40
6
 41
0.84741103
  1
２０×１／２
  0
TEXT
  8
0
  6
CONTINUOUS
 62
     7
 10
-153.17573
 20
58.694084
 40
6
 41
0.84741103
  1
２０×３／４
  0
TEXT
  8
0
  6
CONTINUOUS
 62
     7
 10
-64.025213
 20
60.065632
 40
6
 41
0.85127006
  1
２５×１
  0
TEXT
  8
0
  6
CONTINUOUS
 62
     7
 10
-293.07348
 20
59.379856
 40
6
 41
0.84741103
  1
１３×１／２
  0
POINT
  8
1
  6
CONTINUOUS
 62
     7
 10
-311.3107
 20
-470.71918
  0
POINT
  8
1
  6
CONTINUOUS
 62
     7
 10
-311.3107
 20
-153.71919
  0
POINT
  8
1
  6
CONTINUOUS
 62
     7
 10
-311.3107
 20
-767.71918
  0
POINT
  8
1
  6
CONTINUOUS
 62
     7
 10
108.68929
 20
-153.71919
  0
POINT
  8
1
  6
CONTINUOUS
 62
     7
 10
-311.3107
 20
-777.71918
  0
POINT
  8
1
  6
CONTINUOUS
 62
     7
 10
-311.3107
 20
143.28081
  0
POINT
  8
1
  6
CONTINUOUS
 62
     7
 10
-311.3107
 20
-153.71919
  0
POINT
  8
1
  6
CONTINUOUS
 62
     7
 10
-311.3107
 20
-163.71919
  0
POINT
  8
1
  6
CONTINUOUS
 62
     7
 10
-311.3107
 20
-163.71919
  0
POINT
  8
1
  6
CONTINUOUS
 62
     7
 10
-311.3107
 20
-460.71918
  0
POINT
  8
1
  6
CONTINUOUS
 62
     7
 10
-311.3107
 20
-470.71918
  0
LINE
  8
1
  6
CONTINUOUS
 62
     7
 10
108.68929
 20
143.28081
 11
108.68929
 21
-33.714287
  0
LINE
  8
1
  6
CONTINUOUS
 62
     2
 10
-311.3107
 20
-470.71918
 11
108.68929
 21
-470.71918
  0
LINE
  8
1
  6
CONTINUOUS
 62
     2
 10
-311.3107
 20
-470.71918
 11
-311.3107
 21
-767.71918
  0
LINE
  8
1
  6
CONTINUOUS
 62
     2
 10
-311.3107
 20
-767.71918
 11
108.68929
 21
-767.71918
  0
LINE
  8
1
  6
CONTINUOUS
 62
     2
 10
108.68929
 20
-470.71918
 11
108.68929
 21
-767.71918
  0
LINE
  8
1
  6
CONTINUOUS
 62
     2
 10
-311.3107
 20
143.28081
 11
-311.3107
 21
-153.71919
  0
LINE
  8
1
  6
CONTINUOUS
 62
     2
 10
-311.3107
 20
-153.71919
 11
108.68929
 21
-153.71919
  0
LINE
  8
1
  6
CONTINUOUS
 62
     2
 10
108.68929
 20
143.28081
 11
108.68929
 21
-153.71919
  0
LINE
  8
1
  6
CONTINUOUS
 62
     2
 10
-311.3107
 20
143.28081
 11
108.68929
 21
143.28081
  0
LINE
  8
1
  6
CONTINUOUS
 62
     2
 10
-311.3107
 20
-163.71919
 11
-311.3107
 21
-460.71918
  0
LINE
  8
1
  6
CONTINUOUS
 62
     2
 10
-311.3107
 20
-460.71918
 11
108.68929
 21
-460.71918
  0
LINE
  8
1
  6
CONTINUOUS
 62
     2
 10
108.68929
 20
-163.71919
 11
108.68929
 21
-460.71918
  0
LINE
  8
1
  6
CONTINUOUS
 62
     2
 10
-311.3107
 20
-163.71919
 11
108.68929
 21
-163.71919
  0
ENDSEC
  0
EOF
