  0
SECTION
  2
HEADER
  9
$EXTMAX
 10
108.92817
 20
144.14287
  9
$EXTMIN
 10
-311.07183
 20
-153.71428
  0
ENDSEC
  0
SECTION
  2
TABLES
  0
TABLE
  2
LTYPE
 70
    22
  0
LTYPE
  2
CONTINUOUS
 70
    64
  3
Solid line
 72
    65
 73
     0
 40
0.000000
  0
LTYPE
  2
DASHED
 70
    64
  3
__ __ __ __ __ __ __ __ __ __ __ __ __ __ __
 72
    65
 73
     2
 40
3.500000
 49
2.000000
 49
-1.500000
  0
LTYPE
  2
CENTER
 70
    64
  3
____ _ ____ _ ____ _ ____ _ ____ _ ____ _ ____
 72
    65
 73
     4
 40
17.500000
 49
13.000000
 49
-1.500000
 49
1.500000
 49
-1.500000
  0
LTYPE
  2
PHANTOM
 70
    64
  3
_____ _ _ _____ _ _ _____ _ _ _____ _ _ ____  
 72
    65
 73
     6
 40
15.500000
 49
8.000000
 49
-1.500000
 49
1.500000
 49
-1.500000
 49
1.500000
 49
-1.500000
  0
LTYPE
  2
DOT
 70
    64
  3
. . . . . . . . . . . . . . . . . . . . . . . .
 72
    65
 73
     2
 40
0.25
 49
0.0
 49
-0.25
  0
ENDTAB
  0
TABLE
  2
LAYER
 70
     2
  0
LAYER
  2
0
 70
     0
 62
     7
  6
CONTINUOUS
  0
LAYER
  2
1
 70
     0
 62
     7
  6
CONTINUOUS
  0
ENDTAB
  0
TABLE
  2
STYLE
 70
     1
  0
STYLE
  2
STANDARD
 70
     0
 40
0.000000
 41
1.000000
 50
0.000000
 71
     0
 42
0.200000
  3
txt
  4
BIGFONT
  0
ENDTAB
  0
TABLE
  2
VIEW
 70
     0
  0
ENDTAB
  0
ENDSEC
  0
SECTION
  2
BLOCKS
  0
ENDSEC
  0
SECTION
  2
ENTITIES
  0
POINT
  8
0
  6
CONTINUOUS
 62
     7
 10
-401.50162
 20
101.27591
  0
POINT
  8
0
  6
CONTINUOUS
 62
     7
 10
-401.50162
 20
56.199329
  0
POINT
  8
0
  6
CONTINUOUS
 62
     7
 10
-401.50162
 20
5.3851457
  0
POINT
  8
0
  6
CONTINUOUS
 62
     7
 10
-401.50162
 20
-50.685677
  0
POINT
  8
0
  6
CONTINUOUS
 62
     7
 10
-401.50162
 20
-137.66437
  0
POINT
  8
0
  6
CONTINUOUS
 62
     7
 10
-401.50162
 20
-241.56189
  0
POINT
  8
0
  6
CONTINUOUS
 62
     7
 10
-401.50162
 20
-347.29117
  0
POINT
  8
0
  6
CONTINUOUS
 62
     7
 10
-203.24918
 20
-7.4195724
  0
POINT
  8
0
  6
CONTINUOUS
 62
     7
 10
-123.24918
 20
-25.419573
  0
POINT
  8
0
  6
CONTINUOUS
 62
     7
 10
-123.24918
 20
54.580429
  0
POINT
  8
0
  6
CONTINUOUS
 62
     7
 10
-203.24918
 20
-25.419573
  0
LINE
  8
0
  6
CENTER
 62
     7
 10
-401.50162
 20
119.69923
 11
-401.50162
 21
80.453743
  0
LINE
  8
0
  6
CENTER
 62
     7
 10
-419.98352
 20
101.27591
 11
-383.7355
 21
101.27591
  0
LINE
  8
0
  6
CONTINUOUS
 62
     7
 10
-385.80695
 20
101.27591
 11
-390.40381
 21
112.37373
  0
LINE
  8
0
  6
CONTINUOUS
 62
     7
 10
-390.40378
 20
112.37373
 11
-401.50162
 21
116.9706
  0
LINE
  8
0
  6
CONTINUOUS
 62
     7
 10
-412.59943
 20
112.37373
 11
-401.50162
 21
116.97059
  0
LINE
  8
0
  6
CONTINUOUS
 62
     7
 10
-417.19629
 20
101.27592
 11
-412.59943
 21
112.37373
  0
LINE
  8
0
  6
CONTINUOUS
 62
     7
 10
-412.59946
 20
90.178085
 11
-417.19632
 21
101.2759
  0
LINE
  8
0
  6
CONTINUOUS
 62
     7
 10
-401.50162
 20
85.581223
 11
-412.59946
 21
90.178093
  0
LINE
  8
0
  6
CONTINUOUS
 62
     7
 10
-390.40381
 20
90.178085
 11
-401.50162
 21
85.581223
  0
LINE
  8
0
  6
CONTINUOUS
 62
     7
 10
-385.80692
 20
101.27591
 11
-390.40381
 21
90.178093
  0
LINE
  8
0
  6
CENTER
 62
     7
 10
-425.552
 20
56.199329
 11
-377.8042
 21
56.199329
  0
LINE
  8
0
  6
CONTINUOUS
 62
     7
 10
-383.10095
 20
56.199326
 11
-388.49039
 21
69.210556
  0
LINE
  8
0
  6
CONTINUOUS
 62
     7
 10
-388.49039
 20
69.210571
 11
-401.50162
 21
74.599998
  0
LINE
  8
0
  6
CONTINUOUS
 62
     7
 10
-414.51285
 20
69.210564
 11
-401.50165
 21
74.599991
  0
LINE
  8
0
  6
CONTINUOUS
 62
     7
 10
-419.90228
 20
56.199326
 11
-414.51285
 21
69.210564
  0
LINE
  8
0
  6
CONTINUOUS
 62
     7
 10
-414.51288
 20
43.188091
 11
-419.90228
 21
56.199318
  0
LINE
  8
0
  6
CONTINUOUS
 62
     7
 10
-401.50162
 20
37.798664
 11
-414.51285
 21
43.188091
  0
LINE
  8
0
  6
CONTINUOUS
 62
     7
 10
-388.49039
 20
43.188084
 11
-401.50162
 21
37.798656
  0
LINE
  8
0
  6
CONTINUOUS
 62
     7
 10
-383.10095
 20
56.199326
 11
-388.49039
 21
43.188091
  0
LINE
  8
0
  6
CENTER
 62
     7
 10
-401.50162
 20
78.522614
 11
-401.50162
 21
35.072231
  0
LINE
  8
0
  6
CENTER
 62
     7
 10
-430.80862
 20
5.3851457
 11
-372.54755
 21
5.3851457
  0
LINE
  8
0
  6
CONTINUOUS
 62
     7
 10
-378.23019
 20
5.3851414
 11
-385.04623
 21
21.840534
  0
LINE
  8
0
  6
CONTINUOUS
 62
     7
 10
-385.04623
 20
21.840532
 11
-401.50162
 21
28.656578
  0
LINE
  8
0
  6
CONTINUOUS
 62
     7
 10
-417.957
 20
21.840536
 11
-401.50162
 21
28.656582
  0
LINE
  8
0
  6
CONTINUOUS
 62
     7
 10
-424.77307
 20
5.3851485
 11
-417.957
 21
21.84054
  0
LINE
  8
0
  6
CONTINUOUS
 62
     7
 10
-417.957
 20
-11.070247
 11
-424.77307
 21
5.3851457
  0
LINE
  8
0
  6
CONTINUOUS
 62
     7
 10
-401.50162
 20
-17.886288
 11
-417.957
 21
-11.070242
  0
LINE
  8
0
  6
CONTINUOUS
 62
     7
 10
-385.04623
 20
-11.070237
 11
-401.50162
 21
-17.886284
  0
LINE
  8
0
  6
CONTINUOUS
 62
     7
 10
-378.23019
 20
5.3851528
 11
-385.04623
 21
-11.070239
  0
LINE
  8
0
  6
CENTER
 62
     7
 10
-401.50162
 20
31.209974
 11
-401.50162
 21
-20.447704
  0
LINE
  8
0
  6
CENTER
 62
     7
 10
-434.86905
 20
-50.685677
 11
-369.74557
 21
-50.685677
  0
LINE
  8
0
  6
CONTINUOUS
 62
     7
 10
-374.983
 20
-50.685677
 11
-382.75012
 21
-31.934185
  0
LINE
  8
0
  6
CONTINUOUS
 62
     7
 10
-382.75012
 20
-31.934193
 11
-401.50162
 21
-24.167067
  0
LINE
  8
0
  6
CONTINUOUS
 62
     7
 10
-420.25308
 20
-31.934187
 11
-401.50162
 21
-24.167074
  0
LINE
  8
0
  6
CONTINUOUS
 62
     7
 10
-428.02023
 20
-50.685665
 11
-420.25311
 21
-31.934177
  0
LINE
  8
0
  6
CONTINUOUS
 62
     7
 10
-420.25311
 20
-69.437164
 11
-428.02023
 21
-50.685673
  0
LINE
  8
0
  6
CONTINUOUS
 62
     7
 10
-401.50162
 20
-77.204292
 11
-420.25311
 21
-69.437164
  0
LINE
  8
0
  6
CONTINUOUS
 62
     7
 10
-382.75012
 20
-69.437172
 11
-401.50162
 21
-77.204285
  0
LINE
  8
0
  6
CONTINUOUS
 62
     7
 10
-374.98303
 20
-50.685665
 11
-382.75015
 21
-69.437149
  0
LINE
  8
0
  6
CENTER
 62
     7
 10
-401.50162
 20
-21.654659
 11
-401.50162
 21
-81.278244
  0
LINE
  8
0
  6
CENTER
 62
     7
 10
-437.92899
 20
-137.66437
 11
-365.00909
 21
-137.66437
  0
LINE
  8
0
  6
CONTINUOUS
 62
     7
 10
-369.57104
 20
-137.66437
 11
-378.92331
 21
-115.08604
  0
LINE
  8
0
  6
CONTINUOUS
 62
     7
 10
-378.92331
 20
-115.08604
 11
-401.50162
 21
-105.7338
  0
LINE
  8
0
  6
CONTINUOUS
 62
     7
 10
-424.07996
 20
-115.08604
 11
-401.50162
 21
-105.7338
  0
LINE
  8
0
  6
CONTINUOUS
 62
     7
 10
-433.43219
 20
-137.66437
 11
-424.07996
 21
-115.08604
  0
LINE
  8
0
  6
CONTINUOUS
 62
     7
 10
-424.07996
 20
-160.24269
 11
-433.43219
 21
-137.66437
  0
LINE
  8
0
  6
CONTINUOUS
 62
     7
 10
-401.50162
 20
-169.59494
 11
-424.07996
 21
-160.24269
  0
LINE
  8
0
  6
CONTINUOUS
 62
     7
 10
-378.92331
 20
-160.24269
 11
-401.50162
 21
-169.59494
  0
LINE
  8
0
  6
CONTINUOUS
 62
     7
 10
-369.57104
 20
-137.66437
 11
-378.92331
 21
-160.24269
  0
LINE
  8
0
  6
CENTER
 62
     7
 10
-401.50162
 20
-102.03787
 11
-401.50162
 21
-172.52405
  0
LINE
  8
0
  6
CENTER
 62
     7
 10
-448.31732
 20
-241.56189
 11
-358.51984
 21
-241.56189
  0
LINE
  8
0
  6
CONTINUOUS
 62
     7
 10
-364.70029
 20
-241.56189
 11
-375.47916
 21
-215.53941
  0
LINE
  8
0
  6
CONTINUOUS
 62
     7
 10
-375.47913
 20
-215.53943
 11
-401.50162
 21
-204.76056
  0
LINE
  8
0
  6
CONTINUOUS
 62
     7
 10
-427.52408
 20
-215.53941
 11
-401.50162
 21
-204.76056
  0
LINE
  8
0
  6
CONTINUOUS
 62
     7
 10
-438.30298
 20
-241.56189
 11
-427.52411
 21
-215.5394
  0
LINE
  8
0
  6
CONTINUOUS
 62
     7
 10
-427.52408
 20
-267.58435
 11
-438.30295
 21
-241.56189
  0
LINE
  8
0
  6
CONTINUOUS
 62
     7
 10
-401.50162
 20
-278.36322
 11
-427.52411
 21
-267.58438
  0
LINE
  8
0
  6
CONTINUOUS
 62
     7
 10
-375.47916
 20
-267.58435
 11
-401.50162
 21
-278.36322
  0
LINE
  8
0
  6
CONTINUOUS
 62
     7
 10
-364.70029
 20
-241.56187
 11
-375.47916
 21
-267.58435
  0
LINE
  8
0
  6
CENTER
 62
     7
 10
-401.50162
 20
-198.1115
 11
-401.50162
 21
-283.08115
  0
LINE
  8
0
  6
CENTER
 62
     7
 10
-450.48984
 20
-347.29117
 11
-351.5195
 21
-347.29117
  0
LINE
  8
0
  6
CONTINUOUS
 62
     7
 10
-357.12354
 20
-347.29117
 11
-370.12158
 21
-315.9111
  0
LINE
  8
0
  6
CONTINUOUS
 62
     7
 10
-370.12158
 20
-315.9111
 11
-401.50162
 21
-302.91306
  0
LINE
  8
0
  6
CONTINUOUS
 62
     7
 10
-432.88165
 20
-315.9111
 11
-401.50162
 21
-302.91309
  0
LINE
  8
0
  6
CONTINUOUS
 62
     7
 10
-445.8797
 20
-347.29114
 11
-432.88165
 21
-315.9111
  0
LINE
  8
0
  6
CONTINUOUS
 62
     7
 10
-432.88162
 20
-378.67117
 11
-445.87967
 21
-347.29114
  0
LINE
  8
0
  6
CONTINUOUS
 62
     7
 10
-401.50165
 20
-391.66925
 11
-432.88168
 21
-378.6712
  0
LINE
  8
0
  6
CONTINUOUS
 62
     7
 10
-370.12158
 20
-378.6712
 11
-401.50162
 21
-391.66925
  0
LINE
  8
0
  6
CONTINUOUS
 62
     7
 10
-357.12354
 20
-347.29114
 11
-370.12158
 21
-378.6712
  0
LINE
  8
0
  6
CENTER
 62
     7
 10
-401.50162
 20
-297.08182
 11
-401.50162
 21
-397.0177
  0
LINE
  8
0
  6
CONTINUOUS
 62
     7
 10
-218.24918
 20
-44.519577
 11
-218.24918
 21
-46.519577
  0
LINE
  8
0
  6
CONTINUOUS
 62
     7
 10
-188.24918
 20
-44.519577
 11
-188.24918
 21
-46.519577
  0
LINE
  8
0
  6
CENTER
 62
     7
 10
-123.24918
 20
88.493179
 11
-123.24918
 21
17.928425
  0
LINE
  8
0
  6
CENTER
 62
     7
 10
-120.24918
 20
25.951674
 11
-120.24918
 21
38.879124
  0
LINE
  8
0
  6
CENTER
 62
     7
 10
-140.07945
 20
-25.419573
 11
-89.852333
 21
-25.419573
  0
LINE
  8
0
  6
CENTER
 62
     7
 10
-123.24918
 20
-5.5722365
 11
-123.24918
 21
-64.130051
  0
LINE
  8
0
  6
CENTER
 62
     7
 10
-126.21998
 20
77.080429
 11
-114.07008
 21
77.080429
  0
LINE
  8
0
  6
CONTINUOUS
 62
     7
 10
-127.56165
 20
30.413742
 11
-132.43663
 21
51.802643
  0
LINE
  8
0
  6
CONTINUOUS
 62
     7
 10
-127.56164
 20
78.747086
 11
-132.43661
 21
57.358189
  0
LINE
  8
0
  6
CONTINUOUS
 62
     7
 10
-112.9367
 20
30.413748
 11
-108.06172
 21
51.802631
  0
LINE
  8
0
  6
CONTINUOUS
 62
     7
 10
-112.93671
 20
78.747086
 11
-108.06173
 21
57.3582
  0
LINE
  8
0
  6
CENTER
 62
     7
 10
-203.24918
 20
-7.9607177
 11
-203.24918
 21
-65.73336
  0
LINE
  8
0
  6
CENTER
 62
     7
 10
-143.52361
 20
54.580429
 11
-90.62043
 21
54.580429
  0
LINE
  8
0
  6
CONTINUOUS
 62
     7
 10
-218.24918
 20
-46.519577
 11
-188.24918
 21
-46.519577
  0
LINE
  8
0
  6
CONTINUOUS
 62
     7
 10
-105.74918
 20
-9.4195719
 11
-96.249184
 21
-9.4195719
  0
LINE
  8
0
  6
CONTINUOUS
 62
     7
 10
-138.24918
 20
-44.019573
 11
-138.24918
 21
-46.519573
  0
LINE
  8
0
  6
CONTINUOUS
 62
     7
 10
-108.24918
 20
-43.868099
 11
-108.24918
 21
-46.519573
  0
LINE
  8
0
  6
CONTINUOUS
 62
     7
 10
-132.74918
 20
-24.919573
 11
-132.74918
 21
-39.444633
  0
LINE
  8
0
  6
CONTINUOUS
 62
     7
 10
-110.46249
 20
-41.419571
 11
-96.249184
 21
-41.419571
  0
LINE
  8
0
  6
CONTINUOUS
 62
     7
 10
-138.24918
 20
-46.519573
 11
-123.24918
 21
-46.519573
  0
LINE
  8
0
  6
CONTINUOUS
 62
     7
 10
-123.24918
 20
-46.519573
 11
-108.24918
 21
-46.519573
  0
LINE
  8
0
  6
CONTINUOUS
 62
     7
 10
-138.24918
 20
-44.019573
 11
-108.24918
 21
-44.019573
  0
LINE
  8
0
  6
CONTINUOUS
 62
     7
 10
-218.24918
 20
-44.519577
 11
-203.24918
 21
-44.519577
  0
LINE
  8
0
  6
CONTINUOUS
 62
     7
 10
-203.24918
 20
-44.519577
 11
-188.24918
 21
-44.519577
  0
LINE
  8
0
  6
CONTINUOUS
 62
     7
 10
-111.07536
 20
70.580429
 11
-96.249184
 21
70.580429
  0
LINE
  8
0
  6
CONTINUOUS
 62
     7
 10
-111.07536
 20
38.580425
 11
-96.249184
 21
38.580425
  0
LINE
  8
0
  6
CONTINUOUS
 62
     7
 10
-233.24918
 20
-7.4195724
 11
-233.24918
 21
-10.419572
  0
LINE
  8
0
  6
CONTINUOUS
 62
     7
 10
-173.24919
 20
-7.4195724
 11
-233.24918
 21
-7.4195724
  0
LINE
  8
0
  6
CONTINUOUS
 62
     7
 10
-175.24919
 20
-12.419572
 11
-190.74918
 21
-12.419572
  0
LINE
  8
0
  6
CONTINUOUS
 62
     7
 10
-173.24919
 20
-7.4195724
 11
-173.24919
 21
-10.419572
  0
LINE
  8
0
  6
CONTINUOUS
 62
     7
 10
-205.24918
 20
-14.419573
 11
-205.24918
 21
-25.419573
  0
LINE
  8
0
  6
CONTINUOUS
 62
     7
 10
-201.24918
 20
-14.419573
 11
-201.24918
 21
-25.419573
  0
LINE
  8
0
  6
CONTINUOUS
 62
     7
 10
-215.74918
 20
-12.419572
 11
-231.24918
 21
-12.419572
  0
LINE
  8
0
  6
CENTER
 62
     7
 10
-180.74919
 20
-1.6424574
 11
-180.74919
 21
-18.816553
  0
LINE
  8
0
  6
CENTER
 62
     7
 10
-225.74918
 20
-4.1096129
 11
-225.74918
 21
-14.486292
  0
LINE
  8
0
  6
CENTER
 62
     7
 10
-126.29693
 20
32.080425
 11
-114.07008
 21
32.080425
  0
LINE
  8
0
  6
DASHED
 62
     7
 10
-109.74918
 20
-12.419572
 11
-110.74918
 21
-12.419572
  0
LINE
  8
0
  6
DASHED
 62
     7
 10
-129.74919
 20
-12.419572
 11
-130.74918
 21
-12.419572
  0
LINE
  8
0
  6
CONTINUOUS
 62
     7
 10
-107.74918
 20
-7.4195724
 11
-132.74918
 21
-7.4195724
  0
LINE
  8
0
  6
CONTINUOUS
 62
     7
 10
-132.74918
 20
-7.4195724
 11
-132.74918
 21
-39.044636
  0
LINE
  8
0
  6
CONTINUOUS
 62
     7
 10
-107.74918
 20
-7.4195724
 11
-107.74918
 21
-10.419572
  0
LINE
  8
0
  6
CONTINUOUS
 62
     7
 10
-130.74918
 20
-12.419572
 11
-123.31991
 21
-12.419572
  0
LINE
  8
0
  6
CONTINUOUS
 62
     7
 10
-123.24918
 20
-12.419572
 11
-109.74918
 21
-12.419572
  0
LINE
  8
0
  6
CONTINUOUS
 62
     7
 10
-96.249184
 20
-9.4195719
 11
-96.249184
 21
-41.419571
  0
LINE
  8
0
  6
CONTINUOUS
 62
     7
 10
-96.249184
 20
70.580429
 11
-96.249184
 21
38.580425
  0
LINE
  8
0
  6
CONTINUOUS
 62
     7
 10
-215.74918
 20
-14.419572
 11
-215.74918
 21
-14.754208
  0
LINE
  8
0
  6
CONTINUOUS
 62
     7
 10
-203.24918
 20
-61.419571
 11
-192.74918
 21
-61.419571
  0
LINE
  8
0
  6
CONTINUOUS
 62
     7
 10
-189.62787
 20
-50.419571
 11
-188.74919
 21
-50.419571
  0
LINE
  8
0
  6
CONTINUOUS
 62
     7
 10
-188.74919
 20
-50.419571
 11
-188.74919
 21
-57.419571
  0
LINE
  8
0
  6
CONTINUOUS
 62
     7
 10
-189.24919
 20
-49.919567
 11
-188.74919
 21
-50.419567
  0
LINE
  8
0
  6
CONTINUOUS
 62
     7
 10
-198.48572
 20
-50.419571
 11
-196.36383
 21
-50.419571
  0
LINE
  8
0
  6
CONTINUOUS
 62
     7
 10
-189.62787
 20
-50.419571
 11
-189.62787
 21
-57.419571
  0
LINE
  8
0
  6
CONTINUOUS
 62
     7
 10
-198.48572
 20
-50.419571
 11
-198.48572
 21
-57.419571
  0
LINE
  8
0
  6
CONTINUOUS
 62
     7
 10
-196.36383
 20
-50.419571
 11
-196.36383
 21
-57.419571
  0
LINE
  8
0
  6
CONTINUOUS
 62
     7
 10
-203.24918
 20
-57.419571
 11
-188.74919
 21
-57.419571
  0
LINE
  8
0
  6
CONTINUOUS
 62
     7
 10
-203.24918
 20
-49.919571
 11
-189.24919
 21
-49.919571
  0
LINE
  8
0
  6
CONTINUOUS
 62
     7
 10
-189.53511
 20
-46.519569
 11
-189.53511
 21
-49.919571
  0
LINE
  8
0
  6
CONTINUOUS
 62
     7
 10
-203.24918
 20
-61.419571
 11
-213.74918
 21
-61.419571
  0
LINE
  8
0
  6
CONTINUOUS
 62
     7
 10
-216.87051
 20
-50.419571
 11
-217.74918
 21
-50.419571
  0
LINE
  8
0
  6
CONTINUOUS
 62
     7
 10
-217.74918
 20
-50.419571
 11
-217.74918
 21
-57.419571
  0
LINE
  8
0
  6
CONTINUOUS
 62
     7
 10
-217.24919
 20
-49.919571
 11
-217.74919
 21
-50.419575
  0
LINE
  8
0
  6
CONTINUOUS
 62
     7
 10
-208.01263
 20
-50.419571
 11
-210.13452
 21
-50.419571
  0
LINE
  8
0
  6
CONTINUOUS
 62
     7
 10
-216.87051
 20
-50.419571
 11
-216.87051
 21
-57.419571
  0
LINE
  8
0
  6
CONTINUOUS
 62
     7
 10
-208.01263
 20
-50.419571
 11
-208.01263
 21
-57.419571
  0
LINE
  8
0
  6
CONTINUOUS
 62
     7
 10
-210.13452
 20
-50.419571
 11
-210.13452
 21
-57.419571
  0
LINE
  8
0
  6
CONTINUOUS
 62
     7
 10
-203.24918
 20
-57.419571
 11
-217.74918
 21
-57.419571
  0
LINE
  8
0
  6
CONTINUOUS
 62
     7
 10
-203.24918
 20
-49.919571
 11
-217.24918
 21
-49.919571
  0
LINE
  8
0
  6
CONTINUOUS
 62
     7
 10
-216.96326
 20
-46.519569
 11
-216.96326
 21
-49.919571
  0
LINE
  8
0
  6
CENTER
 62
     7
 10
-173.24919
 20
-25.419573
 11
-233.24918
 21
-25.419573
  0
LINE
  8
0
  6
CONTINUOUS
 62
     7
 10
-123.24918
 20
-61.419571
 11
-112.74918
 21
-61.419571
  0
LINE
  8
0
  6
CONTINUOUS
 62
     7
 10
-109.62788
 20
-50.419571
 11
-108.7492
 21
-50.419571
  0
LINE
  8
0
  6
CONTINUOUS
 62
     7
 10
-108.7492
 20
-50.419571
 11
-108.7492
 21
-57.419571
  0
LINE
  8
0
  6
CONTINUOUS
 62
     7
 10
-109.24919
 20
-49.919563
 11
-108.74919
 21
-50.419563
  0
LINE
  8
0
  6
CONTINUOUS
 62
     7
 10
-118.48573
 20
-50.419571
 11
-116.36384
 21
-50.419571
  0
LINE
  8
0
  6
CONTINUOUS
 62
     7
 10
-109.62788
 20
-50.419571
 11
-109.62788
 21
-57.419571
  0
LINE
  8
0
  6
CONTINUOUS
 62
     7
 10
-118.48573
 20
-50.419571
 11
-118.48573
 21
-57.419571
  0
LINE
  8
0
  6
CONTINUOUS
 62
     7
 10
-116.36384
 20
-50.419571
 11
-116.36384
 21
-57.419571
  0
LINE
  8
0
  6
CONTINUOUS
 62
     7
 10
-123.24918
 20
-57.419571
 11
-108.7492
 21
-57.419571
  0
LINE
  8
0
  6
CONTINUOUS
 62
     7
 10
-123.24918
 20
-49.919571
 11
-109.2492
 21
-49.919571
  0
LINE
  8
0
  6
CONTINUOUS
 62
     7
 10
-109.53512
 20
-46.519569
 11
-109.53512
 21
-49.919571
  0
LINE
  8
0
  6
CONTINUOUS
 62
     7
 10
-123.24918
 20
-61.419571
 11
-133.74918
 21
-61.419571
  0
LINE
  8
0
  6
CONTINUOUS
 62
     7
 10
-136.87051
 20
-50.419571
 11
-137.74918
 21
-50.419571
  0
LINE
  8
0
  6
CONTINUOUS
 62
     7
 10
-137.74918
 20
-50.419571
 11
-137.74918
 21
-57.419571
  0
LINE
  8
0
  6
CONTINUOUS
 62
     7
 10
-137.24919
 20
-49.919571
 11
-137.74919
 21
-50.419571
  0
LINE
  8
0
  6
CONTINUOUS
 62
     7
 10
-128.01263
 20
-50.419571
 11
-130.13452
 21
-50.419571
  0
LINE
  8
0
  6
CONTINUOUS
 62
     7
 10
-136.87051
 20
-50.419571
 11
-136.87051
 21
-57.419571
  0
LINE
  8
0
  6
CONTINUOUS
 62
     7
 10
-128.01263
 20
-50.419571
 11
-128.01263
 21
-57.419571
  0
LINE
  8
0
  6
CONTINUOUS
 62
     7
 10
-130.13452
 20
-50.419571
 11
-130.13452
 21
-57.419571
  0
LINE
  8
0
  6
CONTINUOUS
 62
     7
 10
-123.24918
 20
-57.419571
 11
-137.74918
 21
-57.419571
  0
LINE
  8
0
  6
CONTINUOUS
 62
     7
 10
-123.24918
 20
-49.919571
 11
-137.24918
 21
-49.919571
  0
LINE
  8
0
  6
CONTINUOUS
 62
     7
 10
-136.96326
 20
-46.519569
 11
-136.96326
 21
-49.919571
  0
LINE
  8
0
  6
CENTER
 62
     7
 10
-120.24918
 20
70.043503
 11
-120.24918
 21
83.201797
  0
CIRCLE
  8
0
  6
CONTINUOUS
 62
     7
 10
-401.50162
 20
101.27591
 40
14.5
  0
CIRCLE
  8
0
  6
CONTINUOUS
 62
     7
 10
-401.50162
 20
101.27591
 40
8.0500002
  0
CIRCLE
  8
0
  6
CONTINUOUS
 62
     7
 10
-401.50162
 20
56.199329
 40
17
  0
CIRCLE
  8
0
  6
CONTINUOUS
 62
     7
 10
-401.50162
 20
56.199329
 40
11.25
  0
CIRCLE
  8
0
  6
CONTINUOUS
 62
     7
 10
-401.50162
 20
5.3851457
 40
21.5
  0
CIRCLE
  8
0
  6
CONTINUOUS
 62
     7
 10
-401.50162
 20
5.3851457
 40
14.4
  0
CIRCLE
  8
0
  6
CONTINUOUS
 62
     7
 10
-401.50162
 20
-50.685677
 40
24.5
  0
CIRCLE
  8
0
  6
CONTINUOUS
 62
     7
 10
-401.50162
 20
-50.685677
 40
17.25
  0
CIRCLE
  8
0
  6
CONTINUOUS
 62
     7
 10
-401.50162
 20
-137.66437
 40
29.5
  0
CIRCLE
  8
0
  6
CONTINUOUS
 62
     7
 10
-401.50162
 20
-137.66437
 40
21.65
  0
CIRCLE
  8
0
  6
CONTINUOUS
 62
     7
 10
-401.50162
 20
-241.56189
 40
34
  0
CIRCLE
  8
0
  6
CONTINUOUS
 62
     7
 10
-401.50162
 20
-241.56189
 40
24.65
  0
CIRCLE
  8
0
  6
CONTINUOUS
 62
     7
 10
-401.50162
 20
-347.29117
 40
41
  0
CIRCLE
  8
0
  6
CONTINUOUS
 62
     7
 10
-401.50162
 20
-347.29117
 40
30.65
  0
CIRCLE
  8
0
  6
CONTINUOUS
 62
     7
 10
-120.24918
 20
77.080429
 40
3
  0
CIRCLE
  8
0
  6
CONTINUOUS
 62
     7
 10
-120.24918
 20
32.080425
 40
3
  0
ARC
  8
0
  6
CONTINUOUS
 62
     7
 10
-120.24918
 20
32.080425
 40
7.5
 50
192.83959
 51
347.16042
  0
ARC
  8
0
  6
CONTINUOUS
 62
     7
 10
-120.24918
 20
77.080429
 40
7.5
 50
12.839585
 51
167.16041
  0
ARC
  8
0
  6
CONTINUOUS
 62
     7
 10
-120.24918
 20
54.580429
 40
12.5
 50
167.16041
 51
192.83959
  0
ARC
  8
0
  6
CONTINUOUS
 62
     7
 10
-120.24918
 20
54.580429
 40
12.5
 50
347.16041
 51
12.839585
  0
CIRCLE
  8
0
  6
DASHED
 62
     7
 10
-120.24918
 20
32.080425
 40
4.5
  0
CIRCLE
  8
0
  6
DASHED
 62
     7
 10
-120.24918
 20
77.080429
 40
4.5
  0
ARC
  8
0
  6
CONTINUOUS
 62
     7
 10
-203.24918
 20
-25.419573
 40
16
 50
143.66395
 51
225.05043
  0
ARC
  8
0
  6
CONTINUOUS
 62
     7
 10
-137.74918
 20
-39.044636
 40
5
 50
275.73914
 51
0
  0
ARC
  8
0
  6
CONTINUOUS
 62
     7
 10
-119.74918
 20
-24.919573
 40
13
 50
107.40882
 51
180.00001
  0
ARC
  8
0
  6
CONTINUOUS
 62
     7
 10
-107.74918
 20
-38.040443
 40
6
 50
224.0862
 51
265.21981
  0
ARC
  8
0
  6
CONTINUOUS
 62
     7
 10
-186.74918
 20
-38.710102
 40
6
 50
179.99999
 51
255.52249
  0
ARC
  8
0
  6
CONTINUOUS
 62
     7
 10
-207.24918
 20
-14.419573
 40
2
 50
2.5044783E-006
 51
90.000003
  0
ARC
  8
0
  6
CONTINUOUS
 62
     7
 10
-199.24918
 20
-14.419573
 40
2
 50
89.999989
 51
180.00001
  0
ARC
  8
0
  6
CONTINUOUS
 62
     7
 10
-231.24918
 20
-10.419572
 40
2
 50
179.99999
 51
270
  0
ARC
  8
0
  6
CONTINUOUS
 62
     7
 10
-175.24919
 20
-10.419572
 40
2
 50
270
 51
2.5044783E-006
  0
ARC
  8
0
  6
CONTINUOUS
 62
     7
 10
-203.24918
 20
-25.419573
 40
16
 50
314.94956
 51
36.336057
  0
ARC
  8
0
  6
CONTINUOUS
 62
     7
 10
-109.74918
 20
-10.419572
 40
2
 50
270
 51
0
  0
ARC
  8
0
  6
CONTINUOUS
 62
     7
 10
-130.74918
 20
-10.419572
 40
2
 50
179.99999
 51
270
  0
ARC
  8
0
  6
CONTINUOUS
 62
     7
 10
-105.74918
 20
-7.4195724
 40
2
 50
179.99999
 51
270
  0
ARC
  8
0
  6
CONTINUOUS
 62
     7
 10
-130.74919
 20
-13.419572
 40
3
 50
301.3114
 51
349.41578
  0
ARC
  8
0
  6
CONTINUOUS
 62
     7
 10
-129.74919
 20
-14.419572
 40
2
 50
0
 51
90.000003
  0
ARC
  8
0
  6
CONTINUOUS
 62
     7
 10
-103.9492
 20
-46.419571
 40
5
 50
90.000003
 51
151.21729
  0
ARC
  8
0
  6
CONTINUOUS
 62
     7
 10
-110.46249
 20
-43.419571
 40
2
 50
90.000003
 51
142.96203
  0
ARC
  8
0
  6
CONTINUOUS
 62
     7
 10
-190.01085
 20
-38.681236
 40
2.7383366
 50
134.94957
 51
180.00001
  0
ARC
  8
0
  6
CONTINUOUS
 62
     7
 10
-219.74918
 20
-38.710102
 40
6
 50
284.47751
 51
5.0089565E-006
  0
ARC
  8
0
  6
CONTINUOUS
 62
     7
 10
-216.48752
 20
-38.681236
 40
2.7383366
 50
0
 51
45.050435
  0
ARC
  8
0
  6
CONTINUOUS
 62
     7
 10
-217.74918
 20
-14.419572
 40
2
 50
0
 51
90.000003
  0
ARC
  8
0
  6
CONTINUOUS
 62
     7
 10
-188.74918
 20
-14.419572
 40
2
 50
90.000003
 51
180.00001
  0
ARC
  8
0
  6
CONTINUOUS
 62
     7
 10
-188.74918
 20
-14.754208
 40
2
 50
179.99999
 51
216.33605
  0
ARC
  8
0
  6
CONTINUOUS
 62
     7
 10
-217.74918
 20
-14.754208
 40
2
 50
323.66394
 51
0
  0
ARC
  8
0
  6
CONTINUOUS
 62
     7
 10
-217.74918
 20
-14.754208
 40
2
 50
323.66394
 51
0
  0
ARC
  8
0
  6
CONTINUOUS
 62
     7
 10
-123.24918
 20
54.580429
 40
15
 50
116.82812
 51
243.17189
  0
ARC
  8
0
  6
CONTINUOUS
 62
     7
 10
-215.74918
 20
-14.419572
 40
2
 50
310.77962
 51
90.000003
  0
ARC
  8
0
  6
CONTINUOUS
 62
     7
 10
-190.74918
 20
-14.419572
 40
2
 50
90.000003
 51
229.22038
  0
ARC
  8
0
  6
CONTINUOUS
 62
     7
 10
-203.24918
 20
-72.860123
 40
22.940548
 50
89.999989
 51
101.98429
  0
ARC
  8
0
  6
CONTINUOUS
 62
     7
 10
-192.74918
 20
-57.419571
 40
4
 50
270
 51
2.5044781E-006
  0
ARC
  8
0
  6
CONTINUOUS
 62
     7
 10
-192.99585
 20
-61.512943
 40
11.59337
 50
73.11152
 51
106.88849
  0
ARC
  8
0
  6
CONTINUOUS
 62
     7
 10
-203.24918
 20
-72.860123
 40
22.940548
 50
78.015705
 51
90.000009
  0
ARC
  8
0
  6
CONTINUOUS
 62
     7
 10
-213.74918
 20
-57.419571
 40
4
 50
179.99999
 51
270
  0
ARC
  8
0
  6
CONTINUOUS
 62
     7
 10
-213.5025
 20
-61.512943
 40
11.59337
 50
73.111513
 51
106.88848
  0
ARC
  8
0
  6
CONTINUOUS
 62
     7
 10
-133.5025
 20
-61.512943
 40
11.59337
 50
73.111513
 51
106.88848
  0
ARC
  8
0
  6
CONTINUOUS
 62
     7
 10
-123.24918
 20
-72.860123
 40
22.940548
 50
89.999989
 51
101.98429
  0
ARC
  8
0
  6
CONTINUOUS
 62
     7
 10
-112.74918
 20
-57.419571
 40
4
 50
270
 51
2.5044781E-006
  0
ARC
  8
0
  6
CONTINUOUS
 62
     7
 10
-112.99586
 20
-61.512943
 40
11.59337
 50
73.11152
 51
106.88849
  0
ARC
  8
0
  6
CONTINUOUS
 62
     7
 10
-123.24918
 20
-72.860123
 40
22.940548
 50
78.015705
 51
90.000009
  0
ARC
  8
0
  6
CONTINUOUS
 62
     7
 10
-133.74918
 20
-57.419571
 40
4
 50
179.99999
 51
270
  0
TEXT
  8
0
  6
CONTINUOUS
 62
     7
 10
-448.18668
 20
100.9722
 40
3.2
 41
1.0285716
  1
13
  0
TEXT
  8
0
  6
CONTINUOUS
 62
     7
 10
-449.74558
 20
58.88214
 40
3.2
 41
1.0285716
  1
20
  0
TEXT
  8
0
  6
CONTINUOUS
 62
     7
 10
-452.86335
 20
7.4387392
 40
3.2
 41
1.0285716
  1
25
  0
TEXT
  8
0
  6
CONTINUOUS
 62
     7
 10
-450.52503
 20
-56.47579
 40
3.2
 41
1.0285716
  1
30
  0
TEXT
  8
0
  6
CONTINUOUS
 62
     7
 10
-450.18433
 20
-132.60479
 40
3.2
 41
1.0285716
  1
40
  0
TEXT
  8
0
  6
CONTINUOUS
 62
     7
 10
-443.42539
 20
-210.33271
 40
3.2
 41
1.0285716
  1
50
  0
TEXT
  8
0
  6
CONTINUOUS
 62
     7
 10
-450.54114
 20
-310.81277
 40
3.2
 41
1.0285716
  1
60
  0
TEXT
  8
0
  6
CONTINUOUS
 62
     7
 10
-282.77682
 20
118.76988
 40
8
 41
0.84210156
  1
コマサスフィット継手　上取型給水栓用座付エルボ
  0
TEXT
  8
0
  6
CONTINUOUS
 62
     7
 10
-226.33653
 20
67.306099
 40
8
 41
0.84739783
  1
１３Ｘ１／２
  0
POINT
  8
1
  6
CONTINUOUS
 62
     7
 10
-311.3107
 20
-470.71918
  0
POINT
  8
1
  6
CONTINUOUS
 62
     7
 10
-311.3107
 20
-153.71919
  0
POINT
  8
1
  6
CONTINUOUS
 62
     7
 10
-311.3107
 20
-767.71918
  0
POINT
  8
1
  6
CONTINUOUS
 62
     7
 10
108.68929
 20
-153.71919
  0
POINT
  8
1
  6
CONTINUOUS
 62
     7
 10
-311.3107
 20
-777.71918
  0
POINT
  8
1
  6
CONTINUOUS
 62
     7
 10
-311.3107
 20
143.28081
  0
POINT
  8
1
  6
CONTINUOUS
 62
     7
 10
-311.3107
 20
-153.71919
  0
POINT
  8
1
  6
CONTINUOUS
 62
     7
 10
-311.3107
 20
-163.71919
  0
POINT
  8
1
  6
CONTINUOUS
 62
     7
 10
-311.3107
 20
-163.71919
  0
POINT
  8
1
  6
CONTINUOUS
 62
     7
 10
-311.3107
 20
-460.71918
  0
POINT
  8
1
  6
CONTINUOUS
 62
     7
 10
-311.3107
 20
-470.71918
  0
LINE
  8
1
  6
CONTINUOUS
 62
     7
 10
108.68929
 20
143.28081
 11
108.68929
 21
-33.714287
  0
LINE
  8
1
  6
CONTINUOUS
 62
     2
 10
-311.3107
 20
-470.71918
 11
108.68929
 21
-470.71918
  0
LINE
  8
1
  6
CONTINUOUS
 62
     2
 10
-311.3107
 20
-470.71918
 11
-311.3107
 21
-767.71918
  0
LINE
  8
1
  6
CONTINUOUS
 62
     2
 10
-311.3107
 20
-767.71918
 11
108.68929
 21
-767.71918
  0
LINE
  8
1
  6
CONTINUOUS
 62
     2
 10
108.68929
 20
-470.71918
 11
108.68929
 21
-767.71918
  0
LINE
  8
1
  6
CONTINUOUS
 62
     2
 10
-311.3107
 20
143.28081
 11
-311.3107
 21
-153.71919
  0
LINE
  8
1
  6
CONTINUOUS
 62
     2
 10
-311.3107
 20
-153.71919
 11
108.68929
 21
-153.71919
  0
LINE
  8
1
  6
CONTINUOUS
 62
     2
 10
108.68929
 20
143.28081
 11
108.68929
 21
-153.71919
  0
LINE
  8
1
  6
CONTINUOUS
 62
     2
 10
-311.3107
 20
143.28081
 11
108.68929
 21
143.28081
  0
LINE
  8
1
  6
CONTINUOUS
 62
     2
 10
-311.3107
 20
-163.71919
 11
-311.3107
 21
-460.71918
  0
LINE
  8
1
  6
CONTINUOUS
 62
     2
 10
-311.3107
 20
-460.71918
 11
108.68929
 21
-460.71918
  0
LINE
  8
1
  6
CONTINUOUS
 62
     2
 10
108.68929
 20
-163.71919
 11
108.68929
 21
-460.71918
  0
LINE
  8
1
  6
CONTINUOUS
 62
     2
 10
-311.3107
 20
-163.71919
 11
108.68929
 21
-163.71919
  0
ENDSEC
  0
EOF
