  0
SECTION
  2
HEADER
  9
$EXTMAX
 10
108.92817
 20
144.14287
  9
$EXTMIN
 10
-311.07183
 20
-153.71428
  0
ENDSEC
  0
SECTION
  2
TABLES
  0
TABLE
  2
LTYPE
 70
    22
  0
LTYPE
  2
CONTINUOUS
 70
    64
  3
Solid line
 72
    65
 73
     0
 40
0.000000
  0
LTYPE
  2
DASHED
 70
    64
  3
__ __ __ __ __ __ __ __ __ __ __ __ __ __ __
 72
    65
 73
     2
 40
3.500000
 49
2.000000
 49
-1.500000
  0
LTYPE
  2
CENTER
 70
    64
  3
____ _ ____ _ ____ _ ____ _ ____ _ ____ _ ____
 72
    65
 73
     4
 40
17.500000
 49
13.000000
 49
-1.500000
 49
1.500000
 49
-1.500000
  0
LTYPE
  2
PHANTOM
 70
    64
  3
_____ _ _ _____ _ _ _____ _ _ _____ _ _ ____  
 72
    65
 73
     6
 40
15.500000
 49
8.000000
 49
-1.500000
 49
1.500000
 49
-1.500000
 49
1.500000
 49
-1.500000
  0
LTYPE
  2
DOT
 70
    64
  3
. . . . . . . . . . . . . . . . . . . . . . . .
 72
    65
 73
     2
 40
0.25
 49
0.0
 49
-0.25
  0
ENDTAB
  0
TABLE
  2
LAYER
 70
     2
  0
LAYER
  2
0
 70
     0
 62
     7
  6
CONTINUOUS
  0
LAYER
  2
1
 70
     0
 62
     7
  6
CONTINUOUS
  0
ENDTAB
  0
TABLE
  2
STYLE
 70
     1
  0
STYLE
  2
STANDARD
 70
     0
 40
0.000000
 41
1.000000
 50
0.000000
 71
     0
 42
0.200000
  3
txt
  4
BIGFONT
  0
ENDTAB
  0
TABLE
  2
VIEW
 70
     0
  0
ENDTAB
  0
ENDSEC
  0
SECTION
  2
BLOCKS
  0
ENDSEC
  0
SECTION
  2
ENTITIES
  0
POINT
  8
0
  6
CONTINUOUS
 62
     7
 10
-271.30286
 20
35.228905
  0
POINT
  8
0
  6
CONTINUOUS
 62
     7
 10
-145.29706
 20
35.228905
  0
POINT
  8
0
  6
CONTINUOUS
 62
     7
 10
-9.4072876
 20
35.228905
  0
POINT
  8
0
  6
CONTINUOUS
 62
     7
 10
-257.32037
 20
-92.120468
  0
POINT
  8
0
  6
CONTINUOUS
 62
     7
 10
-72.320358
 20
-92.120468
  0
POINT
  8
0
  6
CONTINUOUS
 62
     7
 10
-247.56712
 20
-303.99298
  0
POINT
  8
0
  6
CONTINUOUS
 62
     7
 10
-57.395027
 20
-303.99298
  0
POINT
  8
0
  6
CONTINUOUS
 62
     7
 10
-241.30286
 20
35.228905
  0
POINT
  8
0
  6
CONTINUOUS
 62
     7
 10
-105.29706
 20
35.228905
  0
POINT
  8
0
  6
CONTINUOUS
 62
     7
 10
35.592712
 20
35.228905
  0
POINT
  8
0
  6
CONTINUOUS
 62
     7
 10
-212.32036
 20
-92.120468
  0
POINT
  8
0
  6
CONTINUOUS
 62
     7
 10
-22.32036
 20
-92.120468
  0
POINT
  8
0
  6
CONTINUOUS
 62
     7
 10
-187.56712
 20
-303.99298
  0
POINT
  8
0
  6
CONTINUOUS
 62
     7
 10
7.6049743
 20
-303.99298
  0
POINT
  8
0
  6
CONTINUOUS
 62
     7
 10
-401.50162
 20
101.27591
  0
POINT
  8
0
  6
CONTINUOUS
 62
     7
 10
-401.50162
 20
56.199329
  0
POINT
  8
0
  6
CONTINUOUS
 62
     7
 10
-401.50162
 20
5.3851457
  0
POINT
  8
0
  6
CONTINUOUS
 62
     7
 10
-401.50162
 20
-50.685677
  0
POINT
  8
0
  6
CONTINUOUS
 62
     7
 10
-401.50162
 20
-137.66437
  0
POINT
  8
0
  6
CONTINUOUS
 62
     7
 10
-401.50162
 20
-241.56189
  0
POINT
  8
0
  6
CONTINUOUS
 62
     7
 10
-401.50162
 20
-347.29117
  0
LINE
  8
0
  6
CONTINUOUS
 62
     7
 10
-225.82552
 20
24.344707
 11
-225.82552
 21
23.5014
  0
LINE
  8
0
  6
CENTER
 62
     7
 10
-246.76526
 20
35.228905
 11
-196.20824
 21
35.228905
  0
LINE
  8
0
  6
CONTINUOUS
 62
     7
 10
-226.40286
 20
35.228905
 11
-226.40286
 21
20.228901
  0
LINE
  8
0
  6
CONTINUOUS
 62
     7
 10
-215.78021
 20
35.228905
 11
-215.78021
 21
34.632591
  0
LINE
  8
0
  6
CONTINUOUS
 62
     7
 10
-215.20287
 20
35.228905
 11
-215.20287
 21
20.228897
  0
LINE
  8
0
  6
CONTINUOUS
 62
     7
 10
-226.40286
 20
20.228897
 11
-225.82552
 21
19.228903
  0
LINE
  8
0
  6
CONTINUOUS
 62
     7
 10
-225.82552
 20
35.228905
 11
-225.82552
 21
34.632591
  0
LINE
  8
0
  6
CONTINUOUS
 62
     7
 10
-215.78021
 20
24.344707
 11
-215.78021
 21
23.5014
  0
LINE
  8
0
  6
CONTINUOUS
 62
     7
 10
-215.7802
 20
19.228895
 11
-215.20285
 21
20.228897
  0
LINE
  8
0
  6
CONTINUOUS
 62
     7
 10
-225.82552
 20
19.228901
 11
-215.78021
 21
19.228901
  0
LINE
  8
0
  6
CONTINUOUS
 62
     7
 10
-225.82552
 20
23.5014
 11
-215.78021
 21
23.5014
  0
LINE
  8
0
  6
CONTINUOUS
 62
     7
 10
-225.82552
 20
24.344707
 11
-215.78021
 21
24.344707
  0
LINE
  8
0
  6
CONTINUOUS
 62
     7
 10
-225.82552
 20
34.632591
 11
-215.78021
 21
34.632591
  0
LINE
  8
0
  6
CENTER
 62
     7
 10
-58.003983
 20
35.228905
 11
-109.42227
 21
35.228905
  0
LINE
  8
0
  6
CONTINUOUS
 62
     7
 10
-77.197052
 20
17.728905
 11
-77.197052
 21
35.228905
  0
LINE
  8
0
  6
CONTINUOUS
 62
     7
 10
-77.19706
 20
17.728897
 11
-77.774406
 21
16.728899
  0
LINE
  8
0
  6
CONTINUOUS
 62
     7
 10
-88.397064
 20
17.728905
 11
-88.397064
 21
35.228905
  0
LINE
  8
0
  6
CONTINUOUS
 62
     7
 10
-88.397064
 20
17.728899
 11
-87.804787
 21
16.728901
  0
LINE
  8
0
  6
CONTINUOUS
 62
     7
 10
-77.774414
 20
35.228905
 11
-77.774414
 21
34.075218
  0
LINE
  8
0
  6
CONTINUOUS
 62
     7
 10
-77.774414
 20
22.988663
 11
-77.774414
 21
21.357109
  0
LINE
  8
0
  6
CONTINUOUS
 62
     7
 10
-87.804794
 20
35.228905
 11
-87.804794
 21
34.075218
  0
LINE
  8
0
  6
CONTINUOUS
 62
     7
 10
-87.804794
 20
16.728901
 11
-77.774414
 21
16.728901
  0
LINE
  8
0
  6
CONTINUOUS
 62
     7
 10
-87.804794
 20
21.357109
 11
-77.774414
 21
21.357109
  0
LINE
  8
0
  6
CONTINUOUS
 62
     7
 10
-87.804794
 20
22.988663
 11
-77.774414
 21
22.988663
  0
LINE
  8
0
  6
CONTINUOUS
 62
     7
 10
-87.804794
 20
22.988663
 11
-87.804794
 21
21.357109
  0
LINE
  8
0
  6
CONTINUOUS
 62
     7
 10
-87.804794
 20
34.075218
 11
-77.774414
 21
34.075218
  0
LINE
  8
0
  6
CONTINUOUS
 62
     7
 10
54.170059
 20
20.612293
 11
54.170059
 21
17.470665
  0
LINE
  8
0
  6
CONTINUOUS
 62
     7
 10
54.170059
 20
35.228905
 11
54.170059
 21
33.007435
  0
LINE
  8
0
  6
CONTINUOUS
 62
     7
 10
53.592716
 20
13.228901
 11
54.170067
 21
12.2289
  0
LINE
  8
0
  6
CONTINUOUS
 62
     7
 10
54.170059
 20
33.007435
 11
63.015358
 21
33.007435
  0
LINE
  8
0
  6
CONTINUOUS
 62
     7
 10
63.015358
 20
20.612293
 11
63.015358
 21
17.470665
  0
LINE
  8
0
  6
CONTINUOUS
 62
     7
 10
63.592705
 20
35.228905
 11
63.592705
 21
13.228901
  0
LINE
  8
0
  6
CONTINUOUS
 62
     7
 10
54.170059
 20
20.612293
 11
63.015358
 21
20.612293
  0
LINE
  8
0
  6
CONTINUOUS
 62
     7
 10
54.170059
 20
12.228901
 11
63.015358
 21
12.228901
  0
LINE
  8
0
  6
CONTINUOUS
 62
     7
 10
54.170059
 20
17.470665
 11
63.015358
 21
17.470665
  0
LINE
  8
0
  6
CONTINUOUS
 62
     7
 10
63.015358
 20
35.228905
 11
63.015358
 21
33.007435
  0
LINE
  8
0
  6
CONTINUOUS
 62
     7
 10
53.592712
 20
35.228905
 11
53.592712
 21
13.228901
  0
LINE
  8
0
  6
CENTER
 62
     7
 10
30.19149
 20
35.228905
 11
86.815376
 21
35.228905
  0
LINE
  8
0
  6
CONTINUOUS
 62
     7
 10
63.015354
 20
12.228902
 11
63.592701
 21
13.228895
  0
LINE
  8
0
  6
CONTINUOUS
 62
     7
 10
-192.82036
 20
-117.62047
 11
-192.24301
 21
-118.62047
  0
LINE
  8
0
  6
CONTINUOUS
 62
     7
 10
-192.24301
 20
-92.120468
 11
-192.24301
 21
-95.216705
  0
LINE
  8
0
  6
CENTER
 62
     7
 10
-217.8535
 20
-92.120468
 11
-153.68741
 21
-92.120468
  0
LINE
  8
0
  6
CONTINUOUS
 62
     7
 10
-180.39771
 20
-108.54108
 11
-180.39771
 21
-112.91983
  0
LINE
  8
0
  6
CONTINUOUS
 62
     7
 10
-192.82036
 20
-117.62047
 11
-192.82036
 21
-92.120468
  0
LINE
  8
0
  6
CONTINUOUS
 62
     7
 10
-180.39771
 20
-95.216705
 11
-186.32036
 21
-95.216705
  0
LINE
  8
0
  6
CONTINUOUS
 62
     7
 10
-180.39771
 20
-108.54108
 11
-186.32036
 21
-108.54108
  0
LINE
  8
0
  6
CONTINUOUS
 62
     7
 10
-192.24301
 20
-118.62047
 11
-186.32036
 21
-118.62047
  0
LINE
  8
0
  6
CONTINUOUS
 62
     7
 10
-192.24301
 20
-112.91983
 11
-186.32036
 21
-112.91983
  0
LINE
  8
0
  6
CONTINUOUS
 62
     7
 10
-192.24301
 20
-108.54108
 11
-186.32036
 21
-108.54108
  0
LINE
  8
0
  6
CONTINUOUS
 62
     7
 10
-192.24301
 20
-95.216705
 11
-186.32036
 21
-95.216705
  0
LINE
  8
0
  6
CONTINUOUS
 62
     7
 10
-180.39771
 20
-112.91983
 11
-186.32036
 21
-112.91983
  0
LINE
  8
0
  6
CONTINUOUS
 62
     7
 10
-180.39771
 20
-118.62047
 11
-186.32036
 21
-118.62047
  0
LINE
  8
0
  6
CONTINUOUS
 62
     7
 10
-179.82036
 20
-117.62047
 11
-179.82036
 21
-92.120468
  0
LINE
  8
0
  6
CONTINUOUS
 62
     7
 10
-180.39771
 20
-92.120468
 11
-180.39771
 21
-95.216705
  0
LINE
  8
0
  6
CONTINUOUS
 62
     7
 10
-179.82036
 20
-117.62047
 11
-180.39771
 21
-118.62048
  0
LINE
  8
0
  6
CONTINUOUS
 62
     7
 10
-192.24301
 20
-108.54108
 11
-192.24301
 21
-112.91983
  0
LINE
  8
0
  6
CONTINUOUS
 62
     7
 10
-0.021501509
 20
-124.00411
 11
5.6796551
 21
-124.00411
  0
LINE
  8
0
  6
CONTINUOUS
 62
     7
 10
11.380796
 20
-112.73774
 11
11.380796
 21
-116.59348
  0
LINE
  8
0
  6
CENTER
 62
     7
 10
-28.665621
 20
-92.120468
 11
41.778976
 21
-92.120468
  0
LINE
  8
0
  6
CONTINUOUS
 62
     7
 10
-0.82034487
 20
-122.62047
 11
-0.82034487
 21
-92.120468
  0
LINE
  8
0
  6
CONTINUOUS
 62
     7
 10
-0.82034409
 20
-122.62047
 11
-0.02149686
 21
-124.0041
  0
LINE
  8
0
  6
CONTINUOUS
 62
     7
 10
-0.021501509
 20
-116.59348
 11
5.6796551
 21
-116.59348
  0
LINE
  8
0
  6
CONTINUOUS
 62
     7
 10
11.380796
 20
-92.120468
 11
11.380796
 21
-94.846886
  0
LINE
  8
0
  6
CONTINUOUS
 62
     7
 10
11.380796
 20
-94.846886
 11
5.6796551
 21
-94.846886
  0
LINE
  8
0
  6
CONTINUOUS
 62
     7
 10
11.380796
 20
-112.73774
 11
5.6796551
 21
-112.73774
  0
LINE
  8
0
  6
CONTINUOUS
 62
     7
 10
-0.021501509
 20
-112.73774
 11
5.6796551
 21
-112.73774
  0
LINE
  8
0
  6
CONTINUOUS
 62
     7
 10
-0.021501509
 20
-94.846886
 11
5.6796551
 21
-94.846886
  0
LINE
  8
0
  6
CONTINUOUS
 62
     7
 10
-0.021501509
 20
-92.120468
 11
-0.021501509
 21
-94.846886
  0
LINE
  8
0
  6
CONTINUOUS
 62
     7
 10
11.380796
 20
-116.59348
 11
5.6796551
 21
-116.59348
  0
LINE
  8
0
  6
CONTINUOUS
 62
     7
 10
-0.021501509
 20
-112.73774
 11
-0.021501509
 21
-116.59348
  0
LINE
  8
0
  6
CONTINUOUS
 62
     7
 10
11.380796
 20
-124.00411
 11
5.6796551
 21
-124.00411
  0
LINE
  8
0
  6
CONTINUOUS
 62
     7
 10
12.17964
 20
-122.62047
 11
12.17964
 21
-92.120468
  0
LINE
  8
0
  6
CONTINUOUS
 62
     7
 10
12.179646
 20
-122.62047
 11
11.380802
 21
-124.0041
  0
LINE
  8
0
  6
CONTINUOUS
 62
     7
 10
-149.56712
 20
-337.99295
 11
-150.43315
 21
-339.49295
  0
LINE
  8
0
  6
CENTER
 62
     7
 10
-120.97775
 20
-303.99298
 11
-194.52837
 21
-303.99298
  0
LINE
  8
0
  6
CONTINUOUS
 62
     7
 10
-150.43315
 20
-307.57114
 11
-156.56712
 21
-307.57114
  0
LINE
  8
0
  6
CONTINUOUS
 62
     7
 10
-150.43315
 20
-339.49298
 11
-156.56712
 21
-339.49298
  0
LINE
  8
0
  6
CONTINUOUS
 62
     7
 10
-162.70108
 20
-339.49298
 11
-156.56712
 21
-339.49298
  0
LINE
  8
0
  6
CONTINUOUS
 62
     7
 10
-163.56711
 20
-337.99295
 11
-162.70108
 21
-339.49298
  0
LINE
  8
0
  6
CONTINUOUS
 62
     7
 10
-150.43315
 20
-303.99298
 11
-150.43315
 21
-307.57114
  0
LINE
  8
0
  6
CONTINUOUS
 62
     7
 10
-162.70108
 20
-303.99298
 11
-162.70108
 21
-307.57114
  0
LINE
  8
0
  6
CONTINUOUS
 62
     7
 10
-150.43315
 20
-326.43729
 11
-156.56712
 21
-326.43729
  0
LINE
  8
0
  6
CONTINUOUS
 62
     7
 10
-150.43315
 20
-331.49756
 11
-156.56712
 21
-331.49756
  0
LINE
  8
0
  6
CONTINUOUS
 62
     7
 10
-150.43315
 20
-326.43729
 11
-150.43315
 21
-331.49756
  0
LINE
  8
0
  6
CONTINUOUS
 62
     7
 10
-163.56711
 20
-337.99298
 11
-163.56711
 21
-303.99298
  0
LINE
  8
0
  6
CONTINUOUS
 62
     7
 10
-162.70108
 20
-326.43729
 11
-162.70108
 21
-331.49756
  0
LINE
  8
0
  6
CONTINUOUS
 62
     7
 10
-162.70108
 20
-331.49756
 11
-156.56712
 21
-331.49756
  0
LINE
  8
0
  6
CONTINUOUS
 62
     7
 10
-162.70108
 20
-326.43729
 11
-156.56712
 21
-326.43729
  0
LINE
  8
0
  6
CONTINUOUS
 62
     7
 10
-149.56712
 20
-337.99298
 11
-149.56712
 21
-303.99298
  0
LINE
  8
0
  6
CONTINUOUS
 62
     7
 10
-162.70108
 20
-307.57114
 11
-156.56712
 21
-307.57114
  0
LINE
  8
0
  6
CONTINUOUS
 62
     7
 10
35.759674
 20
-331.65784
 11
42.604977
 21
-331.65784
  0
LINE
  8
0
  6
CONTINUOUS
 62
     7
 10
35.759674
 20
-331.65784
 11
35.759674
 21
-336.9119
  0
LINE
  8
0
  6
CONTINUOUS
 62
     7
 10
49.450275
 20
-307.70813
 11
42.604977
 21
-307.70813
  0
LINE
  8
0
  6
CENTER
 62
     7
 10
-2.1351056
 20
-303.99298
 11
91.483582
 21
-303.99298
  0
LINE
  8
0
  6
CONTINUOUS
 62
     7
 10
34.60498
 20
-344.99298
 11
35.759674
 21
-346.99295
  0
LINE
  8
0
  6
CONTINUOUS
 62
     7
 10
49.450275
 20
-303.99298
 11
49.450275
 21
-307.70813
  0
LINE
  8
0
  6
CONTINUOUS
 62
     7
 10
35.759674
 20
-346.99298
 11
42.604977
 21
-346.99298
  0
LINE
  8
0
  6
CONTINUOUS
 62
     7
 10
49.450275
 20
-336.9119
 11
42.604977
 21
-336.9119
  0
LINE
  8
0
  6
CONTINUOUS
 62
     7
 10
50.604977
 20
-344.99298
 11
50.604977
 21
-303.99298
  0
LINE
  8
0
  6
CONTINUOUS
 62
     7
 10
34.604977
 20
-344.99298
 11
34.604977
 21
-303.99298
  0
LINE
  8
0
  6
CONTINUOUS
 62
     7
 10
49.450275
 20
-346.99298
 11
42.604977
 21
-346.99298
  0
LINE
  8
0
  6
CONTINUOUS
 62
     7
 10
35.759674
 20
-336.9119
 11
42.604977
 21
-336.9119
  0
LINE
  8
0
  6
CONTINUOUS
 62
     7
 10
50.60498
 20
-344.99298
 11
49.450287
 21
-346.99295
  0
LINE
  8
0
  6
CONTINUOUS
 62
     7
 10
35.759674
 20
-303.99298
 11
35.759674
 21
-307.70813
  0
LINE
  8
0
  6
CONTINUOUS
 62
     7
 10
49.450275
 20
-331.65784
 11
42.604977
 21
-331.65784
  0
LINE
  8
0
  6
CONTINUOUS
 62
     7
 10
35.759674
 20
-307.70813
 11
42.604977
 21
-307.70813
  0
LINE
  8
0
  6
CONTINUOUS
 62
     7
 10
49.450275
 20
-331.65784
 11
49.450275
 21
-336.9119
  0
LINE
  8
0
  6
CONTINUOUS
 62
     7
 10
-4.920351
 20
-101.64674
 11
-16.32036
 21
-101.64674
  0
LINE
  8
0
  6
CONTINUOUS
 62
     7
 10
-16.32036
 20
-92.120468
 11
-16.32036
 21
-121.62047
  0
LINE
  8
0
  6
CONTINUOUS
 62
     7
 10
-4.4203558
 20
-121.12046
 11
-4.9203563
 21
-121.62046
  0
LINE
  8
0
  6
CONTINUOUS
 62
     7
 10
-4.920351
 20
-119.71622
 11
-16.32036
 21
-119.71622
  0
LINE
  8
0
  6
CONTINUOUS
 62
     7
 10
-4.920351
 20
-106.24402
 11
-16.32036
 21
-106.24402
  0
LINE
  8
0
  6
CONTINUOUS
 62
     7
 10
-4.920351
 20
-121.62047
 11
-16.32036
 21
-121.62047
  0
LINE
  8
0
  6
CONTINUOUS
 62
     7
 10
-22.32036
 20
-68.620468
 11
-22.32036
 21
-115.62047
  0
LINE
  8
0
  6
CONTINUOUS
 62
     7
 10
-4.920351
 20
-101.64674
 11
-4.920351
 21
-106.24402
  0
LINE
  8
0
  6
CONTINUOUS
 62
     7
 10
-4.920351
 20
-119.71622
 11
-4.920351
 21
-121.62047
  0
LINE
  8
0
  6
CONTINUOUS
 62
     7
 10
-200.30286
 20
35.228905
 11
-200.30286
 21
24.728901
  0
LINE
  8
0
  6
CONTINUOUS
 62
     7
 10
-211.30286
 20
21.607582
 11
-211.30286
 21
20.728901
  0
LINE
  8
0
  6
CONTINUOUS
 62
     7
 10
-211.30286
 20
20.728901
 11
-204.30286
 21
20.728901
  0
LINE
  8
0
  6
CONTINUOUS
 62
     7
 10
-211.80287
 20
21.228905
 11
-211.30287
 21
20.728903
  0
LINE
  8
0
  6
CONTINUOUS
 62
     7
 10
-211.30286
 20
30.465446
 11
-211.30286
 21
28.343559
  0
LINE
  8
0
  6
CONTINUOUS
 62
     7
 10
-211.30286
 20
21.607582
 11
-204.30286
 21
21.607582
  0
LINE
  8
0
  6
CONTINUOUS
 62
     7
 10
-211.30286
 20
30.465446
 11
-204.30286
 21
30.465446
  0
LINE
  8
0
  6
CONTINUOUS
 62
     7
 10
-211.30286
 20
28.343559
 11
-204.30286
 21
28.343559
  0
LINE
  8
0
  6
CONTINUOUS
 62
     7
 10
-204.30286
 20
35.228905
 11
-204.30286
 21
20.728901
  0
LINE
  8
0
  6
CONTINUOUS
 62
     7
 10
-241.30286
 20
35.228905
 11
-241.30286
 21
24.728901
  0
LINE
  8
0
  6
CONTINUOUS
 62
     7
 10
-230.30286
 20
21.607582
 11
-230.30286
 21
20.728901
  0
LINE
  8
0
  6
CONTINUOUS
 62
     7
 10
-230.30286
 20
20.728901
 11
-237.30286
 21
20.728901
  0
LINE
  8
0
  6
CONTINUOUS
 62
     7
 10
-229.80286
 20
21.228912
 11
-230.30286
 21
20.728912
  0
LINE
  8
0
  6
CONTINUOUS
 62
     7
 10
-230.30286
 20
30.465446
 11
-230.30286
 21
28.343559
  0
LINE
  8
0
  6
CONTINUOUS
 62
     7
 10
-230.30286
 20
21.607582
 11
-237.30286
 21
21.607582
  0
LINE
  8
0
  6
CONTINUOUS
 62
     7
 10
-230.30286
 20
30.465446
 11
-237.30286
 21
30.465446
  0
LINE
  8
0
  6
CONTINUOUS
 62
     7
 10
-230.30286
 20
28.343559
 11
-237.30286
 21
28.343559
  0
LINE
  8
0
  6
CONTINUOUS
 62
     7
 10
-237.30286
 20
35.228905
 11
-237.30286
 21
20.728901
  0
LINE
  8
0
  6
CONTINUOUS
 62
     7
 10
-60.297058
 20
35.228905
 11
-60.297058
 21
23.228901
  0
LINE
  8
0
  6
CONTINUOUS
 62
     7
 10
-65.297058
 20
35.228905
 11
-65.297058
 21
18.228901
  0
LINE
  8
0
  6
CONTINUOUS
 62
     7
 10
-73.297058
 20
29.429913
 11
-65.297058
 21
29.429913
  0
LINE
  8
0
  6
CONTINUOUS
 62
     7
 10
-73.297058
 20
29.429913
 11
-73.297058
 21
27.308594
  0
LINE
  8
0
  6
CONTINUOUS
 62
     7
 10
-73.297058
 20
19.107582
 11
-73.297058
 21
18.228901
  0
LINE
  8
0
  6
CONTINUOUS
 62
     7
 10
-73.297058
 20
19.107582
 11
-65.297058
 21
19.107582
  0
LINE
  8
0
  6
CONTINUOUS
 62
     7
 10
-73.297058
 20
18.228901
 11
-65.297058
 21
18.228901
  0
LINE
  8
0
  6
CONTINUOUS
 62
     7
 10
-73.297058
 20
18.228897
 11
-73.797058
 21
18.728897
  0
LINE
  8
0
  6
CONTINUOUS
 62
     7
 10
-73.297058
 20
27.308594
 11
-65.297058
 21
27.308594
  0
LINE
  8
0
  6
CONTINUOUS
 62
     7
 10
-105.29706
 20
35.228905
 11
-105.29706
 21
23.228901
  0
LINE
  8
0
  6
CONTINUOUS
 62
     7
 10
-100.29706
 20
35.228905
 11
-100.29706
 21
18.228901
  0
LINE
  8
0
  6
CONTINUOUS
 62
     7
 10
-92.297058
 20
29.429913
 11
-100.29706
 21
29.429913
  0
LINE
  8
0
  6
CONTINUOUS
 62
     7
 10
-92.297058
 20
29.429913
 11
-92.297058
 21
27.308594
  0
LINE
  8
0
  6
CONTINUOUS
 62
     7
 10
-92.297058
 20
19.107582
 11
-92.297058
 21
18.228901
  0
LINE
  8
0
  6
CONTINUOUS
 62
     7
 10
-92.297058
 20
19.107582
 11
-100.29706
 21
19.107582
  0
LINE
  8
0
  6
CONTINUOUS
 62
     7
 10
-92.297058
 20
18.228901
 11
-100.29706
 21
18.228901
  0
LINE
  8
0
  6
CONTINUOUS
 62
     7
 10
-92.297058
 20
18.228909
 11
-91.797058
 21
18.728909
  0
LINE
  8
0
  6
CONTINUOUS
 62
     7
 10
-92.297058
 20
27.308594
 11
-100.29706
 21
27.308594
  0
LINE
  8
0
  6
CONTINUOUS
 62
     7
 10
67.592705
 20
15.33569
 11
76.592705
 21
15.33569
  0
LINE
  8
0
  6
CONTINUOUS
 62
     7
 10
67.092705
 20
14.2289
 11
67.592705
 21
13.728905
  0
LINE
  8
0
  6
CONTINUOUS
 62
     7
 10
67.592705
 20
15.33569
 11
67.592705
 21
13.728901
  0
LINE
  8
0
  6
CONTINUOUS
 62
     7
 10
67.592705
 20
28.595654
 11
67.592705
 21
24.716522
  0
LINE
  8
0
  6
CONTINUOUS
 62
     7
 10
67.592705
 20
13.728901
 11
76.592705
 21
13.728901
  0
LINE
  8
0
  6
CONTINUOUS
 62
     7
 10
81.592705
 20
51.728905
 11
81.592705
 21
18.728901
  0
LINE
  8
0
  6
CONTINUOUS
 62
     7
 10
76.592705
 20
35.228905
 11
76.592705
 21
13.728901
  0
LINE
  8
0
  6
CONTINUOUS
 62
     7
 10
67.592705
 20
24.716522
 11
76.592705
 21
24.716522
  0
LINE
  8
0
  6
CONTINUOUS
 62
     7
 10
67.592705
 20
28.595654
 11
76.592705
 21
28.595654
  0
LINE
  8
0
  6
CONTINUOUS
 62
     7
 10
49.592712
 20
15.33569
 11
40.592712
 21
15.33569
  0
LINE
  8
0
  6
CONTINUOUS
 62
     7
 10
50.092709
 20
14.228904
 11
49.592712
 21
13.728906
  0
LINE
  8
0
  6
CONTINUOUS
 62
     7
 10
49.592712
 20
15.33569
 11
49.592712
 21
13.728901
  0
LINE
  8
0
  6
CONTINUOUS
 62
     7
 10
49.592712
 20
28.595654
 11
49.592712
 21
24.716522
  0
LINE
  8
0
  6
CONTINUOUS
 62
     7
 10
49.592712
 20
13.728901
 11
40.592712
 21
13.728901
  0
LINE
  8
0
  6
CONTINUOUS
 62
     7
 10
35.592712
 20
51.728905
 11
35.592712
 21
18.728901
  0
LINE
  8
0
  6
CONTINUOUS
 62
     7
 10
40.592712
 20
35.228905
 11
40.592712
 21
13.728901
  0
LINE
  8
0
  6
CONTINUOUS
 62
     7
 10
49.592712
 20
24.716522
 11
40.592712
 21
24.716522
  0
LINE
  8
0
  6
CONTINUOUS
 62
     7
 10
49.592712
 20
28.595654
 11
40.592712
 21
28.595654
  0
LINE
  8
0
  6
CONTINUOUS
 62
     7
 10
-175.72035
 20
-115.59885
 11
-175.72035
 21
-116.62047
  0
LINE
  8
0
  6
CONTINUOUS
 62
     7
 10
-175.72035
 20
-115.59885
 11
-165.32036
 21
-115.59885
  0
LINE
  8
0
  6
CONTINUOUS
 62
     7
 10
-175.72035
 20
-100.82391
 11
-165.32036
 21
-100.82391
  0
LINE
  8
0
  6
CONTINUOUS
 62
     7
 10
-175.72035
 20
-100.82391
 11
-175.72035
 21
-103.29032
  0
LINE
  8
0
  6
CONTINUOUS
 62
     7
 10
-160.32036
 20
-72.620468
 11
-160.32036
 21
-111.62047
  0
LINE
  8
0
  6
CONTINUOUS
 62
     7
 10
-176.22037
 20
-116.12048
 11
-175.72037
 21
-116.62048
  0
LINE
  8
0
  6
CONTINUOUS
 62
     7
 10
-175.72035
 20
-116.62047
 11
-165.32036
 21
-116.62047
  0
LINE
  8
0
  6
CONTINUOUS
 62
     7
 10
-165.32036
 20
-92.120468
 11
-165.32036
 21
-116.62047
  0
LINE
  8
0
  6
CONTINUOUS
 62
     7
 10
-175.72035
 20
-103.29032
 11
-165.32036
 21
-103.29032
  0
LINE
  8
0
  6
CONTINUOUS
 62
     7
 10
-196.92036
 20
-115.59885
 11
-196.92036
 21
-116.62047
  0
LINE
  8
0
  6
CONTINUOUS
 62
     7
 10
-196.92036
 20
-115.59885
 11
-207.32036
 21
-115.59885
  0
LINE
  8
0
  6
CONTINUOUS
 62
     7
 10
-196.92036
 20
-100.82391
 11
-207.32036
 21
-100.82391
  0
LINE
  8
0
  6
CONTINUOUS
 62
     7
 10
-196.92036
 20
-100.82391
 11
-196.92036
 21
-103.29032
  0
LINE
  8
0
  6
CONTINUOUS
 62
     7
 10
-212.32036
 20
-72.620468
 11
-212.32036
 21
-111.62047
  0
LINE
  8
0
  6
CONTINUOUS
 62
     7
 10
-196.42036
 20
-116.12047
 11
-196.92036
 21
-116.62047
  0
LINE
  8
0
  6
CONTINUOUS
 62
     7
 10
-196.92036
 20
-116.62047
 11
-207.32036
 21
-116.62047
  0
LINE
  8
0
  6
CONTINUOUS
 62
     7
 10
-207.32036
 20
-92.120468
 11
-207.32036
 21
-116.62047
  0
LINE
  8
0
  6
CONTINUOUS
 62
     7
 10
-196.92036
 20
-103.29032
 11
-207.32036
 21
-103.29032
  0
LINE
  8
0
  6
CONTINUOUS
 62
     7
 10
16.279661
 20
-101.64674
 11
27.679655
 21
-101.64674
  0
LINE
  8
0
  6
CONTINUOUS
 62
     7
 10
27.679655
 20
-92.120468
 11
27.679655
 21
-121.62047
  0
LINE
  8
0
  6
CONTINUOUS
 62
     7
 10
15.779661
 20
-121.12047
 11
16.279661
 21
-121.62048
  0
LINE
  8
0
  6
CONTINUOUS
 62
     7
 10
16.279661
 20
-119.71622
 11
27.679655
 21
-119.71622
  0
LINE
  8
0
  6
CONTINUOUS
 62
     7
 10
16.279661
 20
-106.24402
 11
27.679655
 21
-106.24402
  0
LINE
  8
0
  6
CONTINUOUS
 62
     7
 10
16.279661
 20
-121.62047
 11
27.679655
 21
-121.62047
  0
LINE
  8
0
  6
CONTINUOUS
 62
     7
 10
33.679657
 20
-68.620468
 11
33.679657
 21
-115.62047
  0
LINE
  8
0
  6
CONTINUOUS
 62
     7
 10
16.279661
 20
-101.64674
 11
16.279661
 21
-106.24402
  0
LINE
  8
0
  6
CONTINUOUS
 62
     7
 10
16.279661
 20
-119.71622
 11
16.279661
 21
-121.62047
  0
LINE
  8
0
  6
CONTINUOUS
 62
     7
 10
-145.06712
 20
-337.99298
 11
-145.56714
 21
-337.49298
  0
LINE
  8
0
  6
CONTINUOUS
 62
     7
 10
-145.06712
 20
-335.25436
 11
-145.06712
 21
-337.99298
  0
LINE
  8
0
  6
CONTINUOUS
 62
     7
 10
-145.06712
 20
-337.99298
 11
-133.56712
 21
-337.99298
  0
LINE
  8
0
  6
CONTINUOUS
 62
     7
 10
-145.06712
 20
-335.25436
 11
-133.56712
 21
-335.25436
  0
LINE
  8
0
  6
CONTINUOUS
 62
     7
 10
-125.56712
 20
-277.99295
 11
-125.56712
 21
-329.99298
  0
LINE
  8
0
  6
CONTINUOUS
 62
     7
 10
-145.06712
 20
-314.20325
 11
-145.06712
 21
-320.81485
  0
LINE
  8
0
  6
CONTINUOUS
 62
     7
 10
-145.06712
 20
-320.81485
 11
-133.56712
 21
-320.81485
  0
LINE
  8
0
  6
CONTINUOUS
 62
     7
 10
-133.56712
 20
-303.99298
 11
-133.56712
 21
-337.99298
  0
LINE
  8
0
  6
CONTINUOUS
 62
     7
 10
-145.06712
 20
-314.20325
 11
-133.56712
 21
-314.20325
  0
LINE
  8
0
  6
CONTINUOUS
 62
     7
 10
-168.06709
 20
-337.99295
 11
-167.56711
 21
-337.49295
  0
LINE
  8
0
  6
CONTINUOUS
 62
     7
 10
-168.06712
 20
-335.25436
 11
-168.06712
 21
-337.99298
  0
LINE
  8
0
  6
CONTINUOUS
 62
     7
 10
-168.06712
 20
-337.99298
 11
-179.56712
 21
-337.99298
  0
LINE
  8
0
  6
CONTINUOUS
 62
     7
 10
-168.06712
 20
-335.25436
 11
-179.56712
 21
-335.25436
  0
LINE
  8
0
  6
CONTINUOUS
 62
     7
 10
-187.56712
 20
-277.99295
 11
-187.56712
 21
-329.99298
  0
LINE
  8
0
  6
CONTINUOUS
 62
     7
 10
-168.06712
 20
-314.20325
 11
-168.06712
 21
-320.81485
  0
LINE
  8
0
  6
CONTINUOUS
 62
     7
 10
-168.06712
 20
-320.81485
 11
-179.56712
 21
-320.81485
  0
LINE
  8
0
  6
CONTINUOUS
 62
     7
 10
-179.56712
 20
-303.99298
 11
-179.56712
 21
-337.99298
  0
LINE
  8
0
  6
CONTINUOUS
 62
     7
 10
-168.06712
 20
-314.20325
 11
-179.56712
 21
-314.20325
  0
LINE
  8
0
  6
CONTINUOUS
 62
     7
 10
54.604973
 20
-344.99298
 11
69.604973
 21
-344.99298
  0
LINE
  8
0
  6
CONTINUOUS
 62
     7
 10
54.604961
 20
-344.99295
 11
54.104973
 21
-344.49298
  0
LINE
  8
0
  6
CONTINUOUS
 62
     7
 10
54.604973
 20
-342.14951
 11
54.604973
 21
-344.99298
  0
LINE
  8
0
  6
CONTINUOUS
 62
     7
 10
77.604973
 20
-270.99295
 11
77.604973
 21
-336.99298
  0
LINE
  8
0
  6
CONTINUOUS
 62
     7
 10
54.604973
 20
-342.14951
 11
69.604973
 21
-342.14951
  0
LINE
  8
0
  6
CONTINUOUS
 62
     7
 10
54.604973
 20
-316.95444
 11
69.604973
 21
-316.95444
  0
LINE
  8
0
  6
CONTINUOUS
 62
     7
 10
69.604973
 20
-303.99298
 11
69.604973
 21
-344.99298
  0
LINE
  8
0
  6
CONTINUOUS
 62
     7
 10
54.604973
 20
-323.81918
 11
69.604973
 21
-323.81918
  0
LINE
  8
0
  6
CONTINUOUS
 62
     7
 10
54.604973
 20
-316.95444
 11
54.604973
 21
-323.81918
  0
LINE
  8
0
  6
CONTINUOUS
 62
     7
 10
30.604975
 20
-344.99298
 11
15.604975
 21
-344.99298
  0
LINE
  8
0
  6
CONTINUOUS
 62
     7
 10
30.604965
 20
-344.99295
 11
31.104965
 21
-344.49295
  0
LINE
  8
0
  6
CONTINUOUS
 62
     7
 10
30.604975
 20
-342.14951
 11
30.604975
 21
-344.99298
  0
LINE
  8
0
  6
CONTINUOUS
 62
     7
 10
7.6049743
 20
-270.99295
 11
7.6049743
 21
-336.99298
  0
LINE
  8
0
  6
CONTINUOUS
 62
     7
 10
30.604975
 20
-342.14951
 11
15.604975
 21
-342.14951
  0
LINE
  8
0
  6
CONTINUOUS
 62
     7
 10
30.604975
 20
-316.95444
 11
15.604975
 21
-316.95444
  0
LINE
  8
0
  6
CONTINUOUS
 62
     7
 10
15.604975
 20
-303.99298
 11
15.604975
 21
-344.99298
  0
LINE
  8
0
  6
CONTINUOUS
 62
     7
 10
30.604975
 20
-323.81918
 11
15.604975
 21
-323.81918
  0
LINE
  8
0
  6
CONTINUOUS
 62
     7
 10
30.604975
 20
-316.95444
 11
30.604975
 21
-323.81918
  0
LINE
  8
0
  6
CONTINUOUS
 62
     7
 10
-229.80286
 20
35.228905
 11
-229.80286
 21
21.228901
  0
LINE
  8
0
  6
CONTINUOUS
 62
     7
 10
-211.80286
 20
35.228905
 11
-211.80286
 21
21.228901
  0
LINE
  8
0
  6
CONTINUOUS
 62
     7
 10
-91.797058
 20
35.228905
 11
-91.797058
 21
18.728901
  0
LINE
  8
0
  6
CONTINUOUS
 62
     7
 10
-73.797058
 20
35.228905
 11
-73.797058
 21
18.728901
  0
LINE
  8
0
  6
CONTINUOUS
 62
     7
 10
50.092712
 20
35.228905
 11
50.092712
 21
14.228901
  0
LINE
  8
0
  6
CONTINUOUS
 62
     7
 10
67.092705
 20
35.228905
 11
67.092705
 21
14.228901
  0
LINE
  8
0
  6
CONTINUOUS
 62
     7
 10
-196.42036
 20
-92.120468
 11
-196.42036
 21
-116.12047
  0
LINE
  8
0
  6
CONTINUOUS
 62
     7
 10
-176.22035
 20
-92.120468
 11
-176.22035
 21
-116.12047
  0
LINE
  8
0
  6
CONTINUOUS
 62
     7
 10
-4.420351
 20
-92.120468
 11
-4.420351
 21
-121.12047
  0
LINE
  8
0
  6
CONTINUOUS
 62
     7
 10
15.779661
 20
-92.120468
 11
15.779661
 21
-121.12047
  0
LINE
  8
0
  6
CONTINUOUS
 62
     7
 10
-167.56712
 20
-303.99298
 11
-167.56712
 21
-337.49298
  0
LINE
  8
0
  6
CONTINUOUS
 62
     7
 10
-145.56712
 20
-303.99298
 11
-145.56712
 21
-337.49298
  0
LINE
  8
0
  6
CONTINUOUS
 62
     7
 10
31.104975
 20
-303.99298
 11
31.104975
 21
-344.49298
  0
LINE
  8
0
  6
CONTINUOUS
 62
     7
 10
54.104973
 20
-303.99298
 11
54.104973
 21
-344.49298
  0
LINE
  8
0
  6
CONTINUOUS
 62
     7
 10
-229.80286
 20
21.496023
 11
-226.40286
 21
21.496023
  0
LINE
  8
0
  6
CONTINUOUS
 62
     7
 10
-215.20287
 20
21.496023
 11
-211.80286
 21
21.496023
  0
LINE
  8
0
  6
CONTINUOUS
 62
     7
 10
-225.82552
 20
46.113102
 11
-225.82552
 21
46.956409
  0
LINE
  8
0
  6
CONTINUOUS
 62
     7
 10
-226.40286
 20
35.228905
 11
-226.40286
 21
50.228909
  0
LINE
  8
0
  6
CONTINUOUS
 62
     7
 10
-215.20287
 20
35.228905
 11
-215.20287
 21
50.228912
  0
LINE
  8
0
  6
CONTINUOUS
 62
     7
 10
-226.40286
 20
50.22892
 11
-225.82552
 21
51.228912
  0
LINE
  8
0
  6
CONTINUOUS
 62
     7
 10
-215.78021
 20
46.113102
 11
-215.78021
 21
46.956409
  0
LINE
  8
0
  6
CONTINUOUS
 62
     7
 10
-215.78021
 20
51.228912
 11
-215.20285
 21
50.228905
  0
LINE
  8
0
  6
CONTINUOUS
 62
     7
 10
-225.82552
 20
51.228909
 11
-215.78021
 21
51.228909
  0
LINE
  8
0
  6
CONTINUOUS
 62
     7
 10
-225.82552
 20
46.956409
 11
-215.78021
 21
46.956409
  0
LINE
  8
0
  6
CONTINUOUS
 62
     7
 10
-225.82552
 20
46.113102
 11
-215.78021
 21
46.113102
  0
LINE
  8
0
  6
CONTINUOUS
 62
     7
 10
-200.30286
 20
35.228905
 11
-200.30286
 21
45.728909
  0
LINE
  8
0
  6
CONTINUOUS
 62
     7
 10
-211.30286
 20
48.850227
 11
-211.30286
 21
49.728909
  0
LINE
  8
0
  6
CONTINUOUS
 62
     7
 10
-211.30286
 20
49.728909
 11
-204.30286
 21
49.728909
  0
LINE
  8
0
  6
CONTINUOUS
 62
     7
 10
-211.80287
 20
49.228905
 11
-211.30287
 21
49.728905
  0
LINE
  8
0
  6
CONTINUOUS
 62
     7
 10
-211.30286
 20
39.992363
 11
-211.30286
 21
42.11425
  0
LINE
  8
0
  6
CONTINUOUS
 62
     7
 10
-211.30286
 20
48.850227
 11
-204.30286
 21
48.850227
  0
LINE
  8
0
  6
CONTINUOUS
 62
     7
 10
-211.30286
 20
39.992363
 11
-204.30286
 21
39.992363
  0
LINE
  8
0
  6
CONTINUOUS
 62
     7
 10
-211.30286
 20
42.11425
 11
-204.30286
 21
42.11425
  0
LINE
  8
0
  6
CONTINUOUS
 62
     7
 10
-204.30286
 20
35.228905
 11
-204.30286
 21
49.728909
  0
LINE
  8
0
  6
CONTINUOUS
 62
     7
 10
-241.30286
 20
35.228905
 11
-241.30286
 21
45.728909
  0
LINE
  8
0
  6
CONTINUOUS
 62
     7
 10
-230.30286
 20
48.850227
 11
-230.30286
 21
49.728909
  0
LINE
  8
0
  6
CONTINUOUS
 62
     7
 10
-230.30286
 20
49.728909
 11
-237.30286
 21
49.728909
  0
LINE
  8
0
  6
CONTINUOUS
 62
     7
 10
-229.80286
 20
49.228901
 11
-230.30286
 21
49.728901
  0
LINE
  8
0
  6
CONTINUOUS
 62
     7
 10
-230.30286
 20
39.992363
 11
-230.30286
 21
42.11425
  0
LINE
  8
0
  6
CONTINUOUS
 62
     7
 10
-230.30286
 20
48.850227
 11
-237.30286
 21
48.850227
  0
LINE
  8
0
  6
CONTINUOUS
 62
     7
 10
-230.30286
 20
39.992363
 11
-237.30286
 21
39.992363
  0
LINE
  8
0
  6
CONTINUOUS
 62
     7
 10
-230.30286
 20
42.11425
 11
-237.30286
 21
42.11425
  0
LINE
  8
0
  6
CONTINUOUS
 62
     7
 10
-237.30286
 20
35.228905
 11
-237.30286
 21
49.728909
  0
LINE
  8
0
  6
CONTINUOUS
 62
     7
 10
-229.80286
 20
35.228905
 11
-229.80286
 21
49.228909
  0
LINE
  8
0
  6
CONTINUOUS
 62
     7
 10
-211.80286
 20
35.228905
 11
-211.80286
 21
49.228909
  0
LINE
  8
0
  6
CONTINUOUS
 62
     7
 10
-229.80286
 20
48.961788
 11
-226.40286
 21
48.961788
  0
LINE
  8
0
  6
CONTINUOUS
 62
     7
 10
-215.20287
 20
48.961788
 11
-211.80286
 21
48.961788
  0
LINE
  8
0
  6
CONTINUOUS
 62
     7
 10
-225.82552
 20
35.825218
 11
-215.78021
 21
35.825218
  0
LINE
  8
0
  6
CONTINUOUS
 62
     7
 10
-225.82552
 20
35.228905
 11
-225.82552
 21
35.825218
  0
LINE
  8
0
  6
CONTINUOUS
 62
     7
 10
-215.78021
 20
35.228905
 11
-215.78021
 21
35.825218
  0
LINE
  8
0
  6
CONTINUOUS
 62
     7
 10
-91.797058
 20
19.05932
 11
-88.397064
 21
19.05932
  0
LINE
  8
0
  6
CONTINUOUS
 62
     7
 10
-77.197052
 20
19.05932
 11
-73.797058
 21
19.05932
  0
LINE
  8
0
  6
CONTINUOUS
 62
     7
 10
-77.197052
 20
52.728905
 11
-77.197052
 21
35.228905
  0
LINE
  8
0
  6
CONTINUOUS
 62
     7
 10
-77.19706
 20
52.728912
 11
-77.774406
 21
53.728912
  0
LINE
  8
0
  6
CONTINUOUS
 62
     7
 10
-88.397064
 20
52.728905
 11
-88.397064
 21
35.228905
  0
LINE
  8
0
  6
CONTINUOUS
 62
     7
 10
-88.397064
 20
52.728912
 11
-87.804794
 21
53.728912
  0
LINE
  8
0
  6
CONTINUOUS
 62
     7
 10
-77.774414
 20
35.228905
 11
-77.774414
 21
36.382591
  0
LINE
  8
0
  6
CONTINUOUS
 62
     7
 10
-77.774414
 20
47.469147
 11
-77.774414
 21
49.1007
  0
LINE
  8
0
  6
CONTINUOUS
 62
     7
 10
-87.804794
 20
35.228905
 11
-87.804794
 21
36.382591
  0
LINE
  8
0
  6
CONTINUOUS
 62
     7
 10
-87.804794
 20
53.728909
 11
-77.774414
 21
53.728909
  0
LINE
  8
0
  6
CONTINUOUS
 62
     7
 10
-87.804794
 20
49.1007
 11
-77.774414
 21
49.1007
  0
LINE
  8
0
  6
CONTINUOUS
 62
     7
 10
-87.804794
 20
47.469147
 11
-77.774414
 21
47.469147
  0
LINE
  8
0
  6
CONTINUOUS
 62
     7
 10
-87.804794
 20
47.469147
 11
-87.804794
 21
49.1007
  0
LINE
  8
0
  6
CONTINUOUS
 62
     7
 10
-87.804794
 20
36.382591
 11
-77.774414
 21
36.382591
  0
LINE
  8
0
  6
CONTINUOUS
 62
     7
 10
-60.297058
 20
35.228905
 11
-60.297058
 21
47.228909
  0
LINE
  8
0
  6
CONTINUOUS
 62
     7
 10
-65.297058
 20
35.228905
 11
-65.297058
 21
52.228909
  0
LINE
  8
0
  6
CONTINUOUS
 62
     7
 10
-73.297058
 20
41.027897
 11
-65.297058
 21
41.027897
  0
LINE
  8
0
  6
CONTINUOUS
 62
     7
 10
-73.297058
 20
41.027897
 11
-73.297058
 21
43.149216
  0
LINE
  8
0
  6
CONTINUOUS
 62
     7
 10
-73.297058
 20
51.350227
 11
-73.297058
 21
52.228909
  0
LINE
  8
0
  6
CONTINUOUS
 62
     7
 10
-73.297058
 20
51.350227
 11
-65.297058
 21
51.350227
  0
LINE
  8
0
  6
CONTINUOUS
 62
     7
 10
-73.297058
 20
52.228909
 11
-65.297058
 21
52.228909
  0
LINE
  8
0
  6
CONTINUOUS
 62
     7
 10
-73.297058
 20
52.228916
 11
-73.797058
 21
51.728916
  0
LINE
  8
0
  6
CONTINUOUS
 62
     7
 10
-73.297058
 20
43.149216
 11
-65.297058
 21
43.149216
  0
LINE
  8
0
  6
CONTINUOUS
 62
     7
 10
-105.29706
 20
35.228905
 11
-105.29706
 21
47.228909
  0
LINE
  8
0
  6
CONTINUOUS
 62
     7
 10
-100.29706
 20
35.228905
 11
-100.29706
 21
52.228909
  0
LINE
  8
0
  6
CONTINUOUS
 62
     7
 10
-92.297058
 20
41.027897
 11
-100.29706
 21
41.027897
  0
LINE
  8
0
  6
CONTINUOUS
 62
     7
 10
-92.297058
 20
41.027897
 11
-92.297058
 21
43.149216
  0
LINE
  8
0
  6
CONTINUOUS
 62
     7
 10
-92.297058
 20
51.350227
 11
-92.297058
 21
52.228909
  0
LINE
  8
0
  6
CONTINUOUS
 62
     7
 10
-92.297058
 20
51.350227
 11
-100.29706
 21
51.350227
  0
LINE
  8
0
  6
CONTINUOUS
 62
     7
 10
-92.297058
 20
52.228909
 11
-100.29706
 21
52.228909
  0
LINE
  8
0
  6
CONTINUOUS
 62
     7
 10
-92.297058
 20
52.228901
 11
-91.797058
 21
51.728897
  0
LINE
  8
0
  6
CONTINUOUS
 62
     7
 10
-92.297058
 20
43.149216
 11
-100.29706
 21
43.149216
  0
LINE
  8
0
  6
CONTINUOUS
 62
     7
 10
-91.797058
 20
35.228905
 11
-91.797058
 21
51.728909
  0
LINE
  8
0
  6
CONTINUOUS
 62
     7
 10
-73.797058
 20
35.228905
 11
-73.797058
 21
51.728909
  0
LINE
  8
0
  6
CONTINUOUS
 62
     7
 10
-91.797058
 20
51.398487
 11
-88.397064
 21
51.398487
  0
LINE
  8
0
  6
CONTINUOUS
 62
     7
 10
-77.197052
 20
51.398487
 11
-73.797058
 21
51.398487
  0
LINE
  8
0
  6
CONTINUOUS
 62
     7
 10
50.092712
 20
14.711827
 11
53.592712
 21
14.711827
  0
LINE
  8
0
  6
CONTINUOUS
 62
     7
 10
63.592705
 20
14.711827
 11
67.092705
 21
14.711827
  0
LINE
  8
0
  6
CONTINUOUS
 62
     7
 10
54.170059
 20
49.845516
 11
54.170059
 21
52.987144
  0
LINE
  8
0
  6
CONTINUOUS
 62
     7
 10
54.170059
 20
35.228905
 11
54.170059
 21
37.450375
  0
LINE
  8
0
  6
CONTINUOUS
 62
     7
 10
53.592716
 20
57.228909
 11
54.170067
 21
58.228909
  0
LINE
  8
0
  6
CONTINUOUS
 62
     7
 10
54.170059
 20
37.450375
 11
63.015358
 21
37.450375
  0
LINE
  8
0
  6
CONTINUOUS
 62
     7
 10
63.015358
 20
49.845516
 11
63.015358
 21
52.987144
  0
LINE
  8
0
  6
CONTINUOUS
 62
     7
 10
63.592705
 20
35.228905
 11
63.592705
 21
57.228909
  0
LINE
  8
0
  6
CONTINUOUS
 62
     7
 10
54.170059
 20
49.845516
 11
63.015358
 21
49.845516
  0
LINE
  8
0
  6
CONTINUOUS
 62
     7
 10
54.170059
 20
58.228909
 11
63.015358
 21
58.228909
  0
LINE
  8
0
  6
CONTINUOUS
 62
     7
 10
54.170059
 20
52.987144
 11
63.015358
 21
52.987144
  0
LINE
  8
0
  6
CONTINUOUS
 62
     7
 10
63.015358
 20
35.228905
 11
63.015358
 21
37.450375
  0
LINE
  8
0
  6
CONTINUOUS
 62
     7
 10
53.592712
 20
35.228905
 11
53.592712
 21
57.228909
  0
LINE
  8
0
  6
CONTINUOUS
 62
     7
 10
63.015358
 20
58.228909
 11
63.592705
 21
57.228916
  0
LINE
  8
0
  6
CONTINUOUS
 62
     7
 10
67.592705
 20
55.12212
 11
76.592705
 21
55.12212
  0
LINE
  8
0
  6
CONTINUOUS
 62
     7
 10
67.092705
 20
56.228912
 11
67.592705
 21
56.728905
  0
LINE
  8
0
  6
CONTINUOUS
 62
     7
 10
67.592705
 20
55.12212
 11
67.592705
 21
56.728909
  0
LINE
  8
0
  6
CONTINUOUS
 62
     7
 10
67.592705
 20
41.862156
 11
67.592705
 21
45.741287
  0
LINE
  8
0
  6
CONTINUOUS
 62
     7
 10
67.592705
 20
56.728909
 11
76.592705
 21
56.728909
  0
LINE
  8
0
  6
CONTINUOUS
 62
     7
 10
76.592705
 20
35.228905
 11
76.592705
 21
56.728909
  0
LINE
  8
0
  6
CONTINUOUS
 62
     7
 10
67.592705
 20
45.741287
 11
76.592705
 21
45.741287
  0
LINE
  8
0
  6
CONTINUOUS
 62
     7
 10
67.592705
 20
41.862156
 11
76.592705
 21
41.862156
  0
LINE
  8
0
  6
CONTINUOUS
 62
     7
 10
49.592712
 20
55.12212
 11
40.592712
 21
55.12212
  0
LINE
  8
0
  6
CONTINUOUS
 62
     7
 10
50.092712
 20
56.228909
 11
49.592716
 21
56.728909
  0
LINE
  8
0
  6
CONTINUOUS
 62
     7
 10
49.592712
 20
55.12212
 11
49.592712
 21
56.728909
  0
LINE
  8
0
  6
CONTINUOUS
 62
     7
 10
49.592712
 20
41.862156
 11
49.592712
 21
45.741287
  0
LINE
  8
0
  6
CONTINUOUS
 62
     7
 10
49.592712
 20
56.728909
 11
40.592712
 21
56.728909
  0
LINE
  8
0
  6
CONTINUOUS
 62
     7
 10
40.592712
 20
35.228905
 11
40.592712
 21
56.728909
  0
LINE
  8
0
  6
CONTINUOUS
 62
     7
 10
49.592712
 20
45.741287
 11
40.592712
 21
45.741287
  0
LINE
  8
0
  6
CONTINUOUS
 62
     7
 10
49.592712
 20
41.862156
 11
40.592712
 21
41.862156
  0
LINE
  8
0
  6
CONTINUOUS
 62
     7
 10
50.092712
 20
35.228905
 11
50.092712
 21
56.228909
  0
LINE
  8
0
  6
CONTINUOUS
 62
     7
 10
67.092705
 20
35.228905
 11
67.092705
 21
56.228909
  0
LINE
  8
0
  6
CONTINUOUS
 62
     7
 10
50.092712
 20
55.745983
 11
53.592712
 21
55.745983
  0
LINE
  8
0
  6
CONTINUOUS
 62
     7
 10
63.592705
 20
55.745983
 11
67.092705
 21
55.745983
  0
LINE
  8
0
  6
CONTINUOUS
 62
     7
 10
-196.42036
 20
-115.65663
 11
-192.82036
 21
-115.65663
  0
LINE
  8
0
  6
CONTINUOUS
 62
     7
 10
-179.82036
 20
-115.65663
 11
-176.22035
 21
-115.65663
  0
LINE
  8
0
  6
CONTINUOUS
 62
     7
 10
-192.82036
 20
-66.620468
 11
-192.243
 21
-65.620461
  0
LINE
  8
0
  6
CONTINUOUS
 62
     7
 10
-192.24301
 20
-92.120468
 11
-192.24301
 21
-89.024223
  0
LINE
  8
0
  6
CONTINUOUS
 62
     7
 10
-180.39771
 20
-75.699844
 11
-180.39771
 21
-71.321106
  0
LINE
  8
0
  6
CONTINUOUS
 62
     7
 10
-192.82036
 20
-66.620461
 11
-192.82036
 21
-92.120468
  0
LINE
  8
0
  6
CONTINUOUS
 62
     7
 10
-180.39771
 20
-89.024223
 11
-186.32036
 21
-89.024223
  0
LINE
  8
0
  6
CONTINUOUS
 62
     7
 10
-180.39771
 20
-75.699844
 11
-186.32036
 21
-75.699844
  0
LINE
  8
0
  6
CONTINUOUS
 62
     7
 10
-192.24301
 20
-65.620461
 11
-186.32036
 21
-65.620461
  0
LINE
  8
0
  6
CONTINUOUS
 62
     7
 10
-192.24301
 20
-71.321106
 11
-186.32036
 21
-71.321106
  0
LINE
  8
0
  6
CONTINUOUS
 62
     7
 10
-192.24301
 20
-75.699844
 11
-186.32036
 21
-75.699844
  0
LINE
  8
0
  6
CONTINUOUS
 62
     7
 10
-192.24301
 20
-89.024223
 11
-186.32036
 21
-89.024223
  0
LINE
  8
0
  6
CONTINUOUS
 62
     7
 10
-180.39771
 20
-71.321106
 11
-186.32036
 21
-71.321106
  0
LINE
  8
0
  6
CONTINUOUS
 62
     7
 10
-180.39771
 20
-65.620461
 11
-186.32036
 21
-65.620461
  0
LINE
  8
0
  6
CONTINUOUS
 62
     7
 10
-179.82036
 20
-66.620461
 11
-179.82036
 21
-92.120468
  0
LINE
  8
0
  6
CONTINUOUS
 62
     7
 10
-180.39771
 20
-92.120468
 11
-180.39771
 21
-89.024223
  0
LINE
  8
0
  6
CONTINUOUS
 62
     7
 10
-179.82036
 20
-66.620461
 11
-180.39771
 21
-65.620461
  0
LINE
  8
0
  6
CONTINUOUS
 62
     7
 10
-192.24301
 20
-75.699844
 11
-192.24301
 21
-71.321106
  0
LINE
  8
0
  6
CONTINUOUS
 62
     7
 10
-175.72035
 20
-68.642082
 11
-175.72035
 21
-67.620461
  0
LINE
  8
0
  6
CONTINUOUS
 62
     7
 10
-175.72035
 20
-68.642082
 11
-165.32036
 21
-68.642082
  0
LINE
  8
0
  6
CONTINUOUS
 62
     7
 10
-175.72035
 20
-83.417015
 11
-165.32036
 21
-83.417015
  0
LINE
  8
0
  6
CONTINUOUS
 62
     7
 10
-175.72035
 20
-83.417015
 11
-175.72035
 21
-80.950615
  0
LINE
  8
0
  6
CONTINUOUS
 62
     7
 10
-176.22035
 20
-68.120461
 11
-175.72035
 21
-67.620461
  0
LINE
  8
0
  6
CONTINUOUS
 62
     7
 10
-175.72035
 20
-67.620461
 11
-165.32036
 21
-67.620461
  0
LINE
  8
0
  6
CONTINUOUS
 62
     7
 10
-165.32036
 20
-92.120468
 11
-165.32036
 21
-67.620461
  0
LINE
  8
0
  6
CONTINUOUS
 62
     7
 10
-175.72035
 20
-80.950615
 11
-165.32036
 21
-80.950615
  0
LINE
  8
0
  6
CONTINUOUS
 62
     7
 10
-196.92036
 20
-68.642082
 11
-196.92036
 21
-67.620461
  0
LINE
  8
0
  6
CONTINUOUS
 62
     7
 10
-196.92036
 20
-68.642082
 11
-207.32036
 21
-68.642082
  0
LINE
  8
0
  6
CONTINUOUS
 62
     7
 10
-196.92036
 20
-83.417015
 11
-207.32036
 21
-83.417015
  0
LINE
  8
0
  6
CONTINUOUS
 62
     7
 10
-196.92036
 20
-83.417015
 11
-196.92036
 21
-80.950615
  0
LINE
  8
0
  6
CONTINUOUS
 62
     7
 10
-196.42036
 20
-68.120468
 11
-196.92036
 21
-67.620468
  0
LINE
  8
0
  6
CONTINUOUS
 62
     7
 10
-196.92036
 20
-67.620461
 11
-207.32036
 21
-67.620461
  0
LINE
  8
0
  6
CONTINUOUS
 62
     7
 10
-207.32036
 20
-92.120468
 11
-207.32036
 21
-67.620461
  0
LINE
  8
0
  6
CONTINUOUS
 62
     7
 10
-196.92036
 20
-80.950615
 11
-207.32036
 21
-80.950615
  0
LINE
  8
0
  6
CONTINUOUS
 62
     7
 10
-196.42036
 20
-92.120468
 11
-196.42036
 21
-68.120461
  0
LINE
  8
0
  6
CONTINUOUS
 62
     7
 10
-176.22035
 20
-92.120468
 11
-176.22035
 21
-68.120461
  0
LINE
  8
0
  6
CONTINUOUS
 62
     7
 10
-196.42036
 20
-68.584297
 11
-192.82036
 21
-68.584297
  0
LINE
  8
0
  6
CONTINUOUS
 62
     7
 10
-179.82036
 20
-68.584297
 11
-176.22035
 21
-68.584297
  0
LINE
  8
0
  6
CONTINUOUS
 62
     7
 10
-4.420351
 20
-120.69505
 11
-0.82034487
 21
-120.69505
  0
LINE
  8
0
  6
CONTINUOUS
 62
     7
 10
12.17964
 20
-120.69505
 11
15.779661
 21
-120.69505
  0
LINE
  8
0
  6
CONTINUOUS
 62
     7
 10
-0.021501509
 20
-60.23682
 11
5.6796551
 21
-60.23682
  0
LINE
  8
0
  6
CONTINUOUS
 62
     7
 10
11.380796
 20
-71.503197
 11
11.380796
 21
-67.647461
  0
LINE
  8
0
  6
CONTINUOUS
 62
     7
 10
-0.82034487
 20
-61.620464
 11
-0.82034487
 21
-92.120468
  0
LINE
  8
0
  6
CONTINUOUS
 62
     7
 10
-0.82034302
 20
-61.620461
 11
-0.021497706
 21
-60.23682
  0
LINE
  8
0
  6
CONTINUOUS
 62
     7
 10
-0.021501509
 20
-67.647461
 11
5.6796551
 21
-67.647461
  0
LINE
  8
0
  6
CONTINUOUS
 62
     7
 10
11.380796
 20
-92.120468
 11
11.380796
 21
-89.394043
  0
LINE
  8
0
  6
CONTINUOUS
 62
     7
 10
11.380796
 20
-89.394043
 11
5.6796551
 21
-89.394043
  0
LINE
  8
0
  6
CONTINUOUS
 62
     7
 10
11.380796
 20
-71.503197
 11
5.6796551
 21
-71.503197
  0
LINE
  8
0
  6
CONTINUOUS
 62
     7
 10
-0.021501509
 20
-71.503197
 11
5.6796551
 21
-71.503197
  0
LINE
  8
0
  6
CONTINUOUS
 62
     7
 10
-0.021501509
 20
-89.394043
 11
5.6796551
 21
-89.394043
  0
LINE
  8
0
  6
CONTINUOUS
 62
     7
 10
-0.021501509
 20
-92.120468
 11
-0.021501509
 21
-89.394043
  0
LINE
  8
0
  6
CONTINUOUS
 62
     7
 10
11.380796
 20
-67.647461
 11
5.6796551
 21
-67.647461
  0
LINE
  8
0
  6
CONTINUOUS
 62
     7
 10
-0.021501509
 20
-71.503197
 11
-0.021501509
 21
-67.647461
  0
LINE
  8
0
  6
CONTINUOUS
 62
     7
 10
11.380796
 20
-60.23682
 11
5.6796551
 21
-60.23682
  0
LINE
  8
0
  6
CONTINUOUS
 62
     7
 10
12.17964
 20
-61.620464
 11
12.17964
 21
-92.120468
  0
LINE
  8
0
  6
CONTINUOUS
 62
     7
 10
12.179645
 20
-61.620464
 11
11.380801
 21
-60.236824
  0
LINE
  8
0
  6
CONTINUOUS
 62
     7
 10
-4.920351
 20
-82.594185
 11
-16.32036
 21
-82.594185
  0
LINE
  8
0
  6
CONTINUOUS
 62
     7
 10
-16.32036
 20
-92.120468
 11
-16.32036
 21
-62.620464
  0
LINE
  8
0
  6
CONTINUOUS
 62
     7
 10
-4.4203534
 20
-63.120464
 11
-4.9203539
 21
-62.620464
  0
LINE
  8
0
  6
CONTINUOUS
 62
     7
 10
-4.920351
 20
-64.524719
 11
-16.32036
 21
-64.524719
  0
LINE
  8
0
  6
CONTINUOUS
 62
     7
 10
-4.920351
 20
-77.996918
 11
-16.32036
 21
-77.996918
  0
LINE
  8
0
  6
CONTINUOUS
 62
     7
 10
-4.920351
 20
-62.620464
 11
-16.32036
 21
-62.620464
  0
LINE
  8
0
  6
CONTINUOUS
 62
     7
 10
-4.920351
 20
-82.594185
 11
-4.920351
 21
-77.996918
  0
LINE
  8
0
  6
CONTINUOUS
 62
     7
 10
-4.920351
 20
-64.524719
 11
-4.920351
 21
-62.620464
  0
LINE
  8
0
  6
CONTINUOUS
 62
     7
 10
16.279661
 20
-82.594185
 11
27.679655
 21
-82.594185
  0
LINE
  8
0
  6
CONTINUOUS
 62
     7
 10
27.679655
 20
-92.120468
 11
27.679655
 21
-62.620464
  0
LINE
  8
0
  6
CONTINUOUS
 62
     7
 10
15.779658
 20
-63.120461
 11
16.279659
 21
-62.620457
  0
LINE
  8
0
  6
CONTINUOUS
 62
     7
 10
16.279661
 20
-64.524719
 11
27.679655
 21
-64.524719
  0
LINE
  8
0
  6
CONTINUOUS
 62
     7
 10
16.279661
 20
-77.996918
 11
27.679655
 21
-77.996918
  0
LINE
  8
0
  6
CONTINUOUS
 62
     7
 10
16.279661
 20
-62.620464
 11
27.679655
 21
-62.620464
  0
LINE
  8
0
  6
CONTINUOUS
 62
     7
 10
16.279661
 20
-82.594185
 11
16.279661
 21
-77.996918
  0
LINE
  8
0
  6
CONTINUOUS
 62
     7
 10
16.279661
 20
-64.524719
 11
16.279661
 21
-62.620464
  0
LINE
  8
0
  6
CONTINUOUS
 62
     7
 10
-4.420351
 20
-92.120468
 11
-4.420351
 21
-63.120464
  0
LINE
  8
0
  6
CONTINUOUS
 62
     7
 10
15.779661
 20
-92.120468
 11
15.779661
 21
-63.120464
  0
LINE
  8
0
  6
CONTINUOUS
 62
     7
 10
-4.420351
 20
-63.545883
 11
-0.82034487
 21
-63.545883
  0
LINE
  8
0
  6
CONTINUOUS
 62
     7
 10
12.17964
 20
-63.545883
 11
15.779661
 21
-63.545883
  0
LINE
  8
0
  6
CONTINUOUS
 62
     7
 10
-167.56712
 20
-336.99051
 11
-163.56711
 21
-336.99051
  0
LINE
  8
0
  6
CONTINUOUS
 62
     7
 10
-149.56712
 20
-336.99051
 11
-145.56712
 21
-336.99051
  0
LINE
  8
0
  6
CONTINUOUS
 62
     7
 10
-149.56714
 20
-269.99298
 11
-150.43315
 21
-268.49298
  0
LINE
  8
0
  6
CONTINUOUS
 62
     7
 10
-150.43315
 20
-300.41479
 11
-156.56712
 21
-300.41479
  0
LINE
  8
0
  6
CONTINUOUS
 62
     7
 10
-150.43315
 20
-268.49298
 11
-156.56712
 21
-268.49298
  0
LINE
  8
0
  6
CONTINUOUS
 62
     7
 10
-162.70108
 20
-268.49298
 11
-156.56712
 21
-268.49298
  0
LINE
  8
0
  6
CONTINUOUS
 62
     7
 10
-163.56709
 20
-269.99295
 11
-162.70107
 21
-268.49295
  0
LINE
  8
0
  6
CONTINUOUS
 62
     7
 10
-150.43315
 20
-303.99298
 11
-150.43315
 21
-300.41479
  0
LINE
  8
0
  6
CONTINUOUS
 62
     7
 10
-162.70108
 20
-303.99298
 11
-162.70108
 21
-300.41479
  0
LINE
  8
0
  6
CONTINUOUS
 62
     7
 10
-150.43315
 20
-281.54865
 11
-156.56712
 21
-281.54865
  0
LINE
  8
0
  6
CONTINUOUS
 62
     7
 10
-150.43315
 20
-276.48837
 11
-156.56712
 21
-276.48837
  0
LINE
  8
0
  6
CONTINUOUS
 62
     7
 10
-150.43315
 20
-281.54865
 11
-150.43315
 21
-276.48837
  0
LINE
  8
0
  6
CONTINUOUS
 62
     7
 10
-163.56711
 20
-269.99298
 11
-163.56711
 21
-303.99298
  0
LINE
  8
0
  6
CONTINUOUS
 62
     7
 10
-162.70108
 20
-281.54865
 11
-162.70108
 21
-276.48837
  0
LINE
  8
0
  6
CONTINUOUS
 62
     7
 10
-162.70108
 20
-276.48837
 11
-156.56712
 21
-276.48837
  0
LINE
  8
0
  6
CONTINUOUS
 62
     7
 10
-162.70108
 20
-281.54865
 11
-156.56712
 21
-281.54865
  0
LINE
  8
0
  6
CONTINUOUS
 62
     7
 10
-149.56712
 20
-269.99298
 11
-149.56712
 21
-303.99298
  0
LINE
  8
0
  6
CONTINUOUS
 62
     7
 10
-162.70108
 20
-300.41479
 11
-156.56712
 21
-300.41479
  0
LINE
  8
0
  6
CONTINUOUS
 62
     7
 10
-145.06714
 20
-269.99298
 11
-145.56712
 21
-270.49298
  0
LINE
  8
0
  6
CONTINUOUS
 62
     7
 10
-145.06712
 20
-272.73157
 11
-145.06712
 21
-269.99298
  0
LINE
  8
0
  6
CONTINUOUS
 62
     7
 10
-145.06712
 20
-269.99298
 11
-133.56712
 21
-269.99298
  0
LINE
  8
0
  6
CONTINUOUS
 62
     7
 10
-145.06712
 20
-272.73157
 11
-133.56712
 21
-272.73157
  0
LINE
  8
0
  6
CONTINUOUS
 62
     7
 10
-145.06712
 20
-293.78268
 11
-145.06712
 21
-287.17111
  0
LINE
  8
0
  6
CONTINUOUS
 62
     7
 10
-145.06712
 20
-287.17111
 11
-133.56712
 21
-287.17111
  0
LINE
  8
0
  6
CONTINUOUS
 62
     7
 10
-133.56712
 20
-303.99298
 11
-133.56712
 21
-269.99298
  0
LINE
  8
0
  6
CONTINUOUS
 62
     7
 10
-145.06712
 20
-293.78268
 11
-133.56712
 21
-293.78268
  0
LINE
  8
0
  6
CONTINUOUS
 62
     7
 10
-168.06711
 20
-269.99298
 11
-167.56712
 21
-270.49295
  0
LINE
  8
0
  6
CONTINUOUS
 62
     7
 10
-168.06712
 20
-272.73157
 11
-168.06712
 21
-269.99298
  0
LINE
  8
0
  6
CONTINUOUS
 62
     7
 10
-168.06712
 20
-269.99298
 11
-179.56712
 21
-269.99298
  0
LINE
  8
0
  6
CONTINUOUS
 62
     7
 10
-168.06712
 20
-272.73157
 11
-179.56712
 21
-272.73157
  0
LINE
  8
0
  6
CONTINUOUS
 62
     7
 10
-168.06712
 20
-293.78268
 11
-168.06712
 21
-287.17111
  0
LINE
  8
0
  6
CONTINUOUS
 62
     7
 10
-168.06712
 20
-287.17111
 11
-179.56712
 21
-287.17111
  0
LINE
  8
0
  6
CONTINUOUS
 62
     7
 10
-179.56712
 20
-303.99298
 11
-179.56712
 21
-269.99298
  0
LINE
  8
0
  6
CONTINUOUS
 62
     7
 10
-168.06712
 20
-293.78268
 11
-179.56712
 21
-293.78268
  0
LINE
  8
0
  6
CONTINUOUS
 62
     7
 10
-167.56712
 20
-303.99298
 11
-167.56712
 21
-270.49298
  0
LINE
  8
0
  6
CONTINUOUS
 62
     7
 10
-145.56712
 20
-303.99298
 11
-145.56712
 21
-270.49298
  0
LINE
  8
0
  6
CONTINUOUS
 62
     7
 10
-167.56712
 20
-270.99542
 11
-163.56711
 21
-270.99542
  0
LINE
  8
0
  6
CONTINUOUS
 62
     7
 10
-149.56712
 20
-270.99542
 11
-145.56712
 21
-270.99542
  0
LINE
  8
0
  6
CONTINUOUS
 62
     7
 10
31.104975
 20
-344.08945
 11
34.604977
 21
-344.08945
  0
LINE
  8
0
  6
CONTINUOUS
 62
     7
 10
50.604977
 20
-344.08945
 11
54.104973
 21
-344.08945
  0
LINE
  8
0
  6
CONTINUOUS
 62
     7
 10
35.759674
 20
-276.32809
 11
42.604977
 21
-276.32809
  0
LINE
  8
0
  6
CONTINUOUS
 62
     7
 10
35.759674
 20
-276.32809
 11
35.759674
 21
-271.07407
  0
LINE
  8
0
  6
CONTINUOUS
 62
     7
 10
49.450275
 20
-300.2778
 11
42.604977
 21
-300.2778
  0
LINE
  8
0
  6
CONTINUOUS
 62
     7
 10
34.604973
 20
-262.99295
 11
35.759674
 21
-260.99295
  0
LINE
  8
0
  6
CONTINUOUS
 62
     7
 10
49.450275
 20
-303.99298
 11
49.450275
 21
-300.2778
  0
LINE
  8
0
  6
CONTINUOUS
 62
     7
 10
35.759674
 20
-260.99298
 11
42.604977
 21
-260.99298
  0
LINE
  8
0
  6
CONTINUOUS
 62
     7
 10
49.450275
 20
-271.07407
 11
42.604977
 21
-271.07407
  0
LINE
  8
0
  6
CONTINUOUS
 62
     7
 10
50.604977
 20
-262.99298
 11
50.604977
 21
-303.99298
  0
LINE
  8
0
  6
CONTINUOUS
 62
     7
 10
34.604977
 20
-262.99298
 11
34.604977
 21
-303.99298
  0
LINE
  8
0
  6
CONTINUOUS
 62
     7
 10
49.450275
 20
-260.99298
 11
42.604977
 21
-260.99298
  0
LINE
  8
0
  6
CONTINUOUS
 62
     7
 10
35.759674
 20
-271.07407
 11
42.604977
 21
-271.07407
  0
LINE
  8
0
  6
CONTINUOUS
 62
     7
 10
50.604973
 20
-262.99298
 11
49.450272
 21
-260.99298
  0
LINE
  8
0
  6
CONTINUOUS
 62
     7
 10
35.759674
 20
-303.99298
 11
35.759674
 21
-300.2778
  0
LINE
  8
0
  6
CONTINUOUS
 62
     7
 10
49.450275
 20
-276.32809
 11
42.604977
 21
-276.32809
  0
LINE
  8
0
  6
CONTINUOUS
 62
     7
 10
35.759674
 20
-300.2778
 11
42.604977
 21
-300.2778
  0
LINE
  8
0
  6
CONTINUOUS
 62
     7
 10
49.450275
 20
-276.32809
 11
49.450275
 21
-271.07407
  0
LINE
  8
0
  6
CONTINUOUS
 62
     7
 10
54.604973
 20
-262.99298
 11
69.604973
 21
-262.99298
  0
LINE
  8
0
  6
CONTINUOUS
 62
     7
 10
54.604977
 20
-262.99298
 11
54.104977
 21
-263.49298
  0
LINE
  8
0
  6
CONTINUOUS
 62
     7
 10
54.604973
 20
-265.83643
 11
54.604973
 21
-262.99298
  0
LINE
  8
0
  6
CONTINUOUS
 62
     7
 10
54.604973
 20
-265.83643
 11
69.604973
 21
-265.83643
  0
LINE
  8
0
  6
CONTINUOUS
 62
     7
 10
54.604973
 20
-291.03149
 11
69.604973
 21
-291.03149
  0
LINE
  8
0
  6
CONTINUOUS
 62
     7
 10
69.604973
 20
-303.99298
 11
69.604973
 21
-262.99298
  0
LINE
  8
0
  6
CONTINUOUS
 62
     7
 10
54.604973
 20
-284.16675
 11
69.604973
 21
-284.16675
  0
LINE
  8
0
  6
CONTINUOUS
 62
     7
 10
54.604973
 20
-291.03149
 11
54.604973
 21
-284.16675
  0
LINE
  8
0
  6
CONTINUOUS
 62
     7
 10
30.604975
 20
-262.99298
 11
15.604975
 21
-262.99298
  0
LINE
  8
0
  6
CONTINUOUS
 62
     7
 10
30.604973
 20
-262.99298
 11
31.104973
 21
-263.49298
  0
LINE
  8
0
  6
CONTINUOUS
 62
     7
 10
30.604975
 20
-265.83643
 11
30.604975
 21
-262.99298
  0
LINE
  8
0
  6
CONTINUOUS
 62
     7
 10
30.604975
 20
-265.83643
 11
15.604975
 21
-265.83643
  0
LINE
  8
0
  6
CONTINUOUS
 62
     7
 10
30.604975
 20
-291.03149
 11
15.604975
 21
-291.03149
  0
LINE
  8
0
  6
CONTINUOUS
 62
     7
 10
15.604975
 20
-303.99298
 11
15.604975
 21
-262.99298
  0
LINE
  8
0
  6
CONTINUOUS
 62
     7
 10
30.604975
 20
-284.16675
 11
15.604975
 21
-284.16675
  0
LINE
  8
0
  6
CONTINUOUS
 62
     7
 10
30.604975
 20
-291.03149
 11
30.604975
 21
-284.16675
  0
LINE
  8
0
  6
CONTINUOUS
 62
     7
 10
31.104975
 20
-303.99298
 11
31.104975
 21
-263.49298
  0
LINE
  8
0
  6
CONTINUOUS
 62
     7
 10
54.104973
 20
-303.99298
 11
54.104973
 21
-263.49298
  0
LINE
  8
0
  6
CONTINUOUS
 62
     7
 10
31.104975
 20
-263.89648
 11
34.604977
 21
-263.89648
  0
LINE
  8
0
  6
CONTINUOUS
 62
     7
 10
50.604977
 20
-263.89648
 11
54.104973
 21
-263.89648
  0
LINE
  8
0
  6
CENTER
 62
     7
 10
-271.30286
 20
53.652222
 11
-271.30286
 21
14.406738
  0
LINE
  8
0
  6
CENTER
 62
     7
 10
-289.78476
 20
35.228905
 11
-253.53673
 21
35.228905
  0
LINE
  8
0
  6
CONTINUOUS
 62
     7
 10
-255.60817
 20
35.228905
 11
-260.20502
 21
46.326721
  0
LINE
  8
0
  6
CONTINUOUS
 62
     7
 10
-260.20505
 20
46.326729
 11
-271.30286
 21
50.923592
  0
LINE
  8
0
  6
CONTINUOUS
 62
     7
 10
-282.40067
 20
46.326725
 11
-271.30286
 21
50.923592
  0
LINE
  8
0
  6
CONTINUOUS
 62
     7
 10
-286.99753
 20
35.228897
 11
-282.40067
 21
46.326721
  0
LINE
  8
0
  6
CONTINUOUS
 62
     7
 10
-282.40067
 20
24.131084
 11
-286.99753
 21
35.228901
  0
LINE
  8
0
  6
CONTINUOUS
 62
     7
 10
-271.30286
 20
19.534225
 11
-282.40067
 21
24.131086
  0
LINE
  8
0
  6
CONTINUOUS
 62
     7
 10
-260.20505
 20
24.131081
 11
-271.30286
 21
19.534212
  0
LINE
  8
0
  6
CONTINUOUS
 62
     7
 10
-255.60817
 20
35.228909
 11
-260.20505
 21
24.131084
  0
LINE
  8
0
  6
CENTER
 62
     7
 10
-169.34743
 20
35.228905
 11
-121.59962
 21
35.228905
  0
LINE
  8
0
  6
CONTINUOUS
 62
     7
 10
-126.89639
 20
35.228905
 11
-132.28583
 21
48.240143
  0
LINE
  8
0
  6
CONTINUOUS
 62
     7
 10
-132.28583
 20
48.240143
 11
-145.29706
 21
53.629574
  0
LINE
  8
0
  6
CONTINUOUS
 62
     7
 10
-158.30829
 20
48.240139
 11
-145.29706
 21
53.62957
  0
LINE
  8
0
  6
CONTINUOUS
 62
     7
 10
-163.69772
 20
35.228905
 11
-158.30829
 21
48.240139
  0
LINE
  8
0
  6
CONTINUOUS
 62
     7
 10
-158.3083
 20
22.217669
 11
-163.69772
 21
35.228905
  0
LINE
  8
0
  6
CONTINUOUS
 62
     7
 10
-145.29706
 20
16.828239
 11
-158.3083
 21
22.217672
  0
LINE
  8
0
  6
CONTINUOUS
 62
     7
 10
-132.28583
 20
22.217667
 11
-145.29706
 21
16.828236
  0
LINE
  8
0
  6
CONTINUOUS
 62
     7
 10
-126.89639
 20
35.228905
 11
-132.28581
 21
22.217667
  0
LINE
  8
0
  6
CENTER
 62
     7
 10
-38.714302
 20
35.228905
 11
19.546785
 21
35.228905
  0
LINE
  8
0
  6
CONTINUOUS
 62
     7
 10
13.864144
 20
35.228905
 11
7.0481
 21
51.684292
  0
LINE
  8
0
  6
CONTINUOUS
 62
     7
 10
7.0481
 20
51.684292
 11
-9.4072876
 21
58.500336
  0
LINE
  8
0
  6
CONTINUOUS
 62
     7
 10
-25.862677
 20
51.684292
 11
-9.4072876
 21
58.50034
  0
LINE
  8
0
  6
CONTINUOUS
 62
     7
 10
-32.678719
 20
35.228905
 11
-25.862673
 21
51.684296
  0
LINE
  8
0
  6
CONTINUOUS
 62
     7
 10
-25.862675
 20
18.773518
 11
-32.678719
 21
35.228905
  0
LINE
  8
0
  6
CONTINUOUS
 62
     7
 10
-9.4072876
 20
11.957473
 11
-25.862675
 21
18.773518
  0
LINE
  8
0
  6
CONTINUOUS
 62
     7
 10
7.0481
 20
18.773518
 11
-9.4072876
 21
11.957472
  0
LINE
  8
0
  6
CONTINUOUS
 62
     7
 10
13.864145
 20
35.228905
 11
7.0480995
 21
18.773516
  0
LINE
  8
0
  6
CENTER
 62
     7
 10
-290.68777
 20
-92.120468
 11
-225.56432
 21
-92.120468
  0
LINE
  8
0
  6
CONTINUOUS
 62
     7
 10
-230.80176
 20
-92.120468
 11
-238.56888
 21
-73.36898
  0
LINE
  8
0
  6
CONTINUOUS
 62
     7
 10
-238.56886
 20
-73.368973
 11
-257.32034
 21
-65.601852
  0
LINE
  8
0
  6
CONTINUOUS
 62
     7
 10
-276.07184
 20
-73.36898
 11
-257.32037
 21
-65.60186
  0
LINE
  8
0
  6
CONTINUOUS
 62
     7
 10
-283.83896
 20
-92.120461
 11
-276.07184
 21
-73.368973
  0
LINE
  8
0
  6
CONTINUOUS
 62
     7
 10
-276.07184
 20
-110.87196
 11
-283.83896
 21
-92.120468
  0
LINE
  8
0
  6
CONTINUOUS
 62
     7
 10
-257.32034
 20
-118.63907
 11
-276.07184
 21
-110.87195
  0
LINE
  8
0
  6
CONTINUOUS
 62
     7
 10
-238.56888
 20
-110.87196
 11
-257.32034
 21
-118.63908
  0
LINE
  8
0
  6
CONTINUOUS
 62
     7
 10
-230.80176
 20
-92.120468
 11
-238.56888
 21
-110.87195
  0
LINE
  8
0
  6
CENTER
 62
     7
 10
-108.74773
 20
-92.120468
 11
-35.827824
 21
-92.120468
  0
LINE
  8
0
  6
CONTINUOUS
 62
     7
 10
-40.38979
 20
-92.120468
 11
-49.742035
 21
-69.542145
  0
LINE
  8
0
  6
CONTINUOUS
 62
     7
 10
-49.742039
 20
-69.542137
 11
-72.320358
 21
-60.189892
  0
LINE
  8
0
  6
CONTINUOUS
 62
     7
 10
-94.898682
 20
-69.542145
 11
-72.320358
 21
-60.189896
  0
LINE
  8
0
  6
CONTINUOUS
 62
     7
 10
-104.25093
 20
-92.120468
 11
-94.898682
 21
-69.542137
  0
LINE
  8
0
  6
CONTINUOUS
 62
     7
 10
-94.898689
 20
-114.69879
 11
-104.25094
 21
-92.120468
  0
LINE
  8
0
  6
CONTINUOUS
 62
     7
 10
-72.320358
 20
-124.05103
 11
-94.898682
 21
-114.69878
  0
LINE
  8
0
  6
CONTINUOUS
 62
     7
 10
-49.742035
 20
-114.69879
 11
-72.320358
 21
-124.05104
  0
LINE
  8
0
  6
CONTINUOUS
 62
     7
 10
-40.38979
 20
-92.120461
 11
-49.742039
 21
-114.69879
  0
LINE
  8
0
  6
CENTER
 62
     7
 10
-294.38281
 20
-303.99298
 11
-204.58534
 21
-303.99298
  0
LINE
  8
0
  6
CONTINUOUS
 62
     7
 10
-210.76578
 20
-303.99298
 11
-221.54465
 21
-277.97049
  0
LINE
  8
0
  6
CONTINUOUS
 62
     7
 10
-221.54465
 20
-277.97049
 11
-247.56712
 21
-267.19162
  0
LINE
  8
0
  6
CONTINUOUS
 62
     7
 10
-273.58957
 20
-277.97049
 11
-247.56712
 21
-267.19165
  0
LINE
  8
0
  6
CONTINUOUS
 62
     7
 10
-284.36844
 20
-303.99295
 11
-273.5896
 21
-277.97049
  0
LINE
  8
0
  6
CONTINUOUS
 62
     7
 10
-273.5896
 20
-330.01544
 11
-284.36844
 21
-303.99298
  0
LINE
  8
0
  6
CONTINUOUS
 62
     7
 10
-247.56712
 20
-340.79431
 11
-273.5896
 21
-330.01544
  0
LINE
  8
0
  6
CONTINUOUS
 62
     7
 10
-221.54465
 20
-330.01544
 11
-247.56711
 21
-340.79431
  0
LINE
  8
0
  6
CONTINUOUS
 62
     7
 10
-210.76579
 20
-303.99298
 11
-221.54465
 21
-330.01544
  0
LINE
  8
0
  6
CENTER
 62
     7
 10
-106.38324
 20
-303.99298
 11
-7.4129171
 21
-303.99298
  0
LINE
  8
0
  6
CONTINUOUS
 62
     7
 10
-13.01694
 20
-303.99298
 11
-26.014986
 21
-272.61292
  0
LINE
  8
0
  6
CONTINUOUS
 62
     7
 10
-26.014988
 20
-272.61295
 11
-57.395031
 21
-259.6149
  0
LINE
  8
0
  6
CONTINUOUS
 62
     7
 10
-88.77507
 20
-272.61292
 11
-57.395027
 21
-259.61487
  0
LINE
  8
0
  6
CONTINUOUS
 62
     7
 10
-101.77311
 20
-303.99298
 11
-88.77507
 21
-272.61295
  0
LINE
  8
0
  6
CONTINUOUS
 62
     7
 10
-88.775063
 20
-335.37302
 11
-101.77311
 21
-303.99295
  0
LINE
  8
0
  6
CONTINUOUS
 62
     7
 10
-57.395027
 20
-348.37106
 11
-88.77507
 21
-335.37302
  0
LINE
  8
0
  6
CONTINUOUS
 62
     7
 10
-26.014978
 20
-335.37302
 11
-57.395023
 21
-348.37106
  0
LINE
  8
0
  6
CONTINUOUS
 62
     7
 10
-13.01695
 20
-303.99298
 11
-26.01499
 21
-335.37302
  0
LINE
  8
0
  6
CENTER
 62
     7
 10
-57.395027
 20
-253.78363
 11
-57.395027
 21
-353.71951
  0
LINE
  8
0
  6
CENTER
 62
     7
 10
-247.56712
 20
-260.54257
 11
-247.56712
 21
-345.51224
  0
LINE
  8
0
  6
CENTER
 62
     7
 10
-72.320358
 20
-56.493969
 11
-72.320358
 21
-126.98015
  0
LINE
  8
0
  6
CENTER
 62
     7
 10
-257.32037
 20
-63.089447
 11
-257.32037
 21
-122.71304
  0
LINE
  8
0
  6
CENTER
 62
     7
 10
-9.4072876
 20
61.053734
 11
-9.4072876
 21
9.3960543
  0
LINE
  8
0
  6
CENTER
 62
     7
 10
-145.29706
 20
57.552193
 11
-145.29706
 21
14.101809
  0
LINE
  8
0
  6
CENTER
 62
     7
 10
-401.50162
 20
119.69923
 11
-401.50162
 21
80.453743
  0
LINE
  8
0
  6
CENTER
 62
     7
 10
-419.98352
 20
101.27591
 11
-383.7355
 21
101.27591
  0
LINE
  8
0
  6
CONTINUOUS
 62
     7
 10
-385.80695
 20
101.27591
 11
-390.40381
 21
112.37373
  0
LINE
  8
0
  6
CONTINUOUS
 62
     7
 10
-390.40378
 20
112.37373
 11
-401.50162
 21
116.9706
  0
LINE
  8
0
  6
CONTINUOUS
 62
     7
 10
-412.59943
 20
112.37373
 11
-401.50162
 21
116.97059
  0
LINE
  8
0
  6
CONTINUOUS
 62
     7
 10
-417.19629
 20
101.27592
 11
-412.59943
 21
112.37373
  0
LINE
  8
0
  6
CONTINUOUS
 62
     7
 10
-412.59946
 20
90.178085
 11
-417.19632
 21
101.2759
  0
LINE
  8
0
  6
CONTINUOUS
 62
     7
 10
-401.50162
 20
85.581223
 11
-412.59946
 21
90.178093
  0
LINE
  8
0
  6
CONTINUOUS
 62
     7
 10
-390.40381
 20
90.178085
 11
-401.50162
 21
85.581223
  0
LINE
  8
0
  6
CONTINUOUS
 62
     7
 10
-385.80692
 20
101.27591
 11
-390.40381
 21
90.178093
  0
LINE
  8
0
  6
CENTER
 62
     7
 10
-425.552
 20
56.199329
 11
-377.8042
 21
56.199329
  0
LINE
  8
0
  6
CONTINUOUS
 62
     7
 10
-383.10095
 20
56.199326
 11
-388.49039
 21
69.210556
  0
LINE
  8
0
  6
CONTINUOUS
 62
     7
 10
-388.49039
 20
69.210571
 11
-401.50162
 21
74.599998
  0
LINE
  8
0
  6
CONTINUOUS
 62
     7
 10
-414.51285
 20
69.210564
 11
-401.50165
 21
74.599991
  0
LINE
  8
0
  6
CONTINUOUS
 62
     7
 10
-419.90228
 20
56.199326
 11
-414.51285
 21
69.210564
  0
LINE
  8
0
  6
CONTINUOUS
 62
     7
 10
-414.51288
 20
43.188091
 11
-419.90228
 21
56.199318
  0
LINE
  8
0
  6
CONTINUOUS
 62
     7
 10
-401.50162
 20
37.798664
 11
-414.51285
 21
43.188091
  0
LINE
  8
0
  6
CONTINUOUS
 62
     7
 10
-388.49039
 20
43.188084
 11
-401.50162
 21
37.798656
  0
LINE
  8
0
  6
CONTINUOUS
 62
     7
 10
-383.10095
 20
56.199326
 11
-388.49039
 21
43.188091
  0
LINE
  8
0
  6
CENTER
 62
     7
 10
-401.50162
 20
78.522614
 11
-401.50162
 21
35.072231
  0
LINE
  8
0
  6
CENTER
 62
     7
 10
-430.80862
 20
5.3851457
 11
-372.54755
 21
5.3851457
  0
LINE
  8
0
  6
CONTINUOUS
 62
     7
 10
-378.23019
 20
5.3851414
 11
-385.04623
 21
21.840534
  0
LINE
  8
0
  6
CONTINUOUS
 62
     7
 10
-385.04623
 20
21.840532
 11
-401.50162
 21
28.656578
  0
LINE
  8
0
  6
CONTINUOUS
 62
     7
 10
-417.957
 20
21.840536
 11
-401.50162
 21
28.656582
  0
LINE
  8
0
  6
CONTINUOUS
 62
     7
 10
-424.77307
 20
5.3851485
 11
-417.957
 21
21.84054
  0
LINE
  8
0
  6
CONTINUOUS
 62
     7
 10
-417.957
 20
-11.070247
 11
-424.77307
 21
5.3851457
  0
LINE
  8
0
  6
CONTINUOUS
 62
     7
 10
-401.50162
 20
-17.886288
 11
-417.957
 21
-11.070242
  0
LINE
  8
0
  6
CONTINUOUS
 62
     7
 10
-385.04623
 20
-11.070237
 11
-401.50162
 21
-17.886284
  0
LINE
  8
0
  6
CONTINUOUS
 62
     7
 10
-378.23019
 20
5.3851528
 11
-385.04623
 21
-11.070239
  0
LINE
  8
0
  6
CENTER
 62
     7
 10
-401.50162
 20
31.209974
 11
-401.50162
 21
-20.447704
  0
LINE
  8
0
  6
CENTER
 62
     7
 10
-434.86905
 20
-50.685677
 11
-369.74557
 21
-50.685677
  0
LINE
  8
0
  6
CONTINUOUS
 62
     7
 10
-374.983
 20
-50.685677
 11
-382.75012
 21
-31.934185
  0
LINE
  8
0
  6
CONTINUOUS
 62
     7
 10
-382.75012
 20
-31.934193
 11
-401.50162
 21
-24.167067
  0
LINE
  8
0
  6
CONTINUOUS
 62
     7
 10
-420.25308
 20
-31.934187
 11
-401.50162
 21
-24.167074
  0
LINE
  8
0
  6
CONTINUOUS
 62
     7
 10
-428.02023
 20
-50.685665
 11
-420.25311
 21
-31.934177
  0
LINE
  8
0
  6
CONTINUOUS
 62
     7
 10
-420.25311
 20
-69.437164
 11
-428.02023
 21
-50.685673
  0
LINE
  8
0
  6
CONTINUOUS
 62
     7
 10
-401.50162
 20
-77.204292
 11
-420.25311
 21
-69.437164
  0
LINE
  8
0
  6
CONTINUOUS
 62
     7
 10
-382.75012
 20
-69.437172
 11
-401.50162
 21
-77.204285
  0
LINE
  8
0
  6
CONTINUOUS
 62
     7
 10
-374.98303
 20
-50.685665
 11
-382.75015
 21
-69.437149
  0
LINE
  8
0
  6
CENTER
 62
     7
 10
-401.50162
 20
-21.654659
 11
-401.50162
 21
-81.278244
  0
LINE
  8
0
  6
CENTER
 62
     7
 10
-437.92899
 20
-137.66437
 11
-365.00909
 21
-137.66437
  0
LINE
  8
0
  6
CONTINUOUS
 62
     7
 10
-369.57104
 20
-137.66437
 11
-378.92331
 21
-115.08604
  0
LINE
  8
0
  6
CONTINUOUS
 62
     7
 10
-378.92331
 20
-115.08604
 11
-401.50162
 21
-105.7338
  0
LINE
  8
0
  6
CONTINUOUS
 62
     7
 10
-424.07996
 20
-115.08604
 11
-401.50162
 21
-105.7338
  0
LINE
  8
0
  6
CONTINUOUS
 62
     7
 10
-433.43219
 20
-137.66437
 11
-424.07996
 21
-115.08604
  0
LINE
  8
0
  6
CONTINUOUS
 62
     7
 10
-424.07996
 20
-160.24269
 11
-433.43219
 21
-137.66437
  0
LINE
  8
0
  6
CONTINUOUS
 62
     7
 10
-401.50162
 20
-169.59494
 11
-424.07996
 21
-160.24269
  0
LINE
  8
0
  6
CONTINUOUS
 62
     7
 10
-378.92331
 20
-160.24269
 11
-401.50162
 21
-169.59494
  0
LINE
  8
0
  6
CONTINUOUS
 62
     7
 10
-369.57104
 20
-137.66437
 11
-378.92331
 21
-160.24269
  0
LINE
  8
0
  6
CENTER
 62
     7
 10
-401.50162
 20
-102.03787
 11
-401.50162
 21
-172.52405
  0
LINE
  8
0
  6
CENTER
 62
     7
 10
-448.31732
 20
-241.56189
 11
-358.51984
 21
-241.56189
  0
LINE
  8
0
  6
CONTINUOUS
 62
     7
 10
-364.70029
 20
-241.56189
 11
-375.47916
 21
-215.53941
  0
LINE
  8
0
  6
CONTINUOUS
 62
     7
 10
-375.47913
 20
-215.53943
 11
-401.50162
 21
-204.76056
  0
LINE
  8
0
  6
CONTINUOUS
 62
     7
 10
-427.52408
 20
-215.53941
 11
-401.50162
 21
-204.76056
  0
LINE
  8
0
  6
CONTINUOUS
 62
     7
 10
-438.30298
 20
-241.56189
 11
-427.52411
 21
-215.5394
  0
LINE
  8
0
  6
CONTINUOUS
 62
     7
 10
-427.52408
 20
-267.58435
 11
-438.30295
 21
-241.56189
  0
LINE
  8
0
  6
CONTINUOUS
 62
     7
 10
-401.50162
 20
-278.36322
 11
-427.52411
 21
-267.58438
  0
LINE
  8
0
  6
CONTINUOUS
 62
     7
 10
-375.47916
 20
-267.58435
 11
-401.50162
 21
-278.36322
  0
LINE
  8
0
  6
CONTINUOUS
 62
     7
 10
-364.70029
 20
-241.56187
 11
-375.47916
 21
-267.58435
  0
LINE
  8
0
  6
CENTER
 62
     7
 10
-401.50162
 20
-198.1115
 11
-401.50162
 21
-283.08115
  0
LINE
  8
0
  6
CENTER
 62
     7
 10
-450.48984
 20
-347.29117
 11
-351.5195
 21
-347.29117
  0
LINE
  8
0
  6
CONTINUOUS
 62
     7
 10
-357.12354
 20
-347.29117
 11
-370.12158
 21
-315.9111
  0
LINE
  8
0
  6
CONTINUOUS
 62
     7
 10
-370.12158
 20
-315.9111
 11
-401.50162
 21
-302.91306
  0
LINE
  8
0
  6
CONTINUOUS
 62
     7
 10
-432.88165
 20
-315.9111
 11
-401.50162
 21
-302.91309
  0
LINE
  8
0
  6
CONTINUOUS
 62
     7
 10
-445.8797
 20
-347.29114
 11
-432.88165
 21
-315.9111
  0
LINE
  8
0
  6
CONTINUOUS
 62
     7
 10
-432.88162
 20
-378.67117
 11
-445.87967
 21
-347.29114
  0
LINE
  8
0
  6
CONTINUOUS
 62
     7
 10
-401.50165
 20
-391.66925
 11
-432.88168
 21
-378.6712
  0
LINE
  8
0
  6
CONTINUOUS
 62
     7
 10
-370.12158
 20
-378.6712
 11
-401.50162
 21
-391.66925
  0
LINE
  8
0
  6
CONTINUOUS
 62
     7
 10
-357.12354
 20
-347.29114
 11
-370.12158
 21
-378.6712
  0
LINE
  8
0
  6
CENTER
 62
     7
 10
-401.50162
 20
-297.08182
 11
-401.50162
 21
-397.0177
  0
ARC
  8
0
  6
CONTINUOUS
 62
     7
 10
-238.40675
 20
29.488647
 40
23.203888
 50
347.19201
 51
12.80799
  0
ARC
  8
0
  6
CONTINUOUS
 62
     7
 10
-219.44371
 20
21.36515
 40
4.2408442
 50
329.75278
 51
30.247216
  0
ARC
  8
0
  6
CONTINUOUS
 62
     7
 10
-203.19897
 20
29.488647
 40
23.203888
 50
167.19201
 51
192.80799
  0
ARC
  8
0
  6
CONTINUOUS
 62
     7
 10
-222.16202
 20
21.36515
 40
4.2408442
 50
149.75279
 51
210.24721
  0
ARC
  8
0
  6
CONTINUOUS
 62
     7
 10
-104.09666
 20
28.53194
 40
26.899603
 50
348.10769
 51
11.892309
  0
ARC
  8
0
  6
CONTINUOUS
 62
     7
 10
-61.497459
 20
28.53194
 40
26.899603
 50
168.10769
 51
191.89231
  0
ARC
  8
0
  6
CONTINUOUS
 62
     7
 10
-82.123322
 20
19.043007
 40
4.926271
 50
331.98208
 51
28.017919
  0
ARC
  8
0
  6
CONTINUOUS
 62
     7
 10
-83.470795
 20
19.043007
 40
4.926271
 50
151.98208
 51
208.01792
  0
ARC
  8
0
  6
CONTINUOUS
 62
     7
 10
59.830162
 20
14.849785
 40
6.2374468
 50
155.15372
 51
204.84628
  0
ARC
  8
0
  6
CONTINUOUS
 62
     7
 10
87.145439
 20
26.809864
 40
33.552727
 50
169.3557
 51
190.64431
  0
ARC
  8
0
  6
CONTINUOUS
 62
     7
 10
30.039978
 20
26.809864
 40
33.552727
 50
349.35569
 51
10.644305
  0
ARC
  8
0
  6
CONTINUOUS
 62
     7
 10
57.355255
 20
14.849785
 40
6.2374468
 50
335.15372
 51
24.846276
  0
ARC
  8
0
  6
CONTINUOUS
 62
     7
 10
-218.54738
 20
-101.8789
 40
38.72702
 50
350.09416
 51
9.9058404
  0
ARC
  8
0
  6
CONTINUOUS
 62
     7
 10
-187.13777
 20
-115.77015
 40
7.3179798
 50
337.07688
 51
22.923115
  0
ARC
  8
0
  6
CONTINUOUS
 62
     7
 10
-185.50294
 20
-115.77015
 40
7.3179798
 50
157.07688
 51
202.92312
  0
ARC
  8
0
  6
CONTINUOUS
 62
     7
 10
-154.09334
 20
-101.8789
 40
38.72702
 50
170.09415
 51
189.90584
  0
ARC
  8
0
  6
CONTINUOUS
 62
     7
 10
-38.304901
 20
-103.79231
 40
50.484554
 50
349.7938
 51
10.206205
  0
ARC
  8
0
  6
CONTINUOUS
 62
     7
 10
3.186964
 20
-120.2988
 40
8.9926729
 50
335.66712
 51
24.332877
  0
ARC
  8
0
  6
CONTINUOUS
 62
     7
 10
8.1723309
 20
-120.2988
 40
8.9926729
 50
155.66713
 51
204.33288
  0
ARC
  8
0
  6
CONTINUOUS
 62
     7
 10
49.664215
 20
-103.79231
 40
50.484554
 50
169.79379
 51
190.20621
  0
ARC
  8
0
  6
CONTINUOUS
 62
     7
 10
-111.75977
 20
-317.00421
 40
51.807339
 50
169.50907
 51
190.49093
  0
ARC
  8
0
  6
CONTINUOUS
 62
     7
 10
-159.22241
 20
-335.49527
 40
9.6557121
 50
335.5421
 51
24.457903
  0
ARC
  8
0
  6
CONTINUOUS
 62
     7
 10
-153.91182
 20
-335.49527
 40
9.6557121
 50
155.54209
 51
204.4579
  0
ARC
  8
0
  6
CONTINUOUS
 62
     7
 10
-201.37447
 20
-317.00421
 40
51.807339
 50
349.50907
 51
10.490934
  0
ARC
  8
0
  6
CONTINUOUS
 62
     7
 10
46.181107
 20
-341.95242
 40
11.57641
 50
154.1883
 51
205.8117
  0
ARC
  8
0
  6
CONTINUOUS
 62
     7
 10
-12.065083
 20
-319.68298
 40
62.670059
 50
348.98432
 51
11.015681
  0
ARC
  8
0
  6
CONTINUOUS
 62
     7
 10
39.028843
 20
-341.95242
 40
11.57641
 50
334.1883
 51
25.811698
  0
ARC
  8
0
  6
CONTINUOUS
 62
     7
 10
97.275032
 20
-319.68298
 40
62.670059
 50
168.98432
 51
191.01568
  0
ARC
  8
0
  6
CONTINUOUS
 62
     7
 10
-50.045563
 20
-112.98012
 40
45.625206
 50
351.50982
 51
8.4901796
  0
ARC
  8
0
  6
CONTINUOUS
 62
     7
 10
-95.420746
 20
-92.120468
 40
91.000397
 50
353.99104
 51
359.99999
  0
ARC
  8
0
  6
CONTINUOUS
 62
     7
 10
-16.32036
 20
-115.62047
 40
6
 50
179.99999
 51
270
  0
ARC
  8
0
  6
CONTINUOUS
 62
     7
 10
-204.30286
 20
24.728901
 40
4
 50
270
 51
0
  0
ARC
  8
0
  6
CONTINUOUS
 62
     7
 10
-200.20949
 20
24.975571
 40
11.59337
 50
163.11152
 51
196.88848
  0
ARC
  8
0
  6
CONTINUOUS
 62
     7
 10
-188.86232
 20
35.228897
 40
22.940548
 50
179.99999
 51
191.9843
  0
ARC
  8
0
  6
CONTINUOUS
 62
     7
 10
-237.30286
 20
24.728901
 40
4
 50
179.99999
 51
270
  0
ARC
  8
0
  6
CONTINUOUS
 62
     7
 10
-241.39622
 20
24.975571
 40
11.59337
 50
343.11152
 51
16.888485
  0
ARC
  8
0
  6
CONTINUOUS
 62
     7
 10
-252.74341
 20
35.228897
 40
22.940548
 50
348.0157
 51
8.6514222E-006
  0
ARC
  8
0
  6
CONTINUOUS
 62
     7
 10
-56.732826
 20
23.208088
 40
17.064236
 50
166.09586
 51
193.90414
  0
ARC
  8
0
  6
CONTINUOUS
 62
     7
 10
-39.918587
 20
35.228905
 40
33.878471
 50
180.00001
 51
189.85588
  0
ARC
  8
0
  6
CONTINUOUS
 62
     7
 10
-65.297058
 20
23.228901
 40
5
 50
270
 51
0
  0
ARC
  8
0
  6
CONTINUOUS
 62
     7
 10
-108.8613
 20
23.208088
 40
17.064236
 50
346.09586
 51
13.904143
  0
ARC
  8
0
  6
CONTINUOUS
 62
     7
 10
-125.67552
 20
35.228905
 40
33.878471
 50
350.14412
 51
359.99999
  0
ARC
  8
0
  6
CONTINUOUS
 62
     7
 10
-100.29706
 20
23.228901
 40
5
 50
179.99999
 51
270
  0
ARC
  8
0
  6
CONTINUOUS
 62
     7
 10
89.342705
 20
20.026104
 40
22.249998
 50
167.83045
 51
192.16954
  0
ARC
  8
0
  6
CONTINUOUS
 62
     7
 10
111.3427
 20
35.228897
 40
44.249989
 50
180.00001
 51
188.62136
  0
ARC
  8
0
  6
CONTINUOUS
 62
     7
 10
76.592705
 20
18.728901
 40
5
 50
270
 51
0
  0
ARC
  8
0
  6
CONTINUOUS
 62
     7
 10
27.842712
 20
20.026104
 40
22.249998
 50
347.83046
 51
12.169548
  0
ARC
  8
0
  6
CONTINUOUS
 62
     7
 10
5.84272
 20
35.228897
 40
44.249989
 50
351.37864
 51
359.99999
  0
ARC
  8
0
  6
CONTINUOUS
 62
     7
 10
40.592712
 20
18.728901
 40
5
 50
179.99999
 51
270
  0
ARC
  8
0
  6
CONTINUOUS
 62
     7
 10
-138.09534
 20
-109.44459
 40
38.125019
 50
170.71048
 51
189.28953
  0
ARC
  8
0
  6
CONTINUOUS
 62
     7
 10
-165.32036
 20
-111.62047
 40
5
 50
270
 51
0
  0
ARC
  8
0
  6
CONTINUOUS
 62
     7
 10
-100.22034
 20
-92.120476
 40
76.000023
 50
180.00001
 51
186.57588
  0
ARC
  8
0
  6
CONTINUOUS
 62
     7
 10
-234.54538
 20
-109.44459
 40
38.125019
 50
350.71047
 51
9.2895166
  0
ARC
  8
0
  6
CONTINUOUS
 62
     7
 10
-207.32036
 20
-111.62047
 40
5
 50
179.99999
 51
270
  0
ARC
  8
0
  6
CONTINUOUS
 62
     7
 10
-272.42038
 20
-92.120476
 40
76.000023
 50
353.42412
 51
359.99999
  0
ARC
  8
0
  6
CONTINUOUS
 62
     7
 10
61.404861
 20
-112.98012
 40
45.625206
 50
171.50982
 51
188.49018
  0
ARC
  8
0
  6
CONTINUOUS
 62
     7
 10
106.78006
 20
-92.120468
 40
91.000397
 50
180.00001
 51
186.00896
  0
ARC
  8
0
  6
CONTINUOUS
 62
     7
 10
27.679655
 20
-115.62047
 40
6
 50
270
 51
0
  0
ARC
  8
0
  6
CONTINUOUS
 62
     7
 10
-133.56712
 20
-329.99298
 40
8
 50
270
 51
0
  0
ARC
  8
0
  6
CONTINUOUS
 62
     7
 10
-93.192116
 20
-328.03461
 40
52.375008
 50
172.07669
 51
187.92331
  0
ARC
  8
0
  6
CONTINUOUS
 62
     7
 10
-41.067104
 20
-303.99298
 40
104.50002
 50
180.00001
 51
185.6071
  0
ARC
  8
0
  6
CONTINUOUS
 62
     7
 10
-179.56712
 20
-329.99298
 40
8
 50
179.99999
 51
270
  0
ARC
  8
0
  6
CONTINUOUS
 62
     7
 10
-219.94212
 20
-328.03461
 40
52.375008
 50
352.07669
 51
7.9233148
  0
ARC
  8
0
  6
CONTINUOUS
 62
     7
 10
-272.06714
 20
-303.99298
 40
104.50002
 50
354.3929
 51
359.99999
  0
ARC
  8
0
  6
CONTINUOUS
 62
     7
 10
69.604973
 20
-336.99298
 40
8
 50
270
 51
0
  0
ARC
  8
0
  6
CONTINUOUS
 62
     7
 10
222.35458
 20
-303.99298
 40
168.24962
 50
179.99999
 51
184.41828
  0
ARC
  8
0
  6
CONTINUOUS
 62
     7
 10
138.35478
 20
-332.98434
 40
84.249809
 50
173.7547
 51
186.24531
  0
ARC
  8
0
  6
CONTINUOUS
 62
     7
 10
15.604975
 20
-336.99298
 40
8
 50
179.99999
 51
270
  0
ARC
  8
0
  6
CONTINUOUS
 62
     7
 10
-137.14465
 20
-303.99298
 40
168.24962
 50
355.58172
 51
5.0089565E-006
  0
ARC
  8
0
  6
CONTINUOUS
 62
     7
 10
-53.144836
 20
-332.98434
 40
84.249809
 50
353.75469
 51
6.2453013
  0
ARC
  8
0
  6
CONTINUOUS
 62
     7
 10
-238.40675
 20
40.969162
 40
23.203888
 50
347.19201
 51
12.80799
  0
ARC
  8
0
  6
CONTINUOUS
 62
     7
 10
-219.44371
 20
49.092659
 40
4.2408442
 50
329.75278
 51
30.247216
  0
ARC
  8
0
  6
CONTINUOUS
 62
     7
 10
-203.19897
 20
40.969162
 40
23.203888
 50
167.19201
 51
192.80799
  0
ARC
  8
0
  6
CONTINUOUS
 62
     7
 10
-222.16202
 20
49.092659
 40
4.2408442
 50
149.75279
 51
210.24721
  0
ARC
  8
0
  6
CONTINUOUS
 62
     7
 10
-204.30286
 20
45.728909
 40
4
 50
0
 51
90.000003
  0
ARC
  8
0
  6
CONTINUOUS
 62
     7
 10
-200.20949
 20
45.482239
 40
11.59337
 50
163.11152
 51
196.88848
  0
ARC
  8
0
  6
CONTINUOUS
 62
     7
 10
-188.86232
 20
35.228912
 40
22.940548
 50
168.0157
 51
180.00001
  0
ARC
  8
0
  6
CONTINUOUS
 62
     7
 10
-237.30286
 20
45.728909
 40
4
 50
89.999996
 51
180.00001
  0
ARC
  8
0
  6
CONTINUOUS
 62
     7
 10
-241.39622
 20
45.482239
 40
11.59337
 50
343.11152
 51
16.888481
  0
ARC
  8
0
  6
CONTINUOUS
 62
     7
 10
-252.74341
 20
35.228912
 40
22.940548
 50
359.99999
 51
11.984296
  0
ARC
  8
0
  6
CONTINUOUS
 62
     7
 10
-104.09666
 20
41.925869
 40
26.899603
 50
348.10769
 51
11.892309
  0
ARC
  8
0
  6
CONTINUOUS
 62
     7
 10
-61.497459
 20
41.925869
 40
26.899603
 50
168.10769
 51
191.89231
  0
ARC
  8
0
  6
CONTINUOUS
 62
     7
 10
-82.123322
 20
51.414803
 40
4.926271
 50
331.98208
 51
28.017919
  0
ARC
  8
0
  6
CONTINUOUS
 62
     7
 10
-83.470795
 20
51.414803
 40
4.926271
 50
151.98208
 51
208.01792
  0
ARC
  8
0
  6
CONTINUOUS
 62
     7
 10
-56.732826
 20
47.249722
 40
17.064236
 50
166.09586
 51
193.90414
  0
ARC
  8
0
  6
CONTINUOUS
 62
     7
 10
-39.918587
 20
35.228905
 40
33.878471
 50
170.14412
 51
179.99999
  0
ARC
  8
0
  6
CONTINUOUS
 62
     7
 10
-65.297058
 20
47.228909
 40
5
 50
0
 51
90.000003
  0
ARC
  8
0
  6
CONTINUOUS
 62
     7
 10
-108.8613
 20
47.249722
 40
17.064236
 50
346.09586
 51
13.904139
  0
ARC
  8
0
  6
CONTINUOUS
 62
     7
 10
-125.67552
 20
35.228905
 40
33.878471
 50
8.6514222E-006
 51
9.8558759
  0
ARC
  8
0
  6
CONTINUOUS
 62
     7
 10
-100.29706
 20
47.228909
 40
5
 50
89.999996
 51
180.00001
  0
ARC
  8
0
  6
CONTINUOUS
 62
     7
 10
5.84272
 20
35.228912
 40
44.249989
 50
5.0089561E-006
 51
8.6213568
  0
ARC
  8
0
  6
CONTINUOUS
 62
     7
 10
40.592712
 20
51.728909
 40
5
 50
89.999996
 51
180.00001
  0
ARC
  8
0
  6
CONTINUOUS
 62
     7
 10
59.830162
 20
55.608025
 40
6.2374468
 50
155.15372
 51
204.84628
  0
ARC
  8
0
  6
CONTINUOUS
 62
     7
 10
87.145439
 20
43.647945
 40
33.552727
 50
169.35569
 51
190.64429
  0
ARC
  8
0
  6
CONTINUOUS
 62
     7
 10
30.039978
 20
43.647945
 40
33.552727
 50
349.35569
 51
10.644305
  0
ARC
  8
0
  6
CONTINUOUS
 62
     7
 10
57.355255
 20
55.608025
 40
6.2374468
 50
335.15372
 51
24.846276
  0
ARC
  8
0
  6
CONTINUOUS
 62
     7
 10
89.342705
 20
50.431705
 40
22.249998
 50
167.83045
 51
192.16954
  0
ARC
  8
0
  6
CONTINUOUS
 62
     7
 10
111.3427
 20
35.228912
 40
44.249989
 50
171.37864
 51
179.99999
  0
ARC
  8
0
  6
CONTINUOUS
 62
     7
 10
76.592705
 20
51.728909
 40
5
 50
0
 51
90.000003
  0
ARC
  8
0
  6
CONTINUOUS
 62
     7
 10
27.842712
 20
50.431705
 40
22.249998
 50
347.83045
 51
12.169544
  0
ARC
  8
0
  6
CONTINUOUS
 62
     7
 10
-207.32036
 20
-72.620461
 40
5
 50
89.999996
 51
180.00001
  0
ARC
  8
0
  6
CONTINUOUS
 62
     7
 10
-272.42038
 20
-92.120461
 40
76.000023
 50
5.0089561E-006
 51
6.575879
  0
ARC
  8
0
  6
CONTINUOUS
 62
     7
 10
-218.54738
 20
-82.362038
 40
38.72702
 50
350.09416
 51
9.9058404
  0
ARC
  8
0
  6
CONTINUOUS
 62
     7
 10
-187.13777
 20
-68.470787
 40
7.3179798
 50
337.07688
 51
22.923115
  0
ARC
  8
0
  6
CONTINUOUS
 62
     7
 10
-185.50294
 20
-68.470787
 40
7.3179798
 50
157.07688
 51
202.92312
  0
ARC
  8
0
  6
CONTINUOUS
 62
     7
 10
-154.09334
 20
-82.362038
 40
38.72702
 50
170.09415
 51
189.90584
  0
ARC
  8
0
  6
CONTINUOUS
 62
     7
 10
-138.09534
 20
-74.796349
 40
38.125019
 50
170.71047
 51
189.28951
  0
ARC
  8
0
  6
CONTINUOUS
 62
     7
 10
-165.32036
 20
-72.620461
 40
5
 50
0
 51
90.000003
  0
ARC
  8
0
  6
CONTINUOUS
 62
     7
 10
-100.22034
 20
-92.120461
 40
76.000023
 50
173.42412
 51
179.99999
  0
ARC
  8
0
  6
CONTINUOUS
 62
     7
 10
-234.54538
 20
-74.796349
 40
38.125019
 50
350.71048
 51
9.2895268
  0
ARC
  8
0
  6
CONTINUOUS
 62
     7
 10
27.679655
 20
-68.620468
 40
6
 50
0
 51
90.000003
  0
ARC
  8
0
  6
CONTINUOUS
 62
     7
 10
106.78006
 20
-92.120468
 40
91.000397
 50
173.99104
 51
179.99999
  0
ARC
  8
0
  6
CONTINUOUS
 62
     7
 10
-38.304901
 20
-80.448624
 40
50.484554
 50
349.7938
 51
10.206205
  0
ARC
  8
0
  6
CONTINUOUS
 62
     7
 10
3.186964
 20
-63.942135
 40
8.9926729
 50
335.66712
 51
24.332877
  0
ARC
  8
0
  6
CONTINUOUS
 62
     7
 10
8.1723309
 20
-63.942135
 40
8.9926729
 50
155.66711
 51
204.33287
  0
ARC
  8
0
  6
CONTINUOUS
 62
     7
 10
49.664215
 20
-80.448624
 40
50.484554
 50
169.79379
 51
190.20621
  0
ARC
  8
0
  6
CONTINUOUS
 62
     7
 10
-50.045563
 20
-71.260818
 40
45.625206
 50
351.50982
 51
8.4901761
  0
ARC
  8
0
  6
CONTINUOUS
 62
     7
 10
-95.420746
 20
-92.120468
 40
91.000397
 50
5.0089561E-006
 51
6.0089597
  0
ARC
  8
0
  6
CONTINUOUS
 62
     7
 10
-16.32036
 20
-68.620468
 40
6
 50
89.999996
 51
180.00001
  0
ARC
  8
0
  6
CONTINUOUS
 62
     7
 10
61.404861
 20
-71.260818
 40
45.625206
 50
171.50982
 51
188.49018
  0
ARC
  8
0
  6
CONTINUOUS
 62
     7
 10
-219.94212
 20
-279.95132
 40
52.375008
 50
352.07669
 51
7.9233114
  0
ARC
  8
0
  6
CONTINUOUS
 62
     7
 10
-272.06714
 20
-303.99298
 40
104.50002
 50
5.0089561E-006
 51
5.6070987
  0
ARC
  8
0
  6
CONTINUOUS
 62
     7
 10
-111.75977
 20
-290.98172
 40
51.807339
 50
169.50907
 51
190.49093
  0
ARC
  8
0
  6
CONTINUOUS
 62
     7
 10
-159.22241
 20
-272.49066
 40
9.6557121
 50
335.5421
 51
24.457903
  0
ARC
  8
0
  6
CONTINUOUS
 62
     7
 10
-153.91182
 20
-272.49066
 40
9.6557121
 50
155.54209
 51
204.4579
  0
ARC
  8
0
  6
CONTINUOUS
 62
     7
 10
-201.37447
 20
-290.98172
 40
51.807339
 50
349.50907
 51
10.490934
  0
ARC
  8
0
  6
CONTINUOUS
 62
     7
 10
-133.56712
 20
-277.99298
 40
8
 50
0
 51
90.000003
  0
ARC
  8
0
  6
CONTINUOUS
 62
     7
 10
-93.192116
 20
-279.95132
 40
52.375008
 50
172.07669
 51
187.92331
  0
ARC
  8
0
  6
CONTINUOUS
 62
     7
 10
-41.067104
 20
-303.99298
 40
104.50002
 50
174.3929
 51
179.99999
  0
ARC
  8
0
  6
CONTINUOUS
 62
     7
 10
-179.56712
 20
-277.99298
 40
8
 50
89.999996
 51
180.00001
  0
ARC
  8
0
  6
CONTINUOUS
 62
     7
 10
-137.14465
 20
-303.99298
 40
168.24962
 50
359.99999
 51
4.4182803
  0
ARC
  8
0
  6
CONTINUOUS
 62
     7
 10
-53.144836
 20
-275.00159
 40
84.249809
 50
353.7547
 51
6.2453115
  0
ARC
  8
0
  6
CONTINUOUS
 62
     7
 10
46.181107
 20
-266.03351
 40
11.57641
 50
154.1883
 51
205.8117
  0
ARC
  8
0
  6
CONTINUOUS
 62
     7
 10
-12.065083
 20
-288.30295
 40
62.670059
 50
348.98432
 51
11.015681
  0
ARC
  8
0
  6
CONTINUOUS
 62
     7
 10
39.028843
 20
-266.03351
 40
11.57641
 50
334.1883
 51
25.811698
  0
ARC
  8
0
  6
CONTINUOUS
 62
     7
 10
97.275032
 20
-288.30295
 40
62.670059
 50
168.98432
 51
191.01568
  0
ARC
  8
0
  6
CONTINUOUS
 62
     7
 10
69.604973
 20
-270.99298
 40
8
 50
0
 51
90.000003
  0
ARC
  8
0
  6
CONTINUOUS
 62
     7
 10
222.35458
 20
-303.99298
 40
168.24962
 50
175.58172
 51
180.00001
  0
ARC
  8
0
  6
CONTINUOUS
 62
     7
 10
138.35478
 20
-275.00159
 40
84.249809
 50
173.75468
 51
186.2453
  0
ARC
  8
0
  6
CONTINUOUS
 62
     7
 10
15.604975
 20
-270.99298
 40
8
 50
89.999996
 51
180.00001
  0
CIRCLE
  8
0
  6
CONTINUOUS
 62
     7
 10
-271.30286
 20
35.228905
 40
14.5
  0
CIRCLE
  8
0
  6
CONTINUOUS
 62
     7
 10
-271.30286
 20
35.228905
 40
8.0500002
  0
CIRCLE
  8
0
  6
CONTINUOUS
 62
     7
 10
-145.29706
 20
35.228905
 40
17
  0
CIRCLE
  8
0
  6
CONTINUOUS
 62
     7
 10
-145.29706
 20
35.228905
 40
11.25
  0
CIRCLE
  8
0
  6
CONTINUOUS
 62
     7
 10
-9.4072876
 20
35.228905
 40
21.5
  0
CIRCLE
  8
0
  6
CONTINUOUS
 62
     7
 10
-9.4072876
 20
35.228905
 40
14.4
  0
CIRCLE
  8
0
  6
CONTINUOUS
 62
     7
 10
-257.32037
 20
-92.120468
 40
24.5
  0
CIRCLE
  8
0
  6
CONTINUOUS
 62
     7
 10
-257.32037
 20
-92.120468
 40
17.25
  0
CIRCLE
  8
0
  6
CONTINUOUS
 62
     7
 10
-72.320358
 20
-92.120468
 40
29.5
  0
CIRCLE
  8
0
  6
CONTINUOUS
 62
     7
 10
-72.320358
 20
-92.120468
 40
21.65
  0
CIRCLE
  8
0
  6
CONTINUOUS
 62
     7
 10
-247.56712
 20
-303.99298
 40
34
  0
CIRCLE
  8
0
  6
CONTINUOUS
 62
     7
 10
-247.56712
 20
-303.99298
 40
24.65
  0
CIRCLE
  8
0
  6
CONTINUOUS
 62
     7
 10
-57.395027
 20
-303.99298
 40
41
  0
CIRCLE
  8
0
  6
CONTINUOUS
 62
     7
 10
-57.395027
 20
-303.99298
 40
30.65
  0
CIRCLE
  8
0
  6
CONTINUOUS
 62
     7
 10
-401.50162
 20
101.27591
 40
14.5
  0
CIRCLE
  8
0
  6
CONTINUOUS
 62
     7
 10
-401.50162
 20
101.27591
 40
8.0500002
  0
CIRCLE
  8
0
  6
CONTINUOUS
 62
     7
 10
-401.50162
 20
56.199329
 40
17
  0
CIRCLE
  8
0
  6
CONTINUOUS
 62
     7
 10
-401.50162
 20
56.199329
 40
11.25
  0
CIRCLE
  8
0
  6
CONTINUOUS
 62
     7
 10
-401.50162
 20
5.3851457
 40
21.5
  0
CIRCLE
  8
0
  6
CONTINUOUS
 62
     7
 10
-401.50162
 20
5.3851457
 40
14.4
  0
CIRCLE
  8
0
  6
CONTINUOUS
 62
     7
 10
-401.50162
 20
-50.685677
 40
24.5
  0
CIRCLE
  8
0
  6
CONTINUOUS
 62
     7
 10
-401.50162
 20
-50.685677
 40
17.25
  0
CIRCLE
  8
0
  6
CONTINUOUS
 62
     7
 10
-401.50162
 20
-137.66437
 40
29.5
  0
CIRCLE
  8
0
  6
CONTINUOUS
 62
     7
 10
-401.50162
 20
-137.66437
 40
21.65
  0
CIRCLE
  8
0
  6
CONTINUOUS
 62
     7
 10
-401.50162
 20
-241.56189
 40
34
  0
CIRCLE
  8
0
  6
CONTINUOUS
 62
     7
 10
-401.50162
 20
-241.56189
 40
24.65
  0
CIRCLE
  8
0
  6
CONTINUOUS
 62
     7
 10
-401.50162
 20
-347.29117
 40
41
  0
CIRCLE
  8
0
  6
CONTINUOUS
 62
     7
 10
-401.50162
 20
-347.29117
 40
30.65
  0
TEXT
  8
0
  6
CONTINUOUS
 62
     7
 10
-251.57482
 20
73.671974
 40
8
 41
1.0286249
  1
13
  0
TEXT
  8
0
  6
CONTINUOUS
 62
     7
 10
-120.72627
 20
76.691559
 40
8
 41
1.028625
  1
20
  0
TEXT
  8
0
  6
CONTINUOUS
 62
     7
 10
9.1157541
 20
79.711136
 40
8
 41
1.028625
  1
25
  0
TEXT
  8
0
  6
CONTINUOUS
 62
     7
 10
-234.46385
 20
-49.124359
 40
8
 41
1.028625
  1
30
  0
TEXT
  8
0
  6
CONTINUOUS
 62
     7
 10
-41.210611
 20
-43.085197
 40
8
 41
1.028625
  1
40
  0
TEXT
  8
0
  6
CONTINUOUS
 62
     7
 10
-214.33331
 20
-246.59953
 40
8
 41
1.028625
  1
50
  0
TEXT
  8
0
  6
CONTINUOUS
 62
     7
 10
-11.014792
 20
-236.53426
 40
8
 41
1.028625
  1
60
  0
TEXT
  8
0
  6
CONTINUOUS
 62
     7
 10
-448.18668
 20
100.9722
 40
3.2
 41
1.0285716
  1
13
  0
TEXT
  8
0
  6
CONTINUOUS
 62
     7
 10
-449.74558
 20
58.88214
 40
3.2
 41
1.0285716
  1
20
  0
TEXT
  8
0
  6
CONTINUOUS
 62
     7
 10
-452.86335
 20
7.4387392
 40
3.2
 41
1.0285716
  1
25
  0
TEXT
  8
0
  6
CONTINUOUS
 62
     7
 10
-450.52503
 20
-56.47579
 40
3.2
 41
1.0285716
  1
30
  0
TEXT
  8
0
  6
CONTINUOUS
 62
     7
 10
-450.18433
 20
-132.60479
 40
3.2
 41
1.0285716
  1
40
  0
TEXT
  8
0
  6
CONTINUOUS
 62
     7
 10
-443.42539
 20
-210.33271
 40
3.2
 41
1.0285716
  1
50
  0
TEXT
  8
0
  6
CONTINUOUS
 62
     7
 10
-450.54114
 20
-310.81277
 40
3.2
 41
1.0285716
  1
60
  0
TEXT
  8
0
  6
CONTINUOUS
 62
     7
 10
-282.77682
 20
118.76988
 40
8
 41
0.84306452
  1
コマサスフィット継手　ソケット
  0
POINT
  8
1
  6
CONTINUOUS
 62
     7
 10
-311.3107
 20
-470.71918
  0
POINT
  8
1
  6
CONTINUOUS
 62
     7
 10
-311.3107
 20
-153.71919
  0
POINT
  8
1
  6
CONTINUOUS
 62
     7
 10
-311.3107
 20
-767.71918
  0
POINT
  8
1
  6
CONTINUOUS
 62
     7
 10
108.68929
 20
-153.71919
  0
POINT
  8
1
  6
CONTINUOUS
 62
     7
 10
-311.3107
 20
-777.71918
  0
POINT
  8
1
  6
CONTINUOUS
 62
     7
 10
-311.3107
 20
143.28081
  0
POINT
  8
1
  6
CONTINUOUS
 62
     7
 10
-311.3107
 20
-153.71919
  0
POINT
  8
1
  6
CONTINUOUS
 62
     7
 10
-311.3107
 20
-163.71919
  0
POINT
  8
1
  6
CONTINUOUS
 62
     7
 10
-311.3107
 20
-163.71919
  0
POINT
  8
1
  6
CONTINUOUS
 62
     7
 10
-311.3107
 20
-460.71918
  0
POINT
  8
1
  6
CONTINUOUS
 62
     7
 10
-311.3107
 20
-470.71918
  0
LINE
  8
1
  6
CONTINUOUS
 62
     7
 10
108.68929
 20
143.28081
 11
108.68929
 21
-33.714287
  0
LINE
  8
1
  6
CONTINUOUS
 62
     2
 10
-311.3107
 20
-470.71918
 11
108.68929
 21
-470.71918
  0
LINE
  8
1
  6
CONTINUOUS
 62
     2
 10
-311.3107
 20
-470.71918
 11
-311.3107
 21
-767.71918
  0
LINE
  8
1
  6
CONTINUOUS
 62
     2
 10
-311.3107
 20
-767.71918
 11
108.68929
 21
-767.71918
  0
LINE
  8
1
  6
CONTINUOUS
 62
     2
 10
108.68929
 20
-470.71918
 11
108.68929
 21
-767.71918
  0
LINE
  8
1
  6
CONTINUOUS
 62
     2
 10
-311.3107
 20
143.28081
 11
-311.3107
 21
-153.71919
  0
LINE
  8
1
  6
CONTINUOUS
 62
     2
 10
-311.3107
 20
-153.71919
 11
108.68929
 21
-153.71919
  0
LINE
  8
1
  6
CONTINUOUS
 62
     2
 10
108.68929
 20
143.28081
 11
108.68929
 21
-153.71919
  0
LINE
  8
1
  6
CONTINUOUS
 62
     2
 10
-311.3107
 20
143.28081
 11
108.68929
 21
143.28081
  0
LINE
  8
1
  6
CONTINUOUS
 62
     2
 10
-311.3107
 20
-163.71919
 11
-311.3107
 21
-460.71918
  0
LINE
  8
1
  6
CONTINUOUS
 62
     2
 10
-311.3107
 20
-460.71918
 11
108.68929
 21
-460.71918
  0
LINE
  8
1
  6
CONTINUOUS
 62
     2
 10
108.68929
 20
-163.71919
 11
108.68929
 21
-460.71918
  0
LINE
  8
1
  6
CONTINUOUS
 62
     2
 10
-311.3107
 20
-163.71919
 11
108.68929
 21
-163.71919
  0
ENDSEC
  0
EOF
