  0
SECTION
  2
HEADER
  9
$EXTMAX
 10
108.92817
 20
144.14287
  9
$EXTMIN
 10
-311.07183
 20
-153.71428
  0
ENDSEC
  0
SECTION
  2
TABLES
  0
TABLE
  2
LTYPE
 70
    22
  0
LTYPE
  2
CONTINUOUS
 70
    64
  3
Solid line
 72
    65
 73
     0
 40
0.000000
  0
LTYPE
  2
DASHED
 70
    64
  3
__ __ __ __ __ __ __ __ __ __ __ __ __ __ __
 72
    65
 73
     2
 40
3.500000
 49
2.000000
 49
-1.500000
  0
LTYPE
  2
CENTER
 70
    64
  3
____ _ ____ _ ____ _ ____ _ ____ _ ____ _ ____
 72
    65
 73
     4
 40
17.500000
 49
13.000000
 49
-1.500000
 49
1.500000
 49
-1.500000
  0
LTYPE
  2
PHANTOM
 70
    64
  3
_____ _ _ _____ _ _ _____ _ _ _____ _ _ ____  
 72
    65
 73
     6
 40
15.500000
 49
8.000000
 49
-1.500000
 49
1.500000
 49
-1.500000
 49
1.500000
 49
-1.500000
  0
LTYPE
  2
DOT
 70
    64
  3
. . . . . . . . . . . . . . . . . . . . . . . .
 72
    65
 73
     2
 40
0.25
 49
0.0
 49
-0.25
  0
ENDTAB
  0
TABLE
  2
LAYER
 70
     2
  0
LAYER
  2
0
 70
     0
 62
     7
  6
CONTINUOUS
  0
LAYER
  2
1
 70
     0
 62
     7
  6
CONTINUOUS
  0
ENDTAB
  0
TABLE
  2
STYLE
 70
     1
  0
STYLE
  2
STANDARD
 70
     0
 40
0.000000
 41
1.000000
 50
0.000000
 71
     0
 42
0.200000
  3
txt
  4
BIGFONT
  0
ENDTAB
  0
TABLE
  2
VIEW
 70
     0
  0
ENDTAB
  0
ENDSEC
  0
SECTION
  2
BLOCKS
  0
ENDSEC
  0
SECTION
  2
ENTITIES
  0
POINT
  8
0
  6
CONTINUOUS
 62
     7
 10
-233.85565
 20
35.15295
  0
POINT
  8
0
  6
CONTINUOUS
 62
     7
 10
-111.97831
 20
35.220261
  0
POINT
  8
0
  6
CONTINUOUS
 62
     7
 10
20.589766
 20
35.220261
  0
POINT
  8
0
  6
CONTINUOUS
 62
     7
 10
-229.49149
 20
-74.396065
  0
POINT
  8
0
  6
CONTINUOUS
 62
     7
 10
-99.37307
 20
-75.570946
  0
POINT
  8
0
  6
CONTINUOUS
 62
     7
 10
28.917585
 20
-75.954994
  0
POINT
  8
0
  6
CONTINUOUS
 62
     7
 10
-201.77542
 20
-266.54904
  0
POINT
  8
0
  6
CONTINUOUS
 62
     7
 10
-27.515577
 20
-266.37405
  0
POINT
  8
0
  6
CONTINUOUS
 62
     7
 10
-28.866617
 20
-389.31882
  0
POINT
  8
0
  6
CONTINUOUS
 62
     7
 10
-203.48869
 20
-389.31882
  0
POINT
  8
0
  6
CONTINUOUS
 62
     7
 10
-219.47537
 20
-557.64594
  0
POINT
  8
0
  6
CONTINUOUS
 62
     7
 10
-37.084816
 20
-557.64594
  0
POINT
  8
0
  6
CONTINUOUS
 62
     7
 10
-217.44881
 20
-689.37244
  0
POINT
  8
0
  6
CONTINUOUS
 62
     7
 10
-29.654091
 20
-689.37244
  0
POINT
  8
0
  6
CONTINUOUS
 62
     7
 10
-215.31763
 20
-875.23108
  0
POINT
  8
0
  6
CONTINUOUS
 62
     7
 10
-12.754446
 20
-875.23108
  0
POINT
  8
0
  6
CONTINUOUS
 62
     7
 10
-215.76779
 20
-1019.8866
  0
POINT
  8
0
  6
CONTINUOUS
 62
     7
 10
-14.881471
 20
-1019.2158
  0
POINT
  8
0
  6
CONTINUOUS
 62
     7
 10
-213.3054
 20
-1187.1248
  0
POINT
  8
0
  6
CONTINUOUS
 62
     7
 10
-12.419077
 20
-1188.4662
  0
POINT
  8
0
  6
CONTINUOUS
 62
     7
 10
-202.29822
 20
-1499.2566
  0
LINE
  8
0
  6
CENTER
 62
     7
 10
-401.50162
 20
119.69923
 11
-401.50162
 21
80.453743
  0
LINE
  8
0
  6
CENTER
 62
     7
 10
-419.98352
 20
101.27591
 11
-383.7355
 21
101.27591
  0
LINE
  8
0
  6
CONTINUOUS
 62
     7
 10
-385.80695
 20
101.27591
 11
-390.40381
 21
112.37373
  0
LINE
  8
0
  6
CONTINUOUS
 62
     7
 10
-390.40378
 20
112.37373
 11
-401.50162
 21
116.9706
  0
LINE
  8
0
  6
CONTINUOUS
 62
     7
 10
-412.59943
 20
112.37373
 11
-401.50162
 21
116.97059
  0
LINE
  8
0
  6
CONTINUOUS
 62
     7
 10
-417.19629
 20
101.27592
 11
-412.59943
 21
112.37373
  0
LINE
  8
0
  6
CONTINUOUS
 62
     7
 10
-412.59946
 20
90.178085
 11
-417.19632
 21
101.2759
  0
LINE
  8
0
  6
CONTINUOUS
 62
     7
 10
-401.50162
 20
85.581223
 11
-412.59946
 21
90.178093
  0
LINE
  8
0
  6
CONTINUOUS
 62
     7
 10
-390.40381
 20
90.178085
 11
-401.50162
 21
85.581223
  0
LINE
  8
0
  6
CONTINUOUS
 62
     7
 10
-385.80692
 20
101.27591
 11
-390.40381
 21
90.178093
  0
LINE
  8
0
  6
CENTER
 62
     7
 10
-425.552
 20
56.199329
 11
-377.8042
 21
56.199329
  0
LINE
  8
0
  6
CONTINUOUS
 62
     7
 10
-383.10095
 20
56.199326
 11
-388.49039
 21
69.210556
  0
LINE
  8
0
  6
CONTINUOUS
 62
     7
 10
-388.49039
 20
69.210571
 11
-401.50162
 21
74.599998
  0
LINE
  8
0
  6
CONTINUOUS
 62
     7
 10
-414.51285
 20
69.210564
 11
-401.50165
 21
74.599991
  0
LINE
  8
0
  6
CONTINUOUS
 62
     7
 10
-419.90228
 20
56.199326
 11
-414.51285
 21
69.210564
  0
LINE
  8
0
  6
CONTINUOUS
 62
     7
 10
-414.51288
 20
43.188091
 11
-419.90228
 21
56.199318
  0
LINE
  8
0
  6
CONTINUOUS
 62
     7
 10
-401.50162
 20
37.798664
 11
-414.51285
 21
43.188091
  0
LINE
  8
0
  6
CONTINUOUS
 62
     7
 10
-388.49039
 20
43.188084
 11
-401.50162
 21
37.798656
  0
LINE
  8
0
  6
CONTINUOUS
 62
     7
 10
-383.10095
 20
56.199326
 11
-388.49039
 21
43.188091
  0
LINE
  8
0
  6
CENTER
 62
     7
 10
-401.50162
 20
78.522614
 11
-401.50162
 21
35.072231
  0
LINE
  8
0
  6
CENTER
 62
     7
 10
-430.80862
 20
5.3851457
 11
-372.54755
 21
5.3851457
  0
LINE
  8
0
  6
CONTINUOUS
 62
     7
 10
-378.23019
 20
5.3851414
 11
-385.04623
 21
21.840534
  0
LINE
  8
0
  6
CONTINUOUS
 62
     7
 10
-385.04623
 20
21.840532
 11
-401.50162
 21
28.656578
  0
LINE
  8
0
  6
CONTINUOUS
 62
     7
 10
-417.957
 20
21.840536
 11
-401.50162
 21
28.656582
  0
LINE
  8
0
  6
CONTINUOUS
 62
     7
 10
-424.77307
 20
5.3851485
 11
-417.957
 21
21.84054
  0
LINE
  8
0
  6
CONTINUOUS
 62
     7
 10
-417.957
 20
-11.070247
 11
-424.77307
 21
5.3851457
  0
LINE
  8
0
  6
CONTINUOUS
 62
     7
 10
-401.50162
 20
-17.886288
 11
-417.957
 21
-11.070242
  0
LINE
  8
0
  6
CONTINUOUS
 62
     7
 10
-385.04623
 20
-11.070237
 11
-401.50162
 21
-17.886284
  0
LINE
  8
0
  6
CONTINUOUS
 62
     7
 10
-378.23019
 20
5.3851528
 11
-385.04623
 21
-11.070239
  0
LINE
  8
0
  6
CENTER
 62
     7
 10
-401.50162
 20
31.209974
 11
-401.50162
 21
-20.447704
  0
LINE
  8
0
  6
CENTER
 62
     7
 10
-434.86905
 20
-50.685677
 11
-369.74557
 21
-50.685677
  0
LINE
  8
0
  6
CONTINUOUS
 62
     7
 10
-374.983
 20
-50.685677
 11
-382.75012
 21
-31.934185
  0
LINE
  8
0
  6
CONTINUOUS
 62
     7
 10
-382.75012
 20
-31.934193
 11
-401.50162
 21
-24.167067
  0
LINE
  8
0
  6
CONTINUOUS
 62
     7
 10
-420.25308
 20
-31.934187
 11
-401.50162
 21
-24.167074
  0
LINE
  8
0
  6
CONTINUOUS
 62
     7
 10
-428.02023
 20
-50.685665
 11
-420.25311
 21
-31.934177
  0
LINE
  8
0
  6
CONTINUOUS
 62
     7
 10
-420.25311
 20
-69.437164
 11
-428.02023
 21
-50.685673
  0
LINE
  8
0
  6
CONTINUOUS
 62
     7
 10
-401.50162
 20
-77.204292
 11
-420.25311
 21
-69.437164
  0
LINE
  8
0
  6
CONTINUOUS
 62
     7
 10
-382.75012
 20
-69.437172
 11
-401.50162
 21
-77.204285
  0
LINE
  8
0
  6
CONTINUOUS
 62
     7
 10
-374.98303
 20
-50.685665
 11
-382.75015
 21
-69.437149
  0
LINE
  8
0
  6
CENTER
 62
     7
 10
-401.50162
 20
-21.654659
 11
-401.50162
 21
-81.278244
  0
LINE
  8
0
  6
CENTER
 62
     7
 10
-437.92899
 20
-137.66437
 11
-365.00909
 21
-137.66437
  0
LINE
  8
0
  6
CONTINUOUS
 62
     7
 10
-369.57104
 20
-137.66437
 11
-378.92331
 21
-115.08604
  0
LINE
  8
0
  6
CONTINUOUS
 62
     7
 10
-378.92331
 20
-115.08604
 11
-401.50162
 21
-105.7338
  0
LINE
  8
0
  6
CONTINUOUS
 62
     7
 10
-424.07996
 20
-115.08604
 11
-401.50162
 21
-105.7338
  0
LINE
  8
0
  6
CONTINUOUS
 62
     7
 10
-433.43219
 20
-137.66437
 11
-424.07996
 21
-115.08604
  0
LINE
  8
0
  6
CONTINUOUS
 62
     7
 10
-424.07996
 20
-160.24269
 11
-433.43219
 21
-137.66437
  0
LINE
  8
0
  6
CONTINUOUS
 62
     7
 10
-401.50162
 20
-169.59494
 11
-424.07996
 21
-160.24269
  0
LINE
  8
0
  6
CONTINUOUS
 62
     7
 10
-378.92331
 20
-160.24269
 11
-401.50162
 21
-169.59494
  0
LINE
  8
0
  6
CONTINUOUS
 62
     7
 10
-369.57104
 20
-137.66437
 11
-378.92331
 21
-160.24269
  0
LINE
  8
0
  6
CENTER
 62
     7
 10
-401.50162
 20
-102.03787
 11
-401.50162
 21
-172.52405
  0
LINE
  8
0
  6
CENTER
 62
     7
 10
-448.31732
 20
-241.56189
 11
-358.51984
 21
-241.56189
  0
LINE
  8
0
  6
CONTINUOUS
 62
     7
 10
-364.70029
 20
-241.56189
 11
-375.47916
 21
-215.53941
  0
LINE
  8
0
  6
CONTINUOUS
 62
     7
 10
-375.47913
 20
-215.53943
 11
-401.50162
 21
-204.76056
  0
LINE
  8
0
  6
CONTINUOUS
 62
     7
 10
-427.52408
 20
-215.53941
 11
-401.50162
 21
-204.76056
  0
LINE
  8
0
  6
CONTINUOUS
 62
     7
 10
-438.30298
 20
-241.56189
 11
-427.52411
 21
-215.5394
  0
LINE
  8
0
  6
CONTINUOUS
 62
     7
 10
-427.52408
 20
-267.58435
 11
-438.30295
 21
-241.56189
  0
LINE
  8
0
  6
CONTINUOUS
 62
     7
 10
-401.50162
 20
-278.36322
 11
-427.52411
 21
-267.58438
  0
LINE
  8
0
  6
CONTINUOUS
 62
     7
 10
-375.47916
 20
-267.58435
 11
-401.50162
 21
-278.36322
  0
LINE
  8
0
  6
CONTINUOUS
 62
     7
 10
-364.70029
 20
-241.56187
 11
-375.47916
 21
-267.58435
  0
LINE
  8
0
  6
CENTER
 62
     7
 10
-401.50162
 20
-198.1115
 11
-401.50162
 21
-283.08115
  0
LINE
  8
0
  6
CENTER
 62
     7
 10
-450.48984
 20
-347.29117
 11
-351.5195
 21
-347.29117
  0
LINE
  8
0
  6
CONTINUOUS
 62
     7
 10
-357.12354
 20
-347.29117
 11
-370.12158
 21
-315.9111
  0
LINE
  8
0
  6
CONTINUOUS
 62
     7
 10
-370.12158
 20
-315.9111
 11
-401.50162
 21
-302.91306
  0
LINE
  8
0
  6
CONTINUOUS
 62
     7
 10
-432.88165
 20
-315.9111
 11
-401.50162
 21
-302.91309
  0
LINE
  8
0
  6
CONTINUOUS
 62
     7
 10
-445.8797
 20
-347.29114
 11
-432.88165
 21
-315.9111
  0
LINE
  8
0
  6
CONTINUOUS
 62
     7
 10
-432.88162
 20
-378.67117
 11
-445.87967
 21
-347.29114
  0
LINE
  8
0
  6
CONTINUOUS
 62
     7
 10
-401.50165
 20
-391.66925
 11
-432.88168
 21
-378.6712
  0
LINE
  8
0
  6
CONTINUOUS
 62
     7
 10
-370.12158
 20
-378.6712
 11
-401.50162
 21
-391.66925
  0
LINE
  8
0
  6
CONTINUOUS
 62
     7
 10
-357.12354
 20
-347.29114
 11
-370.12158
 21
-378.6712
  0
LINE
  8
0
  6
CENTER
 62
     7
 10
-401.50162
 20
-297.08182
 11
-401.50162
 21
-397.0177
  0
LINE
  8
0
  6
CENTER
 62
     7
 10
-233.85565
 20
73.112953
 11
-233.85565
 21
11.39955
  0
LINE
  8
0
  6
CENTER
 62
     7
 10
-188.61432
 20
35.15295
 11
-276.49136
 21
35.15295
  0
LINE
  8
0
  6
CONTINUOUS
 62
     7
 10
-218.85565
 20
55.752953
 11
-218.85565
 21
54.652954
  0
LINE
  8
0
  6
CONTINUOUS
 62
     7
 10
-211.75565
 20
52.152954
 11
-211.75565
 21
35.15295
  0
LINE
  8
0
  6
CONTINUOUS
 62
     7
 10
-219.35565
 20
56.252953
 11
-233.85565
 21
56.252953
  0
LINE
  8
0
  6
CONTINUOUS
 62
     7
 10
-219.77173
 20
22.65295
 11
-233.85565
 21
22.65295
  0
LINE
  8
0
  6
CONTINUOUS
 62
     7
 10
-212.25565
 20
17.65295
 11
-213.75565
 21
17.65295
  0
LINE
  8
0
  6
CONTINUOUS
 62
     7
 10
-211.75565
 20
18.15295
 11
-211.75565
 21
35.15295
  0
LINE
  8
0
  6
CONTINUOUS
 62
     7
 10
-219.35564
 20
56.25296
 11
-218.85564
 21
55.75296
  0
LINE
  8
0
  6
CONTINUOUS
 62
     7
 10
-212.25566
 20
52.65295
 11
-211.75566
 21
52.152946
  0
LINE
  8
0
  6
CONTINUOUS
 62
     7
 10
-211.75565
 20
18.152939
 11
-212.25565
 21
17.652948
  0
LINE
  8
0
  6
CONTINUOUS
 62
     7
 10
-216.85565
 20
52.652954
 11
-212.25565
 21
52.652954
  0
LINE
  8
0
  6
CONTINUOUS
 62
     7
 10
-213.75565
 20
52.652954
 11
-213.75565
 21
35.15295
  0
LINE
  8
0
  6
CONTINUOUS
 62
     7
 10
-213.75565
 20
17.65295
 11
-213.75565
 21
35.15295
  0
LINE
  8
0
  6
CONTINUOUS
 62
     7
 10
-218.85565
 20
54.256142
 11
-233.85565
 21
54.256142
  0
LINE
  8
0
  6
CONTINUOUS
 62
     7
 10
-96.97831
 20
62.220261
 11
-96.97831
 21
60.220261
  0
LINE
  8
0
  6
CENTER
 62
     7
 10
-59.531292
 20
35.220261
 11
-160.72798
 21
35.220261
  0
LINE
  8
0
  6
CENTER
 62
     7
 10
-111.97831
 20
82.177528
 11
-111.97831
 21
11.466853
  0
LINE
  8
0
  6
CONTINUOUS
 62
     7
 10
-94.97831
 20
50.720261
 11
-91.960426
 21
50.720261
  0
LINE
  8
0
  6
CONTINUOUS
 62
     7
 10
-93.97831
 20
57.220261
 11
-83.47831
 21
57.220261
  0
LINE
  8
0
  6
CONTINUOUS
 62
     7
 10
-82.97831
 20
35.220261
 11
-82.97831
 21
13.720263
  0
LINE
  8
0
  6
CONTINUOUS
 62
     7
 10
-83.47831
 20
13.220263
 11
-84.97831
 21
13.220263
  0
LINE
  8
0
  6
CONTINUOUS
 62
     7
 10
-91.960426
 20
19.720261
 11
-111.97831
 21
19.720261
  0
LINE
  8
0
  6
CONTINUOUS
 62
     7
 10
-97.47831
 20
62.720261
 11
-111.97831
 21
62.720261
  0
LINE
  8
0
  6
CONTINUOUS
 62
     7
 10
-97.478294
 20
62.720268
 11
-96.978294
 21
62.220264
  0
LINE
  8
0
  6
CONTINUOUS
 62
     7
 10
-83.478294
 20
57.220261
 11
-82.978302
 21
56.720272
  0
LINE
  8
0
  6
CONTINUOUS
 62
     7
 10
-82.97831
 20
56.720261
 11
-82.97831
 21
35.220261
  0
LINE
  8
0
  6
CONTINUOUS
 62
     7
 10
-83.47831
 20
13.220256
 11
-82.978294
 21
13.720267
  0
LINE
  8
0
  6
CONTINUOUS
 62
     7
 10
-84.97831
 20
56.720261
 11
-84.97831
 21
35.220261
  0
LINE
  8
0
  6
CONTINUOUS
 62
     7
 10
-84.978279
 20
35.220261
 11
-84.978279
 21
13.220263
  0
LINE
  8
0
  6
CONTINUOUS
 62
     7
 10
-96.97831
 20
60.723663
 11
-111.97831
 21
60.723663
  0
LINE
  8
0
  6
CENTER
 62
     7
 10
73.036758
 20
35.220261
 11
-28.159929
 21
35.220261
  0
LINE
  8
0
  6
CENTER
 62
     7
 10
20.589766
 20
82.177528
 11
20.589766
 21
11.466853
  0
LINE
  8
0
  6
CONTINUOUS
 62
     7
 10
37.589756
 20
64.320259
 11
38.089767
 21
63.820251
  0
LINE
  8
0
  6
CONTINUOUS
 62
     7
 10
49.089756
 20
57.220257
 11
49.589767
 21
56.720245
  0
LINE
  8
0
  6
CONTINUOUS
 62
     7
 10
49.089764
 20
57.220261
 11
41.089764
 21
57.220261
  0
LINE
  8
0
  6
CONTINUOUS
 62
     7
 10
49.589764
 20
56.720261
 11
49.589764
 21
54.720261
  0
LINE
  8
0
  6
CONTINUOUS
 62
     7
 10
37.589764
 20
64.320259
 11
20.589766
 21
64.320259
  0
LINE
  8
0
  6
CONTINUOUS
 62
     7
 10
49.089771
 20
13.220272
 11
49.58976
 21
13.720262
  0
LINE
  8
0
  6
CONTINUOUS
 62
     7
 10
49.589764
 20
35.220261
 11
49.589764
 21
13.720263
  0
LINE
  8
0
  6
CONTINUOUS
 62
     7
 10
40.607647
 20
19.720261
 11
20.589766
 21
19.720261
  0
LINE
  8
0
  6
CONTINUOUS
 62
     7
 10
49.589764
 20
56.720261
 11
49.589764
 21
35.220261
  0
LINE
  8
0
  6
CONTINUOUS
 62
     7
 10
38.089764
 20
63.820259
 11
38.089764
 21
60.220261
  0
LINE
  8
0
  6
CENTER
 62
     7
 10
-171.59998
 20
-74.396065
 11
-290.17587
 21
-74.396065
  0
LINE
  8
0
  6
CENTER
 62
     7
 10
-229.49149
 20
-31.182487
 11
-229.49149
 21
-98.149467
  0
LINE
  8
0
  6
CONTINUOUS
 62
     7
 10
-214.9915
 20
-43.296082
 11
-214.4915
 21
-43.796082
  0
LINE
  8
0
  6
CONTINUOUS
 62
     7
 10
-214.49149
 20
-43.796062
 11
-214.49149
 21
-44.896065
  0
LINE
  8
0
  6
CONTINUOUS
 62
     7
 10
-210.49149
 20
-48.896065
 11
-196.49149
 21
-48.896065
  0
LINE
  8
0
  6
CONTINUOUS
 62
     7
 10
-196.49149
 20
-48.896076
 11
-195.99149
 21
-49.396076
  0
LINE
  8
0
  6
CONTINUOUS
 62
     7
 10
-195.99149
 20
-49.396061
 11
-195.99149
 21
-74.396065
  0
LINE
  8
0
  6
CONTINUOUS
 62
     7
 10
-195.99149
 20
-99.396065
 11
-195.99149
 21
-74.396065
  0
LINE
  8
0
  6
CONTINUOUS
 62
     7
 10
-196.49149
 20
-99.896065
 11
-195.99149
 21
-99.396057
  0
LINE
  8
0
  6
CONTINUOUS
 62
     7
 10
-198.49149
 20
-99.896057
 11
-196.49149
 21
-99.896057
  0
LINE
  8
0
  6
CONTINUOUS
 62
     7
 10
-214.99149
 20
-43.296062
 11
-229.49149
 21
-43.296062
  0
LINE
  8
0
  6
CONTINUOUS
 62
     7
 10
-205.4736
 20
-93.396065
 11
-229.49149
 21
-93.396065
  0
LINE
  8
0
  6
CONTINUOUS
 62
     7
 10
-214.49149
 20
-55.396065
 11
-205.49149
 21
-55.396065
  0
LINE
  8
0
  6
CONTINUOUS
 62
     7
 10
47.607647
 20
57.220261
 11
47.607647
 21
35.220261
  0
LINE
  8
0
  6
CONTINUOUS
 62
     7
 10
47.589764
 20
35.220261
 11
47.589764
 21
13.720263
  0
LINE
  8
0
  6
CONTINUOUS
 62
     7
 10
38.089764
 20
62.320259
 11
20.589766
 21
62.320259
  0
LINE
  8
0
  6
CONTINUOUS
 62
     7
 10
-198.49149
 20
-48.896065
 11
-198.49149
 21
-74.396065
  0
LINE
  8
0
  6
CONTINUOUS
 62
     7
 10
-198.49149
 20
-99.396065
 11
-198.49149
 21
-74.396065
  0
LINE
  8
0
  6
CONTINUOUS
 62
     7
 10
-214.49149
 20
-45.296062
 11
-229.49149
 21
-45.296062
  0
LINE
  8
0
  6
CENTER
 62
     7
 10
-41.3876
 20
-75.570946
 11
-158.3231
 21
-75.570946
  0
LINE
  8
0
  6
CENTER
 62
     7
 10
-99.37307
 20
-21.599804
 11
-99.37307
 21
-99.324356
  0
LINE
  8
0
  6
CONTINUOUS
 62
     7
 10
-66.373055
 20
-50.070942
 11
-65.873055
 21
-50.570942
  0
LINE
  8
0
  6
CONTINUOUS
 62
     7
 10
-65.87307
 20
-50.570946
 11
-65.87307
 21
-75.570946
  0
LINE
  8
0
  6
CONTINUOUS
 62
     7
 10
-65.87307
 20
-100.57095
 11
-65.87307
 21
-75.570946
  0
LINE
  8
0
  6
CONTINUOUS
 62
     7
 10
-66.373055
 20
-101.07095
 11
-65.873062
 21
-100.57097
  0
LINE
  8
0
  6
CONTINUOUS
 62
     7
 10
-75.355186
 20
-94.570946
 11
-99.37307
 21
-94.570946
  0
LINE
  8
0
  6
CONTINUOUS
 62
     7
 10
-82.373039
 20
-44.470947
 11
-99.37307
 21
-44.470947
  0
LINE
  8
0
  6
CONTINUOUS
 62
     7
 10
-82.373055
 20
-44.470947
 11
-81.873055
 21
-44.970947
  0
LINE
  8
0
  6
PHANTOM
 62
     7
 10
-86.37307
 20
-52.280422
 11
-86.37307
 21
-52.57095
  0
LINE
  8
0
  6
CONTINUOUS
 62
     7
 10
-81.87307
 20
-44.970947
 11
-81.87307
 21
-46.070953
  0
LINE
  8
0
  6
CONTINUOUS
 62
     7
 10
-66.37307
 20
-50.070953
 11
-77.87307
 21
-50.070953
  0
LINE
  8
0
  6
CONTINUOUS
 62
     7
 10
-82.37307
 20
-56.570946
 11
-75.37307
 21
-56.570946
  0
LINE
  8
0
  6
CONTINUOUS
 62
     7
 10
-68.390923
 20
-50.570946
 11
-68.390923
 21
-75.570946
  0
LINE
  8
0
  6
CONTINUOUS
 62
     7
 10
-68.373039
 20
-100.57095
 11
-68.373039
 21
-75.570946
  0
LINE
  8
0
  6
CONTINUOUS
 62
     7
 10
-81.87307
 20
-46.470947
 11
-99.37307
 21
-46.470947
  0
LINE
  8
0
  6
CENTER
 62
     7
 10
91.237991
 20
-75.954994
 11
-31.169115
 21
-75.954994
  0
LINE
  8
0
  6
CENTER
 62
     7
 10
28.917585
 20
-26.007576
 11
28.917585
 21
-99.708405
  0
LINE
  8
0
  6
CONTINUOUS
 62
     7
 10
61.917603
 20
-50.454987
 11
62.417591
 21
-50.954975
  0
LINE
  8
0
  6
CONTINUOUS
 62
     7
 10
62.417614
 20
-50.954994
 11
62.417614
 21
-75.954994
  0
LINE
  8
0
  6
CONTINUOUS
 62
     7
 10
62.417614
 20
-100.955
 11
62.417614
 21
-75.954994
  0
LINE
  8
0
  6
CONTINUOUS
 62
     7
 10
61.91758
 20
-101.455
 11
62.417591
 21
-100.95499
  0
LINE
  8
0
  6
CONTINUOUS
 62
     7
 10
59.917614
 20
-101.45499
 11
61.917614
 21
-101.45499
  0
LINE
  8
0
  6
CONTINUOUS
 62
     7
 10
52.935467
 20
-94.955002
 11
28.917585
 21
-94.955002
  0
LINE
  8
0
  6
CONTINUOUS
 62
     7
 10
50.41758
 20
-46.955013
 11
50.917568
 21
-47.455006
  0
LINE
  8
0
  6
CONTINUOUS
 62
     7
 10
61.917553
 20
-50.455002
 11
52.917583
 21
-50.455002
  0
LINE
  8
0
  6
CONTINUOUS
 62
     7
 10
50.417583
 20
-46.954998
 11
28.917585
 21
-46.954998
  0
LINE
  8
0
  6
CONTINUOUS
 62
     7
 10
44.917583
 20
-53.954998
 11
44.917583
 21
-53.954998
  0
LINE
  8
0
  6
CONTINUOUS
 62
     7
 10
48.413006
 20
-56.954998
 11
52.917583
 21
-56.954998
  0
LINE
  8
0
  6
CONTINUOUS
 62
     7
 10
50.917583
 20
-47.454998
 11
50.917583
 21
-48.455002
  0
LINE
  8
0
  6
CONTINUOUS
 62
     7
 10
50.917583
 20
-48.954998
 11
28.917585
 21
-48.954998
  0
LINE
  8
0
  6
CONTINUOUS
 62
     7
 10
59.899731
 20
-50.954994
 11
59.899731
 21
-75.954994
  0
LINE
  8
0
  6
CONTINUOUS
 62
     7
 10
59.917614
 20
-101.45499
 11
59.917614
 21
-75.954994
  0
LINE
  8
0
  6
CENTER
 62
     7
 10
-201.77542
 20
-217.85472
 11
-201.77542
 21
-295.2695
  0
LINE
  8
0
  6
CONTINUOUS
 62
     7
 10
-187.27542
 20
-230.44908
 11
-186.77542
 21
-230.94908
  0
LINE
  8
0
  6
CONTINUOUS
 62
     7
 10
-186.77542
 20
-230.94905
 11
-186.77542
 21
-232.04906
  0
LINE
  8
0
  6
CONTINUOUS
 62
     7
 10
-187.27542
 20
-230.44905
 11
-201.77542
 21
-230.44905
  0
LINE
  8
0
  6
CONTINUOUS
 62
     7
 10
-190.3754
 20
-219.54906
 11
-201.77542
 21
-219.54906
  0
LINE
  8
0
  6
CONTINUOUS
 62
     7
 10
-186.77542
 20
-243.54906
 11
-171.77542
 21
-243.54906
  0
LINE
  8
0
  6
CONTINUOUS
 62
     7
 10
-164.77542
 20
-236.04906
 11
-164.77542
 21
-236.54906
  0
LINE
  8
0
  6
CONTINUOUS
 62
     7
 10
-171.77542
 20
-289.54904
 11
-201.77542
 21
-289.54904
  0
LINE
  8
0
  6
CONTINUOUS
 62
     7
 10
-162.27545
 20
-296.54907
 11
-162.77545
 21
-297.04904
  0
LINE
  8
0
  6
CONTINUOUS
 62
     7
 10
-162.27544
 20
-236.54906
 11
-162.77544
 21
-236.04906
  0
LINE
  8
0
  6
CONTINUOUS
 62
     7
 10
-164.77542
 20
-297.04907
 11
-162.77542
 21
-297.04907
  0
LINE
  8
0
  6
CONTINUOUS
 62
     7
 10
-182.77542
 20
-236.04906
 11
-162.77542
 21
-236.04906
  0
LINE
  8
0
  6
CONTINUOUS
 62
     7
 10
-162.27542
 20
-296.54907
 11
-162.27542
 21
-266.54904
  0
LINE
  8
0
  6
CONTINUOUS
 62
     7
 10
-162.27542
 20
-236.54906
 11
-162.27542
 21
-266.54904
  0
LINE
  8
0
  6
CENTER
 62
     7
 10
-132.13489
 20
-266.54904
 11
-269.75497
 21
-266.54904
  0
LINE
  8
0
  6
CENTER
 62
     7
 10
-27.515577
 20
-209.21268
 11
-27.515577
 21
-295.09451
  0
LINE
  8
0
  6
CONTINUOUS
 62
     7
 10
-27.515577
 20
-230.32307
 11
-10.515578
 21
-230.32307
  0
LINE
  8
0
  6
CONTINUOUS
 62
     7
 10
-10.015578
 20
-230.82307
 11
-10.015578
 21
-231.87405
  0
LINE
  8
0
  6
CONTINUOUS
 62
     7
 10
-10.515569
 20
-230.32307
 11
-10.015557
 21
-230.82309
  0
LINE
  8
0
  6
CONTINUOUS
 62
     7
 10
11.984422
 20
-296.37405
 11
11.984422
 21
-266.37405
  0
LINE
  8
0
  6
CONTINUOUS
 62
     7
 10
11.984422
 20
-236.37405
 11
11.984422
 21
-266.37405
  0
LINE
  8
0
  6
CENTER
 62
     7
 10
41.567123
 20
-266.37405
 11
-96.468765
 21
-266.37405
  0
LINE
  8
0
  6
CONTINUOUS
 62
     7
 10
2.484422
 20
-289.37405
 11
-27.515577
 21
-289.37405
  0
LINE
  8
0
  6
CONTINUOUS
 62
     7
 10
11.984431
 20
-296.37405
 11
11.48442
 21
-296.87408
  0
LINE
  8
0
  6
CONTINUOUS
 62
     7
 10
9.4844217
 20
-296.87405
 11
11.484422
 21
-296.87405
  0
LINE
  8
0
  6
CONTINUOUS
 62
     7
 10
11.984432
 20
-236.37405
 11
11.484421
 21
-235.87405
  0
LINE
  8
0
  6
CONTINUOUS
 62
     7
 10
-6.0155778
 20
-235.87405
 11
11.484422
 21
-235.87405
  0
LINE
  8
0
  6
CONTINUOUS
 62
     7
 10
-9.5155783
 20
-243.37405
 11
2.484422
 21
-243.37405
  0
LINE
  8
0
  6
CONTINUOUS
 62
     7
 10
9.4844217
 20
-235.87405
 11
9.4844217
 21
-236.37405
  0
LINE
  8
0
  6
CONTINUOUS
 62
     7
 10
-164.77542
 20
-236.54906
 11
-164.77542
 21
-266.54904
  0
LINE
  8
0
  6
CONTINUOUS
 62
     7
 10
-164.79327
 20
-296.54907
 11
-164.79327
 21
-266.54904
  0
LINE
  8
0
  6
CONTINUOUS
 62
     7
 10
-186.77542
 20
-232.44905
 11
-201.77542
 21
-232.44905
  0
LINE
  8
0
  6
CONTINUOUS
 62
     7
 10
-14.515578
 20
-238.13254
 11
-14.515578
 21
-238.47406
  0
LINE
  8
0
  6
CONTINUOUS
 62
     7
 10
-27.515577
 20
-232.32307
 11
-10.015578
 21
-232.32307
  0
LINE
  8
0
  6
CONTINUOUS
 62
     7
 10
9.4844217
 20
-236.37405
 11
9.4844217
 21
-266.37405
  0
LINE
  8
0
  6
CONTINUOUS
 62
     7
 10
9.4665384
 20
-296.37405
 11
9.4665384
 21
-266.37405
  0
LINE
  8
0
  6
CONTINUOUS
 62
     7
 10
-27.515577
 20
-213.42307
 11
-15.515578
 21
-213.42307
  0
LINE
  8
0
  6
CONTINUOUS
 62
     7
 10
-27.515577
 20
-218.42307
 11
-10.515578
 21
-218.42307
  0
LINE
  8
0
  6
CONTINUOUS
 62
     7
 10
-21.716566
 20
-226.42308
 11
-21.716566
 21
-218.42307
  0
LINE
  8
0
  6
CONTINUOUS
 62
     7
 10
-21.716566
 20
-226.42308
 11
-19.595259
 21
-226.42308
  0
LINE
  8
0
  6
CONTINUOUS
 62
     7
 10
-11.39424
 20
-226.42308
 11
-10.515578
 21
-226.42308
  0
LINE
  8
0
  6
CONTINUOUS
 62
     7
 10
-11.39424
 20
-226.42308
 11
-11.39424
 21
-218.42307
  0
LINE
  8
0
  6
CONTINUOUS
 62
     7
 10
-10.515578
 20
-226.42307
 11
-10.515578
 21
-218.42307
  0
LINE
  8
0
  6
CONTINUOUS
 62
     7
 10
-10.515569
 20
-226.42307
 11
-11.01558
 21
-226.92308
  0
LINE
  8
0
  6
CONTINUOUS
 62
     7
 10
-19.595259
 20
-226.42308
 11
-19.595259
 21
-218.42307
  0
LINE
  8
0
  6
CONTINUOUS
 62
     7
 10
-207.85565
 20
27.232639
 11
-199.85565
 21
27.232639
  0
LINE
  8
0
  6
CONTINUOUS
 62
     7
 10
-207.85564
 20
18.152939
 11
-208.35564
 21
18.652939
  0
LINE
  8
0
  6
CONTINUOUS
 62
     7
 10
-207.85565
 20
18.15295
 11
-199.85565
 21
18.15295
  0
LINE
  8
0
  6
CONTINUOUS
 62
     7
 10
-207.85565
 20
19.031635
 11
-199.85565
 21
19.031635
  0
LINE
  8
0
  6
CONTINUOUS
 62
     7
 10
-207.85565
 20
19.031635
 11
-207.85565
 21
18.15295
  0
LINE
  8
0
  6
CONTINUOUS
 62
     7
 10
-207.85565
 20
29.353962
 11
-207.85565
 21
27.232639
  0
LINE
  8
0
  6
CONTINUOUS
 62
     7
 10
-207.85565
 20
29.353962
 11
-199.85565
 21
29.353962
  0
LINE
  8
0
  6
CONTINUOUS
 62
     7
 10
-208.35565
 20
35.15295
 11
-208.35565
 21
18.65295
  0
LINE
  8
0
  6
CONTINUOUS
 62
     7
 10
-199.85565
 20
35.15295
 11
-199.85565
 21
18.15295
  0
LINE
  8
0
  6
CONTINUOUS
 62
     7
 10
-194.85565
 20
35.15295
 11
-194.85565
 21
23.15295
  0
LINE
  8
0
  6
CONTINUOUS
 62
     7
 10
-194.85565
 20
35.15295
 11
-194.85565
 21
47.15295
  0
LINE
  8
0
  6
CONTINUOUS
 62
     7
 10
-199.85565
 20
35.15295
 11
-199.85565
 21
52.152954
  0
LINE
  8
0
  6
CONTINUOUS
 62
     7
 10
-208.35565
 20
35.15295
 11
-208.35565
 21
51.652954
  0
LINE
  8
0
  6
CONTINUOUS
 62
     7
 10
-207.85565
 20
40.951939
 11
-199.85565
 21
40.951939
  0
LINE
  8
0
  6
CONTINUOUS
 62
     7
 10
-207.85565
 20
40.951939
 11
-207.85565
 21
43.073261
  0
LINE
  8
0
  6
CONTINUOUS
 62
     7
 10
-207.85565
 20
51.274277
 11
-207.85565
 21
52.152954
  0
LINE
  8
0
  6
CONTINUOUS
 62
     7
 10
-207.85565
 20
51.274277
 11
-199.85565
 21
51.274277
  0
LINE
  8
0
  6
CONTINUOUS
 62
     7
 10
-207.85565
 20
52.152954
 11
-199.85565
 21
52.152954
  0
LINE
  8
0
  6
CONTINUOUS
 62
     7
 10
-207.85565
 20
52.15295
 11
-208.35567
 21
51.652939
  0
LINE
  8
0
  6
CONTINUOUS
 62
     7
 10
-207.85565
 20
43.073261
 11
-199.85565
 21
43.073261
  0
LINE
  8
0
  6
CONTINUOUS
 62
     7
 10
-78.978279
 20
28.587013
 11
-69.978279
 21
28.587013
  0
LINE
  8
0
  6
CONTINUOUS
 62
     7
 10
-78.978279
 20
24.707878
 11
-69.978279
 21
24.707878
  0
LINE
  8
0
  6
CONTINUOUS
 62
     7
 10
-69.978279
 20
35.220261
 11
-69.978279
 21
13.720271
  0
LINE
  8
0
  6
CONTINUOUS
 62
     7
 10
-64.978279
 20
35.220261
 11
-64.978279
 21
18.720268
  0
LINE
  8
0
  6
CONTINUOUS
 62
     7
 10
-78.978279
 20
13.720271
 11
-69.978279
 21
13.720271
  0
LINE
  8
0
  6
CONTINUOUS
 62
     7
 10
-78.978279
 20
28.587013
 11
-78.978279
 21
24.707878
  0
LINE
  8
0
  6
CONTINUOUS
 62
     7
 10
-78.978279
 20
15.327052
 11
-78.978279
 21
13.720271
  0
LINE
  8
0
  6
CONTINUOUS
 62
     7
 10
-79.478294
 20
14.220268
 11
-78.978294
 21
13.720267
  0
LINE
  8
0
  6
CONTINUOUS
 62
     7
 10
-79.478279
 20
35.220261
 11
-79.478279
 21
14.220271
  0
LINE
  8
0
  6
CONTINUOUS
 62
     7
 10
-78.978279
 20
15.327052
 11
-69.978279
 21
15.327052
  0
LINE
  8
0
  6
CONTINUOUS
 62
     7
 10
-78.978279
 20
41.853508
 11
-69.978279
 21
41.853508
  0
LINE
  8
0
  6
CONTINUOUS
 62
     7
 10
-78.978279
 20
55.113472
 11
-69.978279
 21
55.113472
  0
LINE
  8
0
  6
CONTINUOUS
 62
     7
 10
-79.478279
 20
35.220261
 11
-79.478279
 21
56.220261
  0
LINE
  8
0
  6
CONTINUOUS
 62
     7
 10
-79.478294
 20
56.220249
 11
-78.978287
 21
56.720261
  0
LINE
  8
0
  6
CONTINUOUS
 62
     7
 10
-78.978279
 20
55.113472
 11
-78.978279
 21
56.720261
  0
LINE
  8
0
  6
CONTINUOUS
 62
     7
 10
-78.978279
 20
41.853508
 11
-78.978279
 21
45.732643
  0
LINE
  8
0
  6
CONTINUOUS
 62
     7
 10
-78.978279
 20
56.720261
 11
-69.978279
 21
56.720261
  0
LINE
  8
0
  6
CONTINUOUS
 62
     7
 10
-64.978279
 20
35.220261
 11
-64.978279
 21
51.720261
  0
LINE
  8
0
  6
CONTINUOUS
 62
     7
 10
-69.978279
 20
35.220261
 11
-69.978279
 21
56.720261
  0
LINE
  8
0
  6
CONTINUOUS
 62
     7
 10
-78.978279
 20
45.732643
 11
-69.978279
 21
45.732643
  0
LINE
  8
0
  6
CONTINUOUS
 62
     7
 10
53.589764
 20
28.587013
 11
62.589794
 21
28.587013
  0
LINE
  8
0
  6
CONTINUOUS
 62
     7
 10
53.589764
 20
24.707878
 11
62.589794
 21
24.707878
  0
LINE
  8
0
  6
CONTINUOUS
 62
     7
 10
62.589794
 20
35.220261
 11
62.589794
 21
13.720271
  0
LINE
  8
0
  6
CONTINUOUS
 62
     7
 10
67.589798
 20
35.220261
 11
67.589798
 21
18.720268
  0
LINE
  8
0
  6
CONTINUOUS
 62
     7
 10
53.589764
 20
13.720271
 11
62.589794
 21
13.720271
  0
LINE
  8
0
  6
CONTINUOUS
 62
     7
 10
53.589764
 20
28.587013
 11
53.589764
 21
24.707878
  0
LINE
  8
0
  6
CONTINUOUS
 62
     7
 10
53.589764
 20
15.327052
 11
53.589764
 21
13.720271
  0
LINE
  8
0
  6
CONTINUOUS
 62
     7
 10
53.089775
 20
14.220252
 11
53.589764
 21
13.720263
  0
LINE
  8
0
  6
CONTINUOUS
 62
     7
 10
53.089764
 20
35.220261
 11
53.089764
 21
14.220271
  0
LINE
  8
0
  6
CONTINUOUS
 62
     7
 10
53.589764
 20
15.327052
 11
62.589794
 21
15.327052
  0
LINE
  8
0
  6
CONTINUOUS
 62
     7
 10
53.589764
 20
41.853508
 11
62.589794
 21
41.853508
  0
LINE
  8
0
  6
CONTINUOUS
 62
     7
 10
53.589764
 20
55.113472
 11
62.589794
 21
55.113472
  0
LINE
  8
0
  6
CONTINUOUS
 62
     7
 10
53.089764
 20
35.220261
 11
53.089764
 21
56.220261
  0
LINE
  8
0
  6
CONTINUOUS
 62
     7
 10
53.089783
 20
56.220253
 11
53.589771
 21
56.720245
  0
LINE
  8
0
  6
CONTINUOUS
 62
     7
 10
53.589764
 20
55.113472
 11
53.589764
 21
56.720261
  0
LINE
  8
0
  6
CONTINUOUS
 62
     7
 10
53.589764
 20
41.853508
 11
53.589764
 21
45.732643
  0
LINE
  8
0
  6
CONTINUOUS
 62
     7
 10
53.589764
 20
56.720261
 11
62.589794
 21
56.720261
  0
LINE
  8
0
  6
CONTINUOUS
 62
     7
 10
67.589798
 20
35.220261
 11
67.589798
 21
51.720261
  0
LINE
  8
0
  6
CONTINUOUS
 62
     7
 10
62.589794
 20
35.220261
 11
62.589794
 21
56.720261
  0
LINE
  8
0
  6
CONTINUOUS
 62
     7
 10
53.589764
 20
45.732643
 11
62.589794
 21
45.732643
  0
LINE
  8
0
  6
CONTINUOUS
 62
     7
 10
-191.89148
 20
-63.226215
 11
-181.49149
 21
-63.226215
  0
LINE
  8
0
  6
CONTINUOUS
 62
     7
 10
-191.89148
 20
-85.56591
 11
-181.49149
 21
-85.56591
  0
LINE
  8
0
  6
CONTINUOUS
 62
     7
 10
-192.39148
 20
-74.396065
 11
-192.39148
 21
-98.396065
  0
LINE
  8
0
  6
CONTINUOUS
 62
     7
 10
-181.49149
 20
-74.396065
 11
-181.49149
 21
-98.896065
  0
LINE
  8
0
  6
CONTINUOUS
 62
     7
 10
-191.89148
 20
-50.917679
 11
-191.89148
 21
-49.896065
  0
LINE
  8
0
  6
CONTINUOUS
 62
     7
 10
-191.89148
 20
-50.917679
 11
-181.49149
 21
-50.917679
  0
LINE
  8
0
  6
CONTINUOUS
 62
     7
 10
-191.89148
 20
-98.896065
 11
-181.49149
 21
-98.896065
  0
LINE
  8
0
  6
CONTINUOUS
 62
     7
 10
-191.89148
 20
-65.692612
 11
-181.49149
 21
-65.692612
  0
LINE
  8
0
  6
CONTINUOUS
 62
     7
 10
-192.39149
 20
-98.396057
 11
-191.89148
 21
-98.896057
  0
LINE
  8
0
  6
CONTINUOUS
 62
     7
 10
-176.49149
 20
-74.396065
 11
-176.49149
 21
-93.896065
  0
LINE
  8
0
  6
CONTINUOUS
 62
     7
 10
-191.89148
 20
-83.09951
 11
-191.89148
 21
-85.56591
  0
LINE
  8
0
  6
CONTINUOUS
 62
     7
 10
-191.89148
 20
-83.09951
 11
-181.49149
 21
-83.09951
  0
LINE
  8
0
  6
CONTINUOUS
 62
     7
 10
-191.89148
 20
-65.692612
 11
-191.89148
 21
-63.226215
  0
LINE
  8
0
  6
CONTINUOUS
 62
     7
 10
-191.89148
 20
-97.874443
 11
-181.49149
 21
-97.874443
  0
LINE
  8
0
  6
CONTINUOUS
 62
     7
 10
-191.89148
 20
-97.874443
 11
-191.89148
 21
-98.896065
  0
LINE
  8
0
  6
CONTINUOUS
 62
     7
 10
-176.49149
 20
-74.396065
 11
-176.49149
 21
-54.896065
  0
LINE
  8
0
  6
CONTINUOUS
 62
     7
 10
-192.39149
 20
-50.396076
 11
-191.89149
 21
-49.896076
  0
LINE
  8
0
  6
CONTINUOUS
 62
     7
 10
-191.89148
 20
-49.896065
 11
-181.49149
 21
-49.896065
  0
LINE
  8
0
  6
CONTINUOUS
 62
     7
 10
-181.49149
 20
-74.396065
 11
-181.49149
 21
-49.896065
  0
LINE
  8
0
  6
CONTINUOUS
 62
     7
 10
-192.39148
 20
-74.396065
 11
-192.39148
 21
-50.396065
  0
LINE
  8
0
  6
CONTINUOUS
 62
     7
 10
-191.89148
 20
-63.226215
 11
-181.49149
 21
-63.226215
  0
LINE
  8
0
  6
CONTINUOUS
 62
     7
 10
-191.89148
 20
-85.56591
 11
-181.49149
 21
-85.56591
  0
LINE
  8
0
  6
CONTINUOUS
 62
     7
 10
-192.39148
 20
-74.396065
 11
-192.39148
 21
-98.396065
  0
LINE
  8
0
  6
CONTINUOUS
 62
     7
 10
-181.49149
 20
-74.396065
 11
-181.49149
 21
-98.896065
  0
LINE
  8
0
  6
CONTINUOUS
 62
     7
 10
-191.89148
 20
-50.917679
 11
-191.89148
 21
-49.896065
  0
LINE
  8
0
  6
CONTINUOUS
 62
     7
 10
-191.89148
 20
-50.917679
 11
-181.49149
 21
-50.917679
  0
LINE
  8
0
  6
CONTINUOUS
 62
     7
 10
-191.89148
 20
-98.896065
 11
-181.49149
 21
-98.896065
  0
LINE
  8
0
  6
CONTINUOUS
 62
     7
 10
-191.89148
 20
-65.692612
 11
-181.49149
 21
-65.692612
  0
LINE
  8
0
  6
CONTINUOUS
 62
     7
 10
-192.39149
 20
-98.396057
 11
-191.89148
 21
-98.896057
  0
LINE
  8
0
  6
CONTINUOUS
 62
     7
 10
-176.49149
 20
-74.396065
 11
-176.49149
 21
-93.896065
  0
LINE
  8
0
  6
CONTINUOUS
 62
     7
 10
-191.89148
 20
-83.09951
 11
-191.89148
 21
-85.56591
  0
LINE
  8
0
  6
CONTINUOUS
 62
     7
 10
-191.89148
 20
-83.09951
 11
-181.49149
 21
-83.09951
  0
LINE
  8
0
  6
CONTINUOUS
 62
     7
 10
-191.89148
 20
-65.692612
 11
-191.89148
 21
-63.226215
  0
LINE
  8
0
  6
CONTINUOUS
 62
     7
 10
-191.89148
 20
-97.874443
 11
-181.49149
 21
-97.874443
  0
LINE
  8
0
  6
CONTINUOUS
 62
     7
 10
-191.89148
 20
-97.874443
 11
-191.89148
 21
-98.896065
  0
LINE
  8
0
  6
CONTINUOUS
 62
     7
 10
-176.49149
 20
-74.396065
 11
-176.49149
 21
-54.896065
  0
LINE
  8
0
  6
CONTINUOUS
 62
     7
 10
-192.39149
 20
-50.396076
 11
-191.89149
 21
-49.896076
  0
LINE
  8
0
  6
CONTINUOUS
 62
     7
 10
-191.89148
 20
-49.896065
 11
-181.49149
 21
-49.896065
  0
LINE
  8
0
  6
CONTINUOUS
 62
     7
 10
-181.49149
 20
-74.396065
 11
-181.49149
 21
-49.896065
  0
LINE
  8
0
  6
CONTINUOUS
 62
     7
 10
-192.39148
 20
-74.396065
 11
-192.39148
 21
-50.396065
  0
LINE
  8
0
  6
CONTINUOUS
 62
     7
 10
-61.773067
 20
-64.401093
 11
-51.373074
 21
-64.401093
  0
LINE
  8
0
  6
CONTINUOUS
 62
     7
 10
-61.773067
 20
-86.740799
 11
-51.373074
 21
-86.740799
  0
LINE
  8
0
  6
CONTINUOUS
 62
     7
 10
-62.273067
 20
-75.570946
 11
-62.273067
 21
-99.570946
  0
LINE
  8
0
  6
CONTINUOUS
 62
     7
 10
-51.373074
 20
-75.570946
 11
-51.373074
 21
-100.07095
  0
LINE
  8
0
  6
CONTINUOUS
 62
     7
 10
-61.773067
 20
-52.092564
 11
-61.773067
 21
-51.07095
  0
LINE
  8
0
  6
CONTINUOUS
 62
     7
 10
-61.773067
 20
-52.092564
 11
-51.373074
 21
-52.092564
  0
LINE
  8
0
  6
CONTINUOUS
 62
     7
 10
-61.773067
 20
-100.07095
 11
-51.373074
 21
-100.07095
  0
LINE
  8
0
  6
CONTINUOUS
 62
     7
 10
-61.773067
 20
-66.8675
 11
-51.373074
 21
-66.8675
  0
LINE
  8
0
  6
CONTINUOUS
 62
     7
 10
-62.273048
 20
-99.570946
 11
-61.77306
 21
-100.07093
  0
LINE
  8
0
  6
CONTINUOUS
 62
     7
 10
-46.373074
 20
-75.570946
 11
-46.373074
 21
-95.070946
  0
LINE
  8
0
  6
CONTINUOUS
 62
     7
 10
-61.773067
 20
-84.274391
 11
-61.773067
 21
-86.740799
  0
LINE
  8
0
  6
CONTINUOUS
 62
     7
 10
-61.773067
 20
-84.274391
 11
-51.373074
 21
-84.274391
  0
LINE
  8
0
  6
CONTINUOUS
 62
     7
 10
-61.773067
 20
-66.8675
 11
-61.773067
 21
-64.401093
  0
LINE
  8
0
  6
CONTINUOUS
 62
     7
 10
-61.773067
 20
-99.049332
 11
-51.373074
 21
-99.049332
  0
LINE
  8
0
  6
CONTINUOUS
 62
     7
 10
-61.773067
 20
-99.049332
 11
-61.773067
 21
-100.07095
  0
LINE
  8
0
  6
CONTINUOUS
 62
     7
 10
-46.373074
 20
-75.570946
 11
-46.373074
 21
-56.07095
  0
LINE
  8
0
  6
CONTINUOUS
 62
     7
 10
-62.273056
 20
-51.570953
 11
-61.773045
 21
-51.070942
  0
LINE
  8
0
  6
CONTINUOUS
 62
     7
 10
-61.773067
 20
-51.07095
 11
-51.373074
 21
-51.07095
  0
LINE
  8
0
  6
CONTINUOUS
 62
     7
 10
-51.373074
 20
-75.570946
 11
-51.373074
 21
-51.07095
  0
LINE
  8
0
  6
CONTINUOUS
 62
     7
 10
-62.273067
 20
-75.570946
 11
-62.273067
 21
-51.57095
  0
LINE
  8
0
  6
CONTINUOUS
 62
     7
 10
-61.773067
 20
-64.401093
 11
-51.373074
 21
-64.401093
  0
LINE
  8
0
  6
CONTINUOUS
 62
     7
 10
-61.773067
 20
-86.740799
 11
-51.373074
 21
-86.740799
  0
LINE
  8
0
  6
CONTINUOUS
 62
     7
 10
-62.273067
 20
-75.570946
 11
-62.273067
 21
-99.570946
  0
LINE
  8
0
  6
CONTINUOUS
 62
     7
 10
-51.373074
 20
-75.570946
 11
-51.373074
 21
-100.07095
  0
LINE
  8
0
  6
CONTINUOUS
 62
     7
 10
-61.773067
 20
-52.092564
 11
-61.773067
 21
-51.07095
  0
LINE
  8
0
  6
CONTINUOUS
 62
     7
 10
-61.773067
 20
-52.092564
 11
-51.373074
 21
-52.092564
  0
LINE
  8
0
  6
CONTINUOUS
 62
     7
 10
-61.773067
 20
-100.07095
 11
-51.373074
 21
-100.07095
  0
LINE
  8
0
  6
CONTINUOUS
 62
     7
 10
-61.773067
 20
-66.8675
 11
-51.373074
 21
-66.8675
  0
LINE
  8
0
  6
CONTINUOUS
 62
     7
 10
-62.273048
 20
-99.570946
 11
-61.77306
 21
-100.07093
  0
LINE
  8
0
  6
CONTINUOUS
 62
     7
 10
-46.373074
 20
-75.570946
 11
-46.373074
 21
-95.070946
  0
LINE
  8
0
  6
CONTINUOUS
 62
     7
 10
-61.773067
 20
-84.274391
 11
-61.773067
 21
-86.740799
  0
LINE
  8
0
  6
CONTINUOUS
 62
     7
 10
-61.773067
 20
-84.274391
 11
-51.373074
 21
-84.274391
  0
LINE
  8
0
  6
CONTINUOUS
 62
     7
 10
-61.773067
 20
-66.8675
 11
-61.773067
 21
-64.401093
  0
LINE
  8
0
  6
CONTINUOUS
 62
     7
 10
-61.773067
 20
-99.049332
 11
-51.373074
 21
-99.049332
  0
LINE
  8
0
  6
CONTINUOUS
 62
     7
 10
-61.773067
 20
-99.049332
 11
-61.773067
 21
-100.07095
  0
LINE
  8
0
  6
CONTINUOUS
 62
     7
 10
-46.373074
 20
-75.570946
 11
-46.373074
 21
-56.07095
  0
LINE
  8
0
  6
CONTINUOUS
 62
     7
 10
-62.273056
 20
-51.570953
 11
-61.773045
 21
-51.070942
  0
LINE
  8
0
  6
CONTINUOUS
 62
     7
 10
-61.773067
 20
-51.07095
 11
-51.373074
 21
-51.07095
  0
LINE
  8
0
  6
CONTINUOUS
 62
     7
 10
-51.373074
 20
-75.570946
 11
-51.373074
 21
-51.07095
  0
LINE
  8
0
  6
CONTINUOUS
 62
     7
 10
-62.273067
 20
-75.570946
 11
-62.273067
 21
-51.57095
  0
LINE
  8
0
  6
CONTINUOUS
 62
     7
 10
66.517593
 20
-64.785149
 11
76.917618
 21
-64.785149
  0
LINE
  8
0
  6
CONTINUOUS
 62
     7
 10
66.517593
 20
-87.124847
 11
76.917618
 21
-87.124847
  0
LINE
  8
0
  6
CONTINUOUS
 62
     7
 10
66.017593
 20
-75.954994
 11
66.017593
 21
-99.954994
  0
LINE
  8
0
  6
CONTINUOUS
 62
     7
 10
76.917618
 20
-75.954994
 11
76.917618
 21
-100.45499
  0
LINE
  8
0
  6
CONTINUOUS
 62
     7
 10
66.517593
 20
-52.476612
 11
66.517593
 21
-51.454998
  0
LINE
  8
0
  6
CONTINUOUS
 62
     7
 10
66.517593
 20
-52.476612
 11
76.917618
 21
-52.476612
  0
LINE
  8
0
  6
CONTINUOUS
 62
     7
 10
66.517593
 20
-100.45499
 11
76.917618
 21
-100.45499
  0
LINE
  8
0
  6
CONTINUOUS
 62
     7
 10
66.517593
 20
-67.251549
 11
76.917618
 21
-67.251549
  0
LINE
  8
0
  6
CONTINUOUS
 62
     7
 10
66.017586
 20
-99.954987
 11
66.517593
 21
-100.455
  0
LINE
  8
0
  6
CONTINUOUS
 62
     7
 10
81.917618
 20
-75.954994
 11
81.917618
 21
-95.454994
  0
LINE
  8
0
  6
CONTINUOUS
 62
     7
 10
66.517593
 20
-84.658447
 11
66.517593
 21
-87.124847
  0
LINE
  8
0
  6
CONTINUOUS
 62
     7
 10
66.517593
 20
-84.658447
 11
76.917618
 21
-84.658447
  0
LINE
  8
0
  6
CONTINUOUS
 62
     7
 10
66.517593
 20
-67.251549
 11
66.517593
 21
-64.785149
  0
LINE
  8
0
  6
CONTINUOUS
 62
     7
 10
66.517593
 20
-99.43338
 11
76.917618
 21
-99.43338
  0
LINE
  8
0
  6
CONTINUOUS
 62
     7
 10
66.517593
 20
-99.43338
 11
66.517593
 21
-100.45499
  0
LINE
  8
0
  6
CONTINUOUS
 62
     7
 10
81.917618
 20
-75.954994
 11
81.917618
 21
-56.454998
  0
LINE
  8
0
  6
CONTINUOUS
 62
     7
 10
66.017609
 20
-51.954998
 11
66.517593
 21
-51.455009
  0
LINE
  8
0
  6
CONTINUOUS
 62
     7
 10
66.517593
 20
-51.454998
 11
76.917618
 21
-51.454998
  0
LINE
  8
0
  6
CONTINUOUS
 62
     7
 10
76.917618
 20
-75.954994
 11
76.917618
 21
-51.454998
  0
LINE
  8
0
  6
CONTINUOUS
 62
     7
 10
66.017593
 20
-75.954994
 11
66.017593
 21
-51.954998
  0
LINE
  8
0
  6
CONTINUOUS
 62
     7
 10
-158.67542
 20
-266.54904
 11
-158.67542
 21
-295.54907
  0
LINE
  8
0
  6
CONTINUOUS
 62
     7
 10
-158.17542
 20
-294.14481
 11
-158.17542
 21
-296.04904
  0
LINE
  8
0
  6
CONTINUOUS
 62
     7
 10
-158.17542
 20
-276.07532
 11
-158.17542
 21
-280.67261
  0
LINE
  8
0
  6
CONTINUOUS
 62
     7
 10
-140.77542
 20
-266.54904
 11
-140.77542
 21
-290.04904
  0
LINE
  8
0
  6
CONTINUOUS
 62
     7
 10
-158.17542
 20
-296.04904
 11
-146.77542
 21
-296.04904
  0
LINE
  8
0
  6
CONTINUOUS
 62
     7
 10
-158.17542
 20
-280.67261
 11
-146.77542
 21
-280.67261
  0
LINE
  8
0
  6
CONTINUOUS
 62
     7
 10
-158.17542
 20
-294.14481
 11
-146.77542
 21
-294.14481
  0
LINE
  8
0
  6
CONTINUOUS
 62
     7
 10
-158.67543
 20
-295.54904
 11
-158.17542
 21
-296.04907
  0
LINE
  8
0
  6
CONTINUOUS
 62
     7
 10
-158.17542
 20
-257.02277
 11
-146.77542
 21
-257.02277
  0
LINE
  8
0
  6
CONTINUOUS
 62
     7
 10
-146.77542
 20
-266.54904
 11
-146.77542
 21
-296.04904
  0
LINE
  8
0
  6
CONTINUOUS
 62
     7
 10
-146.77542
 20
-266.54904
 11
-146.77542
 21
-237.04906
  0
LINE
  8
0
  6
CONTINUOUS
 62
     7
 10
-158.67545
 20
-237.54907
 11
-158.17543
 21
-237.04906
  0
LINE
  8
0
  6
CONTINUOUS
 62
     7
 10
-158.17542
 20
-238.95331
 11
-146.77542
 21
-238.95331
  0
LINE
  8
0
  6
CONTINUOUS
 62
     7
 10
-158.17542
 20
-276.07532
 11
-146.77542
 21
-276.07532
  0
LINE
  8
0
  6
CONTINUOUS
 62
     7
 10
-158.17542
 20
-252.42551
 11
-146.77542
 21
-252.42551
  0
LINE
  8
0
  6
CONTINUOUS
 62
     7
 10
-158.17542
 20
-237.04906
 11
-146.77542
 21
-237.04906
  0
LINE
  8
0
  6
CONTINUOUS
 62
     7
 10
-140.77542
 20
-266.54904
 11
-140.77542
 21
-243.04906
  0
LINE
  8
0
  6
CONTINUOUS
 62
     7
 10
-158.17542
 20
-257.02277
 11
-158.17542
 21
-252.42551
  0
LINE
  8
0
  6
CONTINUOUS
 62
     7
 10
-158.17542
 20
-238.95331
 11
-158.17542
 21
-237.04906
  0
LINE
  8
0
  6
CONTINUOUS
 62
     7
 10
-158.67542
 20
-266.54904
 11
-158.67542
 21
-237.54906
  0
LINE
  8
0
  6
CONTINUOUS
 62
     7
 10
15.584428
 20
-266.37405
 11
15.584428
 21
-295.37405
  0
LINE
  8
0
  6
CONTINUOUS
 62
     7
 10
16.084429
 20
-293.96982
 11
16.084429
 21
-295.87405
  0
LINE
  8
0
  6
CONTINUOUS
 62
     7
 10
16.084429
 20
-275.90033
 11
16.084429
 21
-280.49759
  0
LINE
  8
0
  6
CONTINUOUS
 62
     7
 10
33.484421
 20
-266.37405
 11
33.484421
 21
-289.87405
  0
LINE
  8
0
  6
CONTINUOUS
 62
     7
 10
16.084429
 20
-295.87405
 11
27.484423
 21
-295.87405
  0
LINE
  8
0
  6
CONTINUOUS
 62
     7
 10
16.084429
 20
-280.49759
 11
27.484423
 21
-280.49759
  0
LINE
  8
0
  6
CONTINUOUS
 62
     7
 10
16.084429
 20
-293.96982
 11
27.484423
 21
-293.96982
  0
LINE
  8
0
  6
CONTINUOUS
 62
     7
 10
15.584425
 20
-295.37402
 11
16.084436
 21
-295.87405
  0
LINE
  8
0
  6
CONTINUOUS
 62
     7
 10
16.084429
 20
-256.84778
 11
27.484423
 21
-256.84778
  0
LINE
  8
0
  6
CONTINUOUS
 62
     7
 10
27.484423
 20
-266.37405
 11
27.484423
 21
-295.87405
  0
LINE
  8
0
  6
CONTINUOUS
 62
     7
 10
27.484423
 20
-266.37405
 11
27.484423
 21
-236.87405
  0
LINE
  8
0
  6
CONTINUOUS
 62
     7
 10
15.584424
 20
-237.37404
 11
16.084414
 21
-236.87405
  0
LINE
  8
0
  6
CONTINUOUS
 62
     7
 10
16.084429
 20
-238.77831
 11
27.484423
 21
-238.77831
  0
LINE
  8
0
  6
CONTINUOUS
 62
     7
 10
16.084429
 20
-275.90033
 11
27.484423
 21
-275.90033
  0
LINE
  8
0
  6
CONTINUOUS
 62
     7
 10
16.084429
 20
-252.2505
 11
27.484423
 21
-252.2505
  0
LINE
  8
0
  6
CONTINUOUS
 62
     7
 10
16.084429
 20
-236.87405
 11
27.484423
 21
-236.87405
  0
LINE
  8
0
  6
CONTINUOUS
 62
     7
 10
33.484421
 20
-266.37405
 11
33.484421
 21
-242.87405
  0
LINE
  8
0
  6
CONTINUOUS
 62
     7
 10
16.084429
 20
-256.84778
 11
16.084429
 21
-252.2505
  0
LINE
  8
0
  6
CONTINUOUS
 62
     7
 10
16.084429
 20
-238.77831
 11
16.084429
 21
-236.87405
  0
LINE
  8
0
  6
CONTINUOUS
 62
     7
 10
15.584428
 20
-266.37405
 11
15.584428
 21
-237.37405
  0
LINE
  8
0
  6
CONTINUOUS
 62
     7
 10
-233.85565
 20
71.152962
 11
-223.35565
 21
71.152962
  0
LINE
  8
0
  6
CONTINUOUS
 62
     7
 10
-220.23433
 20
60.152954
 11
-219.35565
 21
60.152954
  0
LINE
  8
0
  6
CONTINUOUS
 62
     7
 10
-219.35565
 20
60.152954
 11
-219.35565
 21
67.152962
  0
LINE
  8
0
  6
CONTINUOUS
 62
     7
 10
-219.85564
 20
59.65295
 11
-219.35565
 21
60.152939
  0
LINE
  8
0
  6
CONTINUOUS
 62
     7
 10
-229.09219
 20
60.152954
 11
-226.97031
 21
60.152954
  0
LINE
  8
0
  6
CONTINUOUS
 62
     7
 10
-220.23433
 20
60.152954
 11
-220.23433
 21
67.152962
  0
LINE
  8
0
  6
CONTINUOUS
 62
     7
 10
-229.09219
 20
60.152954
 11
-229.09219
 21
67.152962
  0
LINE
  8
0
  6
CONTINUOUS
 62
     7
 10
-226.97031
 20
60.152954
 11
-226.97031
 21
67.152962
  0
LINE
  8
0
  6
CONTINUOUS
 62
     7
 10
-233.85565
 20
67.152962
 11
-219.35565
 21
67.152962
  0
LINE
  8
0
  6
CONTINUOUS
 62
     7
 10
-111.97831
 20
77.220268
 11
-101.47831
 21
77.220268
  0
LINE
  8
0
  6
CONTINUOUS
 62
     7
 10
-107.21485
 20
66.220268
 11
-107.21485
 21
73.220268
  0
LINE
  8
0
  6
CONTINUOUS
 62
     7
 10
-97.47831
 20
66.220268
 11
-97.47831
 21
73.220268
  0
LINE
  8
0
  6
CONTINUOUS
 62
     7
 10
-107.21485
 20
66.220268
 11
-105.09296
 21
66.220268
  0
LINE
  8
0
  6
CONTINUOUS
 62
     7
 10
-105.09296
 20
66.220268
 11
-105.09296
 21
73.220268
  0
LINE
  8
0
  6
CONTINUOUS
 62
     7
 10
-98.356972
 20
66.220268
 11
-98.356972
 21
73.220268
  0
LINE
  8
0
  6
CONTINUOUS
 62
     7
 10
-111.97831
 20
73.220268
 11
-97.47831
 21
73.220268
  0
LINE
  8
0
  6
CONTINUOUS
 62
     7
 10
-98.356972
 20
66.220268
 11
-97.47831
 21
66.220268
  0
LINE
  8
0
  6
CONTINUOUS
 62
     7
 10
-97.978294
 20
65.720276
 11
-97.478302
 21
66.220268
  0
LINE
  8
0
  6
CONTINUOUS
 62
     7
 10
-233.85565
 20
59.652954
 11
-219.85565
 21
59.652954
  0
LINE
  8
0
  6
CONTINUOUS
 62
     7
 10
-111.97831
 20
65.720261
 11
-97.97831
 21
65.720261
  0
LINE
  8
0
  6
CENTER
 62
     7
 10
-229.49149
 20
-41.592598
 11
-229.49149
 21
-25.31163
  0
LINE
  8
0
  6
CONTINUOUS
 62
     7
 10
-229.49149
 20
-28.396065
 11
-218.99149
 21
-28.396065
  0
LINE
  8
0
  6
CONTINUOUS
 62
     7
 10
-215.87016
 20
-39.396065
 11
-214.99149
 21
-39.396065
  0
LINE
  8
0
  6
CONTINUOUS
 62
     7
 10
-214.99149
 20
-39.396065
 11
-214.99149
 21
-32.396065
  0
LINE
  8
0
  6
CONTINUOUS
 62
     7
 10
-215.49149
 20
-39.896049
 11
-214.99149
 21
-39.396049
  0
LINE
  8
0
  6
CONTINUOUS
 62
     7
 10
-224.72803
 20
-39.396065
 11
-222.60614
 21
-39.396065
  0
LINE
  8
0
  6
CONTINUOUS
 62
     7
 10
-215.87016
 20
-39.396065
 11
-215.87016
 21
-32.396065
  0
LINE
  8
0
  6
CONTINUOUS
 62
     7
 10
-224.72803
 20
-39.396065
 11
-224.72803
 21
-32.396065
  0
LINE
  8
0
  6
CONTINUOUS
 62
     7
 10
-222.60614
 20
-39.396065
 11
-222.60614
 21
-32.396065
  0
LINE
  8
0
  6
CONTINUOUS
 62
     7
 10
-229.49149
 20
-32.396065
 11
-214.99149
 21
-32.396065
  0
LINE
  8
0
  6
CONTINUOUS
 62
     7
 10
-201.77542
 20
-215.54906
 11
-191.27542
 21
-215.54906
  0
LINE
  8
0
  6
CENTER
 62
     7
 10
-201.77542
 20
-228.74559
 11
-201.77542
 21
-212.46461
  0
LINE
  8
0
  6
CONTINUOUS
 62
     7
 10
-188.15408
 20
-226.54906
 11
-187.27542
 21
-226.54906
  0
LINE
  8
0
  6
CONTINUOUS
 62
     7
 10
-187.27542
 20
-226.54906
 11
-187.27542
 21
-219.54906
  0
LINE
  8
0
  6
CONTINUOUS
 62
     7
 10
-187.77542
 20
-227.04904
 11
-187.27544
 21
-226.54906
  0
LINE
  8
0
  6
CONTINUOUS
 62
     7
 10
-197.01196
 20
-226.54906
 11
-194.89008
 21
-226.54906
  0
LINE
  8
0
  6
CONTINUOUS
 62
     7
 10
-188.15408
 20
-226.54906
 11
-188.15408
 21
-219.54906
  0
LINE
  8
0
  6
CONTINUOUS
 62
     7
 10
-197.01196
 20
-226.54906
 11
-197.01196
 21
-219.54906
  0
LINE
  8
0
  6
CONTINUOUS
 62
     7
 10
-194.89008
 20
-226.54906
 11
-194.89008
 21
-219.54906
  0
LINE
  8
0
  6
CONTINUOUS
 62
     7
 10
-201.77542
 20
-219.54906
 11
-187.27542
 21
-219.54906
  0
LINE
  8
0
  6
CONTINUOUS
 62
     7
 10
-229.49149
 20
-39.896065
 11
-215.49149
 21
-39.896065
  0
LINE
  8
0
  6
CONTINUOUS
 62
     7
 10
-201.77542
 20
-227.04906
 11
-187.77542
 21
-227.04906
  0
LINE
  8
0
  6
CONTINUOUS
 62
     7
 10
-27.515577
 20
-226.92307
 11
-11.015578
 21
-226.92307
  0
LINE
  8
0
  6
CONTINUOUS
 62
     7
 10
36.711071
 20
68.220268
 11
36.711071
 21
76.220268
  0
LINE
  8
0
  6
CONTINUOUS
 62
     7
 10
36.711071
 20
68.220268
 11
37.589764
 21
68.220268
  0
LINE
  8
0
  6
CONTINUOUS
 62
     7
 10
26.388746
 20
68.220268
 11
26.388746
 21
76.220268
  0
LINE
  8
0
  6
CONTINUOUS
 62
     7
 10
26.388746
 20
68.220268
 11
28.510084
 21
68.220268
  0
LINE
  8
0
  6
CONTINUOUS
 62
     7
 10
20.589766
 20
81.220268
 11
32.589764
 21
81.220268
  0
LINE
  8
0
  6
CONTINUOUS
 62
     7
 10
37.589767
 20
68.220261
 11
37.089779
 21
67.720268
  0
LINE
  8
0
  6
CONTINUOUS
 62
     7
 10
37.589764
 20
68.220268
 11
37.589764
 21
76.220268
  0
LINE
  8
0
  6
CONTINUOUS
 62
     7
 10
28.510084
 20
68.220268
 11
28.510084
 21
76.220268
  0
LINE
  8
0
  6
CONTINUOUS
 62
     7
 10
20.589766
 20
76.220268
 11
37.589764
 21
76.220268
  0
LINE
  8
0
  6
CONTINUOUS
 62
     7
 10
36.711071
 20
68.220268
 11
36.711071
 21
76.220268
  0
LINE
  8
0
  6
CONTINUOUS
 62
     7
 10
36.711071
 20
68.220268
 11
37.589764
 21
68.220268
  0
LINE
  8
0
  6
CONTINUOUS
 62
     7
 10
26.388746
 20
68.220268
 11
26.388746
 21
76.220268
  0
LINE
  8
0
  6
CONTINUOUS
 62
     7
 10
26.388746
 20
68.220268
 11
28.510084
 21
68.220268
  0
LINE
  8
0
  6
CONTINUOUS
 62
     7
 10
20.589766
 20
81.220268
 11
32.589764
 21
81.220268
  0
LINE
  8
0
  6
CONTINUOUS
 62
     7
 10
37.589767
 20
68.220261
 11
37.089779
 21
67.720268
  0
LINE
  8
0
  6
CONTINUOUS
 62
     7
 10
37.589764
 20
68.220268
 11
37.589764
 21
76.220268
  0
LINE
  8
0
  6
CONTINUOUS
 62
     7
 10
28.510084
 20
68.220268
 11
28.510084
 21
76.220268
  0
LINE
  8
0
  6
CONTINUOUS
 62
     7
 10
-83.251732
 20
-40.570953
 11
-83.251732
 21
-32.57095
  0
LINE
  8
0
  6
CONTINUOUS
 62
     7
 10
-83.251732
 20
-40.570953
 11
-82.37307
 21
-40.570953
  0
LINE
  8
0
  6
CONTINUOUS
 62
     7
 10
-93.574059
 20
-40.570953
 11
-93.574059
 21
-32.57095
  0
LINE
  8
0
  6
CONTINUOUS
 62
     7
 10
-93.574059
 20
-40.570953
 11
-91.452751
 21
-40.570953
  0
LINE
  8
0
  6
CONTINUOUS
 62
     7
 10
-82.373055
 20
-40.570942
 11
-82.873062
 21
-41.070953
  0
LINE
  8
0
  6
CONTINUOUS
 62
     7
 10
-82.37307
 20
-40.57095
 11
-82.37307
 21
-32.57095
  0
LINE
  8
0
  6
CONTINUOUS
 62
     7
 10
-91.452751
 20
-40.570953
 11
-91.452751
 21
-32.57095
  0
LINE
  8
0
  6
CONTINUOUS
 62
     7
 10
-99.37307
 20
-32.57095
 11
-82.37307
 21
-32.57095
  0
LINE
  8
0
  6
CONTINUOUS
 62
     7
 10
-83.251732
 20
-40.570953
 11
-83.251732
 21
-32.57095
  0
LINE
  8
0
  6
CONTINUOUS
 62
     7
 10
-83.251732
 20
-40.570953
 11
-82.37307
 21
-40.570953
  0
LINE
  8
0
  6
CONTINUOUS
 62
     7
 10
-93.574059
 20
-40.570953
 11
-93.574059
 21
-32.57095
  0
LINE
  8
0
  6
CONTINUOUS
 62
     7
 10
-93.574059
 20
-40.570953
 11
-91.452751
 21
-40.570953
  0
LINE
  8
0
  6
CONTINUOUS
 62
     7
 10
-99.37307
 20
-27.57095
 11
-87.37307
 21
-27.57095
  0
LINE
  8
0
  6
CONTINUOUS
 62
     7
 10
-82.373055
 20
-40.570942
 11
-82.873062
 21
-41.070953
  0
LINE
  8
0
  6
CONTINUOUS
 62
     7
 10
-82.37307
 20
-40.57095
 11
-82.37307
 21
-32.57095
  0
LINE
  8
0
  6
CONTINUOUS
 62
     7
 10
-91.452751
 20
-40.570953
 11
-91.452751
 21
-32.57095
  0
LINE
  8
0
  6
CONTINUOUS
 62
     7
 10
20.589766
 20
67.720268
 11
37.089764
 21
67.720268
  0
LINE
  8
0
  6
CONTINUOUS
 62
     7
 10
-99.37307
 20
-41.07095
 11
-82.87307
 21
-41.07095
  0
LINE
  8
0
  6
CONTINUOUS
 62
     7
 10
48.810802
 20
-42.954998
 11
48.810802
 21
-33.954998
  0
LINE
  8
0
  6
CONTINUOUS
 62
     7
 10
49.917587
 20
-43.455002
 11
50.417599
 21
-42.95499
  0
LINE
  8
0
  6
CONTINUOUS
 62
     7
 10
48.810802
 20
-42.954998
 11
50.417583
 21
-42.954998
  0
LINE
  8
0
  6
CONTINUOUS
 62
     7
 10
35.550823
 20
-42.954998
 11
39.429974
 21
-42.954998
  0
LINE
  8
0
  6
CONTINUOUS
 62
     7
 10
50.417583
 20
-42.954998
 11
50.417583
 21
-33.954998
  0
LINE
  8
0
  6
CONTINUOUS
 62
     7
 10
28.917585
 20
-28.954998
 11
45.417583
 21
-28.954998
  0
LINE
  8
0
  6
CONTINUOUS
 62
     7
 10
28.917585
 20
-33.954998
 11
50.417583
 21
-33.954998
  0
LINE
  8
0
  6
CONTINUOUS
 62
     7
 10
39.429974
 20
-42.954998
 11
39.429974
 21
-33.954998
  0
LINE
  8
0
  6
CONTINUOUS
 62
     7
 10
35.550823
 20
-42.954998
 11
35.550823
 21
-33.954998
  0
LINE
  8
0
  6
CONTINUOUS
 62
     7
 10
28.917585
 20
-43.454998
 11
49.917583
 21
-43.454998
  0
LINE
  8
0
  6
CONTINUOUS
 62
     7
 10
-211.75565
 20
51.430489
 11
-208.35565
 21
51.430489
  0
LINE
  8
0
  6
CONTINUOUS
 62
     7
 10
-211.75565
 20
18.985317
 11
-208.35565
 21
18.985317
  0
LINE
  8
0
  6
CONTINUOUS
 62
     7
 10
-219.9129
 20
59.652954
 11
-219.9129
 21
56.252953
  0
LINE
  8
0
  6
CONTINUOUS
 62
     7
 10
-248.85565
 20
55.752953
 11
-248.85565
 21
54.652954
  0
LINE
  8
0
  6
CONTINUOUS
 62
     7
 10
-255.95564
 20
52.152954
 11
-255.95564
 21
35.15295
  0
LINE
  8
0
  6
CONTINUOUS
 62
     7
 10
-248.35565
 20
56.252953
 11
-233.85565
 21
56.252953
  0
LINE
  8
0
  6
CONTINUOUS
 62
     7
 10
-247.93958
 20
22.65295
 11
-233.85565
 21
22.65295
  0
LINE
  8
0
  6
CONTINUOUS
 62
     7
 10
-255.45564
 20
17.65295
 11
-253.95564
 21
17.65295
  0
LINE
  8
0
  6
CONTINUOUS
 62
     7
 10
-255.95564
 20
18.15295
 11
-255.95564
 21
35.15295
  0
LINE
  8
0
  6
CONTINUOUS
 62
     7
 10
-248.35565
 20
56.252949
 11
-248.85565
 21
55.752945
  0
LINE
  8
0
  6
CONTINUOUS
 62
     7
 10
-255.45564
 20
52.652946
 11
-255.95564
 21
52.152946
  0
LINE
  8
0
  6
CONTINUOUS
 62
     7
 10
-255.95564
 20
18.15295
 11
-255.45564
 21
17.65295
  0
LINE
  8
0
  6
CONTINUOUS
 62
     7
 10
-250.85565
 20
52.652954
 11
-255.45564
 21
52.652954
  0
LINE
  8
0
  6
CONTINUOUS
 62
     7
 10
-253.95566
 20
52.652954
 11
-253.95566
 21
35.15295
  0
LINE
  8
0
  6
CONTINUOUS
 62
     7
 10
-253.95566
 20
17.65295
 11
-253.95566
 21
35.15295
  0
LINE
  8
0
  6
CONTINUOUS
 62
     7
 10
-248.85565
 20
54.256142
 11
-233.85565
 21
54.256142
  0
LINE
  8
0
  6
CONTINUOUS
 62
     7
 10
-259.85565
 20
27.232639
 11
-267.85565
 21
27.232639
  0
LINE
  8
0
  6
CONTINUOUS
 62
     7
 10
-259.85565
 20
18.15295
 11
-259.35565
 21
18.652952
  0
LINE
  8
0
  6
CONTINUOUS
 62
     7
 10
-259.85565
 20
18.15295
 11
-267.85565
 21
18.15295
  0
LINE
  8
0
  6
CONTINUOUS
 62
     7
 10
-259.85565
 20
19.031635
 11
-267.85565
 21
19.031635
  0
LINE
  8
0
  6
CONTINUOUS
 62
     7
 10
-259.85565
 20
19.031635
 11
-259.85565
 21
18.15295
  0
LINE
  8
0
  6
CONTINUOUS
 62
     7
 10
-259.85565
 20
29.353962
 11
-259.85565
 21
27.232639
  0
LINE
  8
0
  6
CONTINUOUS
 62
     7
 10
-259.85565
 20
29.353962
 11
-267.85565
 21
29.353962
  0
LINE
  8
0
  6
CONTINUOUS
 62
     7
 10
-259.35565
 20
35.15295
 11
-259.35565
 21
18.65295
  0
LINE
  8
0
  6
CONTINUOUS
 62
     7
 10
-267.85565
 20
35.15295
 11
-267.85565
 21
18.15295
  0
LINE
  8
0
  6
CONTINUOUS
 62
     7
 10
-272.85565
 20
35.15295
 11
-272.85565
 21
23.15295
  0
LINE
  8
0
  6
CONTINUOUS
 62
     7
 10
-272.85565
 20
35.15295
 11
-272.85565
 21
47.15295
  0
LINE
  8
0
  6
CONTINUOUS
 62
     7
 10
-267.85565
 20
35.15295
 11
-267.85565
 21
52.152954
  0
LINE
  8
0
  6
CONTINUOUS
 62
     7
 10
-259.35565
 20
35.15295
 11
-259.35565
 21
51.652954
  0
LINE
  8
0
  6
CONTINUOUS
 62
     7
 10
-259.85565
 20
40.951939
 11
-267.85565
 21
40.951939
  0
LINE
  8
0
  6
CONTINUOUS
 62
     7
 10
-259.85565
 20
40.951939
 11
-259.85565
 21
43.073261
  0
LINE
  8
0
  6
CONTINUOUS
 62
     7
 10
-259.85565
 20
51.274277
 11
-259.85565
 21
52.152954
  0
LINE
  8
0
  6
CONTINUOUS
 62
     7
 10
-259.85565
 20
51.274277
 11
-267.85565
 21
51.274277
  0
LINE
  8
0
  6
CONTINUOUS
 62
     7
 10
-259.85565
 20
52.152954
 11
-267.85565
 21
52.152954
  0
LINE
  8
0
  6
CONTINUOUS
 62
     7
 10
-259.85565
 20
52.152946
 11
-259.35565
 21
51.652943
  0
LINE
  8
0
  6
CONTINUOUS
 62
     7
 10
-259.85565
 20
43.073261
 11
-267.85565
 21
43.073261
  0
LINE
  8
0
  6
CONTINUOUS
 62
     7
 10
-233.85565
 20
71.152962
 11
-244.35565
 21
71.152962
  0
LINE
  8
0
  6
CONTINUOUS
 62
     7
 10
-247.47697
 20
60.152954
 11
-248.35565
 21
60.152954
  0
LINE
  8
0
  6
CONTINUOUS
 62
     7
 10
-248.35565
 20
60.152954
 11
-248.35565
 21
67.152962
  0
LINE
  8
0
  6
CONTINUOUS
 62
     7
 10
-247.85565
 20
59.652943
 11
-248.35565
 21
60.152943
  0
LINE
  8
0
  6
CONTINUOUS
 62
     7
 10
-238.61911
 20
60.152954
 11
-240.741
 21
60.152954
  0
LINE
  8
0
  6
CONTINUOUS
 62
     7
 10
-247.47697
 20
60.152954
 11
-247.47697
 21
67.152962
  0
LINE
  8
0
  6
CONTINUOUS
 62
     7
 10
-238.61911
 20
60.152954
 11
-238.61911
 21
67.152962
  0
LINE
  8
0
  6
CONTINUOUS
 62
     7
 10
-240.741
 20
60.152954
 11
-240.741
 21
67.152962
  0
LINE
  8
0
  6
CONTINUOUS
 62
     7
 10
-233.85565
 20
67.152962
 11
-248.35565
 21
67.152962
  0
LINE
  8
0
  6
CONTINUOUS
 62
     7
 10
-233.85565
 20
59.652954
 11
-247.85565
 21
59.652954
  0
LINE
  8
0
  6
CONTINUOUS
 62
     7
 10
-255.95564
 20
51.430489
 11
-259.35565
 21
51.430489
  0
LINE
  8
0
  6
CONTINUOUS
 62
     7
 10
-255.95564
 20
18.985317
 11
-259.35565
 21
18.985317
  0
LINE
  8
0
  6
CONTINUOUS
 62
     7
 10
-247.7984
 20
59.652954
 11
-247.7984
 21
56.252953
  0
LINE
  8
0
  6
CONTINUOUS
 62
     7
 10
-98.134377
 20
65.720261
 11
-98.134377
 21
62.720261
  0
LINE
  8
0
  6
CONTINUOUS
 62
     7
 10
-82.97831
 20
56.042641
 11
-79.478279
 21
56.042641
  0
LINE
  8
0
  6
CONTINUOUS
 62
     7
 10
-82.97831
 20
14.634028
 11
-79.478279
 21
14.634028
  0
LINE
  8
0
  6
CONTINUOUS
 62
     7
 10
-126.97831
 20
62.220261
 11
-126.97831
 21
60.220261
  0
LINE
  8
0
  6
CONTINUOUS
 62
     7
 10
-128.97832
 20
50.720261
 11
-131.99617
 21
50.720261
  0
LINE
  8
0
  6
CONTINUOUS
 62
     7
 10
-129.97832
 20
57.220261
 11
-140.47832
 21
57.220261
  0
LINE
  8
0
  6
CONTINUOUS
 62
     7
 10
-140.97832
 20
35.220261
 11
-140.97832
 21
13.720263
  0
LINE
  8
0
  6
CONTINUOUS
 62
     7
 10
-140.47832
 20
13.220263
 11
-138.97832
 21
13.220263
  0
LINE
  8
0
  6
CONTINUOUS
 62
     7
 10
-131.9962
 20
19.720261
 11
-111.97831
 21
19.720261
  0
LINE
  8
0
  6
CONTINUOUS
 62
     7
 10
-126.47831
 20
62.720261
 11
-111.97831
 21
62.720261
  0
LINE
  8
0
  6
CONTINUOUS
 62
     7
 10
-126.4783
 20
62.72028
 11
-126.97831
 21
62.220268
  0
LINE
  8
0
  6
CONTINUOUS
 62
     7
 10
-140.47832
 20
57.220264
 11
-140.9783
 21
56.720272
  0
LINE
  8
0
  6
CONTINUOUS
 62
     7
 10
-140.97832
 20
56.720261
 11
-140.97832
 21
35.220261
  0
LINE
  8
0
  6
CONTINUOUS
 62
     7
 10
-140.4783
 20
13.220273
 11
-140.9783
 21
13.720274
  0
LINE
  8
0
  6
CONTINUOUS
 62
     7
 10
-138.97832
 20
56.720261
 11
-138.97832
 21
35.220261
  0
LINE
  8
0
  6
CONTINUOUS
 62
     7
 10
-138.97832
 20
35.220261
 11
-138.97832
 21
13.220263
  0
LINE
  8
0
  6
CONTINUOUS
 62
     7
 10
-126.97831
 20
60.723663
 11
-111.97831
 21
60.723663
  0
LINE
  8
0
  6
CONTINUOUS
 62
     7
 10
-144.97832
 20
28.587013
 11
-153.97832
 21
28.587013
  0
LINE
  8
0
  6
CONTINUOUS
 62
     7
 10
-144.97832
 20
24.707878
 11
-153.97832
 21
24.707878
  0
LINE
  8
0
  6
CONTINUOUS
 62
     7
 10
-153.97832
 20
35.220261
 11
-153.97832
 21
13.720271
  0
LINE
  8
0
  6
CONTINUOUS
 62
     7
 10
-158.97832
 20
35.220261
 11
-158.97832
 21
18.720268
  0
LINE
  8
0
  6
CONTINUOUS
 62
     7
 10
-144.97832
 20
13.720271
 11
-153.97832
 21
13.720271
  0
LINE
  8
0
  6
CONTINUOUS
 62
     7
 10
-144.97832
 20
28.587013
 11
-144.97832
 21
24.707878
  0
LINE
  8
0
  6
CONTINUOUS
 62
     7
 10
-144.97832
 20
15.327052
 11
-144.97832
 21
13.720271
  0
LINE
  8
0
  6
CONTINUOUS
 62
     7
 10
-144.47832
 20
14.220263
 11
-144.9783
 21
13.720274
  0
LINE
  8
0
  6
CONTINUOUS
 62
     7
 10
-144.47832
 20
35.220261
 11
-144.47832
 21
14.220271
  0
LINE
  8
0
  6
CONTINUOUS
 62
     7
 10
-144.97832
 20
15.327052
 11
-153.97832
 21
15.327052
  0
LINE
  8
0
  6
CONTINUOUS
 62
     7
 10
-144.97832
 20
41.853508
 11
-153.97832
 21
41.853508
  0
LINE
  8
0
  6
CONTINUOUS
 62
     7
 10
-144.97832
 20
55.113472
 11
-153.97832
 21
55.113472
  0
LINE
  8
0
  6
CONTINUOUS
 62
     7
 10
-144.47832
 20
35.220261
 11
-144.47832
 21
56.220261
  0
LINE
  8
0
  6
CONTINUOUS
 62
     7
 10
-144.4783
 20
56.220272
 11
-144.9783
 21
56.720272
  0
LINE
  8
0
  6
CONTINUOUS
 62
     7
 10
-144.97832
 20
55.113472
 11
-144.97832
 21
56.720261
  0
LINE
  8
0
  6
CONTINUOUS
 62
     7
 10
-144.97832
 20
41.853508
 11
-144.97832
 21
45.732643
  0
LINE
  8
0
  6
CONTINUOUS
 62
     7
 10
-144.97832
 20
56.720261
 11
-153.97832
 21
56.720261
  0
LINE
  8
0
  6
CONTINUOUS
 62
     7
 10
-158.97832
 20
35.220261
 11
-158.97832
 21
51.720261
  0
LINE
  8
0
  6
CONTINUOUS
 62
     7
 10
-153.97832
 20
35.220261
 11
-153.97832
 21
56.720261
  0
LINE
  8
0
  6
CONTINUOUS
 62
     7
 10
-144.97832
 20
45.732643
 11
-153.97832
 21
45.732643
  0
LINE
  8
0
  6
CONTINUOUS
 62
     7
 10
-111.97831
 20
77.220268
 11
-122.47831
 21
77.220268
  0
LINE
  8
0
  6
CONTINUOUS
 62
     7
 10
-116.74177
 20
66.220268
 11
-116.74177
 21
73.220268
  0
LINE
  8
0
  6
CONTINUOUS
 62
     7
 10
-126.47831
 20
66.220268
 11
-126.47831
 21
73.220268
  0
LINE
  8
0
  6
CONTINUOUS
 62
     7
 10
-116.74177
 20
66.220268
 11
-118.86366
 21
66.220268
  0
LINE
  8
0
  6
CONTINUOUS
 62
     7
 10
-118.86366
 20
66.220268
 11
-118.86366
 21
73.220268
  0
LINE
  8
0
  6
CONTINUOUS
 62
     7
 10
-125.59962
 20
66.220268
 11
-125.59962
 21
73.220268
  0
LINE
  8
0
  6
CONTINUOUS
 62
     7
 10
-111.97831
 20
73.220268
 11
-126.47831
 21
73.220268
  0
LINE
  8
0
  6
CONTINUOUS
 62
     7
 10
-125.59962
 20
66.220268
 11
-126.47831
 21
66.220268
  0
LINE
  8
0
  6
CONTINUOUS
 62
     7
 10
-125.97829
 20
65.720276
 11
-126.4783
 21
66.220276
  0
LINE
  8
0
  6
CONTINUOUS
 62
     7
 10
-111.97831
 20
65.720261
 11
-125.97831
 21
65.720261
  0
LINE
  8
0
  6
CONTINUOUS
 62
     7
 10
-125.82221
 20
65.720261
 11
-125.82221
 21
62.720261
  0
LINE
  8
0
  6
CONTINUOUS
 62
     7
 10
-140.97832
 20
56.042641
 11
-144.47832
 21
56.042641
  0
LINE
  8
0
  6
CONTINUOUS
 62
     7
 10
-140.97832
 20
14.634028
 11
-144.47832
 21
14.634028
  0
LINE
  8
0
  6
CONTINUOUS
 62
     7
 10
49.589764
 20
14.653796
 11
53.089764
 21
14.653796
  0
LINE
  8
0
  6
CONTINUOUS
 62
     7
 10
49.589764
 20
55.943802
 11
53.089764
 21
55.943802
  0
LINE
  8
0
  6
CONTINUOUS
 62
     7
 10
36.652935
 20
67.720268
 11
36.652935
 21
64.320259
  0
LINE
  8
0
  6
CONTINUOUS
 62
     7
 10
3.5897515
 20
64.320259
 11
3.089762
 21
63.820271
  0
LINE
  8
0
  6
CONTINUOUS
 62
     7
 10
-7.9102283
 20
57.220276
 11
-8.4102392
 21
56.720264
  0
LINE
  8
0
  6
CONTINUOUS
 62
     7
 10
-7.9102345
 20
57.220261
 11
0.089765385
 21
57.220261
  0
LINE
  8
0
  6
CONTINUOUS
 62
     7
 10
-8.4102345
 20
56.720261
 11
-8.4102345
 21
54.720261
  0
LINE
  8
0
  6
CONTINUOUS
 62
     7
 10
3.5897653
 20
64.320259
 11
20.589766
 21
64.320259
  0
LINE
  8
0
  6
CONTINUOUS
 62
     7
 10
-7.9102416
 20
13.220255
 11
-8.4102316
 21
13.720245
  0
LINE
  8
0
  6
CONTINUOUS
 62
     7
 10
-8.4102345
 20
35.220261
 11
-8.4102345
 21
13.720263
  0
LINE
  8
0
  6
CONTINUOUS
 62
     7
 10
0.57188213
 20
19.720261
 11
20.589766
 21
19.720261
  0
LINE
  8
0
  6
CONTINUOUS
 62
     7
 10
-8.4102345
 20
56.720261
 11
-8.4102345
 21
35.220261
  0
LINE
  8
0
  6
CONTINUOUS
 62
     7
 10
3.0897653
 20
63.820259
 11
3.0897653
 21
60.220261
  0
LINE
  8
0
  6
CONTINUOUS
 62
     7
 10
-6.4281178
 20
57.220261
 11
-6.4281178
 21
35.220261
  0
LINE
  8
0
  6
CONTINUOUS
 62
     7
 10
-6.4102345
 20
35.220261
 11
-6.4102345
 21
13.720263
  0
LINE
  8
0
  6
CONTINUOUS
 62
     7
 10
3.0897653
 20
62.320259
 11
20.589766
 21
62.320259
  0
LINE
  8
0
  6
CONTINUOUS
 62
     7
 10
-12.410234
 20
28.587013
 11
-21.410234
 21
28.587013
  0
LINE
  8
0
  6
CONTINUOUS
 62
     7
 10
-12.410234
 20
24.707878
 11
-21.410234
 21
24.707878
  0
LINE
  8
0
  6
CONTINUOUS
 62
     7
 10
-21.410234
 20
35.220261
 11
-21.410234
 21
13.720271
  0
LINE
  8
0
  6
CONTINUOUS
 62
     7
 10
-26.410234
 20
35.220261
 11
-26.410234
 21
18.720268
  0
LINE
  8
0
  6
CONTINUOUS
 62
     7
 10
-12.410234
 20
13.720271
 11
-21.410234
 21
13.720271
  0
LINE
  8
0
  6
CONTINUOUS
 62
     7
 10
-12.410234
 20
28.587013
 11
-12.410234
 21
24.707878
  0
LINE
  8
0
  6
CONTINUOUS
 62
     7
 10
-12.410234
 20
15.327052
 11
-12.410234
 21
13.720271
  0
LINE
  8
0
  6
CONTINUOUS
 62
     7
 10
-11.910245
 20
14.220278
 11
-12.410235
 21
13.720287
  0
LINE
  8
0
  6
CONTINUOUS
 62
     7
 10
-11.910234
 20
35.220261
 11
-11.910234
 21
14.220271
  0
LINE
  8
0
  6
CONTINUOUS
 62
     7
 10
-12.410234
 20
15.327052
 11
-21.410234
 21
15.327052
  0
LINE
  8
0
  6
CONTINUOUS
 62
     7
 10
-12.410234
 20
41.853508
 11
-21.410234
 21
41.853508
  0
LINE
  8
0
  6
CONTINUOUS
 62
     7
 10
-12.410234
 20
55.113472
 11
-21.410234
 21
55.113472
  0
LINE
  8
0
  6
CONTINUOUS
 62
     7
 10
-11.910234
 20
35.220261
 11
-11.910234
 21
56.220261
  0
LINE
  8
0
  6
CONTINUOUS
 62
     7
 10
-11.910243
 20
56.220261
 11
-12.410244
 21
56.720264
  0
LINE
  8
0
  6
CONTINUOUS
 62
     7
 10
-12.410234
 20
55.113472
 11
-12.410234
 21
56.720261
  0
LINE
  8
0
  6
CONTINUOUS
 62
     7
 10
-12.410234
 20
41.853508
 11
-12.410234
 21
45.732643
  0
LINE
  8
0
  6
CONTINUOUS
 62
     7
 10
-12.410234
 20
56.720261
 11
-21.410234
 21
56.720261
  0
LINE
  8
0
  6
CONTINUOUS
 62
     7
 10
-26.410234
 20
35.220261
 11
-26.410234
 21
51.720261
  0
LINE
  8
0
  6
CONTINUOUS
 62
     7
 10
-21.410234
 20
35.220261
 11
-21.410234
 21
56.720261
  0
LINE
  8
0
  6
CONTINUOUS
 62
     7
 10
-12.410234
 20
45.732643
 11
-21.410234
 21
45.732643
  0
LINE
  8
0
  6
CONTINUOUS
 62
     7
 10
4.4684582
 20
68.220268
 11
4.4684582
 21
76.220268
  0
LINE
  8
0
  6
CONTINUOUS
 62
     7
 10
4.4684582
 20
68.220268
 11
3.5897653
 21
68.220268
  0
LINE
  8
0
  6
CONTINUOUS
 62
     7
 10
14.790785
 20
68.220268
 11
14.790785
 21
76.220268
  0
LINE
  8
0
  6
CONTINUOUS
 62
     7
 10
14.790785
 20
68.220268
 11
12.669447
 21
68.220268
  0
LINE
  8
0
  6
CONTINUOUS
 62
     7
 10
20.589766
 20
81.220268
 11
8.5897655
 21
81.220268
  0
LINE
  8
0
  6
CONTINUOUS
 62
     7
 10
3.5897622
 20
68.220253
 11
4.0897627
 21
67.720253
  0
LINE
  8
0
  6
CONTINUOUS
 62
     7
 10
3.5897653
 20
68.220268
 11
3.5897653
 21
76.220268
  0
LINE
  8
0
  6
CONTINUOUS
 62
     7
 10
12.669447
 20
68.220268
 11
12.669447
 21
76.220268
  0
LINE
  8
0
  6
CONTINUOUS
 62
     7
 10
20.589766
 20
76.220268
 11
3.5897653
 21
76.220268
  0
LINE
  8
0
  6
CONTINUOUS
 62
     7
 10
4.4684582
 20
68.220268
 11
4.4684582
 21
76.220268
  0
LINE
  8
0
  6
CONTINUOUS
 62
     7
 10
4.4684582
 20
68.220268
 11
3.5897653
 21
68.220268
  0
LINE
  8
0
  6
CONTINUOUS
 62
     7
 10
14.790785
 20
68.220268
 11
14.790785
 21
76.220268
  0
LINE
  8
0
  6
CONTINUOUS
 62
     7
 10
14.790785
 20
68.220268
 11
12.669447
 21
68.220268
  0
LINE
  8
0
  6
CONTINUOUS
 62
     7
 10
20.589766
 20
81.220268
 11
8.5897655
 21
81.220268
  0
LINE
  8
0
  6
CONTINUOUS
 62
     7
 10
3.5897622
 20
68.220253
 11
4.0897627
 21
67.720253
  0
LINE
  8
0
  6
CONTINUOUS
 62
     7
 10
3.5897653
 20
68.220268
 11
3.5897653
 21
76.220268
  0
LINE
  8
0
  6
CONTINUOUS
 62
     7
 10
12.669447
 20
68.220268
 11
12.669447
 21
76.220268
  0
LINE
  8
0
  6
CONTINUOUS
 62
     7
 10
20.589766
 20
67.720268
 11
4.0897655
 21
67.720268
  0
LINE
  8
0
  6
CONTINUOUS
 62
     7
 10
-8.4102345
 20
14.653796
 11
-11.910234
 21
14.653796
  0
LINE
  8
0
  6
CONTINUOUS
 62
     7
 10
-8.4102345
 20
55.943802
 11
-11.910234
 21
55.943802
  0
LINE
  8
0
  6
CONTINUOUS
 62
     7
 10
4.5265942
 20
67.720268
 11
4.5265942
 21
64.320259
  0
LINE
  8
0
  6
CONTINUOUS
 62
     7
 10
-215.61086
 20
-39.896065
 11
-215.61086
 21
-43.296062
  0
LINE
  8
0
  6
CONTINUOUS
 62
     7
 10
-195.99149
 20
-50.828014
 11
-192.39148
 21
-50.828014
  0
LINE
  8
0
  6
CONTINUOUS
 62
     7
 10
-195.99149
 20
-97.638313
 11
-192.39148
 21
-97.638313
  0
LINE
  8
0
  6
CONTINUOUS
 62
     7
 10
-243.99149
 20
-43.29607
 11
-244.49149
 21
-43.79607
  0
LINE
  8
0
  6
CONTINUOUS
 62
     7
 10
-244.49149
 20
-43.796062
 11
-244.49149
 21
-44.896065
  0
LINE
  8
0
  6
CONTINUOUS
 62
     7
 10
-248.49149
 20
-48.896065
 11
-262.49152
 21
-48.896065
  0
LINE
  8
0
  6
CONTINUOUS
 62
     7
 10
-262.49149
 20
-48.896065
 11
-262.99149
 21
-49.396065
  0
LINE
  8
0
  6
CONTINUOUS
 62
     7
 10
-262.99152
 20
-49.396061
 11
-262.99152
 21
-74.396065
  0
LINE
  8
0
  6
CONTINUOUS
 62
     7
 10
-262.99152
 20
-99.396065
 11
-262.99152
 21
-74.396065
  0
LINE
  8
0
  6
CONTINUOUS
 62
     7
 10
-262.49149
 20
-99.896065
 11
-262.99149
 21
-99.396065
  0
LINE
  8
0
  6
CONTINUOUS
 62
     7
 10
-260.49152
 20
-99.896057
 11
-262.49152
 21
-99.896057
  0
LINE
  8
0
  6
CONTINUOUS
 62
     7
 10
-243.99149
 20
-43.296062
 11
-229.49149
 21
-43.296062
  0
LINE
  8
0
  6
CONTINUOUS
 62
     7
 10
-253.50937
 20
-93.396065
 11
-229.49149
 21
-93.396065
  0
LINE
  8
0
  6
CONTINUOUS
 62
     7
 10
-244.49149
 20
-55.396065
 11
-253.49149
 21
-55.396065
  0
LINE
  8
0
  6
CONTINUOUS
 62
     7
 10
-260.49152
 20
-48.896065
 11
-260.49152
 21
-74.396065
  0
LINE
  8
0
  6
CONTINUOUS
 62
     7
 10
-260.49152
 20
-99.396065
 11
-260.49152
 21
-74.396065
  0
LINE
  8
0
  6
CONTINUOUS
 62
     7
 10
-244.49149
 20
-45.296062
 11
-229.49149
 21
-45.296062
  0
LINE
  8
0
  6
CONTINUOUS
 62
     7
 10
-267.09152
 20
-63.226215
 11
-277.49152
 21
-63.226215
  0
LINE
  8
0
  6
CONTINUOUS
 62
     7
 10
-267.09152
 20
-85.56591
 11
-277.49152
 21
-85.56591
  0
LINE
  8
0
  6
CONTINUOUS
 62
     7
 10
-266.59152
 20
-74.396065
 11
-266.59152
 21
-98.396065
  0
LINE
  8
0
  6
CONTINUOUS
 62
     7
 10
-277.49152
 20
-74.396065
 11
-277.49152
 21
-98.896065
  0
LINE
  8
0
  6
CONTINUOUS
 62
     7
 10
-267.09152
 20
-50.917679
 11
-267.09152
 21
-49.896065
  0
LINE
  8
0
  6
CONTINUOUS
 62
     7
 10
-267.09152
 20
-50.917679
 11
-277.49152
 21
-50.917679
  0
LINE
  8
0
  6
CONTINUOUS
 62
     7
 10
-267.09152
 20
-98.896065
 11
-277.49152
 21
-98.896065
  0
LINE
  8
0
  6
CONTINUOUS
 62
     7
 10
-267.09152
 20
-65.692612
 11
-277.49152
 21
-65.692612
  0
LINE
  8
0
  6
CONTINUOUS
 62
     7
 10
-266.59149
 20
-98.396065
 11
-267.09149
 21
-98.896072
  0
LINE
  8
0
  6
CONTINUOUS
 62
     7
 10
-282.49152
 20
-74.396065
 11
-282.49152
 21
-93.896065
  0
LINE
  8
0
  6
CONTINUOUS
 62
     7
 10
-267.09152
 20
-83.09951
 11
-267.09152
 21
-85.56591
  0
LINE
  8
0
  6
CONTINUOUS
 62
     7
 10
-267.09152
 20
-83.09951
 11
-277.49152
 21
-83.09951
  0
LINE
  8
0
  6
CONTINUOUS
 62
     7
 10
-267.09152
 20
-65.692612
 11
-267.09152
 21
-63.226215
  0
LINE
  8
0
  6
CONTINUOUS
 62
     7
 10
-267.09152
 20
-97.874443
 11
-277.49152
 21
-97.874443
  0
LINE
  8
0
  6
CONTINUOUS
 62
     7
 10
-267.09152
 20
-97.874443
 11
-267.09152
 21
-98.896065
  0
LINE
  8
0
  6
CONTINUOUS
 62
     7
 10
-282.49152
 20
-74.396065
 11
-282.49152
 21
-54.896065
  0
LINE
  8
0
  6
CONTINUOUS
 62
     7
 10
-266.59149
 20
-50.396065
 11
-267.09149
 21
-49.896065
  0
LINE
  8
0
  6
CONTINUOUS
 62
     7
 10
-267.09152
 20
-49.896065
 11
-277.49152
 21
-49.896065
  0
LINE
  8
0
  6
CONTINUOUS
 62
     7
 10
-277.49152
 20
-74.396065
 11
-277.49152
 21
-49.896065
  0
LINE
  8
0
  6
CONTINUOUS
 62
     7
 10
-266.59152
 20
-74.396065
 11
-266.59152
 21
-50.396065
  0
LINE
  8
0
  6
CONTINUOUS
 62
     7
 10
-267.09152
 20
-63.226215
 11
-277.49152
 21
-63.226215
  0
LINE
  8
0
  6
CONTINUOUS
 62
     7
 10
-267.09152
 20
-85.56591
 11
-277.49152
 21
-85.56591
  0
LINE
  8
0
  6
CONTINUOUS
 62
     7
 10
-266.59152
 20
-74.396065
 11
-266.59152
 21
-98.396065
  0
LINE
  8
0
  6
CONTINUOUS
 62
     7
 10
-277.49152
 20
-74.396065
 11
-277.49152
 21
-98.896065
  0
LINE
  8
0
  6
CONTINUOUS
 62
     7
 10
-267.09152
 20
-50.917679
 11
-267.09152
 21
-49.896065
  0
LINE
  8
0
  6
CONTINUOUS
 62
     7
 10
-267.09152
 20
-50.917679
 11
-277.49152
 21
-50.917679
  0
LINE
  8
0
  6
CONTINUOUS
 62
     7
 10
-267.09152
 20
-98.896065
 11
-277.49152
 21
-98.896065
  0
LINE
  8
0
  6
CONTINUOUS
 62
     7
 10
-267.09152
 20
-65.692612
 11
-277.49152
 21
-65.692612
  0
LINE
  8
0
  6
CONTINUOUS
 62
     7
 10
-266.59149
 20
-98.396065
 11
-267.09149
 21
-98.896072
  0
LINE
  8
0
  6
CONTINUOUS
 62
     7
 10
-282.49152
 20
-74.396065
 11
-282.49152
 21
-93.896065
  0
LINE
  8
0
  6
CONTINUOUS
 62
     7
 10
-267.09152
 20
-83.09951
 11
-267.09152
 21
-85.56591
  0
LINE
  8
0
  6
CONTINUOUS
 62
     7
 10
-267.09152
 20
-83.09951
 11
-277.49152
 21
-83.09951
  0
LINE
  8
0
  6
CONTINUOUS
 62
     7
 10
-267.09152
 20
-65.692612
 11
-267.09152
 21
-63.226215
  0
LINE
  8
0
  6
CONTINUOUS
 62
     7
 10
-267.09152
 20
-97.874443
 11
-277.49152
 21
-97.874443
  0
LINE
  8
0
  6
CONTINUOUS
 62
     7
 10
-267.09152
 20
-97.874443
 11
-267.09152
 21
-98.896065
  0
LINE
  8
0
  6
CONTINUOUS
 62
     7
 10
-282.49152
 20
-74.396065
 11
-282.49152
 21
-54.896065
  0
LINE
  8
0
  6
CONTINUOUS
 62
     7
 10
-266.59149
 20
-50.396065
 11
-267.09149
 21
-49.896065
  0
LINE
  8
0
  6
CONTINUOUS
 62
     7
 10
-267.09152
 20
-49.896065
 11
-277.49152
 21
-49.896065
  0
LINE
  8
0
  6
CONTINUOUS
 62
     7
 10
-277.49152
 20
-74.396065
 11
-277.49152
 21
-49.896065
  0
LINE
  8
0
  6
CONTINUOUS
 62
     7
 10
-266.59152
 20
-74.396065
 11
-266.59152
 21
-50.396065
  0
LINE
  8
0
  6
CONTINUOUS
 62
     7
 10
-229.49149
 20
-28.396065
 11
-239.99149
 21
-28.396065
  0
LINE
  8
0
  6
CONTINUOUS
 62
     7
 10
-243.11281
 20
-39.396065
 11
-243.99149
 21
-39.396065
  0
LINE
  8
0
  6
CONTINUOUS
 62
     7
 10
-243.99149
 20
-39.396065
 11
-243.99149
 21
-32.396065
  0
LINE
  8
0
  6
CONTINUOUS
 62
     7
 10
-243.49149
 20
-39.896065
 11
-243.99149
 21
-39.396065
  0
LINE
  8
0
  6
CONTINUOUS
 62
     7
 10
-234.25494
 20
-39.396065
 11
-236.37683
 21
-39.396065
  0
LINE
  8
0
  6
CONTINUOUS
 62
     7
 10
-243.11281
 20
-39.396065
 11
-243.11281
 21
-32.396065
  0
LINE
  8
0
  6
CONTINUOUS
 62
     7
 10
-234.25494
 20
-39.396065
 11
-234.25494
 21
-32.396065
  0
LINE
  8
0
  6
CONTINUOUS
 62
     7
 10
-236.37683
 20
-39.396065
 11
-236.37683
 21
-32.396065
  0
LINE
  8
0
  6
CONTINUOUS
 62
     7
 10
-229.49149
 20
-32.396065
 11
-243.99149
 21
-32.396065
  0
LINE
  8
0
  6
CONTINUOUS
 62
     7
 10
-229.49149
 20
-39.896065
 11
-243.49149
 21
-39.896065
  0
LINE
  8
0
  6
CONTINUOUS
 62
     7
 10
-243.37212
 20
-39.896065
 11
-243.37212
 21
-43.296062
  0
LINE
  8
0
  6
CONTINUOUS
 62
     7
 10
-262.99152
 20
-50.828014
 11
-266.59152
 21
-50.828014
  0
LINE
  8
0
  6
CONTINUOUS
 62
     7
 10
-262.99152
 20
-97.638313
 11
-266.59152
 21
-97.638313
  0
LINE
  8
0
  6
CONTINUOUS
 62
     7
 10
-65.87307
 20
-51.781048
 11
-62.273067
 21
-51.781048
  0
LINE
  8
0
  6
CONTINUOUS
 62
     7
 10
-65.87307
 20
-99.256897
 11
-62.273067
 21
-99.256897
  0
LINE
  8
0
  6
CONTINUOUS
 62
     7
 10
-83.260643
 20
-41.07095
 11
-83.260643
 21
-44.470947
  0
LINE
  8
0
  6
CONTINUOUS
 62
     7
 10
-132.37306
 20
-50.070942
 11
-132.87306
 21
-50.570953
  0
LINE
  8
0
  6
CONTINUOUS
 62
     7
 10
-132.87306
 20
-50.570946
 11
-132.87306
 21
-75.570946
  0
LINE
  8
0
  6
CONTINUOUS
 62
     7
 10
-132.87306
 20
-100.57095
 11
-132.87306
 21
-75.570946
  0
LINE
  8
0
  6
CONTINUOUS
 62
     7
 10
-132.37306
 20
-101.07095
 11
-132.87306
 21
-100.57095
  0
LINE
  8
0
  6
CONTINUOUS
 62
     7
 10
-123.39095
 20
-94.570946
 11
-99.37307
 21
-94.570946
  0
LINE
  8
0
  6
CONTINUOUS
 62
     7
 10
-116.37307
 20
-44.470947
 11
-99.37307
 21
-44.470947
  0
LINE
  8
0
  6
CONTINUOUS
 62
     7
 10
-116.37308
 20
-44.470943
 11
-116.87307
 21
-44.970932
  0
LINE
  8
0
  6
PHANTOM
 62
     7
 10
-112.37307
 20
-52.280422
 11
-112.37307
 21
-52.57095
  0
LINE
  8
0
  6
CONTINUOUS
 62
     7
 10
-116.87307
 20
-44.970947
 11
-116.87307
 21
-46.070953
  0
LINE
  8
0
  6
CONTINUOUS
 62
     7
 10
-132.37306
 20
-50.070953
 11
-120.87307
 21
-50.070953
  0
LINE
  8
0
  6
CONTINUOUS
 62
     7
 10
-116.37307
 20
-56.570946
 11
-123.37307
 21
-56.570946
  0
LINE
  8
0
  6
CONTINUOUS
 62
     7
 10
-130.35518
 20
-50.570946
 11
-130.35518
 21
-75.570946
  0
LINE
  8
0
  6
CONTINUOUS
 62
     7
 10
-130.37306
 20
-100.57095
 11
-130.37306
 21
-75.570946
  0
LINE
  8
0
  6
CONTINUOUS
 62
     7
 10
-116.87307
 20
-46.470947
 11
-99.37307
 21
-46.470947
  0
LINE
  8
0
  6
CONTINUOUS
 62
     7
 10
-136.97307
 20
-64.401093
 11
-147.37306
 21
-64.401093
  0
LINE
  8
0
  6
CONTINUOUS
 62
     7
 10
-136.97307
 20
-86.740799
 11
-147.37306
 21
-86.740799
  0
LINE
  8
0
  6
CONTINUOUS
 62
     7
 10
-136.47307
 20
-75.570946
 11
-136.47307
 21
-99.570946
  0
LINE
  8
0
  6
CONTINUOUS
 62
     7
 10
-147.37306
 20
-75.570946
 11
-147.37306
 21
-100.07095
  0
LINE
  8
0
  6
CONTINUOUS
 62
     7
 10
-136.97307
 20
-52.092564
 11
-136.97307
 21
-51.07095
  0
LINE
  8
0
  6
CONTINUOUS
 62
     7
 10
-136.97307
 20
-52.092564
 11
-147.37306
 21
-52.092564
  0
LINE
  8
0
  6
CONTINUOUS
 62
     7
 10
-136.97307
 20
-100.07095
 11
-147.37306
 21
-100.07095
  0
LINE
  8
0
  6
CONTINUOUS
 62
     7
 10
-136.97307
 20
-66.8675
 11
-147.37306
 21
-66.8675
  0
LINE
  8
0
  6
CONTINUOUS
 62
     7
 10
-136.47305
 20
-99.570946
 11
-136.97305
 21
-100.07095
  0
LINE
  8
0
  6
CONTINUOUS
 62
     7
 10
-152.37306
 20
-75.570946
 11
-152.37306
 21
-95.070946
  0
LINE
  8
0
  6
CONTINUOUS
 62
     7
 10
-136.97307
 20
-84.274391
 11
-136.97307
 21
-86.740799
  0
LINE
  8
0
  6
CONTINUOUS
 62
     7
 10
-136.97307
 20
-84.274391
 11
-147.37306
 21
-84.274391
  0
LINE
  8
0
  6
CONTINUOUS
 62
     7
 10
-136.97307
 20
-66.8675
 11
-136.97307
 21
-64.401093
  0
LINE
  8
0
  6
CONTINUOUS
 62
     7
 10
-136.97307
 20
-99.049332
 11
-147.37306
 21
-99.049332
  0
LINE
  8
0
  6
CONTINUOUS
 62
     7
 10
-136.97307
 20
-99.049332
 11
-136.97307
 21
-100.07095
  0
LINE
  8
0
  6
CONTINUOUS
 62
     7
 10
-152.37306
 20
-75.570946
 11
-152.37306
 21
-56.07095
  0
LINE
  8
0
  6
CONTINUOUS
 62
     7
 10
-136.47307
 20
-51.570942
 11
-136.97307
 21
-51.070942
  0
LINE
  8
0
  6
CONTINUOUS
 62
     7
 10
-136.97307
 20
-51.07095
 11
-147.37306
 21
-51.07095
  0
LINE
  8
0
  6
CONTINUOUS
 62
     7
 10
-147.37306
 20
-75.570946
 11
-147.37306
 21
-51.07095
  0
LINE
  8
0
  6
CONTINUOUS
 62
     7
 10
-136.47307
 20
-75.570946
 11
-136.47307
 21
-51.57095
  0
LINE
  8
0
  6
CONTINUOUS
 62
     7
 10
-136.97307
 20
-64.401093
 11
-147.37306
 21
-64.401093
  0
LINE
  8
0
  6
CONTINUOUS
 62
     7
 10
-136.97307
 20
-86.740799
 11
-147.37306
 21
-86.740799
  0
LINE
  8
0
  6
CONTINUOUS
 62
     7
 10
-136.47307
 20
-75.570946
 11
-136.47307
 21
-99.570946
  0
LINE
  8
0
  6
CONTINUOUS
 62
     7
 10
-147.37306
 20
-75.570946
 11
-147.37306
 21
-100.07095
  0
LINE
  8
0
  6
CONTINUOUS
 62
     7
 10
-136.97307
 20
-52.092564
 11
-136.97307
 21
-51.07095
  0
LINE
  8
0
  6
CONTINUOUS
 62
     7
 10
-136.97307
 20
-52.092564
 11
-147.37306
 21
-52.092564
  0
LINE
  8
0
  6
CONTINUOUS
 62
     7
 10
-136.97307
 20
-100.07095
 11
-147.37306
 21
-100.07095
  0
LINE
  8
0
  6
CONTINUOUS
 62
     7
 10
-136.97307
 20
-66.8675
 11
-147.37306
 21
-66.8675
  0
LINE
  8
0
  6
CONTINUOUS
 62
     7
 10
-136.47305
 20
-99.570946
 11
-136.97305
 21
-100.07095
  0
LINE
  8
0
  6
CONTINUOUS
 62
     7
 10
-152.37306
 20
-75.570946
 11
-152.37306
 21
-95.070946
  0
LINE
  8
0
  6
CONTINUOUS
 62
     7
 10
-136.97307
 20
-84.274391
 11
-136.97307
 21
-86.740799
  0
LINE
  8
0
  6
CONTINUOUS
 62
     7
 10
-136.97307
 20
-84.274391
 11
-147.37306
 21
-84.274391
  0
LINE
  8
0
  6
CONTINUOUS
 62
     7
 10
-136.97307
 20
-66.8675
 11
-136.97307
 21
-64.401093
  0
LINE
  8
0
  6
CONTINUOUS
 62
     7
 10
-136.97307
 20
-99.049332
 11
-147.37306
 21
-99.049332
  0
LINE
  8
0
  6
CONTINUOUS
 62
     7
 10
-136.97307
 20
-99.049332
 11
-136.97307
 21
-100.07095
  0
LINE
  8
0
  6
CONTINUOUS
 62
     7
 10
-152.37306
 20
-75.570946
 11
-152.37306
 21
-56.07095
  0
LINE
  8
0
  6
CONTINUOUS
 62
     7
 10
-136.47307
 20
-51.570942
 11
-136.97307
 21
-51.070942
  0
LINE
  8
0
  6
CONTINUOUS
 62
     7
 10
-136.97307
 20
-51.07095
 11
-147.37306
 21
-51.07095
  0
LINE
  8
0
  6
CONTINUOUS
 62
     7
 10
-147.37306
 20
-75.570946
 11
-147.37306
 21
-51.07095
  0
LINE
  8
0
  6
CONTINUOUS
 62
     7
 10
-136.47307
 20
-75.570946
 11
-136.47307
 21
-51.57095
  0
LINE
  8
0
  6
CONTINUOUS
 62
     7
 10
-115.49438
 20
-40.570953
 11
-115.49438
 21
-32.57095
  0
LINE
  8
0
  6
CONTINUOUS
 62
     7
 10
-115.49438
 20
-40.570953
 11
-116.37307
 21
-40.570953
  0
LINE
  8
0
  6
CONTINUOUS
 62
     7
 10
-105.17205
 20
-40.570953
 11
-105.17205
 21
-32.57095
  0
LINE
  8
0
  6
CONTINUOUS
 62
     7
 10
-105.17205
 20
-40.570953
 11
-107.29336
 21
-40.570953
  0
LINE
  8
0
  6
CONTINUOUS
 62
     7
 10
-116.37306
 20
-40.570946
 11
-115.87306
 21
-41.070946
  0
LINE
  8
0
  6
CONTINUOUS
 62
     7
 10
-116.37307
 20
-40.57095
 11
-116.37307
 21
-32.57095
  0
LINE
  8
0
  6
CONTINUOUS
 62
     7
 10
-107.29336
 20
-40.570953
 11
-107.29336
 21
-32.57095
  0
LINE
  8
0
  6
CONTINUOUS
 62
     7
 10
-99.37307
 20
-32.57095
 11
-116.37307
 21
-32.57095
  0
LINE
  8
0
  6
CONTINUOUS
 62
     7
 10
-115.49438
 20
-40.570953
 11
-115.49438
 21
-32.57095
  0
LINE
  8
0
  6
CONTINUOUS
 62
     7
 10
-115.49438
 20
-40.570953
 11
-116.37307
 21
-40.570953
  0
LINE
  8
0
  6
CONTINUOUS
 62
     7
 10
-105.17205
 20
-40.570953
 11
-105.17205
 21
-32.57095
  0
LINE
  8
0
  6
CONTINUOUS
 62
     7
 10
-105.17205
 20
-40.570953
 11
-107.29336
 21
-40.570953
  0
LINE
  8
0
  6
CONTINUOUS
 62
     7
 10
-99.37307
 20
-27.57095
 11
-111.37307
 21
-27.57095
  0
LINE
  8
0
  6
CONTINUOUS
 62
     7
 10
-116.37306
 20
-40.570946
 11
-115.87306
 21
-41.070946
  0
LINE
  8
0
  6
CONTINUOUS
 62
     7
 10
-116.37307
 20
-40.57095
 11
-116.37307
 21
-32.57095
  0
LINE
  8
0
  6
CONTINUOUS
 62
     7
 10
-107.29336
 20
-40.570953
 11
-107.29336
 21
-32.57095
  0
LINE
  8
0
  6
CONTINUOUS
 62
     7
 10
-99.37307
 20
-41.07095
 11
-115.87307
 21
-41.07095
  0
LINE
  8
0
  6
CONTINUOUS
 62
     7
 10
-132.87306
 20
-51.781048
 11
-136.47307
 21
-51.781048
  0
LINE
  8
0
  6
CONTINUOUS
 62
     7
 10
-132.87306
 20
-99.256897
 11
-136.47307
 21
-99.256897
  0
LINE
  8
0
  6
CONTINUOUS
 62
     7
 10
-115.4855
 20
-41.07095
 11
-115.4855
 21
-44.470947
  0
LINE
  8
0
  6
CONTINUOUS
 62
     7
 10
49.536968
 20
-43.454998
 11
49.536968
 21
-46.954998
  0
LINE
  8
0
  6
CONTINUOUS
 62
     7
 10
62.417614
 20
-52.830647
 11
66.017593
 21
-52.830647
  0
LINE
  8
0
  6
CONTINUOUS
 62
     7
 10
62.417614
 20
-98.975395
 11
66.017593
 21
-98.975395
  0
LINE
  8
0
  6
CONTINUOUS
 62
     7
 10
-4.0824318
 20
-50.45499
 11
-4.5824218
 21
-50.954979
  0
LINE
  8
0
  6
CONTINUOUS
 62
     7
 10
-4.5824142
 20
-50.954994
 11
-4.5824142
 21
-75.954994
  0
LINE
  8
0
  6
CONTINUOUS
 62
     7
 10
-4.5824142
 20
-100.955
 11
-4.5824142
 21
-75.954994
  0
LINE
  8
0
  6
CONTINUOUS
 62
     7
 10
-4.0824032
 20
-101.45499
 11
-4.5824146
 21
-100.95498
  0
LINE
  8
0
  6
CONTINUOUS
 62
     7
 10
-2.0824142
 20
-101.45499
 11
-4.0824142
 21
-101.45499
  0
LINE
  8
0
  6
CONTINUOUS
 62
     7
 10
4.8997025
 20
-94.955002
 11
28.917585
 21
-94.955002
  0
LINE
  8
0
  6
CONTINUOUS
 62
     7
 10
7.4175925
 20
-46.955017
 11
6.9176025
 21
-47.455006
  0
LINE
  8
0
  6
CONTINUOUS
 62
     7
 10
-4.0824142
 20
-50.455002
 11
4.9175858
 21
-50.455002
  0
LINE
  8
0
  6
CONTINUOUS
 62
     7
 10
7.4175858
 20
-46.954998
 11
28.917585
 21
-46.954998
  0
LINE
  8
0
  6
CONTINUOUS
 62
     7
 10
12.917586
 20
-53.954998
 11
12.917586
 21
-53.954998
  0
LINE
  8
0
  6
CONTINUOUS
 62
     7
 10
9.422164
 20
-56.954998
 11
4.9175858
 21
-56.954998
  0
LINE
  8
0
  6
CONTINUOUS
 62
     7
 10
6.9175858
 20
-47.454998
 11
6.9175858
 21
-48.455002
  0
LINE
  8
0
  6
CONTINUOUS
 62
     7
 10
6.9175858
 20
-48.954998
 11
28.917585
 21
-48.954998
  0
LINE
  8
0
  6
CONTINUOUS
 62
     7
 10
-2.0645308
 20
-50.954994
 11
-2.0645308
 21
-75.954994
  0
LINE
  8
0
  6
CONTINUOUS
 62
     7
 10
-2.0824142
 20
-101.45499
 11
-2.0824142
 21
-75.954994
  0
LINE
  8
0
  6
CONTINUOUS
 62
     7
 10
-8.6824198
 20
-64.785149
 11
-19.082415
 21
-64.785149
  0
LINE
  8
0
  6
CONTINUOUS
 62
     7
 10
-8.6824198
 20
-87.124847
 11
-19.082415
 21
-87.124847
  0
LINE
  8
0
  6
CONTINUOUS
 62
     7
 10
-8.1824207
 20
-75.954994
 11
-8.1824207
 21
-99.954994
  0
LINE
  8
0
  6
CONTINUOUS
 62
     7
 10
-19.082415
 20
-75.954994
 11
-19.082415
 21
-100.45499
  0
LINE
  8
0
  6
CONTINUOUS
 62
     7
 10
-8.6824198
 20
-52.476612
 11
-8.6824198
 21
-51.454998
  0
LINE
  8
0
  6
CONTINUOUS
 62
     7
 10
-8.6824198
 20
-52.476612
 11
-19.082415
 21
-52.476612
  0
LINE
  8
0
  6
CONTINUOUS
 62
     7
 10
-8.6824198
 20
-100.45499
 11
-19.082415
 21
-100.45499
  0
LINE
  8
0
  6
CONTINUOUS
 62
     7
 10
-8.6824198
 20
-67.251549
 11
-19.082415
 21
-67.251549
  0
LINE
  8
0
  6
CONTINUOUS
 62
     7
 10
-8.1824055
 20
-99.954979
 11
-8.6824169
 21
-100.45499
  0
LINE
  8
0
  6
CONTINUOUS
 62
     7
 10
-24.082415
 20
-75.954994
 11
-24.082415
 21
-95.454994
  0
LINE
  8
0
  6
CONTINUOUS
 62
     7
 10
-8.6824198
 20
-84.658447
 11
-8.6824198
 21
-87.124847
  0
LINE
  8
0
  6
CONTINUOUS
 62
     7
 10
-8.6824198
 20
-84.658447
 11
-19.082415
 21
-84.658447
  0
LINE
  8
0
  6
CONTINUOUS
 62
     7
 10
-8.6824198
 20
-67.251549
 11
-8.6824198
 21
-64.785149
  0
LINE
  8
0
  6
CONTINUOUS
 62
     7
 10
-8.6824198
 20
-99.43338
 11
-19.082415
 21
-99.43338
  0
LINE
  8
0
  6
CONTINUOUS
 62
     7
 10
-8.6824198
 20
-99.43338
 11
-8.6824198
 21
-100.45499
  0
LINE
  8
0
  6
CONTINUOUS
 62
     7
 10
-24.082415
 20
-75.954994
 11
-24.082415
 21
-56.454998
  0
LINE
  8
0
  6
CONTINUOUS
 62
     7
 10
-8.1824341
 20
-51.955002
 11
-8.6824236
 21
-51.455013
  0
LINE
  8
0
  6
CONTINUOUS
 62
     7
 10
-8.6824198
 20
-51.454998
 11
-19.082415
 21
-51.454998
  0
LINE
  8
0
  6
CONTINUOUS
 62
     7
 10
-19.082415
 20
-75.954994
 11
-19.082415
 21
-51.454998
  0
LINE
  8
0
  6
CONTINUOUS
 62
     7
 10
-8.1824207
 20
-75.954994
 11
-8.1824207
 21
-51.954998
  0
LINE
  8
0
  6
CONTINUOUS
 62
     7
 10
9.0243673
 20
-42.954998
 11
9.0243673
 21
-33.954998
  0
LINE
  8
0
  6
CONTINUOUS
 62
     7
 10
7.9175849
 20
-43.454994
 11
7.4175954
 21
-42.955006
  0
LINE
  8
0
  6
CONTINUOUS
 62
     7
 10
9.0243673
 20
-42.954998
 11
7.4175858
 21
-42.954998
  0
LINE
  8
0
  6
CONTINUOUS
 62
     7
 10
22.284346
 20
-42.954998
 11
18.405195
 21
-42.954998
  0
LINE
  8
0
  6
CONTINUOUS
 62
     7
 10
7.4175858
 20
-42.954998
 11
7.4175858
 21
-33.954998
  0
LINE
  8
0
  6
CONTINUOUS
 62
     7
 10
28.917585
 20
-28.954998
 11
12.417586
 21
-28.954998
  0
LINE
  8
0
  6
CONTINUOUS
 62
     7
 10
28.917585
 20
-33.954998
 11
7.4175858
 21
-33.954998
  0
LINE
  8
0
  6
CONTINUOUS
 62
     7
 10
18.405195
 20
-42.954998
 11
18.405195
 21
-33.954998
  0
LINE
  8
0
  6
CONTINUOUS
 62
     7
 10
22.284346
 20
-42.954998
 11
22.284346
 21
-33.954998
  0
LINE
  8
0
  6
CONTINUOUS
 62
     7
 10
28.917585
 20
-43.454998
 11
7.9175863
 21
-43.454998
  0
LINE
  8
0
  6
CONTINUOUS
 62
     7
 10
8.2982321
 20
-43.454998
 11
8.2982321
 21
-46.954998
  0
LINE
  8
0
  6
CONTINUOUS
 62
     7
 10
-4.5824142
 20
-52.830647
 11
-8.1824207
 21
-52.830647
  0
LINE
  8
0
  6
CONTINUOUS
 62
     7
 10
-4.5824142
 20
-98.975395
 11
-8.1824207
 21
-98.975395
  0
LINE
  8
0
  6
CONTINUOUS
 62
     7
 10
-162.27542
 20
-237.92941
 11
-158.67542
 21
-237.92941
  0
LINE
  8
0
  6
CONTINUOUS
 62
     7
 10
-162.27542
 20
-294.94479
 11
-158.67542
 21
-294.94479
  0
LINE
  8
0
  6
CONTINUOUS
 62
     7
 10
-188.36215
 20
-227.04906
 11
-188.36215
 21
-230.44905
  0
LINE
  8
0
  6
CONTINUOUS
 62
     7
 10
-216.27544
 20
-230.44907
 11
-216.77545
 21
-230.94907
  0
LINE
  8
0
  6
CONTINUOUS
 62
     7
 10
-216.77542
 20
-230.94905
 11
-216.77542
 21
-232.04906
  0
LINE
  8
0
  6
CONTINUOUS
 62
     7
 10
-216.27542
 20
-230.44905
 11
-201.77542
 21
-230.44905
  0
LINE
  8
0
  6
CONTINUOUS
 62
     7
 10
-213.17542
 20
-219.54906
 11
-201.77542
 21
-219.54906
  0
LINE
  8
0
  6
CONTINUOUS
 62
     7
 10
-216.77542
 20
-243.54906
 11
-231.77544
 21
-243.54906
  0
LINE
  8
0
  6
CONTINUOUS
 62
     7
 10
-238.77544
 20
-236.04906
 11
-238.77544
 21
-236.54906
  0
LINE
  8
0
  6
CONTINUOUS
 62
     7
 10
-231.77544
 20
-289.54904
 11
-201.77542
 21
-289.54904
  0
LINE
  8
0
  6
CONTINUOUS
 62
     7
 10
-241.27542
 20
-296.54907
 11
-240.77542
 21
-297.04907
  0
LINE
  8
0
  6
CONTINUOUS
 62
     7
 10
-241.27545
 20
-236.54906
 11
-240.77544
 21
-236.04906
  0
LINE
  8
0
  6
CONTINUOUS
 62
     7
 10
-238.77544
 20
-297.04907
 11
-240.77544
 21
-297.04907
  0
LINE
  8
0
  6
CONTINUOUS
 62
     7
 10
-220.77542
 20
-236.04906
 11
-240.77544
 21
-236.04906
  0
LINE
  8
0
  6
CONTINUOUS
 62
     7
 10
-241.27544
 20
-296.54907
 11
-241.27544
 21
-266.54904
  0
LINE
  8
0
  6
CONTINUOUS
 62
     7
 10
-241.27544
 20
-236.54906
 11
-241.27544
 21
-266.54904
  0
LINE
  8
0
  6
CONTINUOUS
 62
     7
 10
-238.77544
 20
-236.54906
 11
-238.77544
 21
-266.54904
  0
LINE
  8
0
  6
CONTINUOUS
 62
     7
 10
-238.75755
 20
-296.54907
 11
-238.75755
 21
-266.54904
  0
LINE
  8
0
  6
CONTINUOUS
 62
     7
 10
-216.77542
 20
-232.44905
 11
-201.77542
 21
-232.44905
  0
LINE
  8
0
  6
CONTINUOUS
 62
     7
 10
-244.87544
 20
-266.54904
 11
-244.87544
 21
-295.54907
  0
LINE
  8
0
  6
CONTINUOUS
 62
     7
 10
-245.37544
 20
-294.14481
 11
-245.37544
 21
-296.04904
  0
LINE
  8
0
  6
CONTINUOUS
 62
     7
 10
-245.37544
 20
-276.07532
 11
-245.37544
 21
-280.67261
  0
LINE
  8
0
  6
CONTINUOUS
 62
     7
 10
-262.77542
 20
-266.54904
 11
-262.77542
 21
-290.04904
  0
LINE
  8
0
  6
CONTINUOUS
 62
     7
 10
-245.37544
 20
-296.04904
 11
-256.77542
 21
-296.04904
  0
LINE
  8
0
  6
CONTINUOUS
 62
     7
 10
-245.37544
 20
-280.67261
 11
-256.77542
 21
-280.67261
  0
LINE
  8
0
  6
CONTINUOUS
 62
     7
 10
-245.37544
 20
-294.14481
 11
-256.77542
 21
-294.14481
  0
LINE
  8
0
  6
CONTINUOUS
 62
     7
 10
-244.87543
 20
-295.54904
 11
-245.37544
 21
-296.04907
  0
LINE
  8
0
  6
CONTINUOUS
 62
     7
 10
-245.37544
 20
-257.02277
 11
-256.77542
 21
-257.02277
  0
LINE
  8
0
  6
CONTINUOUS
 62
     7
 10
-256.77542
 20
-266.54904
 11
-256.77542
 21
-296.04904
  0
LINE
  8
0
  6
CONTINUOUS
 62
     7
 10
-256.77542
 20
-266.54904
 11
-256.77542
 21
-237.04906
  0
LINE
  8
0
  6
CONTINUOUS
 62
     7
 10
-244.87544
 20
-237.54907
 11
-245.37544
 21
-237.04907
  0
LINE
  8
0
  6
CONTINUOUS
 62
     7
 10
-245.37544
 20
-238.95331
 11
-256.77542
 21
-238.95331
  0
LINE
  8
0
  6
CONTINUOUS
 62
     7
 10
-245.37544
 20
-276.07532
 11
-256.77542
 21
-276.07532
  0
LINE
  8
0
  6
CONTINUOUS
 62
     7
 10
-245.37544
 20
-252.42551
 11
-256.77542
 21
-252.42551
  0
LINE
  8
0
  6
CONTINUOUS
 62
     7
 10
-245.37544
 20
-237.04906
 11
-256.77542
 21
-237.04906
  0
LINE
  8
0
  6
CONTINUOUS
 62
     7
 10
-262.77542
 20
-266.54904
 11
-262.77542
 21
-243.04906
  0
LINE
  8
0
  6
CONTINUOUS
 62
     7
 10
-245.37544
 20
-257.02277
 11
-245.37544
 21
-252.42551
  0
LINE
  8
0
  6
CONTINUOUS
 62
     7
 10
-245.37544
 20
-238.95331
 11
-245.37544
 21
-237.04906
  0
LINE
  8
0
  6
CONTINUOUS
 62
     7
 10
-244.87544
 20
-266.54904
 11
-244.87544
 21
-237.54906
  0
LINE
  8
0
  6
CONTINUOUS
 62
     7
 10
-201.77542
 20
-215.54906
 11
-212.27542
 21
-215.54906
  0
LINE
  8
0
  6
CONTINUOUS
 62
     7
 10
-215.39673
 20
-226.54906
 11
-216.27542
 21
-226.54906
  0
LINE
  8
0
  6
CONTINUOUS
 62
     7
 10
-216.27542
 20
-226.54906
 11
-216.27542
 21
-219.54906
  0
LINE
  8
0
  6
CONTINUOUS
 62
     7
 10
-215.77545
 20
-227.04906
 11
-216.27545
 21
-226.54906
  0
LINE
  8
0
  6
CONTINUOUS
 62
     7
 10
-206.53888
 20
-226.54906
 11
-208.66077
 21
-226.54906
  0
LINE
  8
0
  6
CONTINUOUS
 62
     7
 10
-215.39673
 20
-226.54906
 11
-215.39673
 21
-219.54906
  0
LINE
  8
0
  6
CONTINUOUS
 62
     7
 10
-206.53888
 20
-226.54906
 11
-206.53888
 21
-219.54906
  0
LINE
  8
0
  6
CONTINUOUS
 62
     7
 10
-208.66077
 20
-226.54906
 11
-208.66077
 21
-219.54906
  0
LINE
  8
0
  6
CONTINUOUS
 62
     7
 10
-201.77542
 20
-219.54906
 11
-216.27542
 21
-219.54906
  0
LINE
  8
0
  6
CONTINUOUS
 62
     7
 10
-201.77542
 20
-227.04906
 11
-215.77542
 21
-227.04906
  0
LINE
  8
0
  6
CONTINUOUS
 62
     7
 10
-241.27544
 20
-237.92941
 11
-244.87544
 21
-237.92941
  0
LINE
  8
0
  6
CONTINUOUS
 62
     7
 10
-241.27544
 20
-294.94479
 11
-244.87544
 21
-294.94479
  0
LINE
  8
0
  6
CONTINUOUS
 62
     7
 10
-215.18869
 20
-227.04906
 11
-215.18869
 21
-230.44905
  0
LINE
  8
0
  6
CONTINUOUS
 62
     7
 10
-11.124373
 20
-226.92307
 11
-11.124373
 21
-230.32307
  0
LINE
  8
0
  6
CONTINUOUS
 62
     7
 10
11.984422
 20
-237.75441
 11
15.584428
 21
-237.75441
  0
LINE
  8
0
  6
CONTINUOUS
 62
     7
 10
11.984422
 20
-294.76981
 11
15.584428
 21
-294.76981
  0
LINE
  8
0
  6
CONTINUOUS
 62
     7
 10
-27.515577
 20
-230.32307
 11
-44.515579
 21
-230.32307
  0
LINE
  8
0
  6
CONTINUOUS
 62
     7
 10
-45.015579
 20
-230.82307
 11
-45.015579
 21
-231.87405
  0
LINE
  8
0
  6
CONTINUOUS
 62
     7
 10
-44.515575
 20
-230.32304
 11
-45.015587
 21
-230.82306
  0
LINE
  8
0
  6
CONTINUOUS
 62
     7
 10
-67.015579
 20
-296.37405
 11
-67.015579
 21
-266.37405
  0
LINE
  8
0
  6
CONTINUOUS
 62
     7
 10
-67.015579
 20
-236.37405
 11
-67.015579
 21
-266.37405
  0
LINE
  8
0
  6
CONTINUOUS
 62
     7
 10
-57.515579
 20
-289.37405
 11
-27.515577
 21
-289.37405
  0
LINE
  8
0
  6
CONTINUOUS
 62
     7
 10
-67.015572
 20
-296.37408
 11
-66.515587
 21
-296.87405
  0
LINE
  8
0
  6
CONTINUOUS
 62
     7
 10
-64.515579
 20
-296.87405
 11
-66.515579
 21
-296.87405
  0
LINE
  8
0
  6
CONTINUOUS
 62
     7
 10
-67.015587
 20
-236.37405
 11
-66.515587
 21
-235.87405
  0
LINE
  8
0
  6
CONTINUOUS
 62
     7
 10
-49.015579
 20
-235.87405
 11
-66.515579
 21
-235.87405
  0
LINE
  8
0
  6
CONTINUOUS
 62
     7
 10
-45.515579
 20
-243.37405
 11
-57.515579
 21
-243.37405
  0
LINE
  8
0
  6
CONTINUOUS
 62
     7
 10
-64.515579
 20
-235.87405
 11
-64.515579
 21
-236.37405
  0
LINE
  8
0
  6
CONTINUOUS
 62
     7
 10
-40.515579
 20
-238.13254
 11
-40.515579
 21
-238.47406
  0
LINE
  8
0
  6
CONTINUOUS
 62
     7
 10
-27.515577
 20
-232.32307
 11
-45.015579
 21
-232.32307
  0
LINE
  8
0
  6
CONTINUOUS
 62
     7
 10
-64.515579
 20
-236.37405
 11
-64.515579
 21
-266.37405
  0
LINE
  8
0
  6
CONTINUOUS
 62
     7
 10
-64.497696
 20
-296.37405
 11
-64.497696
 21
-266.37405
  0
LINE
  8
0
  6
CONTINUOUS
 62
     7
 10
-27.515577
 20
-213.42307
 11
-39.515579
 21
-213.42307
  0
LINE
  8
0
  6
CONTINUOUS
 62
     7
 10
-27.515577
 20
-218.42307
 11
-44.515579
 21
-218.42307
  0
LINE
  8
0
  6
CONTINUOUS
 62
     7
 10
-33.31456
 20
-226.42308
 11
-33.31456
 21
-218.42307
  0
LINE
  8
0
  6
CONTINUOUS
 62
     7
 10
-33.31456
 20
-226.42308
 11
-35.435867
 21
-226.42308
  0
LINE
  8
0
  6
CONTINUOUS
 62
     7
 10
-43.636887
 20
-226.42308
 11
-44.515579
 21
-226.42308
  0
LINE
  8
0
  6
CONTINUOUS
 62
     7
 10
-43.636887
 20
-226.42308
 11
-43.636887
 21
-218.42307
  0
LINE
  8
0
  6
CONTINUOUS
 62
     7
 10
-44.515579
 20
-226.42307
 11
-44.515579
 21
-218.42307
  0
LINE
  8
0
  6
CONTINUOUS
 62
     7
 10
-44.515553
 20
-226.42305
 11
-44.015564
 21
-226.92305
  0
LINE
  8
0
  6
CONTINUOUS
 62
     7
 10
-35.435867
 20
-226.42308
 11
-35.435867
 21
-218.42307
  0
LINE
  8
0
  6
CONTINUOUS
 62
     7
 10
-70.615585
 20
-266.37405
 11
-70.615585
 21
-295.37405
  0
LINE
  8
0
  6
CONTINUOUS
 62
     7
 10
-71.115555
 20
-293.96982
 11
-71.115555
 21
-295.87405
  0
LINE
  8
0
  6
CONTINUOUS
 62
     7
 10
-71.115555
 20
-275.90033
 11
-71.115555
 21
-280.49759
  0
LINE
  8
0
  6
CONTINUOUS
 62
     7
 10
-88.515579
 20
-266.37405
 11
-88.515579
 21
-289.87405
  0
LINE
  8
0
  6
CONTINUOUS
 62
     7
 10
-71.115585
 20
-295.87405
 11
-82.515579
 21
-295.87405
  0
LINE
  8
0
  6
CONTINUOUS
 62
     7
 10
-71.115555
 20
-280.49759
 11
-82.515579
 21
-280.49759
  0
LINE
  8
0
  6
CONTINUOUS
 62
     7
 10
-71.115555
 20
-293.96982
 11
-82.515579
 21
-293.96982
  0
LINE
  8
0
  6
CONTINUOUS
 62
     7
 10
-70.615578
 20
-295.37408
 11
-71.11557
 21
-295.87405
  0
LINE
  8
0
  6
CONTINUOUS
 62
     7
 10
-71.115555
 20
-256.84778
 11
-82.515579
 21
-256.84778
  0
LINE
  8
0
  6
CONTINUOUS
 62
     7
 10
-82.515579
 20
-266.37405
 11
-82.515579
 21
-295.87405
  0
LINE
  8
0
  6
CONTINUOUS
 62
     7
 10
-82.515579
 20
-266.37405
 11
-82.515579
 21
-236.87405
  0
LINE
  8
0
  6
CONTINUOUS
 62
     7
 10
-70.615555
 20
-237.37404
 11
-71.11557
 21
-236.87404
  0
LINE
  8
0
  6
CONTINUOUS
 62
     7
 10
-71.115555
 20
-238.77831
 11
-82.515579
 21
-238.77831
  0
LINE
  8
0
  6
CONTINUOUS
 62
     7
 10
-71.115555
 20
-275.90033
 11
-82.515579
 21
-275.90033
  0
LINE
  8
0
  6
CONTINUOUS
 62
     7
 10
-71.115555
 20
-252.2505
 11
-82.515579
 21
-252.2505
  0
LINE
  8
0
  6
CONTINUOUS
 62
     7
 10
-71.115585
 20
-236.87405
 11
-82.515579
 21
-236.87405
  0
LINE
  8
0
  6
CONTINUOUS
 62
     7
 10
-88.515579
 20
-266.37405
 11
-88.515579
 21
-242.87405
  0
LINE
  8
0
  6
CONTINUOUS
 62
     7
 10
-71.115555
 20
-256.84778
 11
-71.115555
 21
-252.2505
  0
LINE
  8
0
  6
CONTINUOUS
 62
     7
 10
-71.115555
 20
-238.77831
 11
-71.115555
 21
-236.87405
  0
LINE
  8
0
  6
CONTINUOUS
 62
     7
 10
-70.615585
 20
-266.37405
 11
-70.615585
 21
-237.37405
  0
LINE
  8
0
  6
CONTINUOUS
 62
     7
 10
-27.515577
 20
-226.92307
 11
-44.015579
 21
-226.92307
  0
LINE
  8
0
  6
CONTINUOUS
 62
     7
 10
-43.906754
 20
-226.92307
 11
-43.906754
 21
-230.32307
  0
LINE
  8
0
  6
CONTINUOUS
 62
     7
 10
-67.015579
 20
-237.75441
 11
-70.615585
 21
-237.75441
  0
LINE
  8
0
  6
CONTINUOUS
 62
     7
 10
-67.015579
 20
-294.76981
 11
-70.615585
 21
-294.76981
  0
LINE
  8
0
  6
CONTINUOUS
 62
     7
 10
-5.3882546
 20
-351.71881
 11
-4.3666177
 21
-351.71881
  0
LINE
  8
0
  6
CONTINUOUS
 62
     7
 10
-5.3882546
 20
-351.71881
 11
-5.3882546
 21
-341.31882
  0
LINE
  8
0
  6
CONTINUOUS
 62
     7
 10
-20.163187
 20
-351.71881
 11
-20.163187
 21
-341.31882
  0
LINE
  8
0
  6
CONTINUOUS
 62
     7
 10
-20.163187
 20
-351.71881
 11
-17.696787
 21
-351.71881
  0
LINE
  8
0
  6
CONTINUOUS
 62
     7
 10
-28.866617
 20
-336.31882
 11
-9.3666182
 21
-336.31882
  0
LINE
  8
0
  6
CENTER
 62
     7
 10
-28.866617
 20
-359.18292
 11
-28.866617
 21
-331.97668
  0
LINE
  8
0
  6
CONTINUOUS
 62
     7
 10
-4.8666205
 20
-352.21878
 11
-4.3666201
 21
-351.71878
  0
LINE
  8
0
  6
CONTINUOUS
 62
     7
 10
-4.3666177
 20
-351.71881
 11
-4.3666177
 21
-341.31882
  0
LINE
  8
0
  6
CONTINUOUS
 62
     7
 10
-28.866617
 20
-341.31882
 11
-4.3666177
 21
-341.31882
  0
LINE
  8
0
  6
CONTINUOUS
 62
     7
 10
-17.696787
 20
-351.71881
 11
-17.696787
 21
-341.31882
  0
LINE
  8
0
  6
CENTER
 62
     7
 10
-203.48869
 20
-339.45343
 11
-203.48869
 21
-418.03928
  0
LINE
  8
0
  6
CONTINUOUS
 62
     7
 10
-182.48869
 20
-366.31882
 11
-173.48869
 21
-366.31882
  0
LINE
  8
0
  6
CONTINUOUS
 62
     7
 10
-166.48869
 20
-358.81882
 11
-166.48869
 21
-359.31882
  0
LINE
  8
0
  6
CONTINUOUS
 62
     7
 10
-181.98868
 20
-353.31882
 11
-181.48869
 21
-353.81882
  0
LINE
  8
0
  6
CONTINUOUS
 62
     7
 10
-181.48869
 20
-353.81882
 11
-181.48869
 21
-354.81882
  0
LINE
  8
0
  6
CONTINUOUS
 62
     7
 10
-203.48869
 20
-353.31882
 11
-181.98866
 21
-353.31882
  0
LINE
  8
0
  6
CENTER
 62
     7
 10
-134.00462
 20
-389.31882
 11
-270.7793
 21
-389.31882
  0
LINE
  8
0
  6
CONTINUOUS
 62
     7
 10
-163.98869
 20
-419.31882
 11
-163.98869
 21
-389.31882
  0
LINE
  8
0
  6
CONTINUOUS
 62
     7
 10
-163.98869
 20
-359.31882
 11
-163.98869
 21
-389.31882
  0
LINE
  8
0
  6
CONTINUOUS
 62
     7
 10
-177.48869
 20
-358.81882
 11
-164.48869
 21
-358.81882
  0
LINE
  8
0
  6
CONTINUOUS
 62
     7
 10
-163.98866
 20
-359.31882
 11
-164.48868
 21
-358.81882
  0
LINE
  8
0
  6
CONTINUOUS
 62
     7
 10
-166.48869
 20
-419.81882
 11
-164.48869
 21
-419.81882
  0
LINE
  8
0
  6
CONTINUOUS
 62
     7
 10
-163.98869
 20
-419.31882
 11
-164.48868
 21
-419.81882
  0
LINE
  8
0
  6
CONTINUOUS
 62
     7
 10
-173.48869
 20
-412.31882
 11
-203.48869
 21
-412.31882
  0
LINE
  8
0
  6
CENTER
 62
     7
 10
-28.866617
 20
-340.62448
 11
-28.866617
 21
-418.03928
  0
LINE
  8
0
  6
CONTINUOUS
 62
     7
 10
-3.3666179
 20
-356.81882
 11
-3.3666179
 21
-356.31882
  0
LINE
  8
0
  6
CONTINUOUS
 62
     7
 10
-3.3666401
 20
-356.31879
 11
-3.8666298
 21
-355.81879
  0
LINE
  8
0
  6
CONTINUOUS
 62
     7
 10
-3.8666179
 20
-355.81882
 11
-28.866617
 21
-355.81882
  0
LINE
  8
0
  6
CONTINUOUS
 62
     7
 10
-6.3409829
 20
-366.31882
 11
1.1333822
 21
-366.31882
  0
LINE
  8
0
  6
CENTER
 62
     7
 10
31.185719
 20
-389.31882
 11
-83.852249
 21
-389.31882
  0
LINE
  8
0
  6
CONTINUOUS
 62
     7
 10
1.1333822
 20
-412.31882
 11
-28.866617
 21
-412.31882
  0
LINE
  8
0
  6
CONTINUOUS
 62
     7
 10
10.633364
 20
-419.31882
 11
10.133374
 21
-419.81882
  0
LINE
  8
0
  6
CONTINUOUS
 62
     7
 10
8.1333818
 20
-419.81882
 11
10.133381
 21
-419.81882
  0
LINE
  8
0
  6
CONTINUOUS
 62
     7
 10
10.633375
 20
-359.31879
 11
10.133386
 21
-358.81879
  0
LINE
  8
0
  6
CONTINUOUS
 62
     7
 10
-1.3666178
 20
-358.81882
 11
10.133381
 21
-358.81882
  0
LINE
  8
0
  6
CONTINUOUS
 62
     7
 10
10.633381
 20
-359.31882
 11
10.633381
 21
-389.31882
  0
LINE
  8
0
  6
CONTINUOUS
 62
     7
 10
10.633381
 20
-419.31882
 11
10.633381
 21
-389.31882
  0
LINE
  8
0
  6
CONTINUOUS
 62
     7
 10
8.1333818
 20
-358.81882
 11
8.1333818
 21
-359.31882
  0
LINE
  8
0
  6
CONTINUOUS
 62
     7
 10
-166.48869
 20
-359.31882
 11
-166.48869
 21
-389.31882
  0
LINE
  8
0
  6
CONTINUOUS
 62
     7
 10
-166.50655
 20
-419.31882
 11
-166.50655
 21
-389.31882
  0
LINE
  8
0
  6
CONTINUOUS
 62
     7
 10
-203.48869
 20
-355.31882
 11
-181.48869
 21
-355.31882
  0
LINE
  8
0
  6
CONTINUOUS
 62
     7
 10
-2.7074993
 20
-358.30273
 11
-28.866617
 21
-358.30273
  0
LINE
  8
0
  6
CONTINUOUS
 62
     7
 10
8.1333818
 20
-359.31882
 11
8.1333818
 21
-389.31882
  0
LINE
  8
0
  6
CONTINUOUS
 62
     7
 10
8.1154985
 20
-419.81882
 11
8.1154985
 21
-389.31882
  0
LINE
  8
0
  6
CONTINUOUS
 62
     7
 10
-176.89365
 20
-523.2276
 11
-176.47536
 21
-523.64594
  0
LINE
  8
0
  6
CENTER
 62
     7
 10
-149.52957
 20
-557.64594
 11
-293.13889
 21
-557.64594
  0
LINE
  8
0
  6
CENTER
 62
     7
 10
-219.47537
 20
-503.33609
 11
-219.47537
 21
-589.92615
  0
LINE
  8
0
  6
CONTINUOUS
 62
     7
 10
-176.47537
 20
-523.64594
 11
-176.47537
 21
-557.64594
  0
LINE
  8
0
  6
CONTINUOUS
 62
     7
 10
-176.97537
 20
-523.14594
 11
-200.47537
 21
-523.14594
  0
LINE
  8
0
  6
CONTINUOUS
 62
     7
 10
-176.47537
 20
-591.64594
 11
-176.47537
 21
-557.64594
  0
LINE
  8
0
  6
CONTINUOUS
 62
     7
 10
-219.47537
 20
-517.5459
 11
-204.97537
 21
-517.5459
  0
LINE
  8
0
  6
CONTINUOUS
 62
     7
 10
-176.97536
 20
-592.14594
 11
-176.47536
 21
-591.64594
  0
LINE
  8
0
  6
CONTINUOUS
 62
     7
 10
-204.47537
 20
-530.94592
 11
-186.97537
 21
-530.94592
  0
LINE
  8
0
  6
CONTINUOUS
 62
     7
 10
-204.47537
 20
-519.14594
 11
-204.47537
 21
-518.0459
  0
LINE
  8
0
  6
CONTINUOUS
 62
     7
 10
-209.27536
 20
-526.14594
 11
-209.27536
 21
-525.02472
  0
LINE
  8
0
  6
CONTINUOUS
 62
     7
 10
-179.97537
 20
-523.14594
 11
-179.97537
 21
-523.94592
  0
LINE
  8
0
  6
CONTINUOUS
 62
     7
 10
-179.97537
 20
-592.14594
 11
-179.97537
 21
-591.34595
  0
LINE
  8
0
  6
CONTINUOUS
 62
     7
 10
-176.97537
 20
-592.14594
 11
-179.97537
 21
-592.14594
  0
LINE
  8
0
  6
CONTINUOUS
 62
     7
 10
-186.97537
 20
-584.34595
 11
-219.47537
 21
-584.34595
  0
LINE
  8
0
  6
CONTINUOUS
 62
     7
 10
-204.97536
 20
-517.54596
 11
-204.47536
 21
-518.0459
  0
LINE
  8
0
  6
CONTINUOUS
 62
     7
 10
-219.47537
 20
-519.5459
 11
-204.47537
 21
-519.5459
  0
LINE
  8
0
  6
CONTINUOUS
 62
     7
 10
-179.97537
 20
-523.64594
 11
-179.97537
 21
-557.64594
  0
LINE
  8
0
  6
CONTINUOUS
 62
     7
 10
-179.97537
 20
-591.64594
 11
-179.97537
 21
-557.64594
  0
LINE
  8
0
  6
CENTER
 62
     7
 10
-37.084816
 20
-496.64038
 11
-37.084816
 21
-592.12219
  0
LINE
  8
0
  6
CONTINUOUS
 62
     7
 10
2.4151835
 20
-523.14594
 11
2.4151835
 21
-523.94592
  0
LINE
  8
0
  6
CONTINUOUS
 62
     7
 10
-19.584816
 20
-519.14594
 11
-19.584816
 21
-518.0459
  0
LINE
  8
0
  6
CONTINUOUS
 62
     7
 10
-23.884834
 20
-526.14594
 11
-23.884834
 21
-524.90002
  0
LINE
  8
0
  6
CONTINUOUS
 62
     7
 10
-19.084816
 20
-530.94592
 11
-4.5848165
 21
-530.94592
  0
LINE
  8
0
  6
CONTINUOUS
 62
     7
 10
5.9151835
 20
-591.64594
 11
5.9151835
 21
-557.64594
  0
LINE
  8
0
  6
CONTINUOUS
 62
     7
 10
5.4151669
 20
-523.14594
 11
5.9151998
 21
-523.64594
  0
LINE
  8
0
  6
CONTINUOUS
 62
     7
 10
-15.584816
 20
-523.14594
 11
5.4151835
 21
-523.14594
  0
LINE
  8
0
  6
CONTINUOUS
 62
     7
 10
5.9151835
 20
-523.64594
 11
5.9151835
 21
-557.64594
  0
LINE
  8
0
  6
CONTINUOUS
 62
     7
 10
2.4151835
 20
-591.64594
 11
2.4151835
 21
-591.14594
  0
LINE
  8
0
  6
CONTINUOUS
 62
     7
 10
-4.5848165
 20
-584.34595
 11
-37.084816
 21
-584.34595
  0
LINE
  8
0
  6
CENTER
 62
     7
 10
39.468071
 20
-557.64594
 11
-109.35896
 21
-557.64594
  0
LINE
  8
0
  6
CONTINUOUS
 62
     7
 10
5.4151921
 20
-592.14594
 11
5.9151821
 21
-591.64594
  0
LINE
  8
0
  6
CONTINUOUS
 62
     7
 10
2.4151835
 20
-592.14594
 11
5.4151835
 21
-592.14594
  0
LINE
  8
0
  6
CONTINUOUS
 62
     7
 10
-37.084816
 20
-517.5459
 11
-20.084816
 21
-517.5459
  0
LINE
  8
0
  6
CONTINUOUS
 62
     7
 10
-20.08485
 20
-517.5459
 11
-19.584816
 21
-518.04596
  0
LINE
  8
0
  6
CONTINUOUS
 62
     7
 10
-37.084816
 20
-519.5459
 11
-19.584816
 21
-519.5459
  0
LINE
  8
0
  6
CONTINUOUS
 62
     7
 10
2.4151835
 20
-523.64594
 11
2.4151835
 21
-557.64594
  0
LINE
  8
0
  6
CONTINUOUS
 62
     7
 10
2.4151835
 20
-591.64594
 11
2.4151835
 21
-557.64594
  0
LINE
  8
0
  6
CENTER
 62
     7
 10
-219.47537
 20
-515.84247
 11
-219.47537
 21
-499.56149
  0
LINE
  8
0
  6
CONTINUOUS
 62
     7
 10
-219.47537
 20
-502.64594
 11
-208.97537
 21
-502.64594
  0
LINE
  8
0
  6
CONTINUOUS
 62
     7
 10
-205.85403
 20
-513.64594
 11
-204.97537
 21
-513.64594
  0
LINE
  8
0
  6
CONTINUOUS
 62
     7
 10
-204.97537
 20
-513.64594
 11
-204.97537
 21
-506.64594
  0
LINE
  8
0
  6
CONTINUOUS
 62
     7
 10
-205.47536
 20
-514.14594
 11
-204.97536
 21
-513.64594
  0
LINE
  8
0
  6
CONTINUOUS
 62
     7
 10
-214.71191
 20
-513.64594
 11
-212.59003
 21
-513.64594
  0
LINE
  8
0
  6
CONTINUOUS
 62
     7
 10
-205.85403
 20
-513.64594
 11
-205.85403
 21
-506.64594
  0
LINE
  8
0
  6
CONTINUOUS
 62
     7
 10
-214.71191
 20
-513.64594
 11
-214.71191
 21
-506.64594
  0
LINE
  8
0
  6
CONTINUOUS
 62
     7
 10
-212.59003
 20
-513.64594
 11
-212.59003
 21
-506.64594
  0
LINE
  8
0
  6
CONTINUOUS
 62
     7
 10
-219.47537
 20
-506.64594
 11
-204.97537
 21
-506.64594
  0
LINE
  8
0
  6
CONTINUOUS
 62
     7
 10
-219.47537
 20
-514.14594
 11
-205.47537
 21
-514.14594
  0
LINE
  8
0
  6
CONTINUOUS
 62
     7
 10
-37.084816
 20
-505.64594
 11
-20.084816
 21
-505.64594
  0
LINE
  8
0
  6
CONTINUOUS
 62
     7
 10
-20.963509
 20
-513.64594
 11
-20.963509
 21
-505.64594
  0
LINE
  8
0
  6
CONTINUOUS
 62
     7
 10
-20.963509
 20
-513.64594
 11
-20.084816
 21
-513.64594
  0
LINE
  8
0
  6
CONTINUOUS
 62
     7
 10
-31.285835
 20
-513.64594
 11
-31.285835
 21
-505.64594
  0
LINE
  8
0
  6
CONTINUOUS
 62
     7
 10
-31.285835
 20
-513.64594
 11
-29.164528
 21
-513.64594
  0
LINE
  8
0
  6
CONTINUOUS
 62
     7
 10
-37.084816
 20
-500.64594
 11
-25.084816
 21
-500.64594
  0
LINE
  8
0
  6
CONTINUOUS
 62
     7
 10
-20.084827
 20
-513.64594
 11
-20.584818
 21
-514.14594
  0
LINE
  8
0
  6
CONTINUOUS
 62
     7
 10
-20.084816
 20
-513.64594
 11
-20.084816
 21
-505.64594
  0
LINE
  8
0
  6
CENTER
 62
     7
 10
-37.084816
 20
-516.99243
 11
-37.084816
 21
-497.56149
  0
LINE
  8
0
  6
CONTINUOUS
 62
     7
 10
-29.164528
 20
-513.64594
 11
-29.164528
 21
-505.64594
  0
LINE
  8
0
  6
CONTINUOUS
 62
     7
 10
-37.084816
 20
-514.14594
 11
-20.584816
 21
-514.14594
  0
LINE
  8
0
  6
CONTINUOUS
 62
     7
 10
-183.59547
 20
-349.31882
 11
-183.59547
 21
-340.31882
  0
LINE
  8
0
  6
CONTINUOUS
 62
     7
 10
-182.48866
 20
-349.81879
 11
-181.98868
 21
-349.31882
  0
LINE
  8
0
  6
CENTER
 62
     7
 10
-203.48869
 20
-357.7829
 11
-203.48869
 21
-330.57669
  0
LINE
  8
0
  6
CONTINUOUS
 62
     7
 10
-183.59547
 20
-349.31882
 11
-181.98869
 21
-349.31882
  0
LINE
  8
0
  6
CONTINUOUS
 62
     7
 10
-196.85542
 20
-349.31882
 11
-192.9763
 21
-349.31882
  0
LINE
  8
0
  6
CONTINUOUS
 62
     7
 10
-181.98869
 20
-349.31882
 11
-181.98869
 21
-340.31882
  0
LINE
  8
0
  6
CONTINUOUS
 62
     7
 10
-203.48869
 20
-335.31882
 11
-186.98869
 21
-335.31882
  0
LINE
  8
0
  6
CONTINUOUS
 62
     7
 10
-203.48869
 20
-340.31882
 11
-181.98869
 21
-340.31882
  0
LINE
  8
0
  6
CONTINUOUS
 62
     7
 10
-192.9763
 20
-349.31882
 11
-192.9763
 21
-340.31882
  0
LINE
  8
0
  6
CONTINUOUS
 62
     7
 10
-196.85542
 20
-349.31882
 11
-196.85542
 21
-340.31882
  0
LINE
  8
0
  6
CONTINUOUS
 62
     7
 10
-203.48869
 20
-349.81882
 11
-182.48869
 21
-349.81882
  0
LINE
  8
0
  6
CONTINUOUS
 62
     7
 10
-28.866617
 20
-352.21881
 11
-4.8666177
 21
-352.21881
  0
LINE
  8
0
  6
CONTINUOUS
 62
     7
 10
-160.38869
 20
-389.31882
 11
-160.38869
 21
-418.31882
  0
LINE
  8
0
  6
CONTINUOUS
 62
     7
 10
-159.88869
 20
-416.91455
 11
-159.88869
 21
-418.81882
  0
LINE
  8
0
  6
CONTINUOUS
 62
     7
 10
-159.88869
 20
-398.84509
 11
-159.88869
 21
-403.44235
  0
LINE
  8
0
  6
CONTINUOUS
 62
     7
 10
-142.48869
 20
-389.31882
 11
-142.48869
 21
-412.81882
  0
LINE
  8
0
  6
CONTINUOUS
 62
     7
 10
-159.88869
 20
-418.81882
 11
-148.48869
 21
-418.81882
  0
LINE
  8
0
  6
CONTINUOUS
 62
     7
 10
-159.88869
 20
-403.44235
 11
-148.48869
 21
-403.44235
  0
LINE
  8
0
  6
CONTINUOUS
 62
     7
 10
-159.88869
 20
-416.91455
 11
-148.48869
 21
-416.91455
  0
LINE
  8
0
  6
CONTINUOUS
 62
     7
 10
-160.38869
 20
-418.31882
 11
-159.88867
 21
-418.81882
  0
LINE
  8
0
  6
CONTINUOUS
 62
     7
 10
-159.88869
 20
-379.79254
 11
-148.48869
 21
-379.79254
  0
LINE
  8
0
  6
CONTINUOUS
 62
     7
 10
-148.48869
 20
-389.31882
 11
-148.48869
 21
-418.81882
  0
LINE
  8
0
  6
CONTINUOUS
 62
     7
 10
-148.48869
 20
-389.31882
 11
-148.48869
 21
-359.81882
  0
LINE
  8
0
  6
CONTINUOUS
 62
     7
 10
-160.38869
 20
-360.31882
 11
-159.88867
 21
-359.81882
  0
LINE
  8
0
  6
CONTINUOUS
 62
     7
 10
-159.88869
 20
-361.72308
 11
-148.48869
 21
-361.72308
  0
LINE
  8
0
  6
CONTINUOUS
 62
     7
 10
-159.88869
 20
-398.84509
 11
-148.48869
 21
-398.84509
  0
LINE
  8
0
  6
CONTINUOUS
 62
     7
 10
-159.88869
 20
-375.19525
 11
-148.48869
 21
-375.19525
  0
LINE
  8
0
  6
CONTINUOUS
 62
     7
 10
-159.88869
 20
-359.81882
 11
-148.48869
 21
-359.81882
  0
LINE
  8
0
  6
CONTINUOUS
 62
     7
 10
-142.48869
 20
-389.31882
 11
-142.48869
 21
-365.81882
  0
LINE
  8
0
  6
CONTINUOUS
 62
     7
 10
-159.88869
 20
-379.79254
 11
-159.88869
 21
-375.19525
  0
LINE
  8
0
  6
CONTINUOUS
 62
     7
 10
-159.88869
 20
-361.72308
 11
-159.88869
 21
-359.81882
  0
LINE
  8
0
  6
CONTINUOUS
 62
     7
 10
-160.38869
 20
-389.31882
 11
-160.38869
 21
-360.31882
  0
LINE
  8
0
  6
CONTINUOUS
 62
     7
 10
-160.38869
 20
-389.31882
 11
-160.38869
 21
-418.31882
  0
LINE
  8
0
  6
CONTINUOUS
 62
     7
 10
-159.88869
 20
-416.91455
 11
-159.88869
 21
-418.81882
  0
LINE
  8
0
  6
CONTINUOUS
 62
     7
 10
-159.88869
 20
-398.84509
 11
-159.88869
 21
-403.44235
  0
LINE
  8
0
  6
CONTINUOUS
 62
     7
 10
-142.48869
 20
-389.31882
 11
-142.48869
 21
-412.81882
  0
LINE
  8
0
  6
CONTINUOUS
 62
     7
 10
-159.88869
 20
-418.81882
 11
-148.48869
 21
-418.81882
  0
LINE
  8
0
  6
CONTINUOUS
 62
     7
 10
-159.88869
 20
-403.44235
 11
-148.48869
 21
-403.44235
  0
LINE
  8
0
  6
CONTINUOUS
 62
     7
 10
-159.88869
 20
-416.91455
 11
-148.48869
 21
-416.91455
  0
LINE
  8
0
  6
CONTINUOUS
 62
     7
 10
-160.38869
 20
-418.31882
 11
-159.88867
 21
-418.81882
  0
LINE
  8
0
  6
CONTINUOUS
 62
     7
 10
-159.88869
 20
-379.79254
 11
-148.48869
 21
-379.79254
  0
LINE
  8
0
  6
CONTINUOUS
 62
     7
 10
-148.48869
 20
-389.31882
 11
-148.48869
 21
-418.81882
  0
LINE
  8
0
  6
CONTINUOUS
 62
     7
 10
-148.48869
 20
-389.31882
 11
-148.48869
 21
-359.81882
  0
LINE
  8
0
  6
CONTINUOUS
 62
     7
 10
-160.38869
 20
-360.31882
 11
-159.88867
 21
-359.81882
  0
LINE
  8
0
  6
CONTINUOUS
 62
     7
 10
-159.88869
 20
-361.72308
 11
-148.48869
 21
-361.72308
  0
LINE
  8
0
  6
CONTINUOUS
 62
     7
 10
-159.88869
 20
-398.84509
 11
-148.48869
 21
-398.84509
  0
LINE
  8
0
  6
CONTINUOUS
 62
     7
 10
-159.88869
 20
-375.19525
 11
-148.48869
 21
-375.19525
  0
LINE
  8
0
  6
CONTINUOUS
 62
     7
 10
-159.88869
 20
-359.81882
 11
-148.48869
 21
-359.81882
  0
LINE
  8
0
  6
CONTINUOUS
 62
     7
 10
-142.48869
 20
-389.31882
 11
-142.48869
 21
-365.81882
  0
LINE
  8
0
  6
CONTINUOUS
 62
     7
 10
-159.88869
 20
-379.79254
 11
-159.88869
 21
-375.19525
  0
LINE
  8
0
  6
CONTINUOUS
 62
     7
 10
-159.88869
 20
-361.72308
 11
-159.88869
 21
-359.81882
  0
LINE
  8
0
  6
CONTINUOUS
 62
     7
 10
-160.38869
 20
-389.31882
 11
-160.38869
 21
-360.31882
  0
LINE
  8
0
  6
CONTINUOUS
 62
     7
 10
14.233356
 20
-389.31882
 11
14.233356
 21
-418.31882
  0
LINE
  8
0
  6
CONTINUOUS
 62
     7
 10
14.733356
 20
-416.91455
 11
14.733356
 21
-418.81882
  0
LINE
  8
0
  6
CONTINUOUS
 62
     7
 10
14.733356
 20
-398.84509
 11
14.733356
 21
-403.44235
  0
LINE
  8
0
  6
CONTINUOUS
 62
     7
 10
32.133381
 20
-389.31882
 11
32.133381
 21
-412.81882
  0
LINE
  8
0
  6
CONTINUOUS
 62
     7
 10
14.733356
 20
-418.81882
 11
26.133381
 21
-418.81882
  0
LINE
  8
0
  6
CONTINUOUS
 62
     7
 10
14.733356
 20
-403.44235
 11
26.133381
 21
-403.44235
  0
LINE
  8
0
  6
CONTINUOUS
 62
     7
 10
14.733356
 20
-416.91455
 11
26.133381
 21
-416.91455
  0
LINE
  8
0
  6
CONTINUOUS
 62
     7
 10
14.233369
 20
-418.31882
 11
14.733379
 21
-418.81882
  0
LINE
  8
0
  6
CONTINUOUS
 62
     7
 10
14.733356
 20
-379.79254
 11
26.133381
 21
-379.79254
  0
LINE
  8
0
  6
CONTINUOUS
 62
     7
 10
26.133381
 20
-389.31882
 11
26.133381
 21
-418.81882
  0
LINE
  8
0
  6
CONTINUOUS
 62
     7
 10
26.133381
 20
-389.31882
 11
26.133381
 21
-359.81882
  0
LINE
  8
0
  6
CONTINUOUS
 62
     7
 10
14.233368
 20
-360.31879
 11
14.733369
 21
-359.81879
  0
LINE
  8
0
  6
CONTINUOUS
 62
     7
 10
14.733356
 20
-361.72308
 11
26.133381
 21
-361.72308
  0
LINE
  8
0
  6
CONTINUOUS
 62
     7
 10
14.733356
 20
-398.84509
 11
26.133381
 21
-398.84509
  0
LINE
  8
0
  6
CONTINUOUS
 62
     7
 10
14.733356
 20
-375.19525
 11
26.133381
 21
-375.19525
  0
LINE
  8
0
  6
CONTINUOUS
 62
     7
 10
14.733356
 20
-359.81882
 11
26.133381
 21
-359.81882
  0
LINE
  8
0
  6
CONTINUOUS
 62
     7
 10
32.133381
 20
-389.31882
 11
32.133381
 21
-365.81882
  0
LINE
  8
0
  6
CONTINUOUS
 62
     7
 10
14.733356
 20
-379.79254
 11
14.733356
 21
-375.19525
  0
LINE
  8
0
  6
CONTINUOUS
 62
     7
 10
14.733356
 20
-361.72308
 11
14.733356
 21
-359.81882
  0
LINE
  8
0
  6
CONTINUOUS
 62
     7
 10
14.233356
 20
-389.31882
 11
14.233356
 21
-360.31882
  0
LINE
  8
0
  6
CONTINUOUS
 62
     7
 10
-160.47537
 20
-557.64594
 11
-160.47537
 21
-523.64594
  0
LINE
  8
0
  6
CONTINUOUS
 62
     7
 10
-171.97537
 20
-540.82404
 11
-160.47537
 21
-540.82404
  0
LINE
  8
0
  6
CONTINUOUS
 62
     7
 10
-171.97537
 20
-547.43561
 11
-171.97537
 21
-540.82404
  0
LINE
  8
0
  6
CONTINUOUS
 62
     7
 10
-152.47537
 20
-557.64594
 11
-152.47537
 21
-531.64594
  0
LINE
  8
0
  6
CONTINUOUS
 62
     7
 10
-171.97537
 20
-526.38452
 11
-160.47537
 21
-526.38452
  0
LINE
  8
0
  6
CONTINUOUS
 62
     7
 10
-172.47537
 20
-557.64594
 11
-172.47537
 21
-591.14594
  0
LINE
  8
0
  6
CONTINUOUS
 62
     7
 10
-171.97537
 20
-523.64594
 11
-160.47537
 21
-523.64594
  0
LINE
  8
0
  6
CONTINUOUS
 62
     7
 10
-171.97536
 20
-591.64594
 11
-172.47536
 21
-591.14594
  0
LINE
  8
0
  6
CONTINUOUS
 62
     7
 10
-171.97537
 20
-588.90729
 11
-171.97537
 21
-591.64594
  0
LINE
  8
0
  6
CONTINUOUS
 62
     7
 10
-171.97537
 20
-526.38452
 11
-171.97537
 21
-523.64594
  0
LINE
  8
0
  6
CONTINUOUS
 62
     7
 10
-171.97537
 20
-591.64594
 11
-160.47537
 21
-591.64594
  0
LINE
  8
0
  6
CONTINUOUS
 62
     7
 10
-171.97537
 20
-588.90729
 11
-160.47537
 21
-588.90729
  0
LINE
  8
0
  6
CONTINUOUS
 62
     7
 10
-152.47537
 20
-557.64594
 11
-152.47537
 21
-583.64594
  0
LINE
  8
0
  6
CONTINUOUS
 62
     7
 10
-171.97537
 20
-567.8562
 11
-171.97537
 21
-574.46777
  0
LINE
  8
0
  6
CONTINUOUS
 62
     7
 10
-171.97534
 20
-523.64594
 11
-172.47534
 21
-524.14594
  0
LINE
  8
0
  6
CONTINUOUS
 62
     7
 10
-172.47537
 20
-557.64594
 11
-172.47537
 21
-524.14594
  0
LINE
  8
0
  6
CONTINUOUS
 62
     7
 10
-171.97537
 20
-574.46777
 11
-160.47537
 21
-574.46777
  0
LINE
  8
0
  6
CONTINUOUS
 62
     7
 10
-160.47537
 20
-557.64594
 11
-160.47537
 21
-591.64594
  0
LINE
  8
0
  6
CONTINUOUS
 62
     7
 10
-171.97537
 20
-567.8562
 11
-160.47537
 21
-567.8562
  0
LINE
  8
0
  6
CONTINUOUS
 62
     7
 10
-171.97537
 20
-547.43561
 11
-160.47537
 21
-547.43561
  0
LINE
  8
0
  6
CONTINUOUS
 62
     7
 10
21.915184
 20
-557.64594
 11
21.915184
 21
-523.64594
  0
LINE
  8
0
  6
CONTINUOUS
 62
     7
 10
10.415184
 20
-540.82404
 11
21.915184
 21
-540.82404
  0
LINE
  8
0
  6
CONTINUOUS
 62
     7
 10
10.415184
 20
-547.43561
 11
10.415184
 21
-540.82404
  0
LINE
  8
0
  6
CONTINUOUS
 62
     7
 10
29.915184
 20
-557.64594
 11
29.915184
 21
-531.64594
  0
LINE
  8
0
  6
CONTINUOUS
 62
     7
 10
10.415184
 20
-526.38452
 11
21.915184
 21
-526.38452
  0
LINE
  8
0
  6
CONTINUOUS
 62
     7
 10
9.915184
 20
-557.64594
 11
9.915184
 21
-591.14594
  0
LINE
  8
0
  6
CONTINUOUS
 62
     7
 10
10.415184
 20
-523.64594
 11
21.915184
 21
-523.64594
  0
LINE
  8
0
  6
CONTINUOUS
 62
     7
 10
10.41517
 20
-591.64594
 11
9.9151793
 21
-591.14594
  0
LINE
  8
0
  6
CONTINUOUS
 62
     7
 10
10.415184
 20
-588.90729
 11
10.415184
 21
-591.64594
  0
LINE
  8
0
  6
CONTINUOUS
 62
     7
 10
10.415184
 20
-526.38452
 11
10.415184
 21
-523.64594
  0
LINE
  8
0
  6
CONTINUOUS
 62
     7
 10
10.415184
 20
-591.64594
 11
21.915184
 21
-591.64594
  0
LINE
  8
0
  6
CONTINUOUS
 62
     7
 10
10.415184
 20
-588.90729
 11
21.915184
 21
-588.90729
  0
LINE
  8
0
  6
CONTINUOUS
 62
     7
 10
29.915184
 20
-557.64594
 11
29.915184
 21
-583.64594
  0
LINE
  8
0
  6
CONTINUOUS
 62
     7
 10
10.415184
 20
-567.8562
 11
10.415184
 21
-574.46777
  0
LINE
  8
0
  6
CONTINUOUS
 62
     7
 10
10.415174
 20
-523.64594
 11
9.9151621
 21
-524.14594
  0
LINE
  8
0
  6
CONTINUOUS
 62
     7
 10
9.915184
 20
-557.64594
 11
9.915184
 21
-524.14594
  0
LINE
  8
0
  6
CONTINUOUS
 62
     7
 10
10.415184
 20
-574.46777
 11
21.915184
 21
-574.46777
  0
LINE
  8
0
  6
CONTINUOUS
 62
     7
 10
21.915184
 20
-557.64594
 11
21.915184
 21
-591.64594
  0
LINE
  8
0
  6
CONTINUOUS
 62
     7
 10
10.415184
 20
-567.8562
 11
21.915184
 21
-567.8562
  0
LINE
  8
0
  6
CONTINUOUS
 62
     7
 10
10.415184
 20
-547.43561
 11
21.915184
 21
-547.43561
  0
LINE
  8
0
  6
CONTINUOUS
 62
     7
 10
-205.81479
 20
-514.14594
 11
-205.81479
 21
-517.5459
  0
LINE
  8
0
  6
CONTINUOUS
 62
     7
 10
-176.47537
 20
-524.37335
 11
-172.47537
 21
-524.37335
  0
LINE
  8
0
  6
CONTINUOUS
 62
     7
 10
-176.47537
 20
-590.87439
 11
-172.47537
 21
-590.87439
  0
LINE
  8
0
  6
CONTINUOUS
 62
     7
 10
5.9151835
 20
-524.19879
 11
9.915184
 21
-524.19879
  0
LINE
  8
0
  6
CONTINUOUS
 62
     7
 10
5.9151835
 20
-590.87439
 11
9.915184
 21
-590.87439
  0
LINE
  8
0
  6
CONTINUOUS
 62
     7
 10
-20.88813
 20
-514.14594
 11
-20.88813
 21
-517.5459
  0
LINE
  8
0
  6
CONTINUOUS
 62
     7
 10
-262.05707
 20
-523.22766
 11
-262.47537
 21
-523.64594
  0
LINE
  8
0
  6
CONTINUOUS
 62
     7
 10
-262.47534
 20
-523.64594
 11
-262.47534
 21
-557.64594
  0
LINE
  8
0
  6
CONTINUOUS
 62
     7
 10
-261.97534
 20
-523.14594
 11
-238.47536
 21
-523.14594
  0
LINE
  8
0
  6
CONTINUOUS
 62
     7
 10
-262.47534
 20
-591.64594
 11
-262.47534
 21
-557.64594
  0
LINE
  8
0
  6
CONTINUOUS
 62
     7
 10
-219.47537
 20
-517.5459
 11
-233.97537
 21
-517.5459
  0
LINE
  8
0
  6
CONTINUOUS
 62
     7
 10
-261.97537
 20
-592.14594
 11
-262.47537
 21
-591.64594
  0
LINE
  8
0
  6
CONTINUOUS
 62
     7
 10
-234.47537
 20
-530.94592
 11
-251.97536
 21
-530.94592
  0
LINE
  8
0
  6
CONTINUOUS
 62
     7
 10
-234.47537
 20
-519.14594
 11
-234.47537
 21
-518.0459
  0
LINE
  8
0
  6
CONTINUOUS
 62
     7
 10
-229.67538
 20
-526.14594
 11
-229.67538
 21
-525.02472
  0
LINE
  8
0
  6
CONTINUOUS
 62
     7
 10
-258.97534
 20
-523.14594
 11
-258.97534
 21
-523.94592
  0
LINE
  8
0
  6
CONTINUOUS
 62
     7
 10
-258.97534
 20
-592.14594
 11
-258.97534
 21
-591.34595
  0
LINE
  8
0
  6
CONTINUOUS
 62
     7
 10
-261.97534
 20
-592.14594
 11
-258.97534
 21
-592.14594
  0
LINE
  8
0
  6
CONTINUOUS
 62
     7
 10
-251.97536
 20
-584.34595
 11
-219.47537
 21
-584.34595
  0
LINE
  8
0
  6
CONTINUOUS
 62
     7
 10
-233.97537
 20
-517.54596
 11
-234.47536
 21
-518.0459
  0
LINE
  8
0
  6
CONTINUOUS
 62
     7
 10
-219.47537
 20
-519.5459
 11
-234.47537
 21
-519.5459
  0
LINE
  8
0
  6
CONTINUOUS
 62
     7
 10
-258.97534
 20
-523.64594
 11
-258.97534
 21
-557.64594
  0
LINE
  8
0
  6
CONTINUOUS
 62
     7
 10
-258.97534
 20
-591.64594
 11
-258.97534
 21
-557.64594
  0
LINE
  8
0
  6
CONTINUOUS
 62
     7
 10
-219.47537
 20
-502.64594
 11
-229.97537
 21
-502.64594
  0
LINE
  8
0
  6
CONTINUOUS
 62
     7
 10
-233.09668
 20
-513.64594
 11
-233.97537
 21
-513.64594
  0
LINE
  8
0
  6
CONTINUOUS
 62
     7
 10
-233.97537
 20
-513.64594
 11
-233.97537
 21
-506.64594
  0
LINE
  8
0
  6
CONTINUOUS
 62
     7
 10
-233.47536
 20
-514.14594
 11
-233.97536
 21
-513.64594
  0
LINE
  8
0
  6
CONTINUOUS
 62
     7
 10
-224.23883
 20
-513.64594
 11
-226.36072
 21
-513.64594
  0
LINE
  8
0
  6
CONTINUOUS
 62
     7
 10
-233.09668
 20
-513.64594
 11
-233.09668
 21
-506.64594
  0
LINE
  8
0
  6
CONTINUOUS
 62
     7
 10
-224.23883
 20
-513.64594
 11
-224.23883
 21
-506.64594
  0
LINE
  8
0
  6
CONTINUOUS
 62
     7
 10
-226.36072
 20
-513.64594
 11
-226.36072
 21
-506.64594
  0
LINE
  8
0
  6
CONTINUOUS
 62
     7
 10
-219.47537
 20
-506.64594
 11
-233.97537
 21
-506.64594
  0
LINE
  8
0
  6
CONTINUOUS
 62
     7
 10
-219.47537
 20
-514.14594
 11
-233.47537
 21
-514.14594
  0
LINE
  8
0
  6
CONTINUOUS
 62
     7
 10
-278.47534
 20
-557.64594
 11
-278.47534
 21
-523.64594
  0
LINE
  8
0
  6
CONTINUOUS
 62
     7
 10
-266.97534
 20
-540.82404
 11
-278.47534
 21
-540.82404
  0
LINE
  8
0
  6
CONTINUOUS
 62
     7
 10
-266.97534
 20
-547.43561
 11
-266.97534
 21
-540.82404
  0
LINE
  8
0
  6
CONTINUOUS
 62
     7
 10
-286.47534
 20
-557.64594
 11
-286.47534
 21
-531.64594
  0
LINE
  8
0
  6
CONTINUOUS
 62
     7
 10
-266.97534
 20
-526.38452
 11
-278.47534
 21
-526.38452
  0
LINE
  8
0
  6
CONTINUOUS
 62
     7
 10
-266.47534
 20
-557.64594
 11
-266.47534
 21
-591.14594
  0
LINE
  8
0
  6
CONTINUOUS
 62
     7
 10
-266.97534
 20
-523.64594
 11
-278.47534
 21
-523.64594
  0
LINE
  8
0
  6
CONTINUOUS
 62
     7
 10
-266.97537
 20
-591.64594
 11
-266.4754
 21
-591.14594
  0
LINE
  8
0
  6
CONTINUOUS
 62
     7
 10
-266.97534
 20
-588.90729
 11
-266.97534
 21
-591.64594
  0
LINE
  8
0
  6
CONTINUOUS
 62
     7
 10
-266.97534
 20
-526.38452
 11
-266.97534
 21
-523.64594
  0
LINE
  8
0
  6
CONTINUOUS
 62
     7
 10
-266.97534
 20
-591.64594
 11
-278.47534
 21
-591.64594
  0
LINE
  8
0
  6
CONTINUOUS
 62
     7
 10
-266.97534
 20
-588.90729
 11
-278.47534
 21
-588.90729
  0
LINE
  8
0
  6
CONTINUOUS
 62
     7
 10
-286.47534
 20
-557.64594
 11
-286.47534
 21
-583.64594
  0
LINE
  8
0
  6
CONTINUOUS
 62
     7
 10
-266.97534
 20
-567.8562
 11
-266.97534
 21
-574.46777
  0
LINE
  8
0
  6
CONTINUOUS
 62
     7
 10
-266.97534
 20
-523.64594
 11
-266.47534
 21
-524.14594
  0
LINE
  8
0
  6
CONTINUOUS
 62
     7
 10
-266.47534
 20
-557.64594
 11
-266.47534
 21
-524.14594
  0
LINE
  8
0
  6
CONTINUOUS
 62
     7
 10
-266.97534
 20
-574.46777
 11
-278.47534
 21
-574.46777
  0
LINE
  8
0
  6
CONTINUOUS
 62
     7
 10
-278.47534
 20
-557.64594
 11
-278.47534
 21
-591.64594
  0
LINE
  8
0
  6
CONTINUOUS
 62
     7
 10
-266.97534
 20
-567.8562
 11
-278.47534
 21
-567.8562
  0
LINE
  8
0
  6
CONTINUOUS
 62
     7
 10
-266.97534
 20
-547.43561
 11
-278.47534
 21
-547.43561
  0
LINE
  8
0
  6
CONTINUOUS
 62
     7
 10
-233.13593
 20
-514.14594
 11
-233.13593
 21
-517.5459
  0
LINE
  8
0
  6
CONTINUOUS
 62
     7
 10
-262.47534
 20
-524.37335
 11
-266.47534
 21
-524.37335
  0
LINE
  8
0
  6
CONTINUOUS
 62
     7
 10
-262.47534
 20
-590.87439
 11
-266.47534
 21
-590.87439
  0
LINE
  8
0
  6
CONTINUOUS
 62
     7
 10
-76.584816
 20
-523.14594
 11
-76.584816
 21
-523.94592
  0
LINE
  8
0
  6
CONTINUOUS
 62
     7
 10
-54.584816
 20
-519.14594
 11
-54.584816
 21
-518.0459
  0
LINE
  8
0
  6
CONTINUOUS
 62
     7
 10
-50.284828
 20
-526.14594
 11
-50.284828
 21
-524.90002
  0
LINE
  8
0
  6
CONTINUOUS
 62
     7
 10
-55.084816
 20
-530.94592
 11
-69.584816
 21
-530.94592
  0
LINE
  8
0
  6
CONTINUOUS
 62
     7
 10
-80.084816
 20
-591.64594
 11
-80.084816
 21
-557.64594
  0
LINE
  8
0
  6
CONTINUOUS
 62
     7
 10
-79.584816
 20
-523.146
 11
-80.084808
 21
-523.64594
  0
LINE
  8
0
  6
CONTINUOUS
 62
     7
 10
-58.584816
 20
-523.14594
 11
-79.584816
 21
-523.14594
  0
LINE
  8
0
  6
CONTINUOUS
 62
     7
 10
-80.084816
 20
-523.64594
 11
-80.084816
 21
-557.64594
  0
LINE
  8
0
  6
CONTINUOUS
 62
     7
 10
-76.584816
 20
-591.64594
 11
-76.584816
 21
-591.14594
  0
LINE
  8
0
  6
CONTINUOUS
 62
     7
 10
-69.584816
 20
-584.34595
 11
-37.084816
 21
-584.34595
  0
LINE
  8
0
  6
CONTINUOUS
 62
     7
 10
-79.584839
 20
-592.14594
 11
-80.084831
 21
-591.64594
  0
LINE
  8
0
  6
CONTINUOUS
 62
     7
 10
-76.584816
 20
-592.14594
 11
-79.584816
 21
-592.14594
  0
LINE
  8
0
  6
CONTINUOUS
 62
     7
 10
-37.084816
 20
-517.5459
 11
-54.084816
 21
-517.5459
  0
LINE
  8
0
  6
CONTINUOUS
 62
     7
 10
-54.08482
 20
-517.54596
 11
-54.584812
 21
-518.04596
  0
LINE
  8
0
  6
CONTINUOUS
 62
     7
 10
-37.084816
 20
-519.5459
 11
-54.584816
 21
-519.5459
  0
LINE
  8
0
  6
CONTINUOUS
 62
     7
 10
-76.584816
 20
-523.64594
 11
-76.584816
 21
-557.64594
  0
LINE
  8
0
  6
CONTINUOUS
 62
     7
 10
-76.584816
 20
-591.64594
 11
-76.584816
 21
-557.64594
  0
LINE
  8
0
  6
CONTINUOUS
 62
     7
 10
-37.084816
 20
-505.64594
 11
-54.084816
 21
-505.64594
  0
LINE
  8
0
  6
CONTINUOUS
 62
     7
 10
-53.206154
 20
-513.64594
 11
-53.206154
 21
-505.64594
  0
LINE
  8
0
  6
CONTINUOUS
 62
     7
 10
-53.206154
 20
-513.64594
 11
-54.084816
 21
-513.64594
  0
LINE
  8
0
  6
CONTINUOUS
 62
     7
 10
-42.883827
 20
-513.64594
 11
-42.883827
 21
-505.64594
  0
LINE
  8
0
  6
CONTINUOUS
 62
     7
 10
-42.883827
 20
-513.64594
 11
-45.005135
 21
-513.64594
  0
LINE
  8
0
  6
CONTINUOUS
 62
     7
 10
-37.084816
 20
-500.64594
 11
-49.084816
 21
-500.64594
  0
LINE
  8
0
  6
CONTINUOUS
 62
     7
 10
-54.08482
 20
-513.64594
 11
-53.584808
 21
-514.14594
  0
LINE
  8
0
  6
CONTINUOUS
 62
     7
 10
-54.084816
 20
-513.64594
 11
-54.084816
 21
-505.64594
  0
LINE
  8
0
  6
CONTINUOUS
 62
     7
 10
-45.005135
 20
-513.64594
 11
-45.005135
 21
-505.64594
  0
LINE
  8
0
  6
CONTINUOUS
 62
     7
 10
-37.084816
 20
-514.14594
 11
-53.584816
 21
-514.14594
  0
LINE
  8
0
  6
CONTINUOUS
 62
     7
 10
-96.084816
 20
-557.64594
 11
-96.084816
 21
-523.64594
  0
LINE
  8
0
  6
CONTINUOUS
 62
     7
 10
-84.584816
 20
-540.82404
 11
-96.084816
 21
-540.82404
  0
LINE
  8
0
  6
CONTINUOUS
 62
     7
 10
-84.584816
 20
-547.43561
 11
-84.584816
 21
-540.82404
  0
LINE
  8
0
  6
CONTINUOUS
 62
     7
 10
-104.08482
 20
-557.64594
 11
-104.08482
 21
-531.64594
  0
LINE
  8
0
  6
CONTINUOUS
 62
     7
 10
-84.584816
 20
-526.38452
 11
-96.084816
 21
-526.38452
  0
LINE
  8
0
  6
CONTINUOUS
 62
     7
 10
-84.084816
 20
-557.64594
 11
-84.084816
 21
-591.14594
  0
LINE
  8
0
  6
CONTINUOUS
 62
     7
 10
-84.584816
 20
-523.64594
 11
-96.084816
 21
-523.64594
  0
LINE
  8
0
  6
CONTINUOUS
 62
     7
 10
-84.584793
 20
-591.64594
 11
-84.084808
 21
-591.14594
  0
LINE
  8
0
  6
CONTINUOUS
 62
     7
 10
-84.584816
 20
-588.90729
 11
-84.584816
 21
-591.64594
  0
LINE
  8
0
  6
CONTINUOUS
 62
     7
 10
-84.584816
 20
-526.38452
 11
-84.584816
 21
-523.64594
  0
LINE
  8
0
  6
CONTINUOUS
 62
     7
 10
-84.584816
 20
-591.64594
 11
-96.084816
 21
-591.64594
  0
LINE
  8
0
  6
CONTINUOUS
 62
     7
 10
-84.584816
 20
-588.90729
 11
-96.084816
 21
-588.90729
  0
LINE
  8
0
  6
CONTINUOUS
 62
     7
 10
-104.08482
 20
-557.64594
 11
-104.08482
 21
-583.64594
  0
LINE
  8
0
  6
CONTINUOUS
 62
     7
 10
-84.584816
 20
-567.8562
 11
-84.584816
 21
-574.46777
  0
LINE
  8
0
  6
CONTINUOUS
 62
     7
 10
-84.584824
 20
-523.64594
 11
-84.084808
 21
-524.14594
  0
LINE
  8
0
  6
CONTINUOUS
 62
     7
 10
-84.084816
 20
-557.64594
 11
-84.084816
 21
-524.14594
  0
LINE
  8
0
  6
CONTINUOUS
 62
     7
 10
-84.584816
 20
-574.46777
 11
-96.084816
 21
-574.46777
  0
LINE
  8
0
  6
CONTINUOUS
 62
     7
 10
-96.084816
 20
-557.64594
 11
-96.084816
 21
-591.64594
  0
LINE
  8
0
  6
CONTINUOUS
 62
     7
 10
-84.584816
 20
-567.8562
 11
-96.084816
 21
-567.8562
  0
LINE
  8
0
  6
CONTINUOUS
 62
     7
 10
-84.584816
 20
-547.43561
 11
-96.084816
 21
-547.43561
  0
LINE
  8
0
  6
CONTINUOUS
 62
     7
 10
-80.084816
 20
-524.19879
 11
-84.084816
 21
-524.19879
  0
LINE
  8
0
  6
CONTINUOUS
 62
     7
 10
-80.084816
 20
-590.87439
 11
-84.084816
 21
-590.87439
  0
LINE
  8
0
  6
CONTINUOUS
 62
     7
 10
-53.281502
 20
-514.14594
 11
-53.281502
 21
-517.5459
  0
LINE
  8
0
  6
CONTINUOUS
 62
     7
 10
-182.97932
 20
-349.81882
 11
-182.97932
 21
-353.31882
  0
LINE
  8
0
  6
CONTINUOUS
 62
     7
 10
-163.98869
 20
-360.33276
 11
-160.38869
 21
-360.33276
  0
LINE
  8
0
  6
CONTINUOUS
 62
     7
 10
-163.98869
 20
-417.90771
 11
-160.38869
 21
-417.90771
  0
LINE
  8
0
  6
CONTINUOUS
 62
     7
 10
10.633381
 20
-360.53622
 11
14.233356
 21
-360.53622
  0
LINE
  8
0
  6
CONTINUOUS
 62
     7
 10
10.633381
 20
-417.90771
 11
14.233356
 21
-417.90771
  0
LINE
  8
0
  6
CONTINUOUS
 62
     7
 10
-5.3272805
 20
-352.21881
 11
-5.3272805
 21
-355.81882
  0
LINE
  8
0
  6
CONTINUOUS
 62
     7
 10
-52.345016
 20
-351.71881
 11
-53.366623
 21
-351.71881
  0
LINE
  8
0
  6
CONTINUOUS
 62
     7
 10
-52.345016
 20
-351.71881
 11
-52.345016
 21
-341.31882
  0
LINE
  8
0
  6
CONTINUOUS
 62
     7
 10
-37.57008
 20
-351.71881
 11
-37.57008
 21
-341.31882
  0
LINE
  8
0
  6
CONTINUOUS
 62
     7
 10
-37.57008
 20
-351.71881
 11
-40.036484
 21
-351.71881
  0
LINE
  8
0
  6
CONTINUOUS
 62
     7
 10
-28.866617
 20
-336.31882
 11
-48.366623
 21
-336.31882
  0
LINE
  8
0
  6
CONTINUOUS
 62
     7
 10
-52.86665
 20
-352.21881
 11
-53.366638
 21
-351.71881
  0
LINE
  8
0
  6
CONTINUOUS
 62
     7
 10
-53.366623
 20
-351.71881
 11
-53.366623
 21
-341.31882
  0
LINE
  8
0
  6
CONTINUOUS
 62
     7
 10
-28.866617
 20
-341.31882
 11
-53.366623
 21
-341.31882
  0
LINE
  8
0
  6
CONTINUOUS
 62
     7
 10
-40.036484
 20
-351.71881
 11
-40.036484
 21
-341.31882
  0
LINE
  8
0
  6
CONTINUOUS
 62
     7
 10
-54.366623
 20
-356.81882
 11
-54.366623
 21
-356.31882
  0
LINE
  8
0
  6
CONTINUOUS
 62
     7
 10
-54.366638
 20
-356.31882
 11
-53.866627
 21
-355.81882
  0
LINE
  8
0
  6
CONTINUOUS
 62
     7
 10
-53.866623
 20
-355.81882
 11
-28.866617
 21
-355.81882
  0
LINE
  8
0
  6
CONTINUOUS
 62
     7
 10
-51.392258
 20
-366.31882
 11
-58.866623
 21
-366.31882
  0
LINE
  8
0
  6
CONTINUOUS
 62
     7
 10
-58.866623
 20
-412.31882
 11
-28.866617
 21
-412.31882
  0
LINE
  8
0
  6
CONTINUOUS
 62
     7
 10
-68.366653
 20
-419.31879
 11
-67.866646
 21
-419.81882
  0
LINE
  8
0
  6
CONTINUOUS
 62
     7
 10
-65.866623
 20
-419.81882
 11
-67.866623
 21
-419.81882
  0
LINE
  8
0
  6
CONTINUOUS
 62
     7
 10
-68.366653
 20
-359.31882
 11
-67.866646
 21
-358.81879
  0
LINE
  8
0
  6
CONTINUOUS
 62
     7
 10
-56.366623
 20
-358.81882
 11
-67.866623
 21
-358.81882
  0
LINE
  8
0
  6
CONTINUOUS
 62
     7
 10
-68.366623
 20
-359.31882
 11
-68.366623
 21
-389.31882
  0
LINE
  8
0
  6
CONTINUOUS
 62
     7
 10
-68.366623
 20
-419.31882
 11
-68.366623
 21
-389.31882
  0
LINE
  8
0
  6
CONTINUOUS
 62
     7
 10
-65.866623
 20
-358.81882
 11
-65.866623
 21
-359.31882
  0
LINE
  8
0
  6
CONTINUOUS
 62
     7
 10
-55.025742
 20
-358.30273
 11
-28.866617
 21
-358.30273
  0
LINE
  8
0
  6
CONTINUOUS
 62
     7
 10
-65.866623
 20
-359.31882
 11
-65.866623
 21
-389.31882
  0
LINE
  8
0
  6
CONTINUOUS
 62
     7
 10
-65.84874
 20
-419.81882
 11
-65.84874
 21
-389.31882
  0
LINE
  8
0
  6
CONTINUOUS
 62
     7
 10
-28.866617
 20
-352.21881
 11
-52.866623
 21
-352.21881
  0
LINE
  8
0
  6
CONTINUOUS
 62
     7
 10
-71.966629
 20
-389.31882
 11
-71.966629
 21
-418.31882
  0
LINE
  8
0
  6
CONTINUOUS
 62
     7
 10
-72.466629
 20
-416.91455
 11
-72.466629
 21
-418.81882
  0
LINE
  8
0
  6
CONTINUOUS
 62
     7
 10
-72.466629
 20
-398.84509
 11
-72.466629
 21
-403.44235
  0
LINE
  8
0
  6
CONTINUOUS
 62
     7
 10
-89.866623
 20
-389.31882
 11
-89.866623
 21
-412.81882
  0
LINE
  8
0
  6
CONTINUOUS
 62
     7
 10
-72.466629
 20
-418.81882
 11
-83.866623
 21
-418.81882
  0
LINE
  8
0
  6
CONTINUOUS
 62
     7
 10
-72.466629
 20
-403.44235
 11
-83.866623
 21
-403.44235
  0
LINE
  8
0
  6
CONTINUOUS
 62
     7
 10
-72.466629
 20
-416.91455
 11
-83.866623
 21
-416.91455
  0
LINE
  8
0
  6
CONTINUOUS
 62
     7
 10
-71.966629
 20
-418.31882
 11
-72.466637
 21
-418.81882
  0
LINE
  8
0
  6
CONTINUOUS
 62
     7
 10
-72.466629
 20
-379.79254
 11
-83.866623
 21
-379.79254
  0
LINE
  8
0
  6
CONTINUOUS
 62
     7
 10
-83.866623
 20
-389.31882
 11
-83.866623
 21
-418.81882
  0
LINE
  8
0
  6
CONTINUOUS
 62
     7
 10
-83.866623
 20
-389.31882
 11
-83.866623
 21
-359.81882
  0
LINE
  8
0
  6
CONTINUOUS
 62
     7
 10
-71.966644
 20
-360.31882
 11
-72.46666
 21
-359.81882
  0
LINE
  8
0
  6
CONTINUOUS
 62
     7
 10
-72.466629
 20
-361.72308
 11
-83.866623
 21
-361.72308
  0
LINE
  8
0
  6
CONTINUOUS
 62
     7
 10
-72.466629
 20
-398.84509
 11
-83.866623
 21
-398.84509
  0
LINE
  8
0
  6
CONTINUOUS
 62
     7
 10
-72.466629
 20
-375.19525
 11
-83.866623
 21
-375.19525
  0
LINE
  8
0
  6
CONTINUOUS
 62
     7
 10
-72.466629
 20
-359.81882
 11
-83.866623
 21
-359.81882
  0
LINE
  8
0
  6
CONTINUOUS
 62
     7
 10
-89.866623
 20
-389.31882
 11
-89.866623
 21
-365.81882
  0
LINE
  8
0
  6
CONTINUOUS
 62
     7
 10
-72.466629
 20
-379.79254
 11
-72.466629
 21
-375.19525
  0
LINE
  8
0
  6
CONTINUOUS
 62
     7
 10
-72.466629
 20
-361.72308
 11
-72.466629
 21
-359.81882
  0
LINE
  8
0
  6
CONTINUOUS
 62
     7
 10
-71.966629
 20
-389.31882
 11
-71.966629
 21
-360.31882
  0
LINE
  8
0
  6
CONTINUOUS
 62
     7
 10
-68.366623
 20
-360.53622
 11
-71.966629
 21
-360.53622
  0
LINE
  8
0
  6
CONTINUOUS
 62
     7
 10
-68.366623
 20
-417.90771
 11
-71.966629
 21
-417.90771
  0
LINE
  8
0
  6
CONTINUOUS
 62
     7
 10
-52.405991
 20
-352.21881
 11
-52.405991
 21
-355.81882
  0
LINE
  8
0
  6
CONTINUOUS
 62
     7
 10
-224.48868
 20
-366.31882
 11
-233.48866
 21
-366.31882
  0
LINE
  8
0
  6
CONTINUOUS
 62
     7
 10
-240.48866
 20
-358.81882
 11
-240.48866
 21
-359.31882
  0
LINE
  8
0
  6
CONTINUOUS
 62
     7
 10
-224.98868
 20
-353.31879
 11
-225.48869
 21
-353.81882
  0
LINE
  8
0
  6
CONTINUOUS
 62
     7
 10
-225.48868
 20
-353.81882
 11
-225.48868
 21
-354.81882
  0
LINE
  8
0
  6
CONTINUOUS
 62
     7
 10
-203.48869
 20
-353.31882
 11
-224.98869
 21
-353.31882
  0
LINE
  8
0
  6
CONTINUOUS
 62
     7
 10
-242.98866
 20
-419.31882
 11
-242.98866
 21
-389.31882
  0
LINE
  8
0
  6
CONTINUOUS
 62
     7
 10
-242.98866
 20
-359.31882
 11
-242.98866
 21
-389.31882
  0
LINE
  8
0
  6
CONTINUOUS
 62
     7
 10
-229.48868
 20
-358.81882
 11
-242.48866
 21
-358.81882
  0
LINE
  8
0
  6
CONTINUOUS
 62
     7
 10
-242.98869
 20
-359.31882
 11
-242.48871
 21
-358.81882
  0
LINE
  8
0
  6
CONTINUOUS
 62
     7
 10
-240.48866
 20
-419.81882
 11
-242.48866
 21
-419.81882
  0
LINE
  8
0
  6
CONTINUOUS
 62
     7
 10
-242.98869
 20
-419.31882
 11
-242.48868
 21
-419.81885
  0
LINE
  8
0
  6
CONTINUOUS
 62
     7
 10
-233.48866
 20
-412.31882
 11
-203.48869
 21
-412.31882
  0
LINE
  8
0
  6
CONTINUOUS
 62
     7
 10
-240.48866
 20
-359.31882
 11
-240.48866
 21
-389.31882
  0
LINE
  8
0
  6
CONTINUOUS
 62
     7
 10
-240.47081
 20
-419.31882
 11
-240.47081
 21
-389.31882
  0
LINE
  8
0
  6
CONTINUOUS
 62
     7
 10
-203.48869
 20
-355.31882
 11
-225.48868
 21
-355.31882
  0
LINE
  8
0
  6
CONTINUOUS
 62
     7
 10
-223.3819
 20
-349.31882
 11
-223.3819
 21
-340.31882
  0
LINE
  8
0
  6
CONTINUOUS
 62
     7
 10
-224.48869
 20
-349.81885
 11
-224.98871
 21
-349.31882
  0
LINE
  8
0
  6
CONTINUOUS
 62
     7
 10
-223.3819
 20
-349.31882
 11
-224.98868
 21
-349.31882
  0
LINE
  8
0
  6
CONTINUOUS
 62
     7
 10
-210.12193
 20
-349.31882
 11
-214.00108
 21
-349.31882
  0
LINE
  8
0
  6
CONTINUOUS
 62
     7
 10
-224.98868
 20
-349.31882
 11
-224.98868
 21
-340.31882
  0
LINE
  8
0
  6
CONTINUOUS
 62
     7
 10
-203.48869
 20
-335.31882
 11
-219.98868
 21
-335.31882
  0
LINE
  8
0
  6
CONTINUOUS
 62
     7
 10
-203.48869
 20
-340.31882
 11
-224.98868
 21
-340.31882
  0
LINE
  8
0
  6
CONTINUOUS
 62
     7
 10
-214.00108
 20
-349.31882
 11
-214.00108
 21
-340.31882
  0
LINE
  8
0
  6
CONTINUOUS
 62
     7
 10
-210.12193
 20
-349.31882
 11
-210.12193
 21
-340.31882
  0
LINE
  8
0
  6
CONTINUOUS
 62
     7
 10
-203.48869
 20
-349.81882
 11
-224.48868
 21
-349.81882
  0
LINE
  8
0
  6
CONTINUOUS
 62
     7
 10
-246.58867
 20
-389.31882
 11
-246.58867
 21
-418.31882
  0
LINE
  8
0
  6
CONTINUOUS
 62
     7
 10
-247.08867
 20
-416.91455
 11
-247.08867
 21
-418.81882
  0
LINE
  8
0
  6
CONTINUOUS
 62
     7
 10
-247.08867
 20
-398.84509
 11
-247.08867
 21
-403.44235
  0
LINE
  8
0
  6
CONTINUOUS
 62
     7
 10
-264.48865
 20
-389.31882
 11
-264.48865
 21
-412.81882
  0
LINE
  8
0
  6
CONTINUOUS
 62
     7
 10
-247.08867
 20
-418.81882
 11
-258.48865
 21
-418.81882
  0
LINE
  8
0
  6
CONTINUOUS
 62
     7
 10
-247.08867
 20
-403.44235
 11
-258.48865
 21
-403.44235
  0
LINE
  8
0
  6
CONTINUOUS
 62
     7
 10
-247.08867
 20
-416.91455
 11
-258.48865
 21
-416.91455
  0
LINE
  8
0
  6
CONTINUOUS
 62
     7
 10
-246.5887
 20
-418.31882
 11
-247.08868
 21
-418.81882
  0
LINE
  8
0
  6
CONTINUOUS
 62
     7
 10
-247.08867
 20
-379.79254
 11
-258.48865
 21
-379.79254
  0
LINE
  8
0
  6
CONTINUOUS
 62
     7
 10
-258.48865
 20
-389.31882
 11
-258.48865
 21
-418.81882
  0
LINE
  8
0
  6
CONTINUOUS
 62
     7
 10
-258.48865
 20
-389.31882
 11
-258.48865
 21
-359.81882
  0
LINE
  8
0
  6
CONTINUOUS
 62
     7
 10
-246.5887
 20
-360.31879
 11
-247.08868
 21
-359.81882
  0
LINE
  8
0
  6
CONTINUOUS
 62
     7
 10
-247.08867
 20
-361.72308
 11
-258.48865
 21
-361.72308
  0
LINE
  8
0
  6
CONTINUOUS
 62
     7
 10
-247.08867
 20
-398.84509
 11
-258.48865
 21
-398.84509
  0
LINE
  8
0
  6
CONTINUOUS
 62
     7
 10
-247.08867
 20
-375.19525
 11
-258.48865
 21
-375.19525
  0
LINE
  8
0
  6
CONTINUOUS
 62
     7
 10
-247.08867
 20
-359.81882
 11
-258.48865
 21
-359.81882
  0
LINE
  8
0
  6
CONTINUOUS
 62
     7
 10
-264.48865
 20
-389.31882
 11
-264.48865
 21
-365.81882
  0
LINE
  8
0
  6
CONTINUOUS
 62
     7
 10
-247.08867
 20
-379.79254
 11
-247.08867
 21
-375.19525
  0
LINE
  8
0
  6
CONTINUOUS
 62
     7
 10
-247.08867
 20
-361.72308
 11
-247.08867
 21
-359.81882
  0
LINE
  8
0
  6
CONTINUOUS
 62
     7
 10
-246.58867
 20
-389.31882
 11
-246.58867
 21
-360.31882
  0
LINE
  8
0
  6
CONTINUOUS
 62
     7
 10
-246.58867
 20
-389.31882
 11
-246.58867
 21
-418.31882
  0
LINE
  8
0
  6
CONTINUOUS
 62
     7
 10
-247.08867
 20
-416.91455
 11
-247.08867
 21
-418.81882
  0
LINE
  8
0
  6
CONTINUOUS
 62
     7
 10
-247.08867
 20
-398.84509
 11
-247.08867
 21
-403.44235
  0
LINE
  8
0
  6
CONTINUOUS
 62
     7
 10
-264.48865
 20
-389.31882
 11
-264.48865
 21
-412.81882
  0
LINE
  8
0
  6
CONTINUOUS
 62
     7
 10
-247.08867
 20
-418.81882
 11
-258.48865
 21
-418.81882
  0
LINE
  8
0
  6
CONTINUOUS
 62
     7
 10
-247.08867
 20
-403.44235
 11
-258.48865
 21
-403.44235
  0
LINE
  8
0
  6
CONTINUOUS
 62
     7
 10
-247.08867
 20
-416.91455
 11
-258.48865
 21
-416.91455
  0
LINE
  8
0
  6
CONTINUOUS
 62
     7
 10
-246.5887
 20
-418.31882
 11
-247.08868
 21
-418.81882
  0
LINE
  8
0
  6
CONTINUOUS
 62
     7
 10
-247.08867
 20
-379.79254
 11
-258.48865
 21
-379.79254
  0
LINE
  8
0
  6
CONTINUOUS
 62
     7
 10
-258.48865
 20
-389.31882
 11
-258.48865
 21
-418.81882
  0
LINE
  8
0
  6
CONTINUOUS
 62
     7
 10
-258.48865
 20
-389.31882
 11
-258.48865
 21
-359.81882
  0
LINE
  8
0
  6
CONTINUOUS
 62
     7
 10
-246.5887
 20
-360.31879
 11
-247.08868
 21
-359.81882
  0
LINE
  8
0
  6
CONTINUOUS
 62
     7
 10
-247.08867
 20
-361.72308
 11
-258.48865
 21
-361.72308
  0
LINE
  8
0
  6
CONTINUOUS
 62
     7
 10
-247.08867
 20
-398.84509
 11
-258.48865
 21
-398.84509
  0
LINE
  8
0
  6
CONTINUOUS
 62
     7
 10
-247.08867
 20
-375.19525
 11
-258.48865
 21
-375.19525
  0
LINE
  8
0
  6
CONTINUOUS
 62
     7
 10
-247.08867
 20
-359.81882
 11
-258.48865
 21
-359.81882
  0
LINE
  8
0
  6
CONTINUOUS
 62
     7
 10
-264.48865
 20
-389.31882
 11
-264.48865
 21
-365.81882
  0
LINE
  8
0
  6
CONTINUOUS
 62
     7
 10
-247.08867
 20
-379.79254
 11
-247.08867
 21
-375.19525
  0
LINE
  8
0
  6
CONTINUOUS
 62
     7
 10
-247.08867
 20
-361.72308
 11
-247.08867
 21
-359.81882
  0
LINE
  8
0
  6
CONTINUOUS
 62
     7
 10
-246.58867
 20
-389.31882
 11
-246.58867
 21
-360.31882
  0
LINE
  8
0
  6
CONTINUOUS
 62
     7
 10
-223.99802
 20
-349.81882
 11
-223.99802
 21
-353.31882
  0
LINE
  8
0
  6
CONTINUOUS
 62
     7
 10
-242.98866
 20
-360.33276
 11
-246.58867
 21
-360.33276
  0
LINE
  8
0
  6
CONTINUOUS
 62
     7
 10
-242.98866
 20
-417.90771
 11
-246.58867
 21
-417.90771
  0
LINE
  8
0
  6
CONTINUOUS
 62
     7
 10
-10.454078
 20
-657.3374
 11
-10.454078
 21
-657.87244
  0
LINE
  8
0
  6
CONTINUOUS
 62
     7
 10
-5.6540899
 20
-662.67249
 11
2.8459098
 21
-662.67249
  0
LINE
  8
0
  6
CENTER
 62
     7
 10
-29.654091
 20
-631.34052
 11
-29.654091
 21
-724.38348
  0
LINE
  8
0
  6
CONTINUOUS
 62
     7
 10
12.845882
 20
-723.87238
 11
13.345873
 21
-723.37244
  0
LINE
  8
0
  6
CONTINUOUS
 62
     7
 10
9.8459101
 20
-723.87244
 11
12.84591
 21
-723.87244
  0
LINE
  8
0
  6
CONTINUOUS
 62
     7
 10
13.34591
 20
-723.37244
 11
13.34591
 21
-689.37244
  0
LINE
  8
0
  6
CONTINUOUS
 62
     7
 10
12.845911
 20
-654.87244
 11
13.345901
 21
-655.37244
  0
LINE
  8
0
  6
CONTINUOUS
 62
     7
 10
-0.15409011
 20
-654.87244
 11
12.84591
 21
-654.87244
  0
LINE
  8
0
  6
CONTINUOUS
 62
     7
 10
13.34591
 20
-655.37244
 11
13.34591
 21
-689.37244
  0
LINE
  8
0
  6
CONTINUOUS
 62
     7
 10
9.8459101
 20
-723.87244
 11
9.8459101
 21
-722.87244
  0
LINE
  8
0
  6
CONTINUOUS
 62
     7
 10
2.8459098
 20
-716.07245
 11
-29.654091
 21
-716.07245
  0
LINE
  8
0
  6
CONTINUOUS
 62
     7
 10
-4.6540899
 20
-647.87244
 11
-29.654091
 21
-647.87244
  0
LINE
  8
0
  6
CONTINUOUS
 62
     7
 10
-4.1540956
 20
-648.37244
 11
-4.6540852
 21
-647.8725
  0
LINE
  8
0
  6
CONTINUOUS
 62
     7
 10
-4.1540899
 20
-650.87244
 11
-4.1540899
 21
-648.37244
  0
LINE
  8
0
  6
CENTER
 62
     7
 10
41.779778
 20
-689.37244
 11
-98.629066
 21
-689.37244
  0
LINE
  8
0
  6
CONTINUOUS
 62
     7
 10
-4.1540899
 20
-650.37244
 11
-29.654091
 21
-650.37244
  0
LINE
  8
0
  6
CONTINUOUS
 62
     7
 10
9.8459101
 20
-723.37244
 11
9.8459101
 21
-689.37244
  0
LINE
  8
0
  6
CONTINUOUS
 62
     7
 10
9.8459101
 20
-654.87244
 11
9.8459101
 21
-689.37244
  0
LINE
  8
0
  6
CONTINUOUS
 62
     7
 10
-185.31763
 20
-848.53107
 11
-182.81763
 21
-848.53107
  0
LINE
  8
0
  6
CONTINUOUS
 62
     7
 10
-184.81763
 20
-836.73108
 11
-184.81763
 21
-831.23108
  0
LINE
  8
0
  6
CENTER
 62
     7
 10
-136.88107
 20
-875.23108
 11
-289.09525
 21
-875.23108
  0
LINE
  8
0
  6
CONTINUOUS
 62
     7
 10
-185.3176
 20
-830.73108
 11
-184.81761
 21
-831.23108
  0
LINE
  8
0
  6
CENTER
 62
     7
 10
-215.31763
 20
-802.11584
 11
-215.31763
 21
-920.79535
  0
LINE
  8
0
  6
CONTINUOUS
 62
     7
 10
-185.31763
 20
-830.73108
 11
-215.31763
 21
-830.73108
  0
LINE
  8
0
  6
CONTINUOUS
 62
     7
 10
-175.81763
 20
-840.73108
 11
-175.81763
 21
-841.53107
  0
LINE
  8
0
  6
CONTINUOUS
 62
     7
 10
-175.81763
 20
-909.73108
 11
-175.81763
 21
-908.93109
  0
LINE
  8
0
  6
CONTINUOUS
 62
     7
 10
-192.11761
 20
-840.24255
 11
-192.11761
 21
-841.73108
  0
LINE
  8
0
  6
CONTINUOUS
 62
     7
 10
-172.81761
 20
-909.73108
 11
-172.31763
 21
-909.23108
  0
LINE
  8
0
  6
CONTINUOUS
 62
     7
 10
-175.81763
 20
-909.73108
 11
-172.81763
 21
-909.73108
  0
LINE
  8
0
  6
CONTINUOUS
 62
     7
 10
-172.31763
 20
-909.23108
 11
-172.31763
 21
-875.23108
  0
LINE
  8
0
  6
CONTINUOUS
 62
     7
 10
-172.8176
 20
-840.73108
 11
-172.31761
 21
-841.23108
  0
LINE
  8
0
  6
CONTINUOUS
 62
     7
 10
-180.81763
 20
-840.73108
 11
-172.81763
 21
-840.73108
  0
LINE
  8
0
  6
CONTINUOUS
 62
     7
 10
-172.31763
 20
-841.23108
 11
-172.31763
 21
-875.23108
  0
LINE
  8
0
  6
CONTINUOUS
 62
     7
 10
-175.81763
 20
-909.23108
 11
-175.81763
 21
-908.73108
  0
LINE
  8
0
  6
CONTINUOUS
 62
     7
 10
-182.81763
 20
-901.93109
 11
-215.31763
 21
-901.93109
  0
LINE
  8
0
  6
CONTINUOUS
 62
     7
 10
-185.31763
 20
-833.24896
 11
-215.31763
 21
-833.24896
  0
LINE
  8
0
  6
CONTINUOUS
 62
     7
 10
-175.81763
 20
-841.23108
 11
-175.81763
 21
-875.23108
  0
LINE
  8
0
  6
CONTINUOUS
 62
     7
 10
-175.81763
 20
-909.23108
 11
-175.81763
 21
-875.23108
  0
LINE
  8
0
  6
CONTINUOUS
 62
     7
 10
29.345909
 20
-689.37244
 11
29.345909
 21
-655.37244
  0
LINE
  8
0
  6
CONTINUOUS
 62
     7
 10
17.845909
 20
-672.5506
 11
29.345909
 21
-672.5506
  0
LINE
  8
0
  6
CONTINUOUS
 62
     7
 10
17.845909
 20
-679.16217
 11
17.845909
 21
-672.5506
  0
LINE
  8
0
  6
CONTINUOUS
 62
     7
 10
37.345879
 20
-689.37244
 11
37.345879
 21
-663.37244
  0
LINE
  8
0
  6
CONTINUOUS
 62
     7
 10
17.845909
 20
-658.11108
 11
29.345909
 21
-658.11108
  0
LINE
  8
0
  6
CONTINUOUS
 62
     7
 10
17.345909
 20
-689.37244
 11
17.345909
 21
-722.87244
  0
LINE
  8
0
  6
CONTINUOUS
 62
     7
 10
17.845909
 20
-655.37244
 11
29.345909
 21
-655.37244
  0
LINE
  8
0
  6
CONTINUOUS
 62
     7
 10
17.845913
 20
-723.37244
 11
17.345924
 21
-722.87244
  0
LINE
  8
0
  6
CONTINUOUS
 62
     7
 10
17.845909
 20
-720.63385
 11
17.845909
 21
-723.37244
  0
LINE
  8
0
  6
CONTINUOUS
 62
     7
 10
17.845909
 20
-658.11108
 11
17.845909
 21
-655.37244
  0
LINE
  8
0
  6
CONTINUOUS
 62
     7
 10
17.845909
 20
-723.37244
 11
29.345909
 21
-723.37244
  0
LINE
  8
0
  6
CONTINUOUS
 62
     7
 10
17.845909
 20
-720.63385
 11
29.345909
 21
-720.63385
  0
LINE
  8
0
  6
CONTINUOUS
 62
     7
 10
37.345879
 20
-689.37244
 11
37.345879
 21
-715.37244
  0
LINE
  8
0
  6
CONTINUOUS
 62
     7
 10
17.845909
 20
-699.58276
 11
17.845909
 21
-706.19434
  0
LINE
  8
0
  6
CONTINUOUS
 62
     7
 10
17.845907
 20
-655.3725
 11
17.345917
 21
-655.87244
  0
LINE
  8
0
  6
CONTINUOUS
 62
     7
 10
17.345909
 20
-689.37244
 11
17.345909
 21
-655.87244
  0
LINE
  8
0
  6
CONTINUOUS
 62
     7
 10
17.845909
 20
-706.19434
 11
29.345909
 21
-706.19434
  0
LINE
  8
0
  6
CONTINUOUS
 62
     7
 10
29.345909
 20
-689.37244
 11
29.345909
 21
-723.37244
  0
LINE
  8
0
  6
CONTINUOUS
 62
     7
 10
17.845909
 20
-699.58276
 11
29.345909
 21
-699.58276
  0
LINE
  8
0
  6
CONTINUOUS
 62
     7
 10
17.845909
 20
-679.16217
 11
29.345909
 21
-679.16217
  0
LINE
  8
0
  6
CONTINUOUS
 62
     7
 10
29.345909
 20
-689.37244
 11
29.345909
 21
-655.37244
  0
LINE
  8
0
  6
CONTINUOUS
 62
     7
 10
17.845909
 20
-672.5506
 11
29.345909
 21
-672.5506
  0
LINE
  8
0
  6
CONTINUOUS
 62
     7
 10
17.845909
 20
-679.16217
 11
17.845909
 21
-672.5506
  0
LINE
  8
0
  6
CONTINUOUS
 62
     7
 10
37.345879
 20
-689.37244
 11
37.345879
 21
-663.37244
  0
LINE
  8
0
  6
CONTINUOUS
 62
     7
 10
17.845909
 20
-658.11108
 11
29.345909
 21
-658.11108
  0
LINE
  8
0
  6
CONTINUOUS
 62
     7
 10
17.345909
 20
-689.37244
 11
17.345909
 21
-722.87244
  0
LINE
  8
0
  6
CONTINUOUS
 62
     7
 10
17.845909
 20
-655.37244
 11
29.345909
 21
-655.37244
  0
LINE
  8
0
  6
CONTINUOUS
 62
     7
 10
17.845913
 20
-723.37244
 11
17.345924
 21
-722.87244
  0
LINE
  8
0
  6
CONTINUOUS
 62
     7
 10
17.845909
 20
-720.63385
 11
17.845909
 21
-723.37244
  0
LINE
  8
0
  6
CONTINUOUS
 62
     7
 10
17.845909
 20
-658.11108
 11
17.845909
 21
-655.37244
  0
LINE
  8
0
  6
CONTINUOUS
 62
     7
 10
17.845909
 20
-723.37244
 11
29.345909
 21
-723.37244
  0
LINE
  8
0
  6
CONTINUOUS
 62
     7
 10
17.845909
 20
-720.63385
 11
29.345909
 21
-720.63385
  0
LINE
  8
0
  6
CONTINUOUS
 62
     7
 10
37.345879
 20
-689.37244
 11
37.345879
 21
-715.37244
  0
LINE
  8
0
  6
CONTINUOUS
 62
     7
 10
17.845909
 20
-699.58276
 11
17.845909
 21
-706.19434
  0
LINE
  8
0
  6
CONTINUOUS
 62
     7
 10
17.845907
 20
-655.3725
 11
17.345917
 21
-655.87244
  0
LINE
  8
0
  6
CONTINUOUS
 62
     7
 10
17.345909
 20
-689.37244
 11
17.345909
 21
-655.87244
  0
LINE
  8
0
  6
CONTINUOUS
 62
     7
 10
17.845909
 20
-706.19434
 11
29.345909
 21
-706.19434
  0
LINE
  8
0
  6
CONTINUOUS
 62
     7
 10
29.345909
 20
-689.37244
 11
29.345909
 21
-723.37244
  0
LINE
  8
0
  6
CONTINUOUS
 62
     7
 10
17.845909
 20
-699.58276
 11
29.345909
 21
-699.58276
  0
LINE
  8
0
  6
CONTINUOUS
 62
     7
 10
17.845909
 20
-679.16217
 11
29.345909
 21
-679.16217
  0
LINE
  8
0
  6
CONTINUOUS
 62
     7
 10
-156.31763
 20
-875.23108
 11
-156.31763
 21
-841.23108
  0
LINE
  8
0
  6
CONTINUOUS
 62
     7
 10
-167.81763
 20
-858.40924
 11
-156.31763
 21
-858.40924
  0
LINE
  8
0
  6
CONTINUOUS
 62
     7
 10
-167.81763
 20
-865.02081
 11
-167.81763
 21
-858.40924
  0
LINE
  8
0
  6
CONTINUOUS
 62
     7
 10
-148.31763
 20
-875.23108
 11
-148.31763
 21
-849.23108
  0
LINE
  8
0
  6
CONTINUOUS
 62
     7
 10
-167.81763
 20
-843.96967
 11
-156.31763
 21
-843.96967
  0
LINE
  8
0
  6
CONTINUOUS
 62
     7
 10
-168.31763
 20
-875.23108
 11
-168.31763
 21
-908.73108
  0
LINE
  8
0
  6
CONTINUOUS
 62
     7
 10
-167.81763
 20
-841.23108
 11
-156.31763
 21
-841.23108
  0
LINE
  8
0
  6
CONTINUOUS
 62
     7
 10
-167.81761
 20
-909.23114
 11
-168.31761
 21
-908.73114
  0
LINE
  8
0
  6
CONTINUOUS
 62
     7
 10
-167.81763
 20
-906.49249
 11
-167.81763
 21
-909.23108
  0
LINE
  8
0
  6
CONTINUOUS
 62
     7
 10
-167.81763
 20
-843.96967
 11
-167.81763
 21
-841.23108
  0
LINE
  8
0
  6
CONTINUOUS
 62
     7
 10
-167.81763
 20
-909.23108
 11
-156.31763
 21
-909.23108
  0
LINE
  8
0
  6
CONTINUOUS
 62
     7
 10
-167.81763
 20
-906.49249
 11
-156.31763
 21
-906.49249
  0
LINE
  8
0
  6
CONTINUOUS
 62
     7
 10
-148.31763
 20
-875.23108
 11
-148.31763
 21
-901.23108
  0
LINE
  8
0
  6
CONTINUOUS
 62
     7
 10
-167.81763
 20
-885.44135
 11
-167.81763
 21
-892.05298
  0
LINE
  8
0
  6
CONTINUOUS
 62
     7
 10
-167.81758
 20
-841.23108
 11
-168.31761
 21
-841.73114
  0
LINE
  8
0
  6
CONTINUOUS
 62
     7
 10
-168.31763
 20
-875.23108
 11
-168.31763
 21
-841.73108
  0
LINE
  8
0
  6
CONTINUOUS
 62
     7
 10
-167.81763
 20
-892.05298
 11
-156.31763
 21
-892.05298
  0
LINE
  8
0
  6
CONTINUOUS
 62
     7
 10
-156.31763
 20
-875.23108
 11
-156.31763
 21
-909.23108
  0
LINE
  8
0
  6
CONTINUOUS
 62
     7
 10
-167.81763
 20
-885.44135
 11
-156.31763
 21
-885.44135
  0
LINE
  8
0
  6
CONTINUOUS
 62
     7
 10
-167.81763
 20
-865.02081
 11
-156.31763
 21
-865.02081
  0
LINE
  8
0
  6
CONTINUOUS
 62
     7
 10
-196.44881
 20
-662.67249
 11
-184.94881
 21
-662.67249
  0
LINE
  8
0
  6
CONTINUOUS
 62
     7
 10
-177.94881
 20
-654.87244
 11
-177.94881
 21
-655.67249
  0
LINE
  8
0
  6
CONTINUOUS
 62
     7
 10
-184.94881
 20
-716.07245
 11
-217.44881
 21
-716.07245
  0
LINE
  8
0
  6
CENTER
 62
     7
 10
-217.44881
 20
-627.13361
 11
-217.44881
 21
-724.40771
  0
LINE
  8
0
  6
CONTINUOUS
 62
     7
 10
-174.94881
 20
-723.87244
 11
-174.44881
 21
-723.3725
  0
LINE
  8
0
  6
CONTINUOUS
 62
     7
 10
-177.94881
 20
-723.87244
 11
-174.94881
 21
-723.87244
  0
LINE
  8
0
  6
CONTINUOUS
 62
     7
 10
-174.44881
 20
-723.37244
 11
-174.44881
 21
-689.37244
  0
LINE
  8
0
  6
CONTINUOUS
 62
     7
 10
-174.94879
 20
-654.87244
 11
-174.44881
 21
-655.37244
  0
LINE
  8
0
  6
CONTINUOUS
 62
     7
 10
-191.44881
 20
-654.87244
 11
-174.94881
 21
-654.87244
  0
LINE
  8
0
  6
CONTINUOUS
 62
     7
 10
-174.44881
 20
-655.37244
 11
-174.44881
 21
-689.37244
  0
LINE
  8
0
  6
CONTINUOUS
 62
     7
 10
-195.44881
 20
-649.87244
 11
-195.94881
 21
-649.3725
  0
LINE
  8
0
  6
CONTINUOUS
 62
     7
 10
-195.94881
 20
-649.37244
 11
-217.44881
 21
-649.37244
  0
LINE
  8
0
  6
CONTINUOUS
 62
     7
 10
-195.94881
 20
-651.37244
 11
-195.94881
 21
-651.37244
  0
LINE
  8
0
  6
CONTINUOUS
 62
     7
 10
-195.44881
 20
-650.87244
 11
-195.44881
 21
-649.87244
  0
LINE
  8
0
  6
CONTINUOUS
 62
     7
 10
-177.94881
 20
-723.87244
 11
-177.94881
 21
-723.07245
  0
LINE
  8
0
  6
CENTER
 62
     7
 10
-141.62358
 20
-689.37244
 11
-277.31616
 21
-689.37244
  0
LINE
  8
0
  6
CONTINUOUS
 62
     7
 10
-177.94881
 20
-655.37244
 11
-177.94881
 21
-689.37244
  0
LINE
  8
0
  6
CONTINUOUS
 62
     7
 10
-177.94881
 20
-723.37244
 11
-177.94881
 21
-689.37244
  0
LINE
  8
0
  6
CONTINUOUS
 62
     7
 10
-195.44881
 20
-651.37244
 11
-217.44881
 21
-651.37244
  0
LINE
  8
0
  6
CONTINUOUS
 62
     7
 10
-158.44881
 20
-689.37244
 11
-158.44881
 21
-655.37244
  0
LINE
  8
0
  6
CONTINUOUS
 62
     7
 10
-169.94881
 20
-672.5506
 11
-158.44881
 21
-672.5506
  0
LINE
  8
0
  6
CONTINUOUS
 62
     7
 10
-169.94881
 20
-679.16217
 11
-169.94881
 21
-672.5506
  0
LINE
  8
0
  6
CONTINUOUS
 62
     7
 10
-150.44881
 20
-689.37244
 11
-150.44881
 21
-663.37244
  0
LINE
  8
0
  6
CONTINUOUS
 62
     7
 10
-169.94881
 20
-658.11108
 11
-158.44881
 21
-658.11108
  0
LINE
  8
0
  6
CONTINUOUS
 62
     7
 10
-170.44881
 20
-689.37244
 11
-170.44881
 21
-722.87244
  0
LINE
  8
0
  6
CONTINUOUS
 62
     7
 10
-169.94881
 20
-655.37244
 11
-158.44881
 21
-655.37244
  0
LINE
  8
0
  6
CONTINUOUS
 62
     7
 10
-169.94881
 20
-723.3725
 11
-170.44881
 21
-722.8725
  0
LINE
  8
0
  6
CONTINUOUS
 62
     7
 10
-169.94881
 20
-720.63385
 11
-169.94881
 21
-723.37244
  0
LINE
  8
0
  6
CONTINUOUS
 62
     7
 10
-169.94881
 20
-658.11108
 11
-169.94881
 21
-655.37244
  0
LINE
  8
0
  6
CONTINUOUS
 62
     7
 10
-169.94881
 20
-723.37244
 11
-158.44881
 21
-723.37244
  0
LINE
  8
0
  6
CONTINUOUS
 62
     7
 10
-169.94881
 20
-720.63385
 11
-158.44881
 21
-720.63385
  0
LINE
  8
0
  6
CONTINUOUS
 62
     7
 10
-150.44881
 20
-689.37244
 11
-150.44881
 21
-715.37244
  0
LINE
  8
0
  6
CONTINUOUS
 62
     7
 10
-169.94881
 20
-699.58276
 11
-169.94881
 21
-706.19434
  0
LINE
  8
0
  6
CONTINUOUS
 62
     7
 10
-169.94882
 20
-655.37244
 11
-170.44881
 21
-655.87244
  0
LINE
  8
0
  6
CONTINUOUS
 62
     7
 10
-170.44881
 20
-689.37244
 11
-170.44881
 21
-655.87244
  0
LINE
  8
0
  6
CONTINUOUS
 62
     7
 10
-169.94881
 20
-706.19434
 11
-158.44881
 21
-706.19434
  0
LINE
  8
0
  6
CONTINUOUS
 62
     7
 10
-158.44881
 20
-689.37244
 11
-158.44881
 21
-723.37244
  0
LINE
  8
0
  6
CONTINUOUS
 62
     7
 10
-169.94881
 20
-699.58276
 11
-158.44881
 21
-699.58276
  0
LINE
  8
0
  6
CONTINUOUS
 62
     7
 10
-169.94881
 20
-679.16217
 11
-158.44881
 21
-679.16217
  0
LINE
  8
0
  6
CONTINUOUS
 62
     7
 10
-197.55559
 20
-645.37244
 11
-197.55559
 21
-636.37244
  0
LINE
  8
0
  6
CONTINUOUS
 62
     7
 10
-196.44879
 20
-645.87244
 11
-195.94881
 21
-645.3725
  0
LINE
  8
0
  6
CONTINUOUS
 62
     7
 10
-197.55559
 20
-645.37244
 11
-195.94881
 21
-645.37244
  0
LINE
  8
0
  6
CONTINUOUS
 62
     7
 10
-210.81557
 20
-645.37244
 11
-206.93642
 21
-645.37244
  0
LINE
  8
0
  6
CONTINUOUS
 62
     7
 10
-195.94881
 20
-645.37244
 11
-195.94881
 21
-636.37244
  0
LINE
  8
0
  6
CONTINUOUS
 62
     7
 10
-217.44881
 20
-631.37244
 11
-200.94881
 21
-631.37244
  0
LINE
  8
0
  6
CONTINUOUS
 62
     7
 10
-217.44881
 20
-636.37244
 11
-195.94881
 21
-636.37244
  0
LINE
  8
0
  6
CONTINUOUS
 62
     7
 10
-206.93642
 20
-645.37244
 11
-206.93642
 21
-636.37244
  0
LINE
  8
0
  6
CONTINUOUS
 62
     7
 10
-210.81557
 20
-645.37244
 11
-210.81557
 21
-636.37244
  0
LINE
  8
0
  6
CONTINUOUS
 62
     7
 10
-217.44881
 20
-645.87244
 11
-196.44881
 21
-645.87244
  0
LINE
  8
0
  6
CENTER
 62
     7
 10
-215.31763
 20
-837.49786
 11
-215.31763
 21
-803.42859
  0
LINE
  8
0
  6
CONTINUOUS
 62
     7
 10
-205.79135
 20
-826.6311
 11
-205.79135
 21
-815.23108
  0
LINE
  8
0
  6
CONTINUOUS
 62
     7
 10
-215.31763
 20
-815.23108
 11
-185.81763
 21
-815.23108
  0
LINE
  8
0
  6
CONTINUOUS
 62
     7
 10
-186.3176
 20
-827.1311
 11
-185.81761
 21
-826.6311
  0
LINE
  8
0
  6
CONTINUOUS
 62
     7
 10
-187.72186
 20
-826.6311
 11
-187.72186
 21
-815.23108
  0
LINE
  8
0
  6
CONTINUOUS
 62
     7
 10
-201.19406
 20
-826.6311
 11
-201.19406
 21
-815.23108
  0
LINE
  8
0
  6
CONTINUOUS
 62
     7
 10
-185.81763
 20
-826.6311
 11
-185.81763
 21
-815.23108
  0
LINE
  8
0
  6
CONTINUOUS
 62
     7
 10
-215.31763
 20
-809.23108
 11
-191.81763
 21
-809.23108
  0
LINE
  8
0
  6
CONTINUOUS
 62
     7
 10
-205.79135
 20
-826.6311
 11
-201.19406
 21
-826.6311
  0
LINE
  8
0
  6
CONTINUOUS
 62
     7
 10
-187.72186
 20
-826.6311
 11
-185.81763
 21
-826.6311
  0
LINE
  8
0
  6
CONTINUOUS
 62
     7
 10
-215.31763
 20
-827.1311
 11
-186.31763
 21
-827.1311
  0
LINE
  8
0
  6
CONTINUOUS
 62
     7
 10
-29.654091
 20
-644.27246
 11
-5.6540899
 21
-644.27246
  0
LINE
  8
0
  6
CONTINUOUS
 62
     7
 10
-5.6540651
 20
-644.27246
 11
-5.1540751
 21
-643.77246
  0
LINE
  8
0
  6
CONTINUOUS
 62
     7
 10
-5.1540899
 20
-643.77246
 11
-5.1540899
 21
-633.37244
  0
LINE
  8
0
  6
CONTINUOUS
 62
     7
 10
-18.48423
 20
-643.77246
 11
-18.48423
 21
-633.37244
  0
LINE
  8
0
  6
CONTINUOUS
 62
     7
 10
-29.654091
 20
-628.37244
 11
-10.15409
 21
-628.37244
  0
LINE
  8
0
  6
CONTINUOUS
 62
     7
 10
-29.654091
 20
-633.37244
 11
-5.1540899
 21
-633.37244
  0
LINE
  8
0
  6
CENTER
 62
     7
 10
-29.654091
 20
-651.23657
 11
-29.654091
 21
-624.03033
  0
LINE
  8
0
  6
CONTINUOUS
 62
     7
 10
-20.95063
 20
-643.77246
 11
-18.48423
 21
-643.77246
  0
LINE
  8
0
  6
CONTINUOUS
 62
     7
 10
-20.95063
 20
-643.77246
 11
-20.95063
 21
-633.37244
  0
LINE
  8
0
  6
CONTINUOUS
 62
     7
 10
-6.1756964
 20
-643.77246
 11
-6.1756964
 21
-633.37244
  0
LINE
  8
0
  6
CONTINUOUS
 62
     7
 10
-6.1756964
 20
-643.77246
 11
-5.1540899
 21
-643.77246
  0
LINE
  8
0
  6
CONTINUOUS
 62
     7
 10
13.34591
 20
-656.17261
 11
17.345909
 21
-656.17261
  0
LINE
  8
0
  6
CONTINUOUS
 62
     7
 10
13.34591
 20
-722.45441
 11
17.345909
 21
-722.45441
  0
LINE
  8
0
  6
CONTINUOUS
 62
     7
 10
-6.0039434
 20
-644.27246
 11
-6.0039434
 21
-647.87244
  0
LINE
  8
0
  6
CONTINUOUS
 62
     7
 10
-172.31763
 20
-908.25574
 11
-168.31763
 21
-908.25574
  0
LINE
  8
0
  6
CONTINUOUS
 62
     7
 10
-172.31763
 20
-842.13251
 11
-168.31763
 21
-842.13251
  0
LINE
  8
0
  6
CONTINUOUS
 62
     7
 10
-186.34131
 20
-827.1311
 11
-186.34131
 21
-830.73108
  0
LINE
  8
0
  6
CONTINUOUS
 62
     7
 10
-245.31763
 20
-848.53107
 11
-247.81763
 21
-848.53107
  0
LINE
  8
0
  6
CONTINUOUS
 62
     7
 10
-245.81763
 20
-836.73108
 11
-245.81763
 21
-831.23108
  0
LINE
  8
0
  6
CONTINUOUS
 62
     7
 10
-245.3176
 20
-830.73108
 11
-245.81758
 21
-831.23108
  0
LINE
  8
0
  6
CONTINUOUS
 62
     7
 10
-245.31763
 20
-830.73108
 11
-215.31763
 21
-830.73108
  0
LINE
  8
0
  6
CONTINUOUS
 62
     7
 10
-254.81763
 20
-840.73108
 11
-254.81763
 21
-841.53107
  0
LINE
  8
0
  6
CONTINUOUS
 62
     7
 10
-254.81763
 20
-909.73108
 11
-254.81763
 21
-908.93109
  0
LINE
  8
0
  6
CONTINUOUS
 62
     7
 10
-238.51762
 20
-840.24255
 11
-238.51762
 21
-841.73108
  0
LINE
  8
0
  6
CONTINUOUS
 62
     7
 10
-257.81763
 20
-909.73108
 11
-258.31763
 21
-909.23114
  0
LINE
  8
0
  6
CONTINUOUS
 62
     7
 10
-254.81763
 20
-909.73108
 11
-257.81763
 21
-909.73108
  0
LINE
  8
0
  6
CONTINUOUS
 62
     7
 10
-258.31763
 20
-909.23108
 11
-258.31763
 21
-875.23108
  0
LINE
  8
0
  6
CONTINUOUS
 62
     7
 10
-257.8176
 20
-840.73114
 11
-258.3176
 21
-841.23108
  0
LINE
  8
0
  6
CONTINUOUS
 62
     7
 10
-249.81763
 20
-840.73108
 11
-257.81763
 21
-840.73108
  0
LINE
  8
0
  6
CONTINUOUS
 62
     7
 10
-258.31763
 20
-841.23108
 11
-258.31763
 21
-875.23108
  0
LINE
  8
0
  6
CONTINUOUS
 62
     7
 10
-254.81763
 20
-909.23108
 11
-254.81763
 21
-908.73108
  0
LINE
  8
0
  6
CONTINUOUS
 62
     7
 10
-247.81763
 20
-901.93109
 11
-215.31763
 21
-901.93109
  0
LINE
  8
0
  6
CONTINUOUS
 62
     7
 10
-245.31763
 20
-833.24896
 11
-215.31763
 21
-833.24896
  0
LINE
  8
0
  6
CONTINUOUS
 62
     7
 10
-254.81763
 20
-841.23108
 11
-254.81763
 21
-875.23108
  0
LINE
  8
0
  6
CONTINUOUS
 62
     7
 10
-254.81763
 20
-909.23108
 11
-254.81763
 21
-875.23108
  0
LINE
  8
0
  6
CONTINUOUS
 62
     7
 10
-274.31763
 20
-875.23108
 11
-274.31763
 21
-841.23108
  0
LINE
  8
0
  6
CONTINUOUS
 62
     7
 10
-262.81763
 20
-858.40924
 11
-274.31763
 21
-858.40924
  0
LINE
  8
0
  6
CONTINUOUS
 62
     7
 10
-262.81763
 20
-865.02081
 11
-262.81763
 21
-858.40924
  0
LINE
  8
0
  6
CONTINUOUS
 62
     7
 10
-282.31763
 20
-875.23108
 11
-282.31763
 21
-849.23108
  0
LINE
  8
0
  6
CONTINUOUS
 62
     7
 10
-262.81763
 20
-843.96967
 11
-274.31763
 21
-843.96967
  0
LINE
  8
0
  6
CONTINUOUS
 62
     7
 10
-262.31763
 20
-875.23108
 11
-262.31763
 21
-908.73108
  0
LINE
  8
0
  6
CONTINUOUS
 62
     7
 10
-262.81763
 20
-841.23108
 11
-274.31763
 21
-841.23108
  0
LINE
  8
0
  6
CONTINUOUS
 62
     7
 10
-262.81763
 20
-909.23108
 11
-262.31763
 21
-908.73108
  0
LINE
  8
0
  6
CONTINUOUS
 62
     7
 10
-262.81763
 20
-906.49249
 11
-262.81763
 21
-909.23108
  0
LINE
  8
0
  6
CONTINUOUS
 62
     7
 10
-262.81763
 20
-843.96967
 11
-262.81763
 21
-841.23108
  0
LINE
  8
0
  6
CONTINUOUS
 62
     7
 10
-262.81763
 20
-909.23108
 11
-274.31763
 21
-909.23108
  0
LINE
  8
0
  6
CONTINUOUS
 62
     7
 10
-262.81763
 20
-906.49249
 11
-274.31763
 21
-906.49249
  0
LINE
  8
0
  6
CONTINUOUS
 62
     7
 10
-282.31763
 20
-875.23108
 11
-282.31763
 21
-901.23108
  0
LINE
  8
0
  6
CONTINUOUS
 62
     7
 10
-262.81763
 20
-885.44135
 11
-262.81763
 21
-892.05298
  0
LINE
  8
0
  6
CONTINUOUS
 62
     7
 10
-262.8176
 20
-841.23108
 11
-262.31757
 21
-841.73114
  0
LINE
  8
0
  6
CONTINUOUS
 62
     7
 10
-262.31763
 20
-875.23108
 11
-262.31763
 21
-841.73108
  0
LINE
  8
0
  6
CONTINUOUS
 62
     7
 10
-262.81763
 20
-892.05298
 11
-274.31763
 21
-892.05298
  0
LINE
  8
0
  6
CONTINUOUS
 62
     7
 10
-274.31763
 20
-875.23108
 11
-274.31763
 21
-909.23108
  0
LINE
  8
0
  6
CONTINUOUS
 62
     7
 10
-262.81763
 20
-885.44135
 11
-274.31763
 21
-885.44135
  0
LINE
  8
0
  6
CONTINUOUS
 62
     7
 10
-262.81763
 20
-865.02081
 11
-274.31763
 21
-865.02081
  0
LINE
  8
0
  6
CONTINUOUS
 62
     7
 10
-224.8439
 20
-826.6311
 11
-224.8439
 21
-815.23108
  0
LINE
  8
0
  6
CONTINUOUS
 62
     7
 10
-215.31763
 20
-815.23108
 11
-244.81763
 21
-815.23108
  0
LINE
  8
0
  6
CONTINUOUS
 62
     7
 10
-244.31764
 20
-827.1311
 11
-244.81763
 21
-826.6311
  0
LINE
  8
0
  6
CONTINUOUS
 62
     7
 10
-242.91338
 20
-826.6311
 11
-242.91338
 21
-815.23108
  0
LINE
  8
0
  6
CONTINUOUS
 62
     7
 10
-229.44116
 20
-826.6311
 11
-229.44116
 21
-815.23108
  0
LINE
  8
0
  6
CONTINUOUS
 62
     7
 10
-244.81763
 20
-826.6311
 11
-244.81763
 21
-815.23108
  0
LINE
  8
0
  6
CONTINUOUS
 62
     7
 10
-215.31763
 20
-809.23108
 11
-238.81763
 21
-809.23108
  0
LINE
  8
0
  6
CONTINUOUS
 62
     7
 10
-224.8439
 20
-826.6311
 11
-229.44116
 21
-826.6311
  0
LINE
  8
0
  6
CONTINUOUS
 62
     7
 10
-242.91338
 20
-826.6311
 11
-244.81763
 21
-826.6311
  0
LINE
  8
0
  6
CONTINUOUS
 62
     7
 10
-215.31763
 20
-827.1311
 11
-244.31763
 21
-827.1311
  0
LINE
  8
0
  6
CONTINUOUS
 62
     7
 10
-258.31763
 20
-908.25574
 11
-262.31763
 21
-908.25574
  0
LINE
  8
0
  6
CONTINUOUS
 62
     7
 10
-258.31763
 20
-842.13251
 11
-262.31763
 21
-842.13251
  0
LINE
  8
0
  6
CONTINUOUS
 62
     7
 10
-244.29395
 20
-827.1311
 11
-244.29395
 21
-830.73108
  0
LINE
  8
0
  6
CONTINUOUS
 62
     7
 10
-196.58321
 20
-645.87244
 11
-196.58321
 21
-649.37244
  0
LINE
  8
0
  6
CONTINUOUS
 62
     7
 10
-174.44881
 20
-656.04095
 11
-170.44881
 21
-656.04095
  0
LINE
  8
0
  6
CONTINUOUS
 62
     7
 10
-174.44881
 20
-722.67633
 11
-170.44881
 21
-722.67633
  0
LINE
  8
0
  6
CONTINUOUS
 62
     7
 10
-238.44881
 20
-662.67249
 11
-249.94881
 21
-662.67249
  0
LINE
  8
0
  6
CONTINUOUS
 62
     7
 10
-256.94882
 20
-654.87244
 11
-256.94882
 21
-655.67249
  0
LINE
  8
0
  6
CONTINUOUS
 62
     7
 10
-249.94881
 20
-716.07245
 11
-217.44881
 21
-716.07245
  0
LINE
  8
0
  6
CONTINUOUS
 62
     7
 10
-259.94882
 20
-723.87244
 11
-260.44882
 21
-723.3725
  0
LINE
  8
0
  6
CONTINUOUS
 62
     7
 10
-256.94882
 20
-723.87244
 11
-259.94882
 21
-723.87244
  0
LINE
  8
0
  6
CONTINUOUS
 62
     7
 10
-260.44882
 20
-723.37244
 11
-260.44882
 21
-689.37244
  0
LINE
  8
0
  6
CONTINUOUS
 62
     7
 10
-259.94882
 20
-654.8725
 11
-260.44879
 21
-655.37244
  0
LINE
  8
0
  6
CONTINUOUS
 62
     7
 10
-243.44881
 20
-654.87244
 11
-259.94882
 21
-654.87244
  0
LINE
  8
0
  6
CONTINUOUS
 62
     7
 10
-260.44882
 20
-655.37244
 11
-260.44882
 21
-689.37244
  0
LINE
  8
0
  6
CONTINUOUS
 62
     7
 10
-239.44881
 20
-649.8725
 11
-238.94882
 21
-649.3725
  0
LINE
  8
0
  6
CONTINUOUS
 62
     7
 10
-238.94881
 20
-649.37244
 11
-217.44881
 21
-649.37244
  0
LINE
  8
0
  6
CONTINUOUS
 62
     7
 10
-238.94881
 20
-651.37244
 11
-238.94881
 21
-651.37244
  0
LINE
  8
0
  6
CONTINUOUS
 62
     7
 10
-239.44881
 20
-650.87244
 11
-239.44881
 21
-649.87244
  0
LINE
  8
0
  6
CONTINUOUS
 62
     7
 10
-256.94882
 20
-723.87244
 11
-256.94882
 21
-723.07245
  0
LINE
  8
0
  6
CONTINUOUS
 62
     7
 10
-256.94882
 20
-655.37244
 11
-256.94882
 21
-689.37244
  0
LINE
  8
0
  6
CONTINUOUS
 62
     7
 10
-256.94882
 20
-723.37244
 11
-256.94882
 21
-689.37244
  0
LINE
  8
0
  6
CONTINUOUS
 62
     7
 10
-239.44881
 20
-651.37244
 11
-217.44881
 21
-651.37244
  0
LINE
  8
0
  6
CONTINUOUS
 62
     7
 10
-276.44882
 20
-689.37244
 11
-276.44882
 21
-655.37244
  0
LINE
  8
0
  6
CONTINUOUS
 62
     7
 10
-264.94882
 20
-672.5506
 11
-276.44882
 21
-672.5506
  0
LINE
  8
0
  6
CONTINUOUS
 62
     7
 10
-264.94882
 20
-679.16217
 11
-264.94882
 21
-672.5506
  0
LINE
  8
0
  6
CONTINUOUS
 62
     7
 10
-284.44882
 20
-689.37244
 11
-284.44882
 21
-663.37244
  0
LINE
  8
0
  6
CONTINUOUS
 62
     7
 10
-264.94882
 20
-658.11108
 11
-276.44882
 21
-658.11108
  0
LINE
  8
0
  6
CONTINUOUS
 62
     7
 10
-264.44882
 20
-689.37244
 11
-264.44882
 21
-722.87244
  0
LINE
  8
0
  6
CONTINUOUS
 62
     7
 10
-264.94882
 20
-655.37244
 11
-276.44882
 21
-655.37244
  0
LINE
  8
0
  6
CONTINUOUS
 62
     7
 10
-264.94882
 20
-723.3725
 11
-264.44882
 21
-722.8725
  0
LINE
  8
0
  6
CONTINUOUS
 62
     7
 10
-264.94882
 20
-720.63385
 11
-264.94882
 21
-723.37244
  0
LINE
  8
0
  6
CONTINUOUS
 62
     7
 10
-264.94882
 20
-658.11108
 11
-264.94882
 21
-655.37244
  0
LINE
  8
0
  6
CONTINUOUS
 62
     7
 10
-264.94882
 20
-723.37244
 11
-276.44882
 21
-723.37244
  0
LINE
  8
0
  6
CONTINUOUS
 62
     7
 10
-264.94882
 20
-720.63385
 11
-276.44882
 21
-720.63385
  0
LINE
  8
0
  6
CONTINUOUS
 62
     7
 10
-284.44882
 20
-689.37244
 11
-284.44882
 21
-715.37244
  0
LINE
  8
0
  6
CONTINUOUS
 62
     7
 10
-264.94882
 20
-699.58276
 11
-264.94882
 21
-706.19434
  0
LINE
  8
0
  6
CONTINUOUS
 62
     7
 10
-264.94879
 20
-655.37244
 11
-264.44879
 21
-655.87244
  0
LINE
  8
0
  6
CONTINUOUS
 62
     7
 10
-264.44882
 20
-689.37244
 11
-264.44882
 21
-655.87244
  0
LINE
  8
0
  6
CONTINUOUS
 62
     7
 10
-264.94882
 20
-706.19434
 11
-276.44882
 21
-706.19434
  0
LINE
  8
0
  6
CONTINUOUS
 62
     7
 10
-276.44882
 20
-689.37244
 11
-276.44882
 21
-723.37244
  0
LINE
  8
0
  6
CONTINUOUS
 62
     7
 10
-264.94882
 20
-699.58276
 11
-276.44882
 21
-699.58276
  0
LINE
  8
0
  6
CONTINUOUS
 62
     7
 10
-264.94882
 20
-679.16217
 11
-276.44882
 21
-679.16217
  0
LINE
  8
0
  6
CONTINUOUS
 62
     7
 10
-237.342
 20
-645.37244
 11
-237.342
 21
-636.37244
  0
LINE
  8
0
  6
CONTINUOUS
 62
     7
 10
-238.44882
 20
-645.87244
 11
-238.94882
 21
-645.3725
  0
LINE
  8
0
  6
CONTINUOUS
 62
     7
 10
-237.342
 20
-645.37244
 11
-238.94881
 21
-645.37244
  0
LINE
  8
0
  6
CONTINUOUS
 62
     7
 10
-224.08205
 20
-645.37244
 11
-227.96117
 21
-645.37244
  0
LINE
  8
0
  6
CONTINUOUS
 62
     7
 10
-238.94881
 20
-645.37244
 11
-238.94881
 21
-636.37244
  0
LINE
  8
0
  6
CONTINUOUS
 62
     7
 10
-217.44881
 20
-631.37244
 11
-233.94881
 21
-631.37244
  0
LINE
  8
0
  6
CONTINUOUS
 62
     7
 10
-217.44881
 20
-636.37244
 11
-238.94881
 21
-636.37244
  0
LINE
  8
0
  6
CONTINUOUS
 62
     7
 10
-227.96117
 20
-645.37244
 11
-227.96117
 21
-636.37244
  0
LINE
  8
0
  6
CONTINUOUS
 62
     7
 10
-224.08205
 20
-645.37244
 11
-224.08205
 21
-636.37244
  0
LINE
  8
0
  6
CONTINUOUS
 62
     7
 10
-217.44881
 20
-645.87244
 11
-238.44881
 21
-645.87244
  0
LINE
  8
0
  6
CONTINUOUS
 62
     7
 10
-238.31441
 20
-645.87244
 11
-238.31441
 21
-649.37244
  0
LINE
  8
0
  6
CONTINUOUS
 62
     7
 10
-260.44882
 20
-656.04095
 11
-264.44882
 21
-656.04095
  0
LINE
  8
0
  6
CONTINUOUS
 62
     7
 10
-260.44882
 20
-722.67633
 11
-264.44882
 21
-722.67633
  0
LINE
  8
0
  6
CONTINUOUS
 62
     7
 10
-48.854103
 20
-657.3374
 11
-48.854103
 21
-657.87244
  0
LINE
  8
0
  6
CONTINUOUS
 62
     7
 10
-53.654091
 20
-662.67249
 11
-62.154091
 21
-662.67249
  0
LINE
  8
0
  6
CONTINUOUS
 62
     7
 10
-72.154099
 20
-723.87244
 11
-72.654083
 21
-723.37244
  0
LINE
  8
0
  6
CONTINUOUS
 62
     7
 10
-69.154091
 20
-723.87244
 11
-72.154091
 21
-723.87244
  0
LINE
  8
0
  6
CONTINUOUS
 62
     7
 10
-72.654091
 20
-723.37244
 11
-72.654091
 21
-689.37244
  0
LINE
  8
0
  6
CONTINUOUS
 62
     7
 10
-72.154106
 20
-654.8725
 11
-72.654091
 21
-655.3725
  0
LINE
  8
0
  6
CONTINUOUS
 62
     7
 10
-59.154091
 20
-654.87244
 11
-72.154091
 21
-654.87244
  0
LINE
  8
0
  6
CONTINUOUS
 62
     7
 10
-72.654091
 20
-655.37244
 11
-72.654091
 21
-689.37244
  0
LINE
  8
0
  6
CONTINUOUS
 62
     7
 10
-69.154091
 20
-723.87244
 11
-69.154091
 21
-722.87244
  0
LINE
  8
0
  6
CONTINUOUS
 62
     7
 10
-62.154091
 20
-716.07245
 11
-29.654091
 21
-716.07245
  0
LINE
  8
0
  6
CONTINUOUS
 62
     7
 10
-54.654091
 20
-647.87244
 11
-29.654091
 21
-647.87244
  0
LINE
  8
0
  6
CONTINUOUS
 62
     7
 10
-55.154099
 20
-648.37244
 11
-54.654087
 21
-647.87244
  0
LINE
  8
0
  6
CONTINUOUS
 62
     7
 10
-55.154091
 20
-650.87244
 11
-55.154091
 21
-648.37244
  0
LINE
  8
0
  6
CONTINUOUS
 62
     7
 10
-55.154091
 20
-650.37244
 11
-29.654091
 21
-650.37244
  0
LINE
  8
0
  6
CONTINUOUS
 62
     7
 10
-69.154091
 20
-723.37244
 11
-69.154091
 21
-689.37244
  0
LINE
  8
0
  6
CONTINUOUS
 62
     7
 10
-69.154091
 20
-654.87244
 11
-69.154091
 21
-689.37244
  0
LINE
  8
0
  6
CONTINUOUS
 62
     7
 10
-88.654091
 20
-689.37244
 11
-88.654091
 21
-655.37244
  0
LINE
  8
0
  6
CONTINUOUS
 62
     7
 10
-77.154091
 20
-672.5506
 11
-88.654091
 21
-672.5506
  0
LINE
  8
0
  6
CONTINUOUS
 62
     7
 10
-77.154091
 20
-679.16217
 11
-77.154091
 21
-672.5506
  0
LINE
  8
0
  6
CONTINUOUS
 62
     7
 10
-96.654091
 20
-689.37244
 11
-96.654091
 21
-663.37244
  0
LINE
  8
0
  6
CONTINUOUS
 62
     7
 10
-77.154091
 20
-658.11108
 11
-88.654091
 21
-658.11108
  0
LINE
  8
0
  6
CONTINUOUS
 62
     7
 10
-76.654091
 20
-689.37244
 11
-76.654091
 21
-722.87244
  0
LINE
  8
0
  6
CONTINUOUS
 62
     7
 10
-77.154091
 20
-655.37244
 11
-88.654091
 21
-655.37244
  0
LINE
  8
0
  6
CONTINUOUS
 62
     7
 10
-77.154083
 20
-723.37244
 11
-76.654099
 21
-722.87244
  0
LINE
  8
0
  6
CONTINUOUS
 62
     7
 10
-77.154091
 20
-720.63385
 11
-77.154091
 21
-723.37244
  0
LINE
  8
0
  6
CONTINUOUS
 62
     7
 10
-77.154091
 20
-658.11108
 11
-77.154091
 21
-655.37244
  0
LINE
  8
0
  6
CONTINUOUS
 62
     7
 10
-77.154091
 20
-723.37244
 11
-88.654091
 21
-723.37244
  0
LINE
  8
0
  6
CONTINUOUS
 62
     7
 10
-77.154091
 20
-720.63385
 11
-88.654091
 21
-720.63385
  0
LINE
  8
0
  6
CONTINUOUS
 62
     7
 10
-96.654091
 20
-689.37244
 11
-96.654091
 21
-715.37244
  0
LINE
  8
0
  6
CONTINUOUS
 62
     7
 10
-77.154091
 20
-699.58276
 11
-77.154091
 21
-706.19434
  0
LINE
  8
0
  6
CONTINUOUS
 62
     7
 10
-77.154121
 20
-655.37244
 11
-76.654091
 21
-655.8725
  0
LINE
  8
0
  6
CONTINUOUS
 62
     7
 10
-76.654091
 20
-689.37244
 11
-76.654091
 21
-655.87244
  0
LINE
  8
0
  6
CONTINUOUS
 62
     7
 10
-77.154091
 20
-706.19434
 11
-88.654091
 21
-706.19434
  0
LINE
  8
0
  6
CONTINUOUS
 62
     7
 10
-88.654091
 20
-689.37244
 11
-88.654091
 21
-723.37244
  0
LINE
  8
0
  6
CONTINUOUS
 62
     7
 10
-77.154091
 20
-699.58276
 11
-88.654091
 21
-699.58276
  0
LINE
  8
0
  6
CONTINUOUS
 62
     7
 10
-77.154091
 20
-679.16217
 11
-88.654091
 21
-679.16217
  0
LINE
  8
0
  6
CONTINUOUS
 62
     7
 10
-88.654091
 20
-689.37244
 11
-88.654091
 21
-655.37244
  0
LINE
  8
0
  6
CONTINUOUS
 62
     7
 10
-77.154091
 20
-672.5506
 11
-88.654091
 21
-672.5506
  0
LINE
  8
0
  6
CONTINUOUS
 62
     7
 10
-77.154091
 20
-679.16217
 11
-77.154091
 21
-672.5506
  0
LINE
  8
0
  6
CONTINUOUS
 62
     7
 10
-96.654091
 20
-689.37244
 11
-96.654091
 21
-663.37244
  0
LINE
  8
0
  6
CONTINUOUS
 62
     7
 10
-77.154091
 20
-658.11108
 11
-88.654091
 21
-658.11108
  0
LINE
  8
0
  6
CONTINUOUS
 62
     7
 10
-76.654091
 20
-689.37244
 11
-76.654091
 21
-722.87244
  0
LINE
  8
0
  6
CONTINUOUS
 62
     7
 10
-77.154091
 20
-655.37244
 11
-88.654091
 21
-655.37244
  0
LINE
  8
0
  6
CONTINUOUS
 62
     7
 10
-77.154083
 20
-723.37244
 11
-76.654099
 21
-722.87244
  0
LINE
  8
0
  6
CONTINUOUS
 62
     7
 10
-77.154091
 20
-720.63385
 11
-77.154091
 21
-723.37244
  0
LINE
  8
0
  6
CONTINUOUS
 62
     7
 10
-77.154091
 20
-658.11108
 11
-77.154091
 21
-655.37244
  0
LINE
  8
0
  6
CONTINUOUS
 62
     7
 10
-77.154091
 20
-723.37244
 11
-88.654091
 21
-723.37244
  0
LINE
  8
0
  6
CONTINUOUS
 62
     7
 10
-77.154091
 20
-720.63385
 11
-88.654091
 21
-720.63385
  0
LINE
  8
0
  6
CONTINUOUS
 62
     7
 10
-96.654091
 20
-689.37244
 11
-96.654091
 21
-715.37244
  0
LINE
  8
0
  6
CONTINUOUS
 62
     7
 10
-77.154091
 20
-699.58276
 11
-77.154091
 21
-706.19434
  0
LINE
  8
0
  6
CONTINUOUS
 62
     7
 10
-77.154121
 20
-655.37244
 11
-76.654091
 21
-655.8725
  0
LINE
  8
0
  6
CONTINUOUS
 62
     7
 10
-76.654091
 20
-689.37244
 11
-76.654091
 21
-655.87244
  0
LINE
  8
0
  6
CONTINUOUS
 62
     7
 10
-77.154091
 20
-706.19434
 11
-88.654091
 21
-706.19434
  0
LINE
  8
0
  6
CONTINUOUS
 62
     7
 10
-88.654091
 20
-689.37244
 11
-88.654091
 21
-723.37244
  0
LINE
  8
0
  6
CONTINUOUS
 62
     7
 10
-77.154091
 20
-699.58276
 11
-88.654091
 21
-699.58276
  0
LINE
  8
0
  6
CONTINUOUS
 62
     7
 10
-77.154091
 20
-679.16217
 11
-88.654091
 21
-679.16217
  0
LINE
  8
0
  6
CONTINUOUS
 62
     7
 10
-29.654091
 20
-644.27246
 11
-53.654091
 21
-644.27246
  0
LINE
  8
0
  6
CONTINUOUS
 62
     7
 10
-53.654106
 20
-644.27246
 11
-54.154095
 21
-643.77246
  0
LINE
  8
0
  6
CONTINUOUS
 62
     7
 10
-54.154091
 20
-643.77246
 11
-54.154091
 21
-633.37244
  0
LINE
  8
0
  6
CONTINUOUS
 62
     7
 10
-40.823952
 20
-643.77246
 11
-40.823952
 21
-633.37244
  0
LINE
  8
0
  6
CONTINUOUS
 62
     7
 10
-29.654091
 20
-628.37244
 11
-49.154091
 21
-628.37244
  0
LINE
  8
0
  6
CONTINUOUS
 62
     7
 10
-29.654091
 20
-633.37244
 11
-54.154091
 21
-633.37244
  0
LINE
  8
0
  6
CONTINUOUS
 62
     7
 10
-38.357552
 20
-643.77246
 11
-40.823952
 21
-643.77246
  0
LINE
  8
0
  6
CONTINUOUS
 62
     7
 10
-38.357552
 20
-643.77246
 11
-38.357552
 21
-633.37244
  0
LINE
  8
0
  6
CONTINUOUS
 62
     7
 10
-53.132484
 20
-643.77246
 11
-53.132484
 21
-633.37244
  0
LINE
  8
0
  6
CONTINUOUS
 62
     7
 10
-53.132484
 20
-643.77246
 11
-54.154091
 21
-643.77246
  0
LINE
  8
0
  6
CONTINUOUS
 62
     7
 10
-72.654091
 20
-656.17261
 11
-76.654091
 21
-656.17261
  0
LINE
  8
0
  6
CONTINUOUS
 62
     7
 10
-72.654091
 20
-722.45441
 11
-76.654091
 21
-722.45441
  0
LINE
  8
0
  6
CONTINUOUS
 62
     7
 10
-53.304237
 20
-644.27246
 11
-53.304237
 21
-647.87244
  0
LINE
  8
0
  6
CONTINUOUS
 62
     7
 10
31.745554
 20
-916.73108
 11
31.745554
 21
-917.23108
  0
LINE
  8
0
  6
CENTER
 62
     7
 10
-12.754446
 20
-808.51221
 11
-12.754446
 21
-910.28107
  0
LINE
  8
0
  6
CONTINUOUS
 62
     7
 10
4.745554
 20
-830.13104
 11
4.8481236
 21
-830.13104
  0
LINE
  8
0
  6
CENTER
 62
     7
 10
74.545357
 20
-875.23108
 11
-110.08469
 21
-875.23108
  0
LINE
  8
0
  6
CONTINUOUS
 62
     7
 10
36.245552
 20
-833.73108
 11
36.245552
 21
-875.23108
  0
LINE
  8
0
  6
CONTINUOUS
 62
     7
 10
35.745541
 20
-833.23108
 11
36.245575
 21
-833.73114
  0
LINE
  8
0
  6
CONTINUOUS
 62
     7
 10
31.745554
 20
-917.23108
 11
35.745552
 21
-917.23108
  0
LINE
  8
0
  6
CONTINUOUS
 62
     7
 10
35.745529
 20
-917.23108
 11
36.245564
 21
-916.73108
  0
LINE
  8
0
  6
CONTINUOUS
 62
     7
 10
36.245552
 20
-916.73108
 11
36.245552
 21
-875.23108
  0
LINE
  8
0
  6
CONTINUOUS
 62
     7
 10
22.745554
 20
-907.73108
 11
-12.754446
 21
-907.73108
  0
LINE
  8
0
  6
CONTINUOUS
 62
     7
 10
4.745554
 20
-828.63104
 11
4.745554
 21
-829.23108
  0
LINE
  8
0
  6
CONTINUOUS
 62
     7
 10
4.745554
 20
-829.73108
 11
4.745554
 21
-829.73108
  0
LINE
  8
0
  6
CONTINUOUS
 62
     7
 10
8.745554
 20
-833.23108
 11
35.745552
 21
-833.23108
  0
LINE
  8
0
  6
CONTINUOUS
 62
     7
 10
31.745554
 20
-833.23108
 11
31.745554
 21
-833.73108
  0
LINE
  8
0
  6
CONTINUOUS
 62
     7
 10
8.245554
 20
-842.73108
 11
22.745554
 21
-842.73108
  0
LINE
  8
0
  6
CONTINUOUS
 62
     7
 10
-12.754446
 20
-828.13104
 11
4.245554
 21
-828.13104
  0
LINE
  8
0
  6
CONTINUOUS
 62
     7
 10
4.2455835
 20
-828.1311
 11
4.7455735
 21
-828.6311
  0
LINE
  8
0
  6
CENTER
 62
     7
 10
-129.0314
 20
-1019.8866
 11
-297.94257
 21
-1019.8866
  0
LINE
  8
0
  6
CONTINUOUS
 62
     7
 10
-180.26779
 20
-1052.3866
 11
-215.76779
 21
-1052.3866
  0
LINE
  8
0
  6
CENTER
 62
     7
 10
-215.76779
 20
-950.17871
 11
-215.76779
 21
-1063.2843
  0
LINE
  8
0
  6
CONTINUOUS
 62
     7
 10
-189.76779
 20
-977.8866
 11
-167.26779
 21
-977.8866
  0
LINE
  8
0
  6
CONTINUOUS
 62
     7
 10
-194.26779
 20
-971.8866
 11
-215.76779
 21
-971.8866
  0
LINE
  8
0
  6
CONTINUOUS
 62
     7
 10
-193.76779
 20
-973.8866
 11
-193.76779
 21
-972.3866
  0
LINE
  8
0
  6
CONTINUOUS
 62
     7
 10
-193.76776
 20
-972.38654
 11
-194.26775
 21
-971.88654
  0
LINE
  8
0
  6
CONTINUOUS
 62
     7
 10
-166.76779
 20
-978.3866
 11
-166.76779
 21
-1019.8866
  0
LINE
  8
0
  6
CONTINUOUS
 62
     7
 10
-167.26778
 20
-977.8866
 11
-166.76779
 21
-978.3866
  0
LINE
  8
0
  6
CONTINUOUS
 62
     7
 10
-171.26779
 20
-1061.8866
 11
-167.26779
 21
-1061.8866
  0
LINE
  8
0
  6
CONTINUOUS
 62
     7
 10
-167.26778
 20
-1061.8866
 11
-166.76775
 21
-1061.3866
  0
LINE
  8
0
  6
CONTINUOUS
 62
     7
 10
-166.76779
 20
-1061.3866
 11
-166.76779
 21
-1019.8866
  0
LINE
  8
0
  6
CONTINUOUS
 62
     7
 10
-171.26779
 20
-1061.3866
 11
-171.26779
 21
-1061.8866
  0
LINE
  8
0
  6
CONTINUOUS
 62
     7
 10
-191.76779
 20
-987.3866
 11
-180.26779
 21
-987.3866
  0
LINE
  8
0
  6
CONTINUOUS
 62
     7
 10
-171.26779
 20
-977.8866
 11
-171.26779
 21
-978.3866
  0
LINE
  8
0
  6
CENTER
 62
     7
 10
-131.8231
 20
-1187.1248
 11
-297.15503
 21
-1187.1248
  0
LINE
  8
0
  6
CONTINUOUS
 62
     7
 10
-177.8054
 20
-1219.6248
 11
-213.3054
 21
-1219.6248
  0
LINE
  8
0
  6
CENTER
 62
     7
 10
-213.3054
 20
-1125.2183
 11
-213.3054
 21
-1222.1747
  0
LINE
  8
0
  6
CONTINUOUS
 62
     7
 10
-164.3054
 20
-1145.6248
 11
-164.3054
 21
-1187.1248
  0
LINE
  8
0
  6
CONTINUOUS
 62
     7
 10
-164.80539
 20
-1145.1248
 11
-164.3054
 21
-1145.6248
  0
LINE
  8
0
  6
CONTINUOUS
 62
     7
 10
-168.8054
 20
-1229.1248
 11
-164.8054
 21
-1229.1248
  0
LINE
  8
0
  6
CONTINUOUS
 62
     7
 10
-164.80542
 20
-1229.1248
 11
-164.30542
 21
-1228.6248
  0
LINE
  8
0
  6
CONTINUOUS
 62
     7
 10
-164.3054
 20
-1228.6248
 11
-164.3054
 21
-1187.1248
  0
LINE
  8
0
  6
CONTINUOUS
 62
     7
 10
-168.8054
 20
-1228.6248
 11
-168.8054
 21
-1229.1248
  0
LINE
  8
0
  6
CONTINUOUS
 62
     7
 10
-178.8054
 20
-1145.1248
 11
-164.8054
 21
-1145.1248
  0
LINE
  8
0
  6
CONTINUOUS
 62
     7
 10
-183.30539
 20
-1138.6248
 11
-182.8054
 21
-1139.1248
  0
LINE
  8
0
  6
CONTINUOUS
 62
     7
 10
-183.3054
 20
-1138.6248
 11
-213.3054
 21
-1138.6248
  0
LINE
  8
0
  6
CONTINUOUS
 62
     7
 10
-182.3054
 20
-1154.6248
 11
-177.8054
 21
-1154.6248
  0
LINE
  8
0
  6
CONTINUOUS
 62
     7
 10
-182.8054
 20
-1141.1248
 11
-182.8054
 21
-1139.1248
  0
LINE
  8
0
  6
CONTINUOUS
 62
     7
 10
-168.8054
 20
-1145.1248
 11
-168.8054
 21
-1145.6248
  0
LINE
  8
0
  6
CONTINUOUS
 62
     7
 10
-182.8054
 20
-1141.1248
 11
-182.8054
 21
-1139.1248
  0
LINE
  8
0
  6
CONTINUOUS
 62
     7
 10
-12.754446
 20
-830.13104
 11
4.8481236
 21
-830.13104
  0
LINE
  8
0
  6
CONTINUOUS
 62
     7
 10
31.745554
 20
-833.73108
 11
31.745554
 21
-875.23108
  0
LINE
  8
0
  6
CONTINUOUS
 62
     7
 10
31.745554
 20
-916.73108
 11
31.745554
 21
-875.23108
  0
LINE
  8
0
  6
CONTINUOUS
 62
     7
 10
-193.76779
 20
-973.8866
 11
-215.76779
 21
-973.8866
  0
LINE
  8
0
  6
CONTINUOUS
 62
     7
 10
-171.26779
 20
-978.3866
 11
-171.26779
 21
-1019.8866
  0
LINE
  8
0
  6
CONTINUOUS
 62
     7
 10
-171.26779
 20
-1061.3866
 11
-171.26779
 21
-1019.8866
  0
LINE
  8
0
  6
CONTINUOUS
 62
     7
 10
-183.3054
 20
-1141.1248
 11
-213.3054
 21
-1141.1248
  0
LINE
  8
0
  6
CONTINUOUS
 62
     7
 10
-168.8054
 20
-1145.6248
 11
-168.8054
 21
-1187.1248
  0
LINE
  8
0
  6
CONTINUOUS
 62
     7
 10
-168.8054
 20
-1228.6248
 11
-168.8054
 21
-1187.1248
  0
LINE
  8
0
  6
CONTINUOUS
 62
     7
 10
40.245552
 20
-916.23108
 11
55.245552
 21
-916.23108
  0
LINE
  8
0
  6
CONTINUOUS
 62
     7
 10
40.245575
 20
-916.23114
 11
39.745544
 21
-915.73108
  0
LINE
  8
0
  6
CONTINUOUS
 62
     7
 10
40.245552
 20
-913.38757
 11
40.245552
 21
-916.23108
  0
LINE
  8
0
  6
CONTINUOUS
 62
     7
 10
63.245552
 20
-875.23108
 11
63.245552
 21
-908.23108
  0
LINE
  8
0
  6
CONTINUOUS
 62
     7
 10
39.745552
 20
-875.23108
 11
39.745552
 21
-915.73108
  0
LINE
  8
0
  6
CONTINUOUS
 62
     7
 10
40.245552
 20
-913.38757
 11
55.245552
 21
-913.38757
  0
LINE
  8
0
  6
CONTINUOUS
 62
     7
 10
40.245552
 20
-888.19257
 11
55.245552
 21
-888.19257
  0
LINE
  8
0
  6
CONTINUOUS
 62
     7
 10
55.245552
 20
-875.23108
 11
55.245552
 21
-916.23108
  0
LINE
  8
0
  6
CONTINUOUS
 62
     7
 10
40.245552
 20
-895.05731
 11
55.245552
 21
-895.05731
  0
LINE
  8
0
  6
CONTINUOUS
 62
     7
 10
40.245552
 20
-862.26959
 11
40.245552
 21
-855.40485
  0
LINE
  8
0
  6
CONTINUOUS
 62
     7
 10
40.245552
 20
-855.40485
 11
55.245552
 21
-855.40485
  0
LINE
  8
0
  6
CONTINUOUS
 62
     7
 10
40.245552
 20
-888.19257
 11
40.245552
 21
-895.05731
  0
LINE
  8
0
  6
CONTINUOUS
 62
     7
 10
55.245552
 20
-875.23108
 11
55.245552
 21
-834.23108
  0
LINE
  8
0
  6
CONTINUOUS
 62
     7
 10
40.245552
 20
-862.26959
 11
55.245552
 21
-862.26959
  0
LINE
  8
0
  6
CONTINUOUS
 62
     7
 10
40.245552
 20
-837.07452
 11
55.245552
 21
-837.07452
  0
LINE
  8
0
  6
CONTINUOUS
 62
     7
 10
39.745552
 20
-875.23108
 11
39.745552
 21
-834.73108
  0
LINE
  8
0
  6
CONTINUOUS
 62
     7
 10
63.245552
 20
-875.23108
 11
63.245552
 21
-842.23108
  0
LINE
  8
0
  6
CONTINUOUS
 62
     7
 10
40.245552
 20
-837.07452
 11
40.245552
 21
-834.23108
  0
LINE
  8
0
  6
CONTINUOUS
 62
     7
 10
40.245564
 20
-834.23108
 11
39.745575
 21
-834.73108
  0
LINE
  8
0
  6
CONTINUOUS
 62
     7
 10
40.245552
 20
-834.23108
 11
55.245552
 21
-834.23108
  0
LINE
  8
0
  6
CONTINUOUS
 62
     7
 10
-162.76779
 20
-1060.8866
 11
-163.26778
 21
-1060.3866
  0
LINE
  8
0
  6
CONTINUOUS
 62
     7
 10
-162.76779
 20
-1060.8866
 11
-147.76779
 21
-1060.8866
  0
LINE
  8
0
  6
CONTINUOUS
 62
     7
 10
-162.76779
 20
-1058.0431
 11
-162.76779
 21
-1060.8866
  0
LINE
  8
0
  6
CONTINUOUS
 62
     7
 10
-139.76779
 20
-1019.8866
 11
-139.76779
 21
-1052.8866
  0
LINE
  8
0
  6
CONTINUOUS
 62
     7
 10
-163.26779
 20
-1019.8866
 11
-163.26779
 21
-1060.3866
  0
LINE
  8
0
  6
CONTINUOUS
 62
     7
 10
-162.76779
 20
-1058.0431
 11
-147.76779
 21
-1058.0431
  0
LINE
  8
0
  6
CONTINUOUS
 62
     7
 10
-162.76779
 20
-1032.848
 11
-147.76779
 21
-1032.848
  0
LINE
  8
0
  6
CONTINUOUS
 62
     7
 10
-147.76779
 20
-1019.8866
 11
-147.76779
 21
-1060.8866
  0
LINE
  8
0
  6
CONTINUOUS
 62
     7
 10
-162.76779
 20
-1039.7128
 11
-147.76779
 21
-1039.7128
  0
LINE
  8
0
  6
CONTINUOUS
 62
     7
 10
-162.76779
 20
-1006.9251
 11
-162.76779
 21
-1000.0604
  0
LINE
  8
0
  6
CONTINUOUS
 62
     7
 10
-162.76779
 20
-1000.0604
 11
-147.76779
 21
-1000.0604
  0
LINE
  8
0
  6
CONTINUOUS
 62
     7
 10
-162.76779
 20
-1032.848
 11
-162.76779
 21
-1039.7128
  0
LINE
  8
0
  6
CONTINUOUS
 62
     7
 10
-147.76779
 20
-1019.8866
 11
-147.76779
 21
-978.8866
  0
LINE
  8
0
  6
CONTINUOUS
 62
     7
 10
-162.76779
 20
-1006.9251
 11
-147.76779
 21
-1006.9251
  0
LINE
  8
0
  6
CONTINUOUS
 62
     7
 10
-162.76779
 20
-981.73004
 11
-147.76779
 21
-981.73004
  0
LINE
  8
0
  6
CONTINUOUS
 62
     7
 10
-163.26779
 20
-1019.8866
 11
-163.26779
 21
-979.3866
  0
LINE
  8
0
  6
CONTINUOUS
 62
     7
 10
-139.76779
 20
-1019.8866
 11
-139.76779
 21
-986.8866
  0
LINE
  8
0
  6
CONTINUOUS
 62
     7
 10
-162.76779
 20
-981.73004
 11
-162.76779
 21
-978.8866
  0
LINE
  8
0
  6
CONTINUOUS
 62
     7
 10
-162.76775
 20
-978.8866
 11
-163.26773
 21
-979.3866
  0
LINE
  8
0
  6
CONTINUOUS
 62
     7
 10
-162.76779
 20
-978.8866
 11
-147.76779
 21
-978.8866
  0
LINE
  8
0
  6
CONTINUOUS
 62
     7
 10
-160.3054
 20
-1228.1248
 11
-160.80539
 21
-1227.6248
  0
LINE
  8
0
  6
CONTINUOUS
 62
     7
 10
-160.3054
 20
-1228.1248
 11
-145.3054
 21
-1228.1248
  0
LINE
  8
0
  6
CONTINUOUS
 62
     7
 10
-160.3054
 20
-1225.2813
 11
-160.3054
 21
-1228.1248
  0
LINE
  8
0
  6
CONTINUOUS
 62
     7
 10
-137.3054
 20
-1187.1248
 11
-137.3054
 21
-1220.1248
  0
LINE
  8
0
  6
CONTINUOUS
 62
     7
 10
-160.8054
 20
-1146.6248
 11
-160.8054
 21
-1227.6248
  0
LINE
  8
0
  6
CONTINUOUS
 62
     7
 10
-160.3054
 20
-1225.2813
 11
-145.3054
 21
-1225.2813
  0
LINE
  8
0
  6
CONTINUOUS
 62
     7
 10
-160.3054
 20
-1200.0862
 11
-145.3054
 21
-1200.0862
  0
LINE
  8
0
  6
CONTINUOUS
 62
     7
 10
-145.3054
 20
-1187.1248
 11
-145.3054
 21
-1228.1248
  0
LINE
  8
0
  6
CONTINUOUS
 62
     7
 10
-160.3054
 20
-1206.9509
 11
-145.3054
 21
-1206.9509
  0
LINE
  8
0
  6
CONTINUOUS
 62
     7
 10
-160.3054
 20
-1174.1632
 11
-160.3054
 21
-1167.2985
  0
LINE
  8
0
  6
CONTINUOUS
 62
     7
 10
-160.3054
 20
-1167.2985
 11
-145.3054
 21
-1167.2985
  0
LINE
  8
0
  6
CONTINUOUS
 62
     7
 10
-160.3054
 20
-1200.0862
 11
-160.3054
 21
-1206.9509
  0
LINE
  8
0
  6
CONTINUOUS
 62
     7
 10
-145.3054
 20
-1187.1248
 11
-145.3054
 21
-1146.1248
  0
LINE
  8
0
  6
CONTINUOUS
 62
     7
 10
-160.3054
 20
-1174.1632
 11
-145.3054
 21
-1174.1632
  0
LINE
  8
0
  6
CONTINUOUS
 62
     7
 10
-160.3054
 20
-1148.9683
 11
-145.3054
 21
-1148.9683
  0
LINE
  8
0
  6
CONTINUOUS
 62
     7
 10
-137.3054
 20
-1187.1248
 11
-137.3054
 21
-1154.1248
  0
LINE
  8
0
  6
CONTINUOUS
 62
     7
 10
-160.3054
 20
-1148.9683
 11
-160.3054
 21
-1146.1248
  0
LINE
  8
0
  6
CONTINUOUS
 62
     7
 10
-160.30542
 20
-1146.1248
 11
-160.80542
 21
-1146.6248
  0
LINE
  8
0
  6
CONTINUOUS
 62
     7
 10
-160.3054
 20
-1146.1248
 11
-145.3054
 21
-1146.1248
  0
LINE
  8
0
  6
CENTER
 62
     7
 10
74.296356
 20
-1019.2158
 11
-101.69966
 21
-1019.2158
  0
LINE
  8
0
  6
CONTINUOUS
 62
     7
 10
20.61853
 20
-1051.7158
 11
-14.881471
 21
-1051.7158
  0
LINE
  8
0
  6
CENTER
 62
     7
 10
-14.881471
 20
-945.88818
 11
-14.881471
 21
-1054.2659
  0
LINE
  8
0
  6
CONTINUOUS
 62
     7
 10
34.118526
 20
-977.71582
 11
34.118526
 21
-1019.2158
  0
LINE
  8
0
  6
CONTINUOUS
 62
     7
 10
33.618561
 20
-977.21594
 11
34.118553
 21
-977.71588
  0
LINE
  8
0
  6
CONTINUOUS
 62
     7
 10
29.61853
 20
-1061.2158
 11
33.618526
 21
-1061.2158
  0
LINE
  8
0
  6
CONTINUOUS
 62
     7
 10
33.618519
 20
-1061.2158
 11
34.118549
 21
-1060.7158
  0
LINE
  8
0
  6
CONTINUOUS
 62
     7
 10
34.118526
 20
-1060.7158
 11
34.118526
 21
-1019.2158
  0
LINE
  8
0
  6
CONTINUOUS
 62
     7
 10
29.61853
 20
-1060.7158
 11
29.61853
 21
-1061.2158
  0
LINE
  8
0
  6
CONTINUOUS
 62
     7
 10
10.618529
 20
-973.21582
 11
10.618529
 21
-971.21582
  0
LINE
  8
0
  6
CONTINUOUS
 62
     7
 10
10.618554
 20
-971.21588
 11
10.118522
 21
-970.71588
  0
LINE
  8
0
  6
CONTINUOUS
 62
     7
 10
10.118529
 20
-970.71582
 11
-14.881471
 21
-970.71582
  0
LINE
  8
0
  6
CONTINUOUS
 62
     7
 10
12.118529
 20
-986.71582
 11
20.61853
 21
-986.71582
  0
LINE
  8
0
  6
CONTINUOUS
 62
     7
 10
14.61853
 20
-977.21582
 11
33.618526
 21
-977.21582
  0
LINE
  8
0
  6
CONTINUOUS
 62
     7
 10
29.61853
 20
-977.21582
 11
29.61853
 21
-977.71582
  0
LINE
  8
0
  6
CONTINUOUS
 62
     7
 10
10.618529
 20
-973.21582
 11
-14.881471
 21
-973.21582
  0
LINE
  8
0
  6
CONTINUOUS
 62
     7
 10
29.61853
 20
-977.71582
 11
29.61853
 21
-1019.2158
  0
LINE
  8
0
  6
CONTINUOUS
 62
     7
 10
29.61853
 20
-1060.7158
 11
29.61853
 21
-1019.2158
  0
LINE
  8
0
  6
CONTINUOUS
 62
     7
 10
38.118526
 20
-1060.2158
 11
53.118526
 21
-1060.2158
  0
LINE
  8
0
  6
CONTINUOUS
 62
     7
 10
38.118553
 20
-1060.2159
 11
37.618561
 21
-1059.7159
  0
LINE
  8
0
  6
CONTINUOUS
 62
     7
 10
38.118526
 20
-1057.3724
 11
38.118526
 21
-1060.2158
  0
LINE
  8
0
  6
CONTINUOUS
 62
     7
 10
61.118526
 20
-1019.2158
 11
61.118526
 21
-1052.2158
  0
LINE
  8
0
  6
CONTINUOUS
 62
     7
 10
37.618526
 20
-1019.2158
 11
37.618526
 21
-1059.7158
  0
LINE
  8
0
  6
CONTINUOUS
 62
     7
 10
38.118526
 20
-1057.3724
 11
53.118526
 21
-1057.3724
  0
LINE
  8
0
  6
CONTINUOUS
 62
     7
 10
38.118526
 20
-1032.1774
 11
53.118526
 21
-1032.1774
  0
LINE
  8
0
  6
CONTINUOUS
 62
     7
 10
53.118526
 20
-1019.2158
 11
53.118526
 21
-1060.2158
  0
LINE
  8
0
  6
CONTINUOUS
 62
     7
 10
38.118526
 20
-1039.0421
 11
53.118526
 21
-1039.0421
  0
LINE
  8
0
  6
CONTINUOUS
 62
     7
 10
38.118526
 20
-1006.2543
 11
38.118526
 21
-999.38959
  0
LINE
  8
0
  6
CONTINUOUS
 62
     7
 10
38.118526
 20
-999.38959
 11
53.118526
 21
-999.38959
  0
LINE
  8
0
  6
CONTINUOUS
 62
     7
 10
38.118526
 20
-1032.1774
 11
38.118526
 21
-1039.0421
  0
LINE
  8
0
  6
CONTINUOUS
 62
     7
 10
53.118526
 20
-1019.2158
 11
53.118526
 21
-978.21582
  0
LINE
  8
0
  6
CONTINUOUS
 62
     7
 10
38.118526
 20
-1006.2543
 11
53.118526
 21
-1006.2543
  0
LINE
  8
0
  6
CONTINUOUS
 62
     7
 10
38.118526
 20
-981.05933
 11
53.118526
 21
-981.05933
  0
LINE
  8
0
  6
CONTINUOUS
 62
     7
 10
37.618526
 20
-1019.2158
 11
37.618526
 21
-978.71582
  0
LINE
  8
0
  6
CONTINUOUS
 62
     7
 10
61.118526
 20
-1019.2158
 11
61.118526
 21
-986.21582
  0
LINE
  8
0
  6
CONTINUOUS
 62
     7
 10
38.118526
 20
-981.05933
 11
38.118526
 21
-978.21582
  0
LINE
  8
0
  6
CONTINUOUS
 62
     7
 10
38.118553
 20
-978.21588
 11
37.618519
 21
-978.71588
  0
LINE
  8
0
  6
CONTINUOUS
 62
     7
 10
38.118526
 20
-978.21582
 11
53.118526
 21
-978.21582
  0
LINE
  8
0
  6
CONTINUOUS
 62
     7
 10
-12.754446
 20
-816.23108
 11
4.245554
 21
-816.23108
  0
LINE
  8
0
  6
CONTINUOUS
 62
     7
 10
3.3668919
 20
-824.23108
 11
3.3668919
 21
-816.23108
  0
LINE
  8
0
  6
CONTINUOUS
 62
     7
 10
3.3668919
 20
-824.23108
 11
4.245554
 21
-824.23108
  0
LINE
  8
0
  6
CONTINUOUS
 62
     7
 10
-6.9554348
 20
-824.23108
 11
-6.9554348
 21
-816.23108
  0
LINE
  8
0
  6
CONTINUOUS
 62
     7
 10
-6.9554348
 20
-824.23108
 11
-4.8341274
 21
-824.23108
  0
LINE
  8
0
  6
CONTINUOUS
 62
     7
 10
-12.754446
 20
-811.23108
 11
-0.75444615
 21
-811.23108
  0
LINE
  8
0
  6
CONTINUOUS
 62
     7
 10
4.2455406
 20
-824.23108
 11
3.7455509
 21
-824.73108
  0
LINE
  8
0
  6
CONTINUOUS
 62
     7
 10
4.245554
 20
-824.23108
 11
4.245554
 21
-816.23108
  0
LINE
  8
0
  6
CONTINUOUS
 62
     7
 10
-4.8341274
 20
-824.23108
 11
-4.8341274
 21
-816.23108
  0
LINE
  8
0
  6
CONTINUOUS
 62
     7
 10
-12.754446
 20
-824.73108
 11
3.745554
 21
-824.73108
  0
LINE
  8
0
  6
CONTINUOUS
 62
     7
 10
-195.87457
 20
-967.8866
 11
-195.87457
 21
-958.8866
  0
LINE
  8
0
  6
CONTINUOUS
 62
     7
 10
-194.76778
 20
-968.3866
 11
-194.26779
 21
-967.8866
  0
LINE
  8
0
  6
CONTINUOUS
 62
     7
 10
-195.87457
 20
-967.8866
 11
-194.26779
 21
-967.8866
  0
LINE
  8
0
  6
CONTINUOUS
 62
     7
 10
-209.13452
 20
-967.8866
 11
-205.2554
 21
-967.8866
  0
LINE
  8
0
  6
CONTINUOUS
 62
     7
 10
-194.26779
 20
-967.8866
 11
-194.26779
 21
-958.8866
  0
LINE
  8
0
  6
CONTINUOUS
 62
     7
 10
-215.76779
 20
-953.8866
 11
-199.26779
 21
-953.8866
  0
LINE
  8
0
  6
CONTINUOUS
 62
     7
 10
-215.76779
 20
-958.8866
 11
-194.26779
 21
-958.8866
  0
LINE
  8
0
  6
CONTINUOUS
 62
     7
 10
-205.2554
 20
-967.8866
 11
-205.2554
 21
-958.8866
  0
LINE
  8
0
  6
CONTINUOUS
 62
     7
 10
-209.13452
 20
-967.8866
 11
-209.13452
 21
-958.8866
  0
LINE
  8
0
  6
CONTINUOUS
 62
     7
 10
-215.76779
 20
-968.3866
 11
-194.76779
 21
-968.3866
  0
LINE
  8
0
  6
CENTER
 62
     7
 10
-213.3054
 20
-1145.3915
 11
-213.3054
 21
-1111.3223
  0
LINE
  8
0
  6
CONTINUOUS
 62
     7
 10
-203.7791
 20
-1134.5248
 11
-203.7791
 21
-1123.1248
  0
LINE
  8
0
  6
CONTINUOUS
 62
     7
 10
-213.3054
 20
-1123.1248
 11
-183.8054
 21
-1123.1248
  0
LINE
  8
0
  6
CONTINUOUS
 62
     7
 10
-184.3054
 20
-1135.0247
 11
-183.80542
 21
-1134.5247
  0
LINE
  8
0
  6
CONTINUOUS
 62
     7
 10
-185.70964
 20
-1134.5248
 11
-185.70964
 21
-1123.1248
  0
LINE
  8
0
  6
CONTINUOUS
 62
     7
 10
-199.18184
 20
-1134.5248
 11
-199.18184
 21
-1123.1248
  0
LINE
  8
0
  6
CONTINUOUS
 62
     7
 10
-183.8054
 20
-1134.5248
 11
-183.8054
 21
-1123.1248
  0
LINE
  8
0
  6
CONTINUOUS
 62
     7
 10
-213.3054
 20
-1117.1248
 11
-189.8054
 21
-1117.1248
  0
LINE
  8
0
  6
CONTINUOUS
 62
     7
 10
-203.7791
 20
-1134.5248
 11
-199.18184
 21
-1134.5248
  0
LINE
  8
0
  6
CONTINUOUS
 62
     7
 10
-185.70964
 20
-1134.5248
 11
-183.8054
 21
-1134.5248
  0
LINE
  8
0
  6
CONTINUOUS
 62
     7
 10
-213.3054
 20
-1135.0248
 11
-184.3054
 21
-1135.0248
  0
LINE
  8
0
  6
CONTINUOUS
 62
     7
 10
8.5969229
 20
-966.61584
 11
9.6185293
 21
-966.61584
  0
LINE
  8
0
  6
CONTINUOUS
 62
     7
 10
8.5969229
 20
-966.61584
 11
8.5969229
 21
-956.21582
  0
LINE
  8
0
  6
CONTINUOUS
 62
     7
 10
-6.1780095
 20
-966.61584
 11
-6.1780095
 21
-956.21582
  0
LINE
  8
0
  6
CONTINUOUS
 62
     7
 10
-6.1780095
 20
-966.61584
 11
-3.7116094
 21
-966.61584
  0
LINE
  8
0
  6
CONTINUOUS
 62
     7
 10
-14.881471
 20
-951.21582
 11
4.6185298
 21
-951.21582
  0
LINE
  8
0
  6
CONTINUOUS
 62
     7
 10
9.1185417
 20
-967.11584
 11
9.6185312
 21
-966.61591
  0
LINE
  8
0
  6
CONTINUOUS
 62
     7
 10
9.6185293
 20
-966.61584
 11
9.6185293
 21
-956.21582
  0
LINE
  8
0
  6
CONTINUOUS
 62
     7
 10
-14.881471
 20
-956.21582
 11
9.6185293
 21
-956.21582
  0
LINE
  8
0
  6
CONTINUOUS
 62
     7
 10
-3.7116094
 20
-966.61584
 11
-3.7116094
 21
-956.21582
  0
LINE
  8
0
  6
CONTINUOUS
 62
     7
 10
-14.881471
 20
-967.11584
 11
9.1185293
 21
-967.11584
  0
LINE
  8
0
  6
CONTINUOUS
 62
     7
 10
36.245552
 20
-834.94049
 11
39.745552
 21
-834.94049
  0
LINE
  8
0
  6
CONTINUOUS
 62
     7
 10
3.3194675
 20
-824.73108
 11
3.3194675
 21
-828.13104
  0
LINE
  8
0
  6
CONTINUOUS
 62
     7
 10
36.245552
 20
-915.39423
 11
39.745552
 21
-915.39423
  0
LINE
  8
0
  6
CONTINUOUS
 62
     7
 10
-195.07294
 20
-968.3866
 11
-195.07294
 21
-971.8866
  0
LINE
  8
0
  6
CONTINUOUS
 62
     7
 10
-166.76779
 20
-979.59601
 11
-163.26779
 21
-979.59601
  0
LINE
  8
0
  6
CONTINUOUS
 62
     7
 10
-166.76779
 20
-1060.0497
 11
-163.26779
 21
-1060.0497
  0
LINE
  8
0
  6
CONTINUOUS
 62
     7
 10
-164.3054
 20
-1146.975
 11
-160.8054
 21
-1146.975
  0
LINE
  8
0
  6
CONTINUOUS
 62
     7
 10
-164.3054
 20
-1226.9059
 11
-160.8054
 21
-1226.9059
  0
LINE
  8
0
  6
CONTINUOUS
 62
     7
 10
-184.37379
 20
-1135.0248
 11
-184.37379
 21
-1138.6248
  0
LINE
  8
0
  6
CONTINUOUS
 62
     7
 10
8.5521841
 20
-967.11584
 11
8.5521841
 21
-970.71582
  0
LINE
  8
0
  6
CONTINUOUS
 62
     7
 10
34.118526
 20
-979.0661
 11
37.618526
 21
-979.0661
  0
LINE
  8
0
  6
CONTINUOUS
 62
     7
 10
34.118526
 20
-1059.3868
 11
37.618526
 21
-1059.3868
  0
LINE
  8
0
  6
CONTINUOUS
 62
     7
 10
-50.381458
 20
-1051.7158
 11
-14.881471
 21
-1051.7158
  0
LINE
  8
0
  6
CONTINUOUS
 62
     7
 10
-63.881458
 20
-977.71582
 11
-63.881458
 21
-1019.2158
  0
LINE
  8
0
  6
CONTINUOUS
 62
     7
 10
-63.381481
 20
-977.21588
 11
-63.881474
 21
-977.71588
  0
LINE
  8
0
  6
CONTINUOUS
 62
     7
 10
-59.381458
 20
-1061.2158
 11
-63.381458
 21
-1061.2158
  0
LINE
  8
0
  6
CONTINUOUS
 62
     7
 10
-63.381439
 20
-1061.2159
 11
-63.881428
 21
-1060.7159
  0
LINE
  8
0
  6
CONTINUOUS
 62
     7
 10
-63.881458
 20
-1060.7158
 11
-63.881458
 21
-1019.2158
  0
LINE
  8
0
  6
CONTINUOUS
 62
     7
 10
-59.381458
 20
-1060.7158
 11
-59.381458
 21
-1061.2158
  0
LINE
  8
0
  6
CONTINUOUS
 62
     7
 10
-40.381458
 20
-973.21582
 11
-40.381458
 21
-971.21582
  0
LINE
  8
0
  6
CONTINUOUS
 62
     7
 10
-40.381432
 20
-971.21588
 11
-39.881397
 21
-970.71588
  0
LINE
  8
0
  6
CONTINUOUS
 62
     7
 10
-39.881458
 20
-970.71582
 11
-14.881471
 21
-970.71582
  0
LINE
  8
0
  6
CONTINUOUS
 62
     7
 10
-41.881458
 20
-986.71582
 11
-50.381458
 21
-986.71582
  0
LINE
  8
0
  6
CONTINUOUS
 62
     7
 10
-44.381458
 20
-977.21582
 11
-63.381458
 21
-977.21582
  0
LINE
  8
0
  6
CONTINUOUS
 62
     7
 10
-59.381458
 20
-977.21582
 11
-59.381458
 21
-977.71582
  0
LINE
  8
0
  6
CONTINUOUS
 62
     7
 10
-40.381458
 20
-973.21582
 11
-14.881471
 21
-973.21582
  0
LINE
  8
0
  6
CONTINUOUS
 62
     7
 10
-59.381458
 20
-977.71582
 11
-59.381458
 21
-1019.2158
  0
LINE
  8
0
  6
CONTINUOUS
 62
     7
 10
-59.381458
 20
-1060.7158
 11
-59.381458
 21
-1019.2158
  0
LINE
  8
0
  6
CONTINUOUS
 62
     7
 10
-67.881454
 20
-1060.2158
 11
-82.881454
 21
-1060.2158
  0
LINE
  8
0
  6
CONTINUOUS
 62
     7
 10
-67.88147
 20
-1060.2158
 11
-67.381485
 21
-1059.7158
  0
LINE
  8
0
  6
CONTINUOUS
 62
     7
 10
-67.881454
 20
-1057.3724
 11
-67.881454
 21
-1060.2158
  0
LINE
  8
0
  6
CONTINUOUS
 62
     7
 10
-90.881454
 20
-1019.2158
 11
-90.881454
 21
-1052.2158
  0
LINE
  8
0
  6
CONTINUOUS
 62
     7
 10
-67.381454
 20
-1019.2158
 11
-67.381454
 21
-1059.7158
  0
LINE
  8
0
  6
CONTINUOUS
 62
     7
 10
-67.881454
 20
-1057.3724
 11
-82.881454
 21
-1057.3724
  0
LINE
  8
0
  6
CONTINUOUS
 62
     7
 10
-67.881454
 20
-1032.1774
 11
-82.881454
 21
-1032.1774
  0
LINE
  8
0
  6
CONTINUOUS
 62
     7
 10
-82.881454
 20
-1019.2158
 11
-82.881454
 21
-1060.2158
  0
LINE
  8
0
  6
CONTINUOUS
 62
     7
 10
-67.881454
 20
-1039.0421
 11
-82.881454
 21
-1039.0421
  0
LINE
  8
0
  6
CONTINUOUS
 62
     7
 10
-67.881454
 20
-1006.2543
 11
-67.881454
 21
-999.38959
  0
LINE
  8
0
  6
CONTINUOUS
 62
     7
 10
-67.881454
 20
-999.38959
 11
-82.881454
 21
-999.38959
  0
LINE
  8
0
  6
CONTINUOUS
 62
     7
 10
-67.881454
 20
-1032.1774
 11
-67.881454
 21
-1039.0421
  0
LINE
  8
0
  6
CONTINUOUS
 62
     7
 10
-82.881454
 20
-1019.2158
 11
-82.881454
 21
-978.21582
  0
LINE
  8
0
  6
CONTINUOUS
 62
     7
 10
-67.881454
 20
-1006.2543
 11
-82.881454
 21
-1006.2543
  0
LINE
  8
0
  6
CONTINUOUS
 62
     7
 10
-67.881454
 20
-981.05933
 11
-82.881454
 21
-981.05933
  0
LINE
  8
0
  6
CONTINUOUS
 62
     7
 10
-67.381454
 20
-1019.2158
 11
-67.381454
 21
-978.71582
  0
LINE
  8
0
  6
CONTINUOUS
 62
     7
 10
-90.881454
 20
-1019.2158
 11
-90.881454
 21
-986.21582
  0
LINE
  8
0
  6
CONTINUOUS
 62
     7
 10
-67.881454
 20
-981.05933
 11
-67.881454
 21
-978.21582
  0
LINE
  8
0
  6
CONTINUOUS
 62
     7
 10
-67.881386
 20
-978.21588
 11
-67.381393
 21
-978.71588
  0
LINE
  8
0
  6
CONTINUOUS
 62
     7
 10
-67.881454
 20
-978.21582
 11
-82.881454
 21
-978.21582
  0
LINE
  8
0
  6
CONTINUOUS
 62
     7
 10
-38.359837
 20
-966.61584
 11
-39.381458
 21
-966.61584
  0
LINE
  8
0
  6
CONTINUOUS
 62
     7
 10
-38.359837
 20
-966.61584
 11
-38.359837
 21
-956.21582
  0
LINE
  8
0
  6
CONTINUOUS
 62
     7
 10
-23.5849
 20
-966.61584
 11
-23.5849
 21
-956.21582
  0
LINE
  8
0
  6
CONTINUOUS
 62
     7
 10
-23.5849
 20
-966.61584
 11
-26.0513
 21
-966.61584
  0
LINE
  8
0
  6
CONTINUOUS
 62
     7
 10
-14.881471
 20
-951.21582
 11
-34.381458
 21
-951.21582
  0
LINE
  8
0
  6
CONTINUOUS
 62
     7
 10
-38.88142
 20
-967.11584
 11
-39.381409
 21
-966.61584
  0
LINE
  8
0
  6
CONTINUOUS
 62
     7
 10
-39.381458
 20
-966.61584
 11
-39.381458
 21
-956.21582
  0
LINE
  8
0
  6
CONTINUOUS
 62
     7
 10
-14.881471
 20
-956.21582
 11
-39.381458
 21
-956.21582
  0
LINE
  8
0
  6
CONTINUOUS
 62
     7
 10
-26.0513
 20
-966.61584
 11
-26.0513
 21
-956.21582
  0
LINE
  8
0
  6
CONTINUOUS
 62
     7
 10
-14.881471
 20
-967.11584
 11
-38.881458
 21
-967.11584
  0
LINE
  8
0
  6
CONTINUOUS
 62
     7
 10
-38.315113
 20
-967.11584
 11
-38.315113
 21
-970.71582
  0
LINE
  8
0
  6
CONTINUOUS
 62
     7
 10
-63.881458
 20
-979.0661
 11
-67.381454
 21
-979.0661
  0
LINE
  8
0
  6
CONTINUOUS
 62
     7
 10
-63.881458
 20
-1059.3868
 11
-67.381454
 21
-1059.3868
  0
LINE
  8
0
  6
CONTINUOUS
 62
     7
 10
-248.8054
 20
-1219.6248
 11
-213.3054
 21
-1219.6248
  0
LINE
  8
0
  6
CONTINUOUS
 62
     7
 10
-262.30539
 20
-1145.6248
 11
-262.30539
 21
-1187.1248
  0
LINE
  8
0
  6
CONTINUOUS
 62
     7
 10
-261.80542
 20
-1145.1248
 11
-262.30542
 21
-1145.6246
  0
LINE
  8
0
  6
CONTINUOUS
 62
     7
 10
-257.80539
 20
-1229.1248
 11
-261.80539
 21
-1229.1248
  0
LINE
  8
0
  6
CONTINUOUS
 62
     7
 10
-261.80536
 20
-1229.1246
 11
-262.30539
 21
-1228.6246
  0
LINE
  8
0
  6
CONTINUOUS
 62
     7
 10
-262.30539
 20
-1228.6248
 11
-262.30539
 21
-1187.1248
  0
LINE
  8
0
  6
CONTINUOUS
 62
     7
 10
-257.80539
 20
-1228.6248
 11
-257.80539
 21
-1229.1248
  0
LINE
  8
0
  6
CONTINUOUS
 62
     7
 10
-247.8054
 20
-1145.1248
 11
-261.80539
 21
-1145.1248
  0
LINE
  8
0
  6
CONTINUOUS
 62
     7
 10
-243.3054
 20
-1138.6248
 11
-243.8054
 21
-1139.1246
  0
LINE
  8
0
  6
CONTINUOUS
 62
     7
 10
-243.3054
 20
-1138.6248
 11
-213.3054
 21
-1138.6248
  0
LINE
  8
0
  6
CONTINUOUS
 62
     7
 10
-244.3054
 20
-1154.6248
 11
-248.8054
 21
-1154.6248
  0
LINE
  8
0
  6
CONTINUOUS
 62
     7
 10
-243.8054
 20
-1141.1248
 11
-243.8054
 21
-1139.1248
  0
LINE
  8
0
  6
CONTINUOUS
 62
     7
 10
-257.80539
 20
-1145.1248
 11
-257.80539
 21
-1145.6248
  0
LINE
  8
0
  6
CONTINUOUS
 62
     7
 10
-243.8054
 20
-1141.1248
 11
-243.8054
 21
-1139.1248
  0
LINE
  8
0
  6
CONTINUOUS
 62
     7
 10
-243.3054
 20
-1141.1248
 11
-213.3054
 21
-1141.1248
  0
LINE
  8
0
  6
CONTINUOUS
 62
     7
 10
-257.80539
 20
-1145.6248
 11
-257.80539
 21
-1187.1248
  0
LINE
  8
0
  6
CONTINUOUS
 62
     7
 10
-257.80539
 20
-1228.6248
 11
-257.80539
 21
-1187.1248
  0
LINE
  8
0
  6
CONTINUOUS
 62
     7
 10
-266.30542
 20
-1228.1246
 11
-265.80545
 21
-1227.6248
  0
LINE
  8
0
  6
CONTINUOUS
 62
     7
 10
-266.30539
 20
-1228.1248
 11
-281.30539
 21
-1228.1248
  0
LINE
  8
0
  6
CONTINUOUS
 62
     7
 10
-266.30539
 20
-1225.2813
 11
-266.30539
 21
-1228.1248
  0
LINE
  8
0
  6
CONTINUOUS
 62
     7
 10
-289.30539
 20
-1187.1248
 11
-289.30539
 21
-1220.1248
  0
LINE
  8
0
  6
CONTINUOUS
 62
     7
 10
-265.80539
 20
-1146.6248
 11
-265.80539
 21
-1227.6248
  0
LINE
  8
0
  6
CONTINUOUS
 62
     7
 10
-266.30539
 20
-1225.2813
 11
-281.30539
 21
-1225.2813
  0
LINE
  8
0
  6
CONTINUOUS
 62
     7
 10
-266.30539
 20
-1200.0862
 11
-281.30539
 21
-1200.0862
  0
LINE
  8
0
  6
CONTINUOUS
 62
     7
 10
-281.30539
 20
-1187.1248
 11
-281.30539
 21
-1228.1248
  0
LINE
  8
0
  6
CONTINUOUS
 62
     7
 10
-266.30539
 20
-1206.9509
 11
-281.30539
 21
-1206.9509
  0
LINE
  8
0
  6
CONTINUOUS
 62
     7
 10
-266.30539
 20
-1174.1632
 11
-266.30539
 21
-1167.2985
  0
LINE
  8
0
  6
CONTINUOUS
 62
     7
 10
-266.30539
 20
-1167.2985
 11
-281.30539
 21
-1167.2985
  0
LINE
  8
0
  6
CONTINUOUS
 62
     7
 10
-266.30539
 20
-1200.0862
 11
-266.30539
 21
-1206.9509
  0
LINE
  8
0
  6
CONTINUOUS
 62
     7
 10
-281.30539
 20
-1187.1248
 11
-281.30539
 21
-1146.1248
  0
LINE
  8
0
  6
CONTINUOUS
 62
     7
 10
-266.30539
 20
-1174.1632
 11
-281.30539
 21
-1174.1632
  0
LINE
  8
0
  6
CONTINUOUS
 62
     7
 10
-266.30539
 20
-1148.9683
 11
-281.30539
 21
-1148.9683
  0
LINE
  8
0
  6
CONTINUOUS
 62
     7
 10
-289.30539
 20
-1187.1248
 11
-289.30539
 21
-1154.1248
  0
LINE
  8
0
  6
CONTINUOUS
 62
     7
 10
-266.30539
 20
-1148.9683
 11
-266.30539
 21
-1146.1248
  0
LINE
  8
0
  6
CONTINUOUS
 62
     7
 10
-266.30542
 20
-1146.1248
 11
-265.80539
 21
-1146.6248
  0
LINE
  8
0
  6
CONTINUOUS
 62
     7
 10
-266.30539
 20
-1146.1248
 11
-281.30539
 21
-1146.1248
  0
LINE
  8
0
  6
CONTINUOUS
 62
     7
 10
-222.83168
 20
-1134.5248
 11
-222.83168
 21
-1123.1248
  0
LINE
  8
0
  6
CONTINUOUS
 62
     7
 10
-213.3054
 20
-1123.1248
 11
-242.8054
 21
-1123.1248
  0
LINE
  8
0
  6
CONTINUOUS
 62
     7
 10
-242.30539
 20
-1135.0247
 11
-242.80539
 21
-1134.5248
  0
LINE
  8
0
  6
CONTINUOUS
 62
     7
 10
-240.90114
 20
-1134.5248
 11
-240.90114
 21
-1123.1248
  0
LINE
  8
0
  6
CONTINUOUS
 62
     7
 10
-227.42894
 20
-1134.5248
 11
-227.42894
 21
-1123.1248
  0
LINE
  8
0
  6
CONTINUOUS
 62
     7
 10
-242.8054
 20
-1134.5248
 11
-242.8054
 21
-1123.1248
  0
LINE
  8
0
  6
CONTINUOUS
 62
     7
 10
-213.3054
 20
-1117.1248
 11
-236.8054
 21
-1117.1248
  0
LINE
  8
0
  6
CONTINUOUS
 62
     7
 10
-222.83168
 20
-1134.5248
 11
-227.42894
 21
-1134.5248
  0
LINE
  8
0
  6
CONTINUOUS
 62
     7
 10
-240.90114
 20
-1134.5248
 11
-242.8054
 21
-1134.5248
  0
LINE
  8
0
  6
CONTINUOUS
 62
     7
 10
-213.3054
 20
-1135.0248
 11
-242.3054
 21
-1135.0248
  0
LINE
  8
0
  6
CONTINUOUS
 62
     7
 10
-262.30539
 20
-1146.975
 11
-265.80539
 21
-1146.975
  0
LINE
  8
0
  6
CONTINUOUS
 62
     7
 10
-262.30539
 20
-1226.9059
 11
-265.80539
 21
-1226.9059
  0
LINE
  8
0
  6
CONTINUOUS
 62
     7
 10
-242.23698
 20
-1135.0248
 11
-242.23698
 21
-1138.6248
  0
LINE
  8
0
  6
CONTINUOUS
 62
     7
 10
-251.26779
 20
-1052.3866
 11
-215.76779
 21
-1052.3866
  0
LINE
  8
0
  6
CONTINUOUS
 62
     7
 10
-241.76779
 20
-977.8866
 11
-264.26776
 21
-977.8866
  0
LINE
  8
0
  6
CONTINUOUS
 62
     7
 10
-237.26779
 20
-971.8866
 11
-215.76779
 21
-971.8866
  0
LINE
  8
0
  6
CONTINUOUS
 62
     7
 10
-237.76779
 20
-973.8866
 11
-237.76779
 21
-972.3866
  0
LINE
  8
0
  6
CONTINUOUS
 62
     7
 10
-237.76776
 20
-972.3866
 11
-237.26778
 21
-971.8866
  0
LINE
  8
0
  6
CONTINUOUS
 62
     7
 10
-264.76779
 20
-978.3866
 11
-264.76779
 21
-1019.8866
  0
LINE
  8
0
  6
CONTINUOUS
 62
     7
 10
-264.26776
 20
-977.88654
 11
-264.76779
 21
-978.3866
  0
LINE
  8
0
  6
CONTINUOUS
 62
     7
 10
-260.26779
 20
-1061.8866
 11
-264.26779
 21
-1061.8866
  0
LINE
  8
0
  6
CONTINUOUS
 62
     7
 10
-264.26779
 20
-1061.8866
 11
-264.76776
 21
-1061.3866
  0
LINE
  8
0
  6
CONTINUOUS
 62
     7
 10
-264.76779
 20
-1061.3866
 11
-264.76779
 21
-1019.8866
  0
LINE
  8
0
  6
CONTINUOUS
 62
     7
 10
-260.26779
 20
-1061.3866
 11
-260.26779
 21
-1061.8866
  0
LINE
  8
0
  6
CONTINUOUS
 62
     7
 10
-239.76779
 20
-987.3866
 11
-251.26779
 21
-987.3866
  0
LINE
  8
0
  6
CONTINUOUS
 62
     7
 10
-260.26779
 20
-977.8866
 11
-260.26779
 21
-978.3866
  0
LINE
  8
0
  6
CONTINUOUS
 62
     7
 10
-237.76779
 20
-973.8866
 11
-215.76779
 21
-973.8866
  0
LINE
  8
0
  6
CONTINUOUS
 62
     7
 10
-260.26779
 20
-978.3866
 11
-260.26779
 21
-1019.8866
  0
LINE
  8
0
  6
CONTINUOUS
 62
     7
 10
-260.26779
 20
-1061.3866
 11
-260.26779
 21
-1019.8866
  0
LINE
  8
0
  6
CONTINUOUS
 62
     7
 10
-268.76776
 20
-1060.8866
 11
-268.26773
 21
-1060.3866
  0
LINE
  8
0
  6
CONTINUOUS
 62
     7
 10
-268.76779
 20
-1060.8866
 11
-283.76779
 21
-1060.8866
  0
LINE
  8
0
  6
CONTINUOUS
 62
     7
 10
-268.76779
 20
-1058.0431
 11
-268.76779
 21
-1060.8866
  0
LINE
  8
0
  6
CONTINUOUS
 62
     7
 10
-291.76779
 20
-1019.8866
 11
-291.76779
 21
-1052.8866
  0
LINE
  8
0
  6
CONTINUOUS
 62
     7
 10
-268.26779
 20
-1019.8866
 11
-268.26779
 21
-1060.3866
  0
LINE
  8
0
  6
CONTINUOUS
 62
     7
 10
-268.76779
 20
-1058.0431
 11
-283.76779
 21
-1058.0431
  0
LINE
  8
0
  6
CONTINUOUS
 62
     7
 10
-268.76779
 20
-1032.848
 11
-283.76779
 21
-1032.848
  0
LINE
  8
0
  6
CONTINUOUS
 62
     7
 10
-283.76779
 20
-1019.8866
 11
-283.76779
 21
-1060.8866
  0
LINE
  8
0
  6
CONTINUOUS
 62
     7
 10
-268.76779
 20
-1039.7128
 11
-283.76779
 21
-1039.7128
  0
LINE
  8
0
  6
CONTINUOUS
 62
     7
 10
-268.76779
 20
-1006.9251
 11
-268.76779
 21
-1000.0604
  0
LINE
  8
0
  6
CONTINUOUS
 62
     7
 10
-268.76779
 20
-1000.0604
 11
-283.76779
 21
-1000.0604
  0
LINE
  8
0
  6
CONTINUOUS
 62
     7
 10
-268.76779
 20
-1032.848
 11
-268.76779
 21
-1039.7128
  0
LINE
  8
0
  6
CONTINUOUS
 62
     7
 10
-283.76779
 20
-1019.8866
 11
-283.76779
 21
-978.8866
  0
LINE
  8
0
  6
CONTINUOUS
 62
     7
 10
-268.76779
 20
-1006.9251
 11
-283.76779
 21
-1006.9251
  0
LINE
  8
0
  6
CONTINUOUS
 62
     7
 10
-268.76779
 20
-981.73004
 11
-283.76779
 21
-981.73004
  0
LINE
  8
0
  6
CONTINUOUS
 62
     7
 10
-268.26779
 20
-1019.8866
 11
-268.26779
 21
-979.3866
  0
LINE
  8
0
  6
CONTINUOUS
 62
     7
 10
-291.76779
 20
-1019.8866
 11
-291.76779
 21
-986.8866
  0
LINE
  8
0
  6
CONTINUOUS
 62
     7
 10
-268.76779
 20
-981.73004
 11
-268.76779
 21
-978.8866
  0
LINE
  8
0
  6
CONTINUOUS
 62
     7
 10
-268.76779
 20
-978.8866
 11
-268.26779
 21
-979.3866
  0
LINE
  8
0
  6
CONTINUOUS
 62
     7
 10
-268.76779
 20
-978.8866
 11
-283.76779
 21
-978.8866
  0
LINE
  8
0
  6
CONTINUOUS
 62
     7
 10
-235.66098
 20
-967.8866
 11
-235.66098
 21
-958.8866
  0
LINE
  8
0
  6
CONTINUOUS
 62
     7
 10
-236.76778
 20
-968.3866
 11
-237.26778
 21
-967.8866
  0
LINE
  8
0
  6
CONTINUOUS
 62
     7
 10
-235.66098
 20
-967.8866
 11
-237.26779
 21
-967.8866
  0
LINE
  8
0
  6
CONTINUOUS
 62
     7
 10
-222.40103
 20
-967.8866
 11
-226.28015
 21
-967.8866
  0
LINE
  8
0
  6
CONTINUOUS
 62
     7
 10
-237.26779
 20
-967.8866
 11
-237.26779
 21
-958.8866
  0
LINE
  8
0
  6
CONTINUOUS
 62
     7
 10
-215.76779
 20
-953.8866
 11
-232.26779
 21
-953.8866
  0
LINE
  8
0
  6
CONTINUOUS
 62
     7
 10
-215.76779
 20
-958.8866
 11
-237.26779
 21
-958.8866
  0
LINE
  8
0
  6
CONTINUOUS
 62
     7
 10
-226.28015
 20
-967.8866
 11
-226.28015
 21
-958.8866
  0
LINE
  8
0
  6
CONTINUOUS
 62
     7
 10
-222.40103
 20
-967.8866
 11
-222.40103
 21
-958.8866
  0
LINE
  8
0
  6
CONTINUOUS
 62
     7
 10
-215.76779
 20
-968.3866
 11
-236.76779
 21
-968.3866
  0
LINE
  8
0
  6
CONTINUOUS
 62
     7
 10
-236.46262
 20
-968.3866
 11
-236.46262
 21
-971.8866
  0
LINE
  8
0
  6
CONTINUOUS
 62
     7
 10
-264.76779
 20
-979.59601
 11
-268.26779
 21
-979.59601
  0
LINE
  8
0
  6
CONTINUOUS
 62
     7
 10
-264.76779
 20
-1060.0497
 11
-268.26779
 21
-1060.0497
  0
LINE
  8
0
  6
CONTINUOUS
 62
     7
 10
-57.254433
 20
-916.73108
 11
-57.254433
 21
-917.23108
  0
LINE
  8
0
  6
CONTINUOUS
 62
     7
 10
-30.254431
 20
-830.13104
 11
-30.357
 21
-830.13104
  0
LINE
  8
0
  6
CONTINUOUS
 62
     7
 10
-61.754433
 20
-833.73108
 11
-61.754433
 21
-875.23108
  0
LINE
  8
0
  6
CONTINUOUS
 62
     7
 10
-61.254471
 20
-833.23108
 11
-61.754459
 21
-833.73108
  0
LINE
  8
0
  6
CONTINUOUS
 62
     7
 10
-57.254433
 20
-917.23108
 11
-61.254433
 21
-917.23108
  0
LINE
  8
0
  6
CONTINUOUS
 62
     7
 10
-61.254459
 20
-917.23108
 11
-61.754448
 21
-916.73108
  0
LINE
  8
0
  6
CONTINUOUS
 62
     7
 10
-61.754433
 20
-916.73108
 11
-61.754433
 21
-875.23108
  0
LINE
  8
0
  6
CONTINUOUS
 62
     7
 10
-48.254433
 20
-907.73108
 11
-12.754446
 21
-907.73108
  0
LINE
  8
0
  6
CONTINUOUS
 62
     7
 10
-30.254431
 20
-828.63104
 11
-30.254431
 21
-829.23108
  0
LINE
  8
0
  6
CONTINUOUS
 62
     7
 10
-30.254431
 20
-829.73108
 11
-30.254431
 21
-829.73108
  0
LINE
  8
0
  6
CONTINUOUS
 62
     7
 10
-34.254433
 20
-833.23108
 11
-61.254433
 21
-833.23108
  0
LINE
  8
0
  6
CONTINUOUS
 62
     7
 10
-57.254433
 20
-833.23108
 11
-57.254433
 21
-833.73108
  0
LINE
  8
0
  6
CONTINUOUS
 62
     7
 10
-33.754433
 20
-842.73108
 11
-48.254433
 21
-842.73108
  0
LINE
  8
0
  6
CONTINUOUS
 62
     7
 10
-12.754446
 20
-828.13104
 11
-29.754431
 21
-828.13104
  0
LINE
  8
0
  6
CONTINUOUS
 62
     7
 10
-29.754469
 20
-828.13104
 11
-30.254459
 21
-828.63104
  0
LINE
  8
0
  6
CONTINUOUS
 62
     7
 10
-12.754446
 20
-830.13104
 11
-30.357
 21
-830.13104
  0
LINE
  8
0
  6
CONTINUOUS
 62
     7
 10
-57.254433
 20
-833.73108
 11
-57.254433
 21
-875.23108
  0
LINE
  8
0
  6
CONTINUOUS
 62
     7
 10
-57.254433
 20
-916.73108
 11
-57.254433
 21
-875.23108
  0
LINE
  8
0
  6
CONTINUOUS
 62
     7
 10
-65.754433
 20
-916.23108
 11
-80.754433
 21
-916.23108
  0
LINE
  8
0
  6
CONTINUOUS
 62
     7
 10
-65.754463
 20
-916.23108
 11
-65.254471
 21
-915.73108
  0
LINE
  8
0
  6
CONTINUOUS
 62
     7
 10
-65.754433
 20
-913.38757
 11
-65.754433
 21
-916.23108
  0
LINE
  8
0
  6
CONTINUOUS
 62
     7
 10
-88.754433
 20
-875.23108
 11
-88.754433
 21
-908.23108
  0
LINE
  8
0
  6
CONTINUOUS
 62
     7
 10
-65.254433
 20
-875.23108
 11
-65.254433
 21
-915.73108
  0
LINE
  8
0
  6
CONTINUOUS
 62
     7
 10
-65.754433
 20
-913.38757
 11
-80.754433
 21
-913.38757
  0
LINE
  8
0
  6
CONTINUOUS
 62
     7
 10
-65.754433
 20
-888.19257
 11
-80.754433
 21
-888.19257
  0
LINE
  8
0
  6
CONTINUOUS
 62
     7
 10
-80.754433
 20
-875.23108
 11
-80.754433
 21
-916.23108
  0
LINE
  8
0
  6
CONTINUOUS
 62
     7
 10
-65.754433
 20
-895.05731
 11
-80.754433
 21
-895.05731
  0
LINE
  8
0
  6
CONTINUOUS
 62
     7
 10
-65.754433
 20
-862.26959
 11
-65.754433
 21
-855.40485
  0
LINE
  8
0
  6
CONTINUOUS
 62
     7
 10
-65.754433
 20
-855.40485
 11
-80.754433
 21
-855.40485
  0
LINE
  8
0
  6
CONTINUOUS
 62
     7
 10
-65.754433
 20
-888.19257
 11
-65.754433
 21
-895.05731
  0
LINE
  8
0
  6
CONTINUOUS
 62
     7
 10
-80.754433
 20
-875.23108
 11
-80.754433
 21
-834.23108
  0
LINE
  8
0
  6
CONTINUOUS
 62
     7
 10
-65.754433
 20
-862.26959
 11
-80.754433
 21
-862.26959
  0
LINE
  8
0
  6
CONTINUOUS
 62
     7
 10
-65.754433
 20
-837.07452
 11
-80.754433
 21
-837.07452
  0
LINE
  8
0
  6
CONTINUOUS
 62
     7
 10
-65.254433
 20
-875.23108
 11
-65.254433
 21
-834.73108
  0
LINE
  8
0
  6
CONTINUOUS
 62
     7
 10
-88.754433
 20
-875.23108
 11
-88.754433
 21
-842.23108
  0
LINE
  8
0
  6
CONTINUOUS
 62
     7
 10
-65.754433
 20
-837.07452
 11
-65.754433
 21
-834.23108
  0
LINE
  8
0
  6
CONTINUOUS
 62
     7
 10
-65.754402
 20
-834.23108
 11
-65.254417
 21
-834.73108
  0
LINE
  8
0
  6
CONTINUOUS
 62
     7
 10
-65.754433
 20
-834.23108
 11
-80.754433
 21
-834.23108
  0
LINE
  8
0
  6
CONTINUOUS
 62
     7
 10
-12.754446
 20
-816.23108
 11
-29.754431
 21
-816.23108
  0
LINE
  8
0
  6
CONTINUOUS
 62
     7
 10
-28.875753
 20
-824.23108
 11
-28.875753
 21
-816.23108
  0
LINE
  8
0
  6
CONTINUOUS
 62
     7
 10
-28.875753
 20
-824.23108
 11
-29.754431
 21
-824.23108
  0
LINE
  8
0
  6
CONTINUOUS
 62
     7
 10
-18.553427
 20
-824.23108
 11
-18.553427
 21
-816.23108
  0
LINE
  8
0
  6
CONTINUOUS
 62
     7
 10
-18.553427
 20
-824.23108
 11
-20.674734
 21
-824.23108
  0
LINE
  8
0
  6
CONTINUOUS
 62
     7
 10
-12.754446
 20
-811.23108
 11
-24.754431
 21
-811.23108
  0
LINE
  8
0
  6
CONTINUOUS
 62
     7
 10
-29.754469
 20
-824.23108
 11
-29.25448
 21
-824.73108
  0
LINE
  8
0
  6
CONTINUOUS
 62
     7
 10
-29.754431
 20
-824.23108
 11
-29.754431
 21
-816.23108
  0
LINE
  8
0
  6
CONTINUOUS
 62
     7
 10
-20.674734
 20
-824.23108
 11
-20.674734
 21
-816.23108
  0
LINE
  8
0
  6
CONTINUOUS
 62
     7
 10
-12.754446
 20
-824.73108
 11
-29.254431
 21
-824.73108
  0
LINE
  8
0
  6
CONTINUOUS
 62
     7
 10
-61.754433
 20
-834.94049
 11
-65.254433
 21
-834.94049
  0
LINE
  8
0
  6
CONTINUOUS
 62
     7
 10
-28.828329
 20
-824.73108
 11
-28.828329
 21
-828.13104
  0
LINE
  8
0
  6
CONTINUOUS
 62
     7
 10
-61.754433
 20
-915.39423
 11
-65.254433
 21
-915.39423
  0
LINE
  8
0
  6
CENTER
 62
     7
 10
90.557182
 20
-1188.4662
 11
-99.55764
 21
-1188.4662
  0
LINE
  8
0
  6
CONTINUOUS
 62
     7
 10
23.080923
 20
-1220.9662
 11
-12.419077
 21
-1220.9662
  0
LINE
  8
0
  6
CONTINUOUS
 62
     7
 10
36.580925
 20
-1146.9662
 11
36.580925
 21
-1188.4662
  0
LINE
  8
0
  6
CONTINUOUS
 62
     7
 10
36.080914
 20
-1146.4662
 11
36.580944
 21
-1146.9662
  0
LINE
  8
0
  6
CONTINUOUS
 62
     7
 10
32.080925
 20
-1230.4662
 11
36.080925
 21
-1230.4662
  0
LINE
  8
0
  6
CONTINUOUS
 62
     7
 10
36.080883
 20
-1230.4662
 11
36.580872
 21
-1229.9662
  0
LINE
  8
0
  6
CONTINUOUS
 62
     7
 10
36.580925
 20
-1229.9662
 11
36.580925
 21
-1188.4662
  0
LINE
  8
0
  6
CONTINUOUS
 62
     7
 10
32.080925
 20
-1229.9662
 11
32.080925
 21
-1230.4662
  0
LINE
  8
0
  6
CONTINUOUS
 62
     7
 10
22.080908
 20
-1140.9662
 11
21.580917
 21
-1140.4662
  0
LINE
  8
0
  6
CONTINUOUS
 62
     7
 10
22.080923
 20
-1142.4662
 11
22.080923
 21
-1140.9662
  0
LINE
  8
0
  6
CENTER
 62
     7
 10
-12.419077
 20
-1112.241
 11
-12.419077
 21
-1224.5249
  0
LINE
  8
0
  6
CONTINUOUS
 62
     7
 10
21.580923
 20
-1140.4662
 11
-12.419077
 21
-1140.4662
  0
LINE
  8
0
  6
CONTINUOUS
 62
     7
 10
26.080923
 20
-1146.4662
 11
36.080925
 21
-1146.4662
  0
LINE
  8
0
  6
CONTINUOUS
 62
     7
 10
23.094809
 20
-1155.9662
 11
22.080923
 21
-1155.9662
  0
LINE
  8
0
  6
CONTINUOUS
 62
     7
 10
32.080925
 20
-1146.4662
 11
32.080925
 21
-1147.4662
  0
LINE
  8
0
  6
CONTINUOUS
 62
     7
 10
22.372824
 20
-1143.9662
 11
21.080923
 21
-1143.9662
  0
LINE
  8
0
  6
CONTINUOUS
 62
     7
 10
21.580923
 20
-1143.9662
 11
-12.419077
 21
-1143.9662
  0
LINE
  8
0
  6
CONTINUOUS
 62
     7
 10
32.080925
 20
-1146.9662
 11
32.080925
 21
-1188.4662
  0
LINE
  8
0
  6
CONTINUOUS
 62
     7
 10
32.080925
 20
-1229.9662
 11
32.080925
 21
-1188.4662
  0
LINE
  8
0
  6
CONTINUOUS
 62
     7
 10
40.580902
 20
-1229.4662
 11
40.080914
 21
-1228.9662
  0
LINE
  8
0
  6
CONTINUOUS
 62
     7
 10
40.580925
 20
-1229.4662
 11
55.580925
 21
-1229.4662
  0
LINE
  8
0
  6
CONTINUOUS
 62
     7
 10
40.580925
 20
-1226.6227
 11
40.580925
 21
-1229.4662
  0
LINE
  8
0
  6
CONTINUOUS
 62
     7
 10
63.580925
 20
-1188.4662
 11
63.580925
 21
-1221.4662
  0
LINE
  8
0
  6
CONTINUOUS
 62
     7
 10
40.080925
 20
-1188.4662
 11
40.080925
 21
-1228.9662
  0
LINE
  8
0
  6
CONTINUOUS
 62
     7
 10
40.580925
 20
-1226.6227
 11
55.580925
 21
-1226.6227
  0
LINE
  8
0
  6
CONTINUOUS
 62
     7
 10
40.580925
 20
-1201.4276
 11
55.580925
 21
-1201.4276
  0
LINE
  8
0
  6
CONTINUOUS
 62
     7
 10
55.580925
 20
-1188.4662
 11
55.580925
 21
-1229.4662
  0
LINE
  8
0
  6
CONTINUOUS
 62
     7
 10
40.580925
 20
-1208.2924
 11
55.580925
 21
-1208.2924
  0
LINE
  8
0
  6
CONTINUOUS
 62
     7
 10
40.580925
 20
-1175.5048
 11
40.580925
 21
-1168.64
  0
LINE
  8
0
  6
CONTINUOUS
 62
     7
 10
40.580925
 20
-1168.64
 11
55.580925
 21
-1168.64
  0
LINE
  8
0
  6
CONTINUOUS
 62
     7
 10
40.580925
 20
-1201.4276
 11
40.580925
 21
-1208.2924
  0
LINE
  8
0
  6
CONTINUOUS
 62
     7
 10
55.580925
 20
-1188.4662
 11
55.580925
 21
-1147.4662
  0
LINE
  8
0
  6
CONTINUOUS
 62
     7
 10
40.580925
 20
-1175.5048
 11
55.580925
 21
-1175.5048
  0
LINE
  8
0
  6
CONTINUOUS
 62
     7
 10
40.580925
 20
-1150.3097
 11
55.580925
 21
-1150.3097
  0
LINE
  8
0
  6
CONTINUOUS
 62
     7
 10
40.080925
 20
-1188.4662
 11
40.080925
 21
-1147.9662
  0
LINE
  8
0
  6
CONTINUOUS
 62
     7
 10
63.580925
 20
-1188.4662
 11
63.580925
 21
-1155.4662
  0
LINE
  8
0
  6
CONTINUOUS
 62
     7
 10
40.580925
 20
-1150.3097
 11
40.580925
 21
-1147.4662
  0
LINE
  8
0
  6
CONTINUOUS
 62
     7
 10
40.580917
 20
-1147.4662
 11
40.080929
 21
-1147.9662
  0
LINE
  8
0
  6
CONTINUOUS
 62
     7
 10
40.580925
 20
-1147.4662
 11
55.580925
 21
-1147.4662
  0
LINE
  8
0
  6
CONTINUOUS
 62
     7
 10
21.580908
 20
-1135.9662
 11
21.080917
 21
-1136.4662
  0
LINE
  8
0
  6
CONTINUOUS
 62
     7
 10
18.842306
 20
-1135.9662
 11
21.580923
 21
-1135.9662
  0
LINE
  8
0
  6
CONTINUOUS
 62
     7
 10
21.580923
 20
-1135.9662
 11
21.580923
 21
-1124.4662
  0
LINE
  8
0
  6
CONTINUOUS
 62
     7
 10
18.842306
 20
-1135.9662
 11
18.842306
 21
-1124.4662
  0
LINE
  8
0
  6
CONTINUOUS
 62
     7
 10
-12.419077
 20
-1116.4662
 11
13.580923
 21
-1116.4662
  0
LINE
  8
0
  6
CONTINUOUS
 62
     7
 10
-2.2087801
 20
-1135.9662
 11
4.4027925
 21
-1135.9662
  0
LINE
  8
0
  6
CONTINUOUS
 62
     7
 10
4.4027925
 20
-1135.9662
 11
4.4027925
 21
-1124.4662
  0
LINE
  8
0
  6
CONTINUOUS
 62
     7
 10
-12.419077
 20
-1124.4662
 11
21.580923
 21
-1124.4662
  0
LINE
  8
0
  6
CONTINUOUS
 62
     7
 10
-2.2087801
 20
-1135.9662
 11
-2.2087801
 21
-1124.4662
  0
LINE
  8
0
  6
CONTINUOUS
 62
     7
 10
-12.419077
 20
-1136.4662
 11
21.080923
 21
-1136.4662
  0
LINE
  8
0
  6
CONTINUOUS
 62
     7
 10
20.715384
 20
-1136.4662
 11
20.715384
 21
-1140.4662
  0
LINE
  8
0
  6
CONTINUOUS
 62
     7
 10
36.580925
 20
-1148.1862
 11
40.080925
 21
-1148.1862
  0
LINE
  8
0
  6
CONTINUOUS
 62
     7
 10
36.580925
 20
-1228.7032
 11
40.080925
 21
-1228.7032
  0
LINE
  8
0
  6
CONTINUOUS
 62
     7
 10
-47.919075
 20
-1220.9662
 11
-12.419077
 21
-1220.9662
  0
LINE
  8
0
  6
CONTINUOUS
 62
     7
 10
-61.419075
 20
-1146.9662
 11
-61.419075
 21
-1188.4662
  0
LINE
  8
0
  6
CONTINUOUS
 62
     7
 10
-60.919117
 20
-1146.4662
 11
-61.419106
 21
-1146.9662
  0
LINE
  8
0
  6
CONTINUOUS
 62
     7
 10
-56.919075
 20
-1230.4662
 11
-60.919075
 21
-1230.4662
  0
LINE
  8
0
  6
CONTINUOUS
 62
     7
 10
-60.919044
 20
-1230.4662
 11
-61.419079
 21
-1229.9662
  0
LINE
  8
0
  6
CONTINUOUS
 62
     7
 10
-61.419075
 20
-1229.9662
 11
-61.419075
 21
-1188.4662
  0
LINE
  8
0
  6
CONTINUOUS
 62
     7
 10
-56.919075
 20
-1229.9662
 11
-56.919075
 21
-1230.4662
  0
LINE
  8
0
  6
CONTINUOUS
 62
     7
 10
-46.919067
 20
-1140.9662
 11
-46.419079
 21
-1140.4662
  0
LINE
  8
0
  6
CONTINUOUS
 62
     7
 10
-46.919075
 20
-1142.4662
 11
-46.919075
 21
-1140.9662
  0
LINE
  8
0
  6
CONTINUOUS
 62
     7
 10
-46.41906
 20
-1140.4662
 11
-12.419077
 21
-1140.4662
  0
LINE
  8
0
  6
CONTINUOUS
 62
     7
 10
-50.919075
 20
-1146.4662
 11
-60.919075
 21
-1146.4662
  0
LINE
  8
0
  6
CONTINUOUS
 62
     7
 10
-47.932961
 20
-1155.9662
 11
-46.919075
 21
-1155.9662
  0
LINE
  8
0
  6
CONTINUOUS
 62
     7
 10
-56.919075
 20
-1146.4662
 11
-56.919075
 21
-1147.4662
  0
LINE
  8
0
  6
CONTINUOUS
 62
     7
 10
-47.210976
 20
-1143.9662
 11
-45.919075
 21
-1143.9662
  0
LINE
  8
0
  6
CONTINUOUS
 62
     7
 10
-46.41906
 20
-1143.9662
 11
-12.419077
 21
-1143.9662
  0
LINE
  8
0
  6
CONTINUOUS
 62
     7
 10
-56.919075
 20
-1146.9662
 11
-56.919075
 21
-1188.4662
  0
LINE
  8
0
  6
CONTINUOUS
 62
     7
 10
-56.919075
 20
-1229.9662
 11
-56.919075
 21
-1188.4662
  0
LINE
  8
0
  6
CONTINUOUS
 62
     7
 10
-65.419106
 20
-1229.4662
 11
-64.919121
 21
-1228.9662
  0
LINE
  8
0
  6
CONTINUOUS
 62
     7
 10
-65.41906
 20
-1229.4662
 11
-80.41906
 21
-1229.4662
  0
LINE
  8
0
  6
CONTINUOUS
 62
     7
 10
-65.41906
 20
-1226.6227
 11
-65.41906
 21
-1229.4662
  0
LINE
  8
0
  6
CONTINUOUS
 62
     7
 10
-88.41906
 20
-1188.4662
 11
-88.41906
 21
-1221.4662
  0
LINE
  8
0
  6
CONTINUOUS
 62
     7
 10
-64.91906
 20
-1188.4662
 11
-64.91906
 21
-1228.9662
  0
LINE
  8
0
  6
CONTINUOUS
 62
     7
 10
-65.41906
 20
-1226.6227
 11
-80.41906
 21
-1226.6227
  0
LINE
  8
0
  6
CONTINUOUS
 62
     7
 10
-65.41906
 20
-1201.4276
 11
-80.41906
 21
-1201.4276
  0
LINE
  8
0
  6
CONTINUOUS
 62
     7
 10
-80.41906
 20
-1188.4662
 11
-80.41906
 21
-1229.4662
  0
LINE
  8
0
  6
CONTINUOUS
 62
     7
 10
-65.41906
 20
-1208.2924
 11
-80.41906
 21
-1208.2924
  0
LINE
  8
0
  6
CONTINUOUS
 62
     7
 10
-65.41906
 20
-1175.5048
 11
-65.41906
 21
-1168.64
  0
LINE
  8
0
  6
CONTINUOUS
 62
     7
 10
-65.41906
 20
-1168.64
 11
-80.41906
 21
-1168.64
  0
LINE
  8
0
  6
CONTINUOUS
 62
     7
 10
-65.41906
 20
-1201.4276
 11
-65.41906
 21
-1208.2924
  0
LINE
  8
0
  6
CONTINUOUS
 62
     7
 10
-80.41906
 20
-1188.4662
 11
-80.41906
 21
-1147.4662
  0
LINE
  8
0
  6
CONTINUOUS
 62
     7
 10
-65.41906
 20
-1175.5048
 11
-80.41906
 21
-1175.5048
  0
LINE
  8
0
  6
CONTINUOUS
 62
     7
 10
-65.41906
 20
-1150.3097
 11
-80.41906
 21
-1150.3097
  0
LINE
  8
0
  6
CONTINUOUS
 62
     7
 10
-64.91906
 20
-1188.4662
 11
-64.91906
 21
-1147.9662
  0
LINE
  8
0
  6
CONTINUOUS
 62
     7
 10
-88.41906
 20
-1188.4662
 11
-88.41906
 21
-1155.4662
  0
LINE
  8
0
  6
CONTINUOUS
 62
     7
 10
-65.41906
 20
-1150.3097
 11
-65.41906
 21
-1147.4662
  0
LINE
  8
0
  6
CONTINUOUS
 62
     7
 10
-65.419075
 20
-1147.4662
 11
-64.919044
 21
-1147.9662
  0
LINE
  8
0
  6
CONTINUOUS
 62
     7
 10
-65.41906
 20
-1147.4662
 11
-80.41906
 21
-1147.4662
  0
LINE
  8
0
  6
CONTINUOUS
 62
     7
 10
-46.419113
 20
-1135.9662
 11
-45.919125
 21
-1136.4662
  0
LINE
  8
0
  6
CONTINUOUS
 62
     7
 10
-43.680458
 20
-1135.9662
 11
-46.41906
 21
-1135.9662
  0
LINE
  8
0
  6
CONTINUOUS
 62
     7
 10
-46.41906
 20
-1135.9662
 11
-46.41906
 21
-1124.4662
  0
LINE
  8
0
  6
CONTINUOUS
 62
     7
 10
-43.680458
 20
-1135.9662
 11
-43.680458
 21
-1124.4662
  0
LINE
  8
0
  6
CONTINUOUS
 62
     7
 10
-12.419077
 20
-1116.4662
 11
-38.41906
 21
-1116.4662
  0
LINE
  8
0
  6
CONTINUOUS
 62
     7
 10
-22.629358
 20
-1135.9662
 11
-29.240931
 21
-1135.9662
  0
LINE
  8
0
  6
CONTINUOUS
 62
     7
 10
-29.240931
 20
-1135.9662
 11
-29.240931
 21
-1124.4662
  0
LINE
  8
0
  6
CONTINUOUS
 62
     7
 10
-12.419077
 20
-1124.4662
 11
-46.41906
 21
-1124.4662
  0
LINE
  8
0
  6
CONTINUOUS
 62
     7
 10
-22.629358
 20
-1135.9662
 11
-22.629358
 21
-1124.4662
  0
LINE
  8
0
  6
CONTINUOUS
 62
     7
 10
-12.419077
 20
-1136.4662
 11
-45.91906
 21
-1136.4662
  0
LINE
  8
0
  6
CONTINUOUS
 62
     7
 10
-45.55352
 20
-1136.4662
 11
-45.55352
 21
-1140.4662
  0
LINE
  8
0
  6
CONTINUOUS
 62
     7
 10
-61.419075
 20
-1148.1862
 11
-64.91906
 21
-1148.1862
  0
LINE
  8
0
  6
CONTINUOUS
 62
     7
 10
-61.419075
 20
-1228.7032
 11
-64.91906
 21
-1228.7032
  0
LINE
  8
0
  6
CONTINUOUS
 62
     7
 10
-235.29822
 20
-1519.1499
 11
-244.29822
 21
-1519.1499
  0
LINE
  8
0
  6
CONTINUOUS
 62
     7
 10
-234.79819
 20
-1520.2566
 11
-235.29822
 21
-1520.7566
  0
LINE
  8
0
  6
CENTER
 62
     7
 10
-162.00764
 20
-1499.2566
 11
-254.04034
 21
-1499.2566
  0
LINE
  8
0
  6
CONTINUOUS
 62
     7
 10
-235.29822
 20
-1519.1499
 11
-235.29822
 21
-1520.7566
  0
LINE
  8
0
  6
CONTINUOUS
 62
     7
 10
-235.29822
 20
-1505.8899
 11
-235.29822
 21
-1509.769
  0
LINE
  8
0
  6
CONTINUOUS
 62
     7
 10
-235.29822
 20
-1520.7566
 11
-244.29822
 21
-1520.7566
  0
LINE
  8
0
  6
CONTINUOUS
 62
     7
 10
-249.29822
 20
-1499.2566
 11
-249.29822
 21
-1515.7566
  0
LINE
  8
0
  6
CONTINUOUS
 62
     7
 10
-244.29822
 20
-1499.2566
 11
-244.29822
 21
-1520.7566
  0
LINE
  8
0
  6
CONTINUOUS
 62
     7
 10
-235.29822
 20
-1509.769
 11
-244.29822
 21
-1509.769
  0
LINE
  8
0
  6
CONTINUOUS
 62
     7
 10
-235.29822
 20
-1505.8899
 11
-244.29822
 21
-1505.8899
  0
LINE
  8
0
  6
CONTINUOUS
 62
     7
 10
-202.29822
 20
-1456.257
 11
-190.29822
 21
-1456.257
  0
LINE
  8
0
  6
CONTINUOUS
 62
     7
 10
-202.29822
 20
-1461.257
 11
-185.29822
 21
-1461.257
  0
LINE
  8
0
  6
CONTINUOUS
 62
     7
 10
-202.29822
 20
-1469.757
 11
-185.79822
 21
-1469.757
  0
LINE
  8
0
  6
CONTINUOUS
 62
     7
 10
-196.49922
 20
-1469.257
 11
-196.49922
 21
-1461.257
  0
LINE
  8
0
  6
CONTINUOUS
 62
     7
 10
-196.49922
 20
-1469.257
 11
-194.3779
 21
-1469.257
  0
LINE
  8
0
  6
CONTINUOUS
 62
     7
 10
-186.1769
 20
-1469.257
 11
-185.29822
 21
-1469.257
  0
LINE
  8
0
  6
CONTINUOUS
 62
     7
 10
-186.1769
 20
-1469.257
 11
-186.1769
 21
-1461.257
  0
LINE
  8
0
  6
CONTINUOUS
 62
     7
 10
-185.29822
 20
-1469.257
 11
-185.29822
 21
-1461.257
  0
LINE
  8
0
  6
CONTINUOUS
 62
     7
 10
-185.2982
 20
-1469.257
 11
-185.79823
 21
-1469.757
  0
LINE
  8
0
  6
CONTINUOUS
 62
     7
 10
-194.3779
 20
-1469.257
 11
-194.3779
 21
-1461.257
  0
LINE
  8
0
  6
CENTER
 62
     7
 10
-202.29822
 20
-1455.726
 11
-202.29822
 21
-1523.01
  0
LINE
  8
0
  6
CONTINUOUS
 62
     7
 10
-185.2982
 20
-1473.1566
 11
-184.79817
 21
-1473.6566
  0
LINE
  8
0
  6
CONTINUOUS
 62
     7
 10
-230.79822
 20
-1477.2566
 11
-221.79822
 21
-1477.2566
  0
LINE
  8
0
  6
CONTINUOUS
 62
     7
 10
-219.79822
 20
-1473.6566
 11
-219.79822
 21
-1475.2566
  0
LINE
  8
0
  6
CONTINUOUS
 62
     7
 10
-185.29823
 20
-1473.1566
 11
-219.29822
 21
-1473.1566
  0
LINE
  8
0
  6
CONTINUOUS
 62
     7
 10
-218.79823
 20
-1483.7566
 11
-218.8161
 21
-1483.7566
  0
LINE
  8
0
  6
CONTINUOUS
 62
     7
 10
-231.29822
 20
-1520.7566
 11
-230.79823
 21
-1521.2566
  0
LINE
  8
0
  6
CONTINUOUS
 62
     7
 10
-230.79822
 20
-1521.2566
 11
-229.29822
 21
-1521.2566
  0
LINE
  8
0
  6
CONTINUOUS
 62
     7
 10
-231.29822
 20
-1499.2566
 11
-231.29822
 21
-1520.7566
  0
LINE
  8
0
  6
CONTINUOUS
 62
     7
 10
-184.79822
 20
-1473.6566
 11
-184.79822
 21
-1479.7566
  0
LINE
  8
0
  6
CONTINUOUS
 62
     7
 10
-219.2982
 20
-1473.1566
 11
-219.79823
 21
-1473.6567
  0
LINE
  8
0
  6
CONTINUOUS
 62
     7
 10
-220.29822
 20
-1484.0566
 11
-222.30109
 21
-1484.0566
  0
LINE
  8
0
  6
CONTINUOUS
 62
     7
 10
-180.19823
 20
-1516.2566
 11
-180.69817
 21
-1516.7566
  0
LINE
  8
0
  6
CONTINUOUS
 62
     7
 10
-180.69821
 20
-1481.7567
 11
-180.19823
 21
-1482.2567
  0
LINE
  8
0
  6
CONTINUOUS
 62
     7
 10
-180.69821
 20
-1481.7566
 11
-182.79822
 21
-1481.7566
  0
LINE
  8
0
  6
CONTINUOUS
 62
     7
 10
-188.39821
 20
-1461.257
 11
-202.29822
 21
-1461.257
  0
LINE
  8
0
  6
CONTINUOUS
 62
     7
 10
-180.69821
 20
-1516.7566
 11
-182.19821
 21
-1516.7566
  0
LINE
  8
0
  6
CONTINUOUS
 62
     7
 10
-180.19821
 20
-1516.2566
 11
-180.19821
 21
-1499.2566
  0
LINE
  8
0
  6
CONTINUOUS
 62
     7
 10
-220.09822
 20
-1514.4567
 11
-222.30109
 21
-1514.4567
  0
LINE
  8
0
  6
CONTINUOUS
 62
     7
 10
-188.15724
 20
-1511.4567
 11
-190.2486
 21
-1511.4567
  0
LINE
  8
0
  6
CONTINUOUS
 62
     7
 10
-190.09822
 20
-1481.1156
 11
-190.09822
 21
-1481.2566
  0
LINE
  8
0
  6
CONTINUOUS
 62
     7
 10
-229.29822
 20
-1499.2566
 11
-229.29822
 21
-1521.2566
  0
LINE
  8
0
  6
CONTINUOUS
 62
     7
 10
-182.19821
 20
-1499.2566
 11
-182.19821
 21
-1516.7566
  0
LINE
  8
0
  6
CONTINUOUS
 62
     7
 10
-234.79822
 20
-1499.2566
 11
-234.79822
 21
-1520.2566
  0
LINE
  8
0
  6
CONTINUOUS
 62
     7
 10
-235.29822
 20
-1479.3634
 11
-244.29822
 21
-1479.3634
  0
LINE
  8
0
  6
CONTINUOUS
 62
     7
 10
-234.79823
 20
-1478.2566
 11
-235.29822
 21
-1477.7566
  0
LINE
  8
0
  6
CONTINUOUS
 62
     7
 10
-235.29822
 20
-1479.3634
 11
-235.29822
 21
-1477.7566
  0
LINE
  8
0
  6
CONTINUOUS
 62
     7
 10
-235.29822
 20
-1492.6234
 11
-235.29822
 21
-1488.7443
  0
LINE
  8
0
  6
CONTINUOUS
 62
     7
 10
-235.29822
 20
-1477.7566
 11
-244.29822
 21
-1477.7566
  0
LINE
  8
0
  6
CONTINUOUS
 62
     7
 10
-249.29822
 20
-1499.2566
 11
-249.29822
 21
-1482.7566
  0
LINE
  8
0
  6
CONTINUOUS
 62
     7
 10
-244.29822
 20
-1499.2566
 11
-244.29822
 21
-1477.7566
  0
LINE
  8
0
  6
CONTINUOUS
 62
     7
 10
-235.29822
 20
-1488.7443
 11
-244.29822
 21
-1488.7443
  0
LINE
  8
0
  6
CONTINUOUS
 62
     7
 10
-235.29822
 20
-1492.6234
 11
-244.29822
 21
-1492.6234
  0
LINE
  8
0
  6
CONTINUOUS
 62
     7
 10
-231.29822
 20
-1477.7567
 11
-230.79817
 21
-1477.2566
  0
LINE
  8
0
  6
CONTINUOUS
 62
     7
 10
-231.29822
 20
-1499.2566
 11
-231.29822
 21
-1477.7566
  0
LINE
  8
0
  6
CONTINUOUS
 62
     7
 10
-234.79822
 20
-1499.2566
 11
-234.79822
 21
-1478.2566
  0
LINE
  8
0
  6
CONTINUOUS
 62
     7
 10
-229.29822
 20
-1499.2566
 11
-229.29822
 21
-1477.2566
  0
LINE
  8
0
  6
CONTINUOUS
 62
     7
 10
-202.29822
 20
-1456.257
 11
-214.29822
 21
-1456.257
  0
LINE
  8
0
  6
CONTINUOUS
 62
     7
 10
-202.29822
 20
-1461.257
 11
-219.29822
 21
-1461.257
  0
LINE
  8
0
  6
CONTINUOUS
 62
     7
 10
-202.29822
 20
-1469.757
 11
-218.79822
 21
-1469.757
  0
LINE
  8
0
  6
CONTINUOUS
 62
     7
 10
-208.09721
 20
-1469.257
 11
-208.09721
 21
-1461.257
  0
LINE
  8
0
  6
CONTINUOUS
 62
     7
 10
-208.09721
 20
-1469.257
 11
-210.21852
 21
-1469.257
  0
LINE
  8
0
  6
CONTINUOUS
 62
     7
 10
-218.41954
 20
-1469.257
 11
-219.29822
 21
-1469.257
  0
LINE
  8
0
  6
CONTINUOUS
 62
     7
 10
-218.41954
 20
-1469.257
 11
-218.41954
 21
-1461.257
  0
LINE
  8
0
  6
CONTINUOUS
 62
     7
 10
-219.29822
 20
-1469.257
 11
-219.29822
 21
-1461.257
  0
LINE
  8
0
  6
CONTINUOUS
 62
     7
 10
-219.29825
 20
-1469.257
 11
-218.79822
 21
-1469.757
  0
LINE
  8
0
  6
CONTINUOUS
 62
     7
 10
-210.21852
 20
-1469.257
 11
-210.21852
 21
-1461.257
  0
LINE
  8
0
  6
CONTINUOUS
 62
     7
 10
-216.19823
 20
-1461.257
 11
-202.29822
 21
-1461.257
  0
LINE
  8
0
  6
CONTINUOUS
 62
     7
 10
-182.19821
 20
-1499.2566
 11
-182.19821
 21
-1481.7566
  0
LINE
  8
0
  6
CONTINUOUS
 62
     7
 10
-180.19821
 20
-1482.2566
 11
-180.19821
 21
-1499.2566
  0
LINE
  8
0
  6
CONTINUOUS
 62
     7
 10
-219.79822
 20
-1475.1156
 11
-184.79822
 21
-1475.1156
  0
LINE
  8
0
  6
CONTINUOUS
 62
     7
 10
-234.79822
 20
-1519.7566
 11
-231.29822
 21
-1519.7566
  0
LINE
  8
0
  6
CONTINUOUS
 62
     7
 10
-234.79822
 20
-1478.7566
 11
-231.29822
 21
-1478.7566
  0
LINE
  8
0
  6
CONTINUOUS
 62
     7
 10
-186.29822
 20
-1473.157
 11
-186.29822
 21
-1469.757
  0
LINE
  8
0
  6
CONTINUOUS
 62
     7
 10
-218.29822
 20
-1473.157
 11
-218.29822
 21
-1469.757
  0
LINE
  8
0
  6
CONTINUOUS
 62
     7
 10
-163.29822
 20
-1499.2566
 11
-163.29822
 21
-1511.2566
  0
LINE
  8
0
  6
CONTINUOUS
 62
     7
 10
-168.29822
 20
-1499.2566
 11
-168.29822
 21
-1516.2566
  0
LINE
  8
0
  6
CONTINUOUS
 62
     7
 10
-176.79822
 20
-1499.2566
 11
-176.79822
 21
-1515.7566
  0
LINE
  8
0
  6
CONTINUOUS
 62
     7
 10
-176.29822
 20
-1505.0557
 11
-168.29822
 21
-1505.0557
  0
LINE
  8
0
  6
CONTINUOUS
 62
     7
 10
-176.29822
 20
-1505.0557
 11
-176.29822
 21
-1507.177
  0
LINE
  8
0
  6
CONTINUOUS
 62
     7
 10
-176.29822
 20
-1515.3779
 11
-176.29822
 21
-1516.2566
  0
LINE
  8
0
  6
CONTINUOUS
 62
     7
 10
-176.29822
 20
-1515.3779
 11
-168.29822
 21
-1515.3779
  0
LINE
  8
0
  6
CONTINUOUS
 62
     7
 10
-176.29822
 20
-1516.2566
 11
-168.29822
 21
-1516.2566
  0
LINE
  8
0
  6
CONTINUOUS
 62
     7
 10
-176.29826
 20
-1516.2566
 11
-176.79825
 21
-1515.7567
  0
LINE
  8
0
  6
CONTINUOUS
 62
     7
 10
-176.29822
 20
-1507.177
 11
-168.29822
 21
-1507.177
  0
LINE
  8
0
  6
CONTINUOUS
 62
     7
 10
-168.29822
 20
-1513.1566
 11
-168.29822
 21
-1499.2566
  0
LINE
  8
0
  6
CONTINUOUS
 62
     7
 10
-163.29822
 20
-1499.2566
 11
-163.29822
 21
-1487.2566
  0
LINE
  8
0
  6
CONTINUOUS
 62
     7
 10
-168.29822
 20
-1499.2566
 11
-168.29822
 21
-1482.2566
  0
LINE
  8
0
  6
CONTINUOUS
 62
     7
 10
-176.79822
 20
-1499.2566
 11
-176.79822
 21
-1482.7566
  0
LINE
  8
0
  6
CONTINUOUS
 62
     7
 10
-176.29822
 20
-1493.4576
 11
-168.29822
 21
-1493.4576
  0
LINE
  8
0
  6
CONTINUOUS
 62
     7
 10
-176.29822
 20
-1493.4576
 11
-176.29822
 21
-1491.3363
  0
LINE
  8
0
  6
CONTINUOUS
 62
     7
 10
-176.29822
 20
-1483.1353
 11
-176.29822
 21
-1482.2566
  0
LINE
  8
0
  6
CONTINUOUS
 62
     7
 10
-176.29822
 20
-1483.1353
 11
-168.29822
 21
-1483.1353
  0
LINE
  8
0
  6
CONTINUOUS
 62
     7
 10
-176.29822
 20
-1482.2566
 11
-168.29822
 21
-1482.2566
  0
LINE
  8
0
  6
CONTINUOUS
 62
     7
 10
-176.29817
 20
-1482.2566
 11
-176.79822
 21
-1482.7567
  0
LINE
  8
0
  6
CONTINUOUS
 62
     7
 10
-176.29822
 20
-1491.3363
 11
-168.29822
 21
-1491.3363
  0
LINE
  8
0
  6
CONTINUOUS
 62
     7
 10
-168.29822
 20
-1485.3566
 11
-168.29822
 21
-1499.2566
  0
LINE
  8
0
  6
CONTINUOUS
 62
     7
 10
-180.19821
 20
-1515.2566
 11
-176.79822
 21
-1515.2566
  0
LINE
  8
0
  6
CONTINUOUS
 62
     7
 10
-180.19821
 20
-1483.2566
 11
-176.79822
 21
-1483.2566
  0
LINE
  8
0
  6
CONTINUOUS
 62
     7
 10
-132.37306
 20
-101.07094
 11
-130.37306
 21
-101.07094
  0
LINE
  8
0
  6
CONTINUOUS
 62
     7
 10
-66.37307
 20
-101.07094
 11
-68.373039
 21
-101.07094
  0
LINE
  8
0
  6
CONTINUOUS
 62
     7
 10
-7.9102345
 20
13.220263
 11
-6.4102378
 21
13.220263
  0
LINE
  8
0
  6
CONTINUOUS
 62
     7
 10
49.589764
 20
13.220263
 11
47.589764
 21
13.220263
  0
CIRCLE
  8
0
  6
CONTINUOUS
 62
     7
 10
-401.50162
 20
101.27591
 40
14.5
  0
CIRCLE
  8
0
  6
CONTINUOUS
 62
     7
 10
-401.50162
 20
101.27591
 40
8.0500002
  0
CIRCLE
  8
0
  6
CONTINUOUS
 62
     7
 10
-401.50162
 20
56.199329
 40
17
  0
CIRCLE
  8
0
  6
CONTINUOUS
 62
     7
 10
-401.50162
 20
56.199329
 40
11.25
  0
CIRCLE
  8
0
  6
CONTINUOUS
 62
     7
 10
-401.50162
 20
5.3851457
 40
21.5
  0
CIRCLE
  8
0
  6
CONTINUOUS
 62
     7
 10
-401.50162
 20
5.3851457
 40
14.4
  0
CIRCLE
  8
0
  6
CONTINUOUS
 62
     7
 10
-401.50162
 20
-50.685677
 40
24.5
  0
CIRCLE
  8
0
  6
CONTINUOUS
 62
     7
 10
-401.50162
 20
-50.685677
 40
17.25
  0
CIRCLE
  8
0
  6
CONTINUOUS
 62
     7
 10
-401.50162
 20
-137.66437
 40
29.5
  0
CIRCLE
  8
0
  6
CONTINUOUS
 62
     7
 10
-401.50162
 20
-137.66437
 40
21.65
  0
CIRCLE
  8
0
  6
CONTINUOUS
 62
     7
 10
-401.50162
 20
-241.56189
 40
34
  0
CIRCLE
  8
0
  6
CONTINUOUS
 62
     7
 10
-401.50162
 20
-241.56189
 40
24.65
  0
CIRCLE
  8
0
  6
CONTINUOUS
 62
     7
 10
-401.50162
 20
-347.29117
 40
41
  0
CIRCLE
  8
0
  6
CONTINUOUS
 62
     7
 10
-401.50162
 20
-347.29117
 40
30.65
  0
ARC
  8
0
  6
CONTINUOUS
 62
     7
 10
-221.45213
 20
50.805977
 40
2
 50
140.72531
 51
222.11063
  0
ARC
  8
0
  6
CONTINUOUS
 62
     7
 10
-219.67174
 20
16.65295
 40
6
 50
9.5940679
 51
90.000003
  0
ARC
  8
0
  6
CONTINUOUS
 62
     7
 10
-219.58759
 20
49.730339
 40
2
 50
257.92895
 51
280.09337
  0
ARC
  8
0
  6
CONTINUOUS
 62
     7
 10
-218.35565
 20
48.273815
 40
6
 50
94.780192
 51
140.72531
  0
ARC
  8
0
  6
CONTINUOUS
 62
     7
 10
-216.85565
 20
54.652954
 40
2
 50
179.99999
 51
270
  0
ARC
  8
0
  6
CONTINUOUS
 62
     7
 10
-218.85565
 20
53.152954
 40
5.5
 50
222.11064
 51
257.92895
  0
ARC
  8
0
  6
CONTINUOUS
 62
     7
 10
-220.46385
 20
54.652962
 40
7
 50
280.09337
 51
343.39845
  0
ARC
  8
0
  6
CONTINUOUS
 62
     7
 10
-91.960426
 20
57.720261
 40
7
 50
270
 51
355.90395
  0
ARC
  8
0
  6
CONTINUOUS
 62
     7
 10
-93.97831
 20
60.220261
 40
3
 50
179.99999
 51
270
  0
ARC
  8
0
  6
CONTINUOUS
 62
     7
 10
-91.960426
 20
12.720263
 40
7
 50
4.096044
 51
90.000003
  0
ARC
  8
0
  6
CONTINUOUS
 62
     7
 10
-96.47831
 20
54.741127
 40
6
 50
94.780192
 51
148.82816
  0
ARC
  8
0
  6
CONTINUOUS
 62
     7
 10
-99.045143
 20
56.293945
 40
3
 50
148.82816
 51
205.34512
  0
ARC
  8
0
  6
CONTINUOUS
 62
     7
 10
-94.97831
 20
58.220261
 40
7.5
 50
205.34511
 51
270
  0
ARC
  8
0
  6
CONTINUOUS
 62
     7
 10
41.089764
 20
60.220261
 40
3
 50
179.99999
 51
270
  0
ARC
  8
0
  6
CONTINUOUS
 62
     7
 10
40.589764
 20
58.220261
 40
7.5
 50
192.85527
 51
270
  0
ARC
  8
0
  6
CONTINUOUS
 62
     7
 10
36.202557
 20
57.219063
 40
3
 50
164.23893
 51
192.85527
  0
ARC
  8
0
  6
CONTINUOUS
 62
     7
 10
40.607647
 20
57.720261
 40
7
 50
270
 51
355.90396
  0
ARC
  8
0
  6
CONTINUOUS
 62
     7
 10
39.089764
 20
56.404182
 40
6
 50
99.594069
 51
164.23893
  0
ARC
  8
0
  6
CONTINUOUS
 62
     7
 10
40.607647
 20
12.720263
 40
7
 50
4.096044
 51
90.000003
  0
ARC
  8
0
  6
CONTINUOUS
 62
     7
 10
-205.4736
 20
-100.39606
 40
7
 50
4.0960768
 51
90.000003
  0
ARC
  8
0
  6
CONTINUOUS
 62
     7
 10
-214.49149
 20
-50.396065
 40
5
 50
184.46705
 51
270
  0
ARC
  8
0
  6
CONTINUOUS
 62
     7
 10
-213.49149
 20
-51.212143
 40
6
 50
99.594069
 51
175.92234
  0
ARC
  8
0
  6
CONTINUOUS
 62
     7
 10
-205.49149
 20
-48.396065
 40
7
 50
270
 51
355.90396
  0
ARC
  8
0
  6
CONTINUOUS
 62
     7
 10
-210.49149
 20
-44.896065
 40
4
 50
179.99999
 51
270
  0
ARC
  8
0
  6
CONTINUOUS
 62
     7
 10
-75.355186
 20
-101.57095
 40
7
 50
4.0960751
 51
90.000003
  0
ARC
  8
0
  6
CONTINUOUS
 62
     7
 10
-80.37307
 20
-52.280422
 40
6
 50
104.47751
 51
180.00001
  0
ARC
  8
0
  6
CONTINUOUS
 62
     7
 10
-75.37307
 20
-49.57095
 40
7
 50
270
 51
355.90391
  0
ARC
  8
0
  6
CONTINUOUS
 62
     7
 10
-82.37307
 20
-52.57095
 40
4
 50
179.99999
 51
270
  0
ARC
  8
0
  6
CONTINUOUS
 62
     7
 10
-77.87307
 20
-46.070953
 40
4
 50
179.99999
 51
270
  0
ARC
  8
0
  6
CONTINUOUS
 62
     7
 10
52.935467
 20
-101.95499
 40
7
 50
4.0960751
 51
90.000003
  0
ARC
  8
0
  6
CONTINUOUS
 62
     7
 10
52.917583
 20
-49.954998
 40
7
 50
270
 51
355.90391
  0
ARC
  8
0
  6
CONTINUOUS
 62
     7
 10
51.917583
 20
-55.883202
 40
7
 50
98.213209
 51
151.18054
  0
ARC
  8
0
  6
CONTINUOUS
 62
     7
 10
48.413006
 20
-53.954998
 40
3
 50
151.18054
 51
270
  0
ARC
  8
0
  6
CONTINUOUS
 62
     7
 10
52.917583
 20
-48.455002
 40
2
 50
179.99999
 51
270
  0
ARC
  8
0
  6
CONTINUOUS
 62
     7
 10
-186.77542
 20
-238.54906
 40
5
 50
179.99999
 51
270
  0
ARC
  8
0
  6
CONTINUOUS
 62
     7
 10
-185.77542
 20
-238.36513
 40
6
 50
99.594069
 51
180.00001
  0
ARC
  8
0
  6
CONTINUOUS
 62
     7
 10
-171.77542
 20
-236.54906
 40
7
 50
270
 51
0
  0
ARC
  8
0
  6
CONTINUOUS
 62
     7
 10
-171.77542
 20
-296.54907
 40
7
 50
355.90396
 51
89.999996
  0
ARC
  8
0
  6
CONTINUOUS
 62
     7
 10
-182.77542
 20
-232.04906
 40
4
 50
179.99999
 51
270
  0
ARC
  8
0
  6
CONTINUOUS
 62
     7
 10
-9.5155783
 20
-238.37405
 40
5
 50
178.67914
 51
270
  0
ARC
  8
0
  6
CONTINUOUS
 62
     7
 10
-8.5155783
 20
-238.13254
 40
6
 50
104.47751
 51
180.00001
  0
ARC
  8
0
  6
CONTINUOUS
 62
     7
 10
2.484422
 20
-296.37405
 40
7
 50
355.90396
 51
89.999996
  0
ARC
  8
0
  6
CONTINUOUS
 62
     7
 10
2.484422
 20
-236.37405
 40
7
 50
270
 51
0
  0
ARC
  8
0
  6
CONTINUOUS
 62
     7
 10
-6.0155778
 20
-231.87405
 40
4
 50
179.99999
 51
270
  0
ARC
  8
0
  6
CONTINUOUS
 62
     7
 10
-15.494765
 20
-209.85883
 40
17.064236
 50
256.09586
 51
283.90414
  0
ARC
  8
0
  6
CONTINUOUS
 62
     7
 10
-27.515577
 20
-193.0446
 40
33.878471
 50
270.00001
 51
279.85588
  0
ARC
  8
0
  6
CONTINUOUS
 62
     7
 10
-15.515578
 20
-218.42307
 40
5
 50
360
 51
90.000003
  0
ARC
  8
0
  6
CONTINUOUS
 62
     7
 10
-199.85565
 20
47.15295
 40
5
 50
0
 51
90.000003
  0
ARC
  8
0
  6
CONTINUOUS
 62
     7
 10
-174.47717
 20
35.15295
 40
33.878471
 50
170.14412
 51
179.99999
  0
ARC
  8
0
  6
CONTINUOUS
 62
     7
 10
-191.29141
 20
23.132137
 40
17.064236
 50
166.09586
 51
193.90414
  0
ARC
  8
0
  6
CONTINUOUS
 62
     7
 10
-174.47717
 20
35.15295
 40
33.878471
 50
180.00001
 51
189.85588
  0
ARC
  8
0
  6
CONTINUOUS
 62
     7
 10
-199.85565
 20
23.15295
 40
5
 50
270
 51
0
  0
ARC
  8
0
  6
CONTINUOUS
 62
     7
 10
-191.29141
 20
47.173763
 40
17.064236
 50
166.09586
 51
193.90414
  0
ARC
  8
0
  6
CONTINUOUS
 62
     7
 10
-57.228313
 20
20.017471
 40
22.249998
 50
167.83045
 51
192.16954
  0
ARC
  8
0
  6
CONTINUOUS
 62
     7
 10
-35.228313
 20
35.220261
 40
44.249989
 50
180.00001
 51
188.62136
  0
ARC
  8
0
  6
CONTINUOUS
 62
     7
 10
-69.978279
 20
18.720268
 40
5
 50
270
 51
0
  0
ARC
  8
0
  6
CONTINUOUS
 62
     7
 10
-69.978279
 20
51.720261
 40
5
 50
0
 51
90.000003
  0
ARC
  8
0
  6
CONTINUOUS
 62
     7
 10
-35.228313
 20
35.220261
 40
44.249989
 50
171.37864
 51
179.99999
  0
ARC
  8
0
  6
CONTINUOUS
 62
     7
 10
-57.228313
 20
50.423058
 40
22.249998
 50
167.83045
 51
192.16954
  0
ARC
  8
0
  6
CONTINUOUS
 62
     7
 10
75.339798
 20
20.017471
 40
22.249998
 50
167.83045
 51
192.16954
  0
ARC
  8
0
  6
CONTINUOUS
 62
     7
 10
97.339737
 20
35.220261
 40
44.249989
 50
180.00001
 51
188.62136
  0
ARC
  8
0
  6
CONTINUOUS
 62
     7
 10
62.589794
 20
18.720268
 40
5
 50
270
 51
0
  0
ARC
  8
0
  6
CONTINUOUS
 62
     7
 10
62.589794
 20
51.720261
 40
5
 50
0
 51
90.000003
  0
ARC
  8
0
  6
CONTINUOUS
 62
     7
 10
97.339737
 20
35.220261
 40
44.249989
 50
171.37864
 51
179.99999
  0
ARC
  8
0
  6
CONTINUOUS
 62
     7
 10
75.339798
 20
50.423058
 40
22.249998
 50
167.83045
 51
192.16954
  0
ARC
  8
0
  6
CONTINUOUS
 62
     7
 10
-116.39146
 20
-74.396057
 40
76.000023
 50
173.42412
 51
179.99999
  0
ARC
  8
0
  6
CONTINUOUS
 62
     7
 10
-181.49149
 20
-54.896065
 40
5
 50
0
 51
90.000003
  0
ARC
  8
0
  6
CONTINUOUS
 62
     7
 10
-154.26645
 20
-57.071949
 40
38.125019
 50
170.71047
 51
189.28951
  0
ARC
  8
0
  6
CONTINUOUS
 62
     7
 10
-154.26645
 20
-91.720177
 40
38.125019
 50
170.71048
 51
189.28953
  0
ARC
  8
0
  6
CONTINUOUS
 62
     7
 10
-181.49149
 20
-93.896065
 40
5
 50
270
 51
0
  0
ARC
  8
0
  6
CONTINUOUS
 62
     7
 10
-116.39146
 20
-74.396065
 40
76.000023
 50
180.00001
 51
186.57588
  0
ARC
  8
0
  6
CONTINUOUS
 62
     7
 10
-116.39146
 20
-74.396057
 40
76.000023
 50
173.42412
 51
179.99999
  0
ARC
  8
0
  6
CONTINUOUS
 62
     7
 10
-181.49149
 20
-54.896065
 40
5
 50
0
 51
90.000003
  0
ARC
  8
0
  6
CONTINUOUS
 62
     7
 10
-154.26645
 20
-57.071949
 40
38.125019
 50
170.71047
 51
189.28951
  0
ARC
  8
0
  6
CONTINUOUS
 62
     7
 10
-154.26645
 20
-91.720177
 40
38.125019
 50
170.71048
 51
189.28953
  0
ARC
  8
0
  6
CONTINUOUS
 62
     7
 10
-181.49149
 20
-93.896065
 40
5
 50
270
 51
0
  0
ARC
  8
0
  6
CONTINUOUS
 62
     7
 10
-116.39146
 20
-74.396065
 40
76.000023
 50
180.00001
 51
186.57588
  0
ARC
  8
0
  6
CONTINUOUS
 62
     7
 10
13.726966
 20
-75.570946
 40
76.000023
 50
173.42412
 51
179.99999
  0
ARC
  8
0
  6
CONTINUOUS
 62
     7
 10
-51.373074
 20
-56.07095
 40
5
 50
0
 51
90.000003
  0
ARC
  8
0
  6
CONTINUOUS
 62
     7
 10
-24.148033
 20
-58.24683
 40
38.125019
 50
170.71047
 51
189.28951
  0
ARC
  8
0
  6
CONTINUOUS
 62
     7
 10
-24.148033
 20
-92.895065
 40
38.125019
 50
170.71048
 51
189.28953
  0
ARC
  8
0
  6
CONTINUOUS
 62
     7
 10
-51.373074
 20
-95.070946
 40
5
 50
270
 51
0
  0
ARC
  8
0
  6
CONTINUOUS
 62
     7
 10
13.726966
 20
-75.570946
 40
76.000023
 50
180.00001
 51
186.57588
  0
ARC
  8
0
  6
CONTINUOUS
 62
     7
 10
13.726966
 20
-75.570946
 40
76.000023
 50
173.42412
 51
179.99999
  0
ARC
  8
0
  6
CONTINUOUS
 62
     7
 10
-51.373074
 20
-56.07095
 40
5
 50
0
 51
90.000003
  0
ARC
  8
0
  6
CONTINUOUS
 62
     7
 10
-24.148033
 20
-58.24683
 40
38.125019
 50
170.71047
 51
189.28951
  0
ARC
  8
0
  6
CONTINUOUS
 62
     7
 10
-24.148033
 20
-92.895065
 40
38.125019
 50
170.71048
 51
189.28953
  0
ARC
  8
0
  6
CONTINUOUS
 62
     7
 10
-51.373074
 20
-95.070946
 40
5
 50
270
 51
0
  0
ARC
  8
0
  6
CONTINUOUS
 62
     7
 10
13.726966
 20
-75.570946
 40
76.000023
 50
180.00001
 51
186.57588
  0
ARC
  8
0
  6
CONTINUOUS
 62
     7
 10
142.01759
 20
-75.954994
 40
76.000023
 50
173.42412
 51
179.99999
  0
ARC
  8
0
  6
CONTINUOUS
 62
     7
 10
76.917618
 20
-56.454998
 40
5
 50
0
 51
90.000003
  0
ARC
  8
0
  6
CONTINUOUS
 62
     7
 10
104.14259
 20
-58.630882
 40
38.125019
 50
170.71047
 51
189.28951
  0
ARC
  8
0
  6
CONTINUOUS
 62
     7
 10
104.14259
 20
-93.279114
 40
38.125019
 50
170.71048
 51
189.28953
  0
ARC
  8
0
  6
CONTINUOUS
 62
     7
 10
76.917618
 20
-95.454994
 40
5
 50
270
 51
0
  0
ARC
  8
0
  6
CONTINUOUS
 62
     7
 10
142.01759
 20
-75.954994
 40
76.000023
 50
180.00001
 51
186.57588
  0
ARC
  8
0
  6
CONTINUOUS
 62
     7
 10
-146.77542
 20
-243.04906
 40
6
 50
0
 51
90.000003
  0
ARC
  8
0
  6
CONTINUOUS
 62
     7
 10
-67.675026
 20
-266.54904
 40
91.000397
 50
173.99104
 51
179.99999
  0
ARC
  8
0
  6
CONTINUOUS
 62
     7
 10
-113.0502
 20
-245.68941
 40
45.625206
 50
171.50982
 51
188.49018
  0
ARC
  8
0
  6
CONTINUOUS
 62
     7
 10
-113.0502
 20
-287.40869
 40
45.625206
 50
171.50982
 51
188.49018
  0
ARC
  8
0
  6
CONTINUOUS
 62
     7
 10
-67.675026
 20
-266.54904
 40
91.000397
 50
180.00001
 51
186.00896
  0
ARC
  8
0
  6
CONTINUOUS
 62
     7
 10
-146.77542
 20
-290.04904
 40
6
 50
270
 51
0
  0
ARC
  8
0
  6
CONTINUOUS
 62
     7
 10
27.484423
 20
-242.87405
 40
6
 50
0
 51
90.000003
  0
ARC
  8
0
  6
CONTINUOUS
 62
     7
 10
106.58482
 20
-266.37405
 40
91.000397
 50
173.99104
 51
179.99999
  0
ARC
  8
0
  6
CONTINUOUS
 62
     7
 10
61.209641
 20
-245.5144
 40
45.625206
 50
171.50982
 51
188.49018
  0
ARC
  8
0
  6
CONTINUOUS
 62
     7
 10
61.209641
 20
-287.2337
 40
45.625206
 50
171.50982
 51
188.49018
  0
ARC
  8
0
  6
CONTINUOUS
 62
     7
 10
106.58482
 20
-266.37405
 40
91.000397
 50
180.00001
 51
186.00896
  0
ARC
  8
0
  6
CONTINUOUS
 62
     7
 10
27.484423
 20
-289.87405
 40
6
 50
270
 51
0
  0
ARC
  8
0
  6
CONTINUOUS
 62
     7
 10
-223.35565
 20
67.152962
 40
4
 50
360
 51
90.000003
  0
ARC
  8
0
  6
CONTINUOUS
 62
     7
 10
-223.60233
 20
71.24633
 40
11.59337
 50
253.11151
 51
286.88848
  0
ARC
  8
0
  6
CONTINUOUS
 62
     7
 10
-233.85565
 20
82.593498
 40
22.940548
 50
269.99999
 51
281.9843
  0
ARC
  8
0
  6
CONTINUOUS
 62
     7
 10
-101.47831
 20
73.220268
 40
4
 50
360
 51
90.000003
  0
ARC
  8
0
  6
CONTINUOUS
 62
     7
 10
-111.97828
 20
88.660805
 40
22.940548
 50
269.99999
 51
281.9843
  0
ARC
  8
0
  6
CONTINUOUS
 62
     7
 10
-101.72495
 20
77.313637
 40
11.59337
 50
253.11151
 51
286.88848
  0
ARC
  8
0
  6
CONTINUOUS
 62
     7
 10
-218.99149
 20
-32.396065
 40
4
 50
360
 51
90.000003
  0
ARC
  8
0
  6
CONTINUOUS
 62
     7
 10
-219.23816
 20
-28.302696
 40
11.59337
 50
253.11151
 51
286.88848
  0
ARC
  8
0
  6
CONTINUOUS
 62
     7
 10
-229.49149
 20
-16.955513
 40
22.940548
 50
269.99999
 51
281.9843
  0
ARC
  8
0
  6
CONTINUOUS
 62
     7
 10
-191.27542
 20
-219.54906
 40
4
 50
360
 51
90.000003
  0
ARC
  8
0
  6
CONTINUOUS
 62
     7
 10
-191.52206
 20
-215.45569
 40
11.59337
 50
253.11151
 51
286.88848
  0
ARC
  8
0
  6
CONTINUOUS
 62
     7
 10
-201.77542
 20
-204.10851
 40
22.940548
 50
269.99999
 51
281.9843
  0
ARC
  8
0
  6
CONTINUOUS
 62
     7
 10
32.610577
 20
84.784492
 40
17.064236
 50
256.09586
 51
283.90414
  0
ARC
  8
0
  6
CONTINUOUS
 62
     7
 10
20.589766
 20
101.59873
 40
33.878471
 50
270.00001
 51
279.85588
  0
ARC
  8
0
  6
CONTINUOUS
 62
     7
 10
32.589764
 20
76.220268
 40
5
 50
360
 51
90.000003
  0
ARC
  8
0
  6
CONTINUOUS
 62
     7
 10
32.610577
 20
84.784492
 40
17.064236
 50
256.09586
 51
283.90414
  0
ARC
  8
0
  6
CONTINUOUS
 62
     7
 10
20.589766
 20
101.59873
 40
33.878471
 50
270.00001
 51
279.85588
  0
ARC
  8
0
  6
CONTINUOUS
 62
     7
 10
32.589764
 20
76.220268
 40
5
 50
360
 51
90.000003
  0
ARC
  8
0
  6
CONTINUOUS
 62
     7
 10
-87.352226
 20
-24.00671
 40
17.064236
 50
256.09586
 51
283.90414
  0
ARC
  8
0
  6
CONTINUOUS
 62
     7
 10
-99.37307
 20
-7.1924777
 40
33.878471
 50
270.00001
 51
279.85588
  0
ARC
  8
0
  6
CONTINUOUS
 62
     7
 10
-87.37307
 20
-32.57095
 40
5
 50
360
 51
90.000003
  0
ARC
  8
0
  6
CONTINUOUS
 62
     7
 10
-87.352226
 20
-24.00671
 40
17.064236
 50
256.09586
 51
283.90414
  0
ARC
  8
0
  6
CONTINUOUS
 62
     7
 10
-99.37307
 20
-7.1924777
 40
33.878471
 50
270.00001
 51
279.85588
  0
ARC
  8
0
  6
CONTINUOUS
 62
     7
 10
-87.37307
 20
-32.57095
 40
5
 50
360
 51
90.000003
  0
ARC
  8
0
  6
CONTINUOUS
 62
     7
 10
44.120373
 20
-21.204998
 40
22.249998
 50
257.83045
 51
282.16954
  0
ARC
  8
0
  6
CONTINUOUS
 62
     7
 10
28.917585
 20
0.79499501
 40
44.249989
 50
270
 51
278.62136
  0
ARC
  8
0
  6
CONTINUOUS
 62
     7
 10
45.417583
 20
-33.954998
 40
5
 50
360
 51
90.000003
  0
ARC
  8
0
  6
CONTINUOUS
 62
     7
 10
-233.85565
 20
82.593498
 40
22.940548
 50
258.01571
 51
270.00001
  0
ARC
  8
0
  6
CONTINUOUS
 62
     7
 10
-244.10898
 20
71.24633
 40
11.59337
 50
253.11152
 51
286.88849
  0
ARC
  8
0
  6
CONTINUOUS
 62
     7
 10
-246.25917
 20
50.805977
 40
2
 50
317.88937
 51
39.274691
  0
ARC
  8
0
  6
CONTINUOUS
 62
     7
 10
-248.03957
 20
16.65295
 40
6
 50
89.999996
 51
170.40594
  0
ARC
  8
0
  6
CONTINUOUS
 62
     7
 10
-248.12372
 20
49.730339
 40
2
 50
259.90663
 51
282.07105
  0
ARC
  8
0
  6
CONTINUOUS
 62
     7
 10
-249.35565
 20
48.273815
 40
6
 50
39.274691
 51
85.219806
  0
ARC
  8
0
  6
CONTINUOUS
 62
     7
 10
-250.85565
 20
54.652954
 40
2
 50
270
 51
5.0089561E-006
  0
ARC
  8
0
  6
CONTINUOUS
 62
     7
 10
-248.85565
 20
53.152954
 40
5.5
 50
282.07105
 51
317.88936
  0
ARC
  8
0
  6
CONTINUOUS
 62
     7
 10
-247.24745
 20
54.652962
 40
7
 50
196.60155
 51
259.90663
  0
ARC
  8
0
  6
CONTINUOUS
 62
     7
 10
-267.85565
 20
47.15295
 40
5
 50
89.999996
 51
180.00001
  0
ARC
  8
0
  6
CONTINUOUS
 62
     7
 10
-293.23413
 20
35.15295
 40
33.878471
 50
8.6514222E-006
 51
9.8558759
  0
ARC
  8
0
  6
CONTINUOUS
 62
     7
 10
-276.41989
 20
23.132137
 40
17.064236
 50
346.09586
 51
13.904143
  0
ARC
  8
0
  6
CONTINUOUS
 62
     7
 10
-293.23413
 20
35.15295
 40
33.878471
 50
350.14412
 51
359.99999
  0
ARC
  8
0
  6
CONTINUOUS
 62
     7
 10
-267.85565
 20
23.15295
 40
5
 50
180.00001
 51
270
  0
ARC
  8
0
  6
CONTINUOUS
 62
     7
 10
-276.41989
 20
47.173763
 40
17.064236
 50
346.09586
 51
13.904143
  0
ARC
  8
0
  6
CONTINUOUS
 62
     7
 10
-244.35565
 20
67.152962
 40
4
 50
89.999996
 51
180.00001
  0
ARC
  8
0
  6
CONTINUOUS
 62
     7
 10
-122.23164
 20
77.313637
 40
11.59337
 50
253.11152
 51
286.88849
  0
ARC
  8
0
  6
CONTINUOUS
 62
     7
 10
-111.97831
 20
88.660805
 40
22.940548
 50
258.01571
 51
270.00001
  0
ARC
  8
0
  6
CONTINUOUS
 62
     7
 10
-131.99617
 20
57.720261
 40
7
 50
184.09605
 51
270
  0
ARC
  8
0
  6
CONTINUOUS
 62
     7
 10
-129.97832
 20
60.220261
 40
3
 50
270
 51
5.0089561E-006
  0
ARC
  8
0
  6
CONTINUOUS
 62
     7
 10
-131.9962
 20
12.720263
 40
7
 50
89.999996
 51
175.90395
  0
ARC
  8
0
  6
CONTINUOUS
 62
     7
 10
-127.47831
 20
54.741127
 40
6
 50
31.171846
 51
85.219806
  0
ARC
  8
0
  6
CONTINUOUS
 62
     7
 10
-124.91145
 20
56.293945
 40
3
 50
334.65488
 51
31.171846
  0
ARC
  8
0
  6
CONTINUOUS
 62
     7
 10
-128.97832
 20
58.220261
 40
7.5
 50
270
 51
334.65489
  0
ARC
  8
0
  6
CONTINUOUS
 62
     7
 10
-166.72832
 20
20.017471
 40
22.249998
 50
347.83046
 51
12.169548
  0
ARC
  8
0
  6
CONTINUOUS
 62
     7
 10
-188.72832
 20
35.220261
 40
44.249989
 50
351.37864
 51
359.99999
  0
ARC
  8
0
  6
CONTINUOUS
 62
     7
 10
-153.97832
 20
18.720268
 40
5
 50
180.00001
 51
270
  0
ARC
  8
0
  6
CONTINUOUS
 62
     7
 10
-153.97832
 20
51.720261
 40
5
 50
89.999996
 51
180.00001
  0
ARC
  8
0
  6
CONTINUOUS
 62
     7
 10
-188.72832
 20
35.220261
 40
44.249989
 50
8.6514222E-006
 51
8.6213602
  0
ARC
  8
0
  6
CONTINUOUS
 62
     7
 10
-166.72832
 20
50.423058
 40
22.249998
 50
347.83046
 51
12.169548
  0
ARC
  8
0
  6
CONTINUOUS
 62
     7
 10
-122.47831
 20
73.220268
 40
4
 50
89.999996
 51
180.00001
  0
ARC
  8
0
  6
CONTINUOUS
 62
     7
 10
8.5897655
 20
76.220268
 40
5
 50
89.999996
 51
180.00001
  0
ARC
  8
0
  6
CONTINUOUS
 62
     7
 10
20.589766
 20
101.59873
 40
33.878471
 50
260.14412
 51
269.99999
  0
ARC
  8
0
  6
CONTINUOUS
 62
     7
 10
0.089765385
 20
60.220261
 40
3
 50
270
 51
5.0089561E-006
  0
ARC
  8
0
  6
CONTINUOUS
 62
     7
 10
0.58976543
 20
58.220261
 40
7.5
 50
270
 51
347.14473
  0
ARC
  8
0
  6
CONTINUOUS
 62
     7
 10
4.9769726
 20
57.219063
 40
3
 50
347.14473
 51
15.761066
  0
ARC
  8
0
  6
CONTINUOUS
 62
     7
 10
0.57188213
 20
57.720261
 40
7
 50
184.09605
 51
270
  0
ARC
  8
0
  6
CONTINUOUS
 62
     7
 10
2.0897653
 20
56.404182
 40
6
 50
15.761066
 51
80.405929
  0
ARC
  8
0
  6
CONTINUOUS
 62
     7
 10
0.57188213
 20
12.720263
 40
7
 50
89.999996
 51
175.90395
  0
ARC
  8
0
  6
CONTINUOUS
 62
     7
 10
-34.160236
 20
20.017471
 40
22.249998
 50
347.83046
 51
12.169548
  0
ARC
  8
0
  6
CONTINUOUS
 62
     7
 10
-56.160236
 20
35.220261
 40
44.249989
 50
351.37864
 51
359.99999
  0
ARC
  8
0
  6
CONTINUOUS
 62
     7
 10
-21.410234
 20
18.720268
 40
5
 50
180.00001
 51
270
  0
ARC
  8
0
  6
CONTINUOUS
 62
     7
 10
-21.410234
 20
51.720261
 40
5
 50
89.999996
 51
180.00001
  0
ARC
  8
0
  6
CONTINUOUS
 62
     7
 10
-56.160236
 20
35.220261
 40
44.249989
 50
8.6514222E-006
 51
8.6213602
  0
ARC
  8
0
  6
CONTINUOUS
 62
     7
 10
-34.160236
 20
50.423058
 40
22.249998
 50
347.83046
 51
12.169548
  0
ARC
  8
0
  6
CONTINUOUS
 62
     7
 10
8.5689526
 20
84.784492
 40
17.064236
 50
256.09586
 51
283.90415
  0
ARC
  8
0
  6
CONTINUOUS
 62
     7
 10
20.589766
 20
101.59873
 40
33.878471
 50
260.14412
 51
269.99999
  0
ARC
  8
0
  6
CONTINUOUS
 62
     7
 10
8.5897655
 20
76.220268
 40
5
 50
89.999996
 51
180.00001
  0
ARC
  8
0
  6
CONTINUOUS
 62
     7
 10
8.5689526
 20
84.784492
 40
17.064236
 50
256.09586
 51
283.90415
  0
ARC
  8
0
  6
CONTINUOUS
 62
     7
 10
-229.49149
 20
-16.955513
 40
22.940548
 50
258.01571
 51
270.00001
  0
ARC
  8
0
  6
CONTINUOUS
 62
     7
 10
-239.74481
 20
-28.302696
 40
11.59337
 50
253.11152
 51
286.88849
  0
ARC
  8
0
  6
CONTINUOUS
 62
     7
 10
-253.50937
 20
-100.39606
 40
7
 50
89.999996
 51
175.90393
  0
ARC
  8
0
  6
CONTINUOUS
 62
     7
 10
-244.49149
 20
-50.396065
 40
5
 50
270
 51
355.53295
  0
ARC
  8
0
  6
CONTINUOUS
 62
     7
 10
-245.49149
 20
-51.212143
 40
6
 50
4.0776588
 51
80.405929
  0
ARC
  8
0
  6
CONTINUOUS
 62
     7
 10
-253.49149
 20
-48.396065
 40
7
 50
184.09605
 51
270
  0
ARC
  8
0
  6
CONTINUOUS
 62
     7
 10
-248.49149
 20
-44.896065
 40
4
 50
270
 51
5.0089561E-006
  0
ARC
  8
0
  6
CONTINUOUS
 62
     7
 10
-342.59152
 20
-74.396057
 40
76.000023
 50
8.6514222E-006
 51
6.5758824
  0
ARC
  8
0
  6
CONTINUOUS
 62
     7
 10
-277.49152
 20
-54.896065
 40
5
 50
89.999996
 51
180.00001
  0
ARC
  8
0
  6
CONTINUOUS
 62
     7
 10
-304.71652
 20
-57.071949
 40
38.125019
 50
350.71049
 51
9.2895303
  0
ARC
  8
0
  6
CONTINUOUS
 62
     7
 10
-304.71652
 20
-91.720177
 40
38.125019
 50
350.71047
 51
9.2895166
  0
ARC
  8
0
  6
CONTINUOUS
 62
     7
 10
-277.49152
 20
-93.896065
 40
5
 50
180.00001
 51
270
  0
ARC
  8
0
  6
CONTINUOUS
 62
     7
 10
-342.59152
 20
-74.396065
 40
76.000023
 50
353.42412
 51
359.99999
  0
ARC
  8
0
  6
CONTINUOUS
 62
     7
 10
-342.59152
 20
-74.396057
 40
76.000023
 50
8.6514222E-006
 51
6.5758824
  0
ARC
  8
0
  6
CONTINUOUS
 62
     7
 10
-277.49152
 20
-54.896065
 40
5
 50
89.999996
 51
180.00001
  0
ARC
  8
0
  6
CONTINUOUS
 62
     7
 10
-304.71652
 20
-57.071949
 40
38.125019
 50
350.71049
 51
9.2895303
  0
ARC
  8
0
  6
CONTINUOUS
 62
     7
 10
-304.71652
 20
-91.720177
 40
38.125019
 50
350.71047
 51
9.2895166
  0
ARC
  8
0
  6
CONTINUOUS
 62
     7
 10
-277.49152
 20
-93.896065
 40
5
 50
180.00001
 51
270
  0
ARC
  8
0
  6
CONTINUOUS
 62
     7
 10
-342.59152
 20
-74.396065
 40
76.000023
 50
353.42412
 51
359.99999
  0
ARC
  8
0
  6
CONTINUOUS
 62
     7
 10
-239.99149
 20
-32.396065
 40
4
 50
89.999996
 51
180.00001
  0
ARC
  8
0
  6
CONTINUOUS
 62
     7
 10
-99.37307
 20
-7.1924777
 40
33.878471
 50
260.14412
 51
269.99999
  0
ARC
  8
0
  6
CONTINUOUS
 62
     7
 10
-111.37307
 20
-32.57095
 40
5
 50
89.999996
 51
180.00001
  0
ARC
  8
0
  6
CONTINUOUS
 62
     7
 10
-123.39095
 20
-101.57095
 40
7
 50
89.999996
 51
175.90393
  0
ARC
  8
0
  6
CONTINUOUS
 62
     7
 10
-118.37307
 20
-52.280422
 40
6
 50
359.99999
 51
75.522488
  0
ARC
  8
0
  6
CONTINUOUS
 62
     7
 10
-123.37307
 20
-49.57095
 40
7
 50
184.09609
 51
270
  0
ARC
  8
0
  6
CONTINUOUS
 62
     7
 10
-116.37307
 20
-52.57095
 40
4
 50
270
 51
5.0089561E-006
  0
ARC
  8
0
  6
CONTINUOUS
 62
     7
 10
-120.87307
 20
-46.070953
 40
4
 50
270
 51
5.0089561E-006
  0
ARC
  8
0
  6
CONTINUOUS
 62
     7
 10
-212.47308
 20
-75.570946
 40
76.000023
 50
8.6514222E-006
 51
6.5758824
  0
ARC
  8
0
  6
CONTINUOUS
 62
     7
 10
-147.37306
 20
-56.07095
 40
5
 50
89.999996
 51
180.00001
  0
ARC
  8
0
  6
CONTINUOUS
 62
     7
 10
-174.59807
 20
-58.24683
 40
38.125019
 50
350.71049
 51
9.2895303
  0
ARC
  8
0
  6
CONTINUOUS
 62
     7
 10
-174.59807
 20
-92.895065
 40
38.125019
 50
350.71047
 51
9.2895166
  0
ARC
  8
0
  6
CONTINUOUS
 62
     7
 10
-147.37306
 20
-95.070946
 40
5
 50
180.00001
 51
270
  0
ARC
  8
0
  6
CONTINUOUS
 62
     7
 10
-212.47308
 20
-75.570946
 40
76.000023
 50
353.42412
 51
359.99999
  0
ARC
  8
0
  6
CONTINUOUS
 62
     7
 10
-212.47308
 20
-75.570946
 40
76.000023
 50
8.6514222E-006
 51
6.5758824
  0
ARC
  8
0
  6
CONTINUOUS
 62
     7
 10
-147.37306
 20
-56.07095
 40
5
 50
89.999996
 51
180.00001
  0
ARC
  8
0
  6
CONTINUOUS
 62
     7
 10
-174.59807
 20
-58.24683
 40
38.125019
 50
350.71049
 51
9.2895303
  0
ARC
  8
0
  6
CONTINUOUS
 62
     7
 10
-174.59807
 20
-92.895065
 40
38.125019
 50
350.71047
 51
9.2895166
  0
ARC
  8
0
  6
CONTINUOUS
 62
     7
 10
-147.37306
 20
-95.070946
 40
5
 50
180.00001
 51
270
  0
ARC
  8
0
  6
CONTINUOUS
 62
     7
 10
-212.47308
 20
-75.570946
 40
76.000023
 50
353.42412
 51
359.99999
  0
ARC
  8
0
  6
CONTINUOUS
 62
     7
 10
-111.39388
 20
-24.00671
 40
17.064236
 50
256.09586
 51
283.90415
  0
ARC
  8
0
  6
CONTINUOUS
 62
     7
 10
-99.37307
 20
-7.1924777
 40
33.878471
 50
260.14412
 51
269.99999
  0
ARC
  8
0
  6
CONTINUOUS
 62
     7
 10
-111.37307
 20
-32.57095
 40
5
 50
89.999996
 51
180.00001
  0
ARC
  8
0
  6
CONTINUOUS
 62
     7
 10
-111.39388
 20
-24.00671
 40
17.064236
 50
256.09586
 51
283.90415
  0
ARC
  8
0
  6
CONTINUOUS
 62
     7
 10
28.917585
 20
0.79499501
 40
44.249989
 50
261.37865
 51
270
  0
ARC
  8
0
  6
CONTINUOUS
 62
     7
 10
12.417586
 20
-33.954998
 40
5
 50
89.999996
 51
180.00001
  0
ARC
  8
0
  6
CONTINUOUS
 62
     7
 10
4.8997025
 20
-101.95499
 40
7
 50
89.999996
 51
175.90393
  0
ARC
  8
0
  6
CONTINUOUS
 62
     7
 10
4.9175858
 20
-49.954998
 40
7
 50
184.09609
 51
270
  0
ARC
  8
0
  6
CONTINUOUS
 62
     7
 10
5.9175858
 20
-55.883202
 40
7
 50
28.819461
 51
81.786789
  0
ARC
  8
0
  6
CONTINUOUS
 62
     7
 10
9.422164
 20
-53.954998
 40
3
 50
270
 51
28.819461
  0
ARC
  8
0
  6
CONTINUOUS
 62
     7
 10
4.9175858
 20
-48.455002
 40
2
 50
270
 51
5.0089561E-006
  0
ARC
  8
0
  6
CONTINUOUS
 62
     7
 10
-84.182419
 20
-75.954994
 40
76.000023
 50
8.6514222E-006
 51
6.5758824
  0
ARC
  8
0
  6
CONTINUOUS
 62
     7
 10
-19.082415
 20
-56.454998
 40
5
 50
89.999996
 51
180.00001
  0
ARC
  8
0
  6
CONTINUOUS
 62
     7
 10
-46.307423
 20
-58.630882
 40
38.125019
 50
350.71049
 51
9.2895303
  0
ARC
  8
0
  6
CONTINUOUS
 62
     7
 10
-46.307423
 20
-93.279114
 40
38.125019
 50
350.71047
 51
9.2895166
  0
ARC
  8
0
  6
CONTINUOUS
 62
     7
 10
-19.082415
 20
-95.454994
 40
5
 50
180.00001
 51
270
  0
ARC
  8
0
  6
CONTINUOUS
 62
     7
 10
-84.182419
 20
-75.954994
 40
76.000023
 50
353.42412
 51
359.99999
  0
ARC
  8
0
  6
CONTINUOUS
 62
     7
 10
13.714797
 20
-21.204998
 40
22.249998
 50
257.83046
 51
282.16955
  0
ARC
  8
0
  6
CONTINUOUS
 62
     7
 10
-201.77542
 20
-204.10851
 40
22.940548
 50
258.01571
 51
270.00001
  0
ARC
  8
0
  6
CONTINUOUS
 62
     7
 10
-212.02875
 20
-215.45569
 40
11.59337
 50
253.11152
 51
286.88849
  0
ARC
  8
0
  6
CONTINUOUS
 62
     7
 10
-216.77542
 20
-238.54906
 40
5
 50
270
 51
5.008956E-006
  0
ARC
  8
0
  6
CONTINUOUS
 62
     7
 10
-217.77542
 20
-238.36513
 40
6
 50
359.99999
 51
80.405929
  0
ARC
  8
0
  6
CONTINUOUS
 62
     7
 10
-231.77544
 20
-236.54906
 40
7
 50
180.00001
 51
270
  0
ARC
  8
0
  6
CONTINUOUS
 62
     7
 10
-231.77544
 20
-296.54907
 40
7
 50
90.000003
 51
184.09604
  0
ARC
  8
0
  6
CONTINUOUS
 62
     7
 10
-220.77542
 20
-232.04906
 40
4
 50
270
 51
5.0089561E-006
  0
ARC
  8
0
  6
CONTINUOUS
 62
     7
 10
-256.77542
 20
-243.04906
 40
6
 50
89.999996
 51
180.00001
  0
ARC
  8
0
  6
CONTINUOUS
 62
     7
 10
-335.87582
 20
-266.54904
 40
91.000397
 50
8.6514222E-006
 51
6.0089631
  0
ARC
  8
0
  6
CONTINUOUS
 62
     7
 10
-290.50061
 20
-245.68941
 40
45.625206
 50
351.50982
 51
8.4901796
  0
ARC
  8
0
  6
CONTINUOUS
 62
     7
 10
-290.50061
 20
-287.40869
 40
45.625206
 50
351.50982
 51
8.4901796
  0
ARC
  8
0
  6
CONTINUOUS
 62
     7
 10
-335.87582
 20
-266.54904
 40
91.000397
 50
353.99104
 51
359.99999
  0
ARC
  8
0
  6
CONTINUOUS
 62
     7
 10
-256.77542
 20
-290.04904
 40
6
 50
180.00001
 51
270
  0
ARC
  8
0
  6
CONTINUOUS
 62
     7
 10
-212.27542
 20
-219.54906
 40
4
 50
89.999996
 51
180.00001
  0
ARC
  8
0
  6
CONTINUOUS
 62
     7
 10
-116.24077
 20
-287.2337
 40
45.625206
 50
351.50982
 51
8.4901796
  0
ARC
  8
0
  6
CONTINUOUS
 62
     7
 10
-82.515579
 20
-289.87405
 40
6
 50
180.00001
 51
270
  0
ARC
  8
0
  6
CONTINUOUS
 62
     7
 10
-161.61598
 20
-266.37405
 40
91.000397
 50
353.99104
 51
359.99999
  0
ARC
  8
0
  6
CONTINUOUS
 62
     7
 10
-45.515579
 20
-238.37405
 40
5
 50
270
 51
1.3208579
  0
ARC
  8
0
  6
CONTINUOUS
 62
     7
 10
-46.515579
 20
-238.13254
 40
6
 50
359.99999
 51
75.522488
  0
ARC
  8
0
  6
CONTINUOUS
 62
     7
 10
-57.515579
 20
-296.37405
 40
7
 50
90.000003
 51
184.09604
  0
ARC
  8
0
  6
CONTINUOUS
 62
     7
 10
-57.515579
 20
-236.37405
 40
7
 50
180.00001
 51
270
  0
ARC
  8
0
  6
CONTINUOUS
 62
     7
 10
-49.015579
 20
-231.87405
 40
4
 50
270
 51
5.0089561E-006
  0
ARC
  8
0
  6
CONTINUOUS
 62
     7
 10
-39.536392
 20
-209.85883
 40
17.064236
 50
256.09586
 51
283.90415
  0
ARC
  8
0
  6
CONTINUOUS
 62
     7
 10
-27.515577
 20
-193.0446
 40
33.878471
 50
260.14412
 51
269.99999
  0
ARC
  8
0
  6
CONTINUOUS
 62
     7
 10
-39.515579
 20
-218.42307
 40
5
 50
89.999996
 51
180.00001
  0
ARC
  8
0
  6
CONTINUOUS
 62
     7
 10
-82.515579
 20
-242.87405
 40
6
 50
89.999996
 51
180.00001
  0
ARC
  8
0
  6
CONTINUOUS
 62
     7
 10
-161.61598
 20
-266.37405
 40
91.000397
 50
8.6514222E-006
 51
6.0089631
  0
ARC
  8
0
  6
CONTINUOUS
 62
     7
 10
-116.24077
 20
-245.5144
 40
45.625206
 50
351.50982
 51
8.4901796
  0
ARC
  8
0
  6
CONTINUOUS
 62
     7
 10
-11.542521
 20
-314.09378
 40
38.125019
 50
260.71048
 51
279.28953
  0
ARC
  8
0
  6
CONTINUOUS
 62
     7
 10
-9.3666182
 20
-341.31882
 40
5
 50
360
 51
90.000003
  0
ARC
  8
0
  6
CONTINUOUS
 62
     7
 10
-28.866617
 20
-276.21878
 40
76.000023
 50
270
 51
276.57588
  0
ARC
  8
0
  6
CONTINUOUS
 62
     7
 10
-173.48869
 20
-359.31882
 40
7
 50
270
 51
0
  0
ARC
  8
0
  6
CONTINUOUS
 62
     7
 10
-182.48869
 20
-361.31882
 40
5
 50
184.87712
 51
270
  0
ARC
  8
0
  6
CONTINUOUS
 62
     7
 10
-180.48869
 20
-362.24701
 40
7
 50
98.213209
 51
175.87845
  0
ARC
  8
0
  6
CONTINUOUS
 62
     7
 10
-173.48869
 20
-419.31882
 40
7
 50
355.90396
 51
89.999996
  0
ARC
  8
0
  6
CONTINUOUS
 62
     7
 10
-177.48869
 20
-354.81882
 40
4
 50
179.99999
 51
270
  0
ARC
  8
0
  6
CONTINUOUS
 62
     7
 10
1.1333822
 20
-359.31882
 40
7
 50
270
 51
0
  0
ARC
  8
0
  6
CONTINUOUS
 62
     7
 10
-2.8666179
 20
-365.30093
 40
7
 50
88.697458
 51
150.29529
  0
ARC
  8
0
  6
CONTINUOUS
 62
     7
 10
-6.3409829
 20
-363.31882
 40
3
 50
150.29529
 51
270
  0
ARC
  8
0
  6
CONTINUOUS
 62
     7
 10
1.1333822
 20
-419.31882
 40
7
 50
355.90396
 51
89.999996
  0
ARC
  8
0
  6
CONTINUOUS
 62
     7
 10
-1.3666178
 20
-356.81882
 40
2
 50
179.99999
 51
270
  0
ARC
  8
0
  6
CONTINUOUS
 62
     7
 10
-204.47537
 20
-526.14594
 40
4.8000002
 50
179.99999
 51
270
  0
ARC
  8
0
  6
CONTINUOUS
 62
     7
 10
-200.47537
 20
-519.14594
 40
4
 50
179.99999
 51
270
  0
ARC
  8
0
  6
CONTINUOUS
 62
     7
 10
-203.27536
 20
-525.42468
 40
6
 50
101.53696
 51
180.00001
  0
ARC
  8
0
  6
CONTINUOUS
 62
     7
 10
-186.97537
 20
-523.94592
 40
7
 50
270
 51
0
  0
ARC
  8
0
  6
CONTINUOUS
 62
     7
 10
-186.97537
 20
-591.34595
 40
7
 50
0
 51
90.000003
  0
ARC
  8
0
  6
CONTINUOUS
 62
     7
 10
-4.5848165
 20
-523.94592
 40
7
 50
270
 51
0
  0
ARC
  8
0
  6
CONTINUOUS
 62
     7
 10
-19.084816
 20
-526.14594
 40
4.8000002
 50
179.99999
 51
270
  0
ARC
  8
0
  6
CONTINUOUS
 62
     7
 10
-4.5848165
 20
-591.34595
 40
7
 50
353.43757
 51
90.000003
  0
ARC
  8
0
  6
CONTINUOUS
 62
     7
 10
-15.584816
 20
-519.14594
 40
4
 50
179.99999
 51
270
  0
ARC
  8
0
  6
CONTINUOUS
 62
     7
 10
-17.884834
 20
-525.30005
 40
6
 50
106.45925
 51
184.26811
  0
ARC
  8
0
  6
CONTINUOUS
 62
     7
 10
-208.97537
 20
-506.64594
 40
4
 50
360
 51
90.000003
  0
ARC
  8
0
  6
CONTINUOUS
 62
     7
 10
-209.22202
 20
-502.55255
 40
11.59337
 50
253.11151
 51
286.88848
  0
ARC
  8
0
  6
CONTINUOUS
 62
     7
 10
-219.47537
 20
-491.20538
 40
22.940548
 50
269.99999
 51
281.9843
  0
ARC
  8
0
  6
CONTINUOUS
 62
     7
 10
-25.064003
 20
-497.0817
 40
17.064236
 50
256.09586
 51
283.90414
  0
ARC
  8
0
  6
CONTINUOUS
 62
     7
 10
-37.084816
 20
-480.26746
 40
33.878471
 50
270.00001
 51
279.85588
  0
ARC
  8
0
  6
CONTINUOUS
 62
     7
 10
-25.084816
 20
-505.64594
 40
5
 50
360
 51
90.000003
  0
ARC
  8
0
  6
CONTINUOUS
 62
     7
 10
-188.28587
 20
-327.56882
 40
22.249998
 50
257.83045
 51
282.16954
  0
ARC
  8
0
  6
CONTINUOUS
 62
     7
 10
-203.48869
 20
-305.56882
 40
44.249989
 50
270
 51
278.62136
  0
ARC
  8
0
  6
CONTINUOUS
 62
     7
 10
-186.98869
 20
-340.31882
 40
5
 50
360
 51
90.000003
  0
ARC
  8
0
  6
CONTINUOUS
 62
     7
 10
-148.48869
 20
-365.81882
 40
6
 50
0
 51
90.000003
  0
ARC
  8
0
  6
CONTINUOUS
 62
     7
 10
-69.388283
 20
-389.31882
 40
91.000397
 50
173.99104
 51
179.99999
  0
ARC
  8
0
  6
CONTINUOUS
 62
     7
 10
-114.76347
 20
-368.45917
 40
45.625206
 50
171.50982
 51
188.49018
  0
ARC
  8
0
  6
CONTINUOUS
 62
     7
 10
-114.76347
 20
-410.17847
 40
45.625206
 50
171.50982
 51
188.49018
  0
ARC
  8
0
  6
CONTINUOUS
 62
     7
 10
-69.388283
 20
-389.31882
 40
91.000397
 50
180.00001
 51
186.00896
  0
ARC
  8
0
  6
CONTINUOUS
 62
     7
 10
-148.48869
 20
-412.81882
 40
6
 50
270
 51
0
  0
ARC
  8
0
  6
CONTINUOUS
 62
     7
 10
-148.48869
 20
-365.81882
 40
6
 50
0
 51
90.000003
  0
ARC
  8
0
  6
CONTINUOUS
 62
     7
 10
-69.388283
 20
-389.31882
 40
91.000397
 50
173.99104
 51
179.99999
  0
ARC
  8
0
  6
CONTINUOUS
 62
     7
 10
-114.76347
 20
-368.45917
 40
45.625206
 50
171.50982
 51
188.49018
  0
ARC
  8
0
  6
CONTINUOUS
 62
     7
 10
-114.76347
 20
-410.17847
 40
45.625206
 50
171.50982
 51
188.49018
  0
ARC
  8
0
  6
CONTINUOUS
 62
     7
 10
-69.388283
 20
-389.31882
 40
91.000397
 50
180.00001
 51
186.00896
  0
ARC
  8
0
  6
CONTINUOUS
 62
     7
 10
-148.48869
 20
-412.81882
 40
6
 50
270
 51
0
  0
ARC
  8
0
  6
CONTINUOUS
 62
     7
 10
26.133381
 20
-365.81882
 40
6
 50
0
 51
90.000003
  0
ARC
  8
0
  6
CONTINUOUS
 62
     7
 10
105.23375
 20
-389.31882
 40
91.000397
 50
173.99104
 51
179.99999
  0
ARC
  8
0
  6
CONTINUOUS
 62
     7
 10
59.85857
 20
-368.45917
 40
45.625206
 50
171.50982
 51
188.49018
  0
ARC
  8
0
  6
CONTINUOUS
 62
     7
 10
59.85857
 20
-410.17847
 40
45.625206
 50
171.50982
 51
188.49018
  0
ARC
  8
0
  6
CONTINUOUS
 62
     7
 10
105.23375
 20
-389.31882
 40
91.000397
 50
180.00001
 51
186.00896
  0
ARC
  8
0
  6
CONTINUOUS
 62
     7
 10
26.133381
 20
-412.81882
 40
6
 50
270
 51
0
  0
ARC
  8
0
  6
CONTINUOUS
 62
     7
 10
-160.47537
 20
-583.64594
 40
8
 50
270
 51
0
  0
ARC
  8
0
  6
CONTINUOUS
 62
     7
 10
-120.10034
 20
-581.68756
 40
52.375008
 50
172.07669
 51
187.92331
  0
ARC
  8
0
  6
CONTINUOUS
 62
     7
 10
-67.975342
 20
-557.64594
 40
104.50002
 50
180.00001
 51
185.6071
  0
ARC
  8
0
  6
CONTINUOUS
 62
     7
 10
-160.47537
 20
-531.64594
 40
8
 50
0
 51
90.000003
  0
ARC
  8
0
  6
CONTINUOUS
 62
     7
 10
-120.10034
 20
-533.60431
 40
52.375008
 50
172.07669
 51
187.92331
  0
ARC
  8
0
  6
CONTINUOUS
 62
     7
 10
-67.975342
 20
-557.64594
 40
104.50002
 50
174.3929
 51
179.99999
  0
ARC
  8
0
  6
CONTINUOUS
 62
     7
 10
21.915184
 20
-583.64594
 40
8
 50
270
 51
0
  0
ARC
  8
0
  6
CONTINUOUS
 62
     7
 10
62.290154
 20
-581.68756
 40
52.375008
 50
172.07669
 51
187.92331
  0
ARC
  8
0
  6
CONTINUOUS
 62
     7
 10
114.41521
 20
-557.64594
 40
104.50002
 50
180.00001
 51
185.6071
  0
ARC
  8
0
  6
CONTINUOUS
 62
     7
 10
21.915184
 20
-531.64594
 40
8
 50
0
 51
90.000003
  0
ARC
  8
0
  6
CONTINUOUS
 62
     7
 10
62.290154
 20
-533.60431
 40
52.375008
 50
172.07669
 51
187.92331
  0
ARC
  8
0
  6
CONTINUOUS
 62
     7
 10
114.41521
 20
-557.64594
 40
104.50002
 50
174.3929
 51
179.99999
  0
ARC
  8
0
  6
CONTINUOUS
 62
     7
 10
-370.97537
 20
-557.64594
 40
104.50002
 50
8.6514222E-006
 51
5.6071021
  0
ARC
  8
0
  6
CONTINUOUS
 62
     7
 10
-278.47534
 20
-531.64594
 40
8
 50
89.999996
 51
180.00001
  0
ARC
  8
0
  6
CONTINUOUS
 62
     7
 10
-318.85037
 20
-533.60431
 40
52.375008
 50
352.07669
 51
7.9233148
  0
ARC
  8
0
  6
CONTINUOUS
 62
     7
 10
-234.47537
 20
-526.14594
 40
4.8000002
 50
270
 51
8.6514219E-006
  0
ARC
  8
0
  6
CONTINUOUS
 62
     7
 10
-238.47536
 20
-519.14594
 40
4
 50
270
 51
5.0089553E-006
  0
ARC
  8
0
  6
CONTINUOUS
 62
     7
 10
-235.67537
 20
-525.42468
 40
6
 50
359.99999
 51
78.463041
  0
ARC
  8
0
  6
CONTINUOUS
 62
     7
 10
-251.97536
 20
-523.94592
 40
7
 50
180.00001
 51
270
  0
ARC
  8
0
  6
CONTINUOUS
 62
     7
 10
-251.97536
 20
-591.34595
 40
7
 50
89.999996
 51
180.00001
  0
ARC
  8
0
  6
CONTINUOUS
 62
     7
 10
-229.97537
 20
-506.64594
 40
4
 50
89.999996
 51
180.00001
  0
ARC
  8
0
  6
CONTINUOUS
 62
     7
 10
-229.7287
 20
-502.55255
 40
11.59337
 50
253.11152
 51
286.88849
  0
ARC
  8
0
  6
CONTINUOUS
 62
     7
 10
-219.47537
 20
-491.20538
 40
22.940548
 50
258.01571
 51
270.00001
  0
ARC
  8
0
  6
CONTINUOUS
 62
     7
 10
-278.47534
 20
-583.64594
 40
8
 50
180.00001
 51
270
  0
ARC
  8
0
  6
CONTINUOUS
 62
     7
 10
-318.85037
 20
-581.68756
 40
52.375008
 50
352.07669
 51
7.9233148
  0
ARC
  8
0
  6
CONTINUOUS
 62
     7
 10
-370.97537
 20
-557.64594
 40
104.50002
 50
354.3929
 51
359.99999
  0
ARC
  8
0
  6
CONTINUOUS
 62
     7
 10
-188.58485
 20
-557.64594
 40
104.50002
 50
8.6514222E-006
 51
5.6071021
  0
ARC
  8
0
  6
CONTINUOUS
 62
     7
 10
-136.45985
 20
-533.60431
 40
52.375008
 50
352.07669
 51
7.9233148
  0
ARC
  8
0
  6
CONTINUOUS
 62
     7
 10
-96.084816
 20
-531.64594
 40
8
 50
89.999996
 51
180.00001
  0
ARC
  8
0
  6
CONTINUOUS
 62
     7
 10
-69.584816
 20
-523.94592
 40
7
 50
180.00001
 51
270
  0
ARC
  8
0
  6
CONTINUOUS
 62
     7
 10
-55.084816
 20
-526.14594
 40
4.8000002
 50
270
 51
5.0089565E-006
  0
ARC
  8
0
  6
CONTINUOUS
 62
     7
 10
-69.584816
 20
-591.34595
 40
7
 50
89.999996
 51
186.56242
  0
ARC
  8
0
  6
CONTINUOUS
 62
     7
 10
-58.584816
 20
-519.14594
 40
4
 50
270
 51
5.0089553E-006
  0
ARC
  8
0
  6
CONTINUOUS
 62
     7
 10
-56.284828
 20
-525.30005
 40
6
 50
355.73189
 51
73.540749
  0
ARC
  8
0
  6
CONTINUOUS
 62
     7
 10
-49.105629
 20
-497.0817
 40
17.064236
 50
256.09586
 51
283.90415
  0
ARC
  8
0
  6
CONTINUOUS
 62
     7
 10
-37.084816
 20
-480.26746
 40
33.878471
 50
260.14412
 51
269.99999
  0
ARC
  8
0
  6
CONTINUOUS
 62
     7
 10
-49.084816
 20
-505.64594
 40
5
 50
89.999996
 51
180.00001
  0
ARC
  8
0
  6
CONTINUOUS
 62
     7
 10
-96.084816
 20
-583.64594
 40
8
 50
180.00001
 51
270
  0
ARC
  8
0
  6
CONTINUOUS
 62
     7
 10
-136.45985
 20
-581.68756
 40
52.375008
 50
352.07669
 51
7.9233148
  0
ARC
  8
0
  6
CONTINUOUS
 62
     7
 10
-188.58485
 20
-557.64594
 40
104.50002
 50
354.3929
 51
359.99999
  0
ARC
  8
0
  6
CONTINUOUS
 62
     7
 10
-83.866623
 20
-412.81882
 40
6
 50
180.00001
 51
270
  0
ARC
  8
0
  6
CONTINUOUS
 62
     7
 10
-162.96703
 20
-389.31882
 40
91.000397
 50
353.99104
 51
359.99999
  0
ARC
  8
0
  6
CONTINUOUS
 62
     7
 10
-117.59184
 20
-410.17847
 40
45.625206
 50
351.50982
 51
8.4901796
  0
ARC
  8
0
  6
CONTINUOUS
 62
     7
 10
-46.19075
 20
-314.09378
 40
38.125019
 50
260.71048
 51
279.28952
  0
ARC
  8
0
  6
CONTINUOUS
 62
     7
 10
-48.366623
 20
-341.31882
 40
5
 50
89.999996
 51
180.00001
  0
ARC
  8
0
  6
CONTINUOUS
 62
     7
 10
-28.866617
 20
-276.21878
 40
76.000023
 50
263.42412
 51
270
  0
ARC
  8
0
  6
CONTINUOUS
 62
     7
 10
-58.866623
 20
-359.31882
 40
7
 50
180.00001
 51
270
  0
ARC
  8
0
  6
CONTINUOUS
 62
     7
 10
-54.866623
 20
-365.30093
 40
7
 50
29.704708
 51
91.30254
  0
ARC
  8
0
  6
CONTINUOUS
 62
     7
 10
-51.392258
 20
-363.31882
 40
3
 50
270
 51
29.704708
  0
ARC
  8
0
  6
CONTINUOUS
 62
     7
 10
-58.866623
 20
-419.31882
 40
7
 50
90.000003
 51
184.09604
  0
ARC
  8
0
  6
CONTINUOUS
 62
     7
 10
-56.366623
 20
-356.81882
 40
2
 50
270
 51
5.0089553E-006
  0
ARC
  8
0
  6
CONTINUOUS
 62
     7
 10
-83.866623
 20
-365.81882
 40
6
 50
89.999996
 51
180.00001
  0
ARC
  8
0
  6
CONTINUOUS
 62
     7
 10
-162.96703
 20
-389.31882
 40
91.000397
 50
8.6514222E-006
 51
6.0089631
  0
ARC
  8
0
  6
CONTINUOUS
 62
     7
 10
-117.59184
 20
-368.45917
 40
45.625206
 50
351.50982
 51
8.4901796
  0
ARC
  8
0
  6
CONTINUOUS
 62
     7
 10
-258.48865
 20
-412.81882
 40
6
 50
180.00001
 51
270
  0
ARC
  8
0
  6
CONTINUOUS
 62
     7
 10
-337.58905
 20
-389.31882
 40
91.000397
 50
353.99104
 51
359.99999
  0
ARC
  8
0
  6
CONTINUOUS
 62
     7
 10
-292.21387
 20
-410.17847
 40
45.625206
 50
351.50982
 51
8.4901796
  0
ARC
  8
0
  6
CONTINUOUS
 62
     7
 10
-233.48866
 20
-359.31882
 40
7
 50
180.00001
 51
270
  0
ARC
  8
0
  6
CONTINUOUS
 62
     7
 10
-224.48868
 20
-361.31882
 40
5
 50
270
 51
355.12288
  0
ARC
  8
0
  6
CONTINUOUS
 62
     7
 10
-226.48868
 20
-362.24701
 40
7
 50
4.1215496
 51
81.786789
  0
ARC
  8
0
  6
CONTINUOUS
 62
     7
 10
-233.48866
 20
-419.31882
 40
7
 50
90.000003
 51
184.09604
  0
ARC
  8
0
  6
CONTINUOUS
 62
     7
 10
-229.48868
 20
-354.81882
 40
4
 50
270
 51
5.0089561E-006
  0
ARC
  8
0
  6
CONTINUOUS
 62
     7
 10
-218.69148
 20
-327.56882
 40
22.249998
 50
257.83046
 51
282.16955
  0
ARC
  8
0
  6
CONTINUOUS
 62
     7
 10
-203.48869
 20
-305.56882
 40
44.249989
 50
261.37865
 51
270
  0
ARC
  8
0
  6
CONTINUOUS
 62
     7
 10
-219.98868
 20
-340.31882
 40
5
 50
89.999996
 51
180.00001
  0
ARC
  8
0
  6
CONTINUOUS
 62
     7
 10
-258.48865
 20
-365.81882
 40
6
 50
89.999996
 51
180.00001
  0
ARC
  8
0
  6
CONTINUOUS
 62
     7
 10
-337.58905
 20
-389.31882
 40
91.000397
 50
8.6514222E-006
 51
6.0089631
  0
ARC
  8
0
  6
CONTINUOUS
 62
     7
 10
-292.21387
 20
-368.45917
 40
45.625206
 50
351.50982
 51
8.4901796
  0
ARC
  8
0
  6
CONTINUOUS
 62
     7
 10
-292.21387
 20
-410.17847
 40
45.625206
 50
351.50982
 51
8.4901796
  0
ARC
  8
0
  6
CONTINUOUS
 62
     7
 10
-337.58905
 20
-389.31882
 40
91.000397
 50
353.99104
 51
359.99999
  0
ARC
  8
0
  6
CONTINUOUS
 62
     7
 10
-258.48865
 20
-412.81882
 40
6
 50
180.00001
 51
270
  0
ARC
  8
0
  6
CONTINUOUS
 62
     7
 10
-258.48865
 20
-365.81882
 40
6
 50
89.999996
 51
180.00001
  0
ARC
  8
0
  6
CONTINUOUS
 62
     7
 10
-337.58905
 20
-389.31882
 40
91.000397
 50
8.6514222E-006
 51
6.0089631
  0
ARC
  8
0
  6
CONTINUOUS
 62
     7
 10
-292.21387
 20
-368.45917
 40
45.625206
 50
351.50982
 51
8.4901796
  0
ARC
  8
0
  6
CONTINUOUS
 62
     7
 10
-3.454078
 20
-657.3374
 40
7
 50
95.739171
 51
180.00001
  0
ARC
  8
0
  6
CONTINUOUS
 62
     7
 10
2.8459098
 20
-655.67249
 40
7
 50
270
 51
0
  0
ARC
  8
0
  6
CONTINUOUS
 62
     7
 10
2.8459098
 20
-723.07245
 40
7
 50
0
 51
90.000003
  0
ARC
  8
0
  6
CONTINUOUS
 62
     7
 10
-5.6540899
 20
-657.87244
 40
4.8000002
 50
179.99999
 51
270
  0
ARC
  8
0
  6
CONTINUOUS
 62
     7
 10
-0.15409011
 20
-650.87244
 40
4
 50
179.99999
 51
270
  0
ARC
  8
0
  6
CONTINUOUS
 62
     7
 10
-185.31763
 20
-841.73108
 40
6.8000002
 50
179.99999
 51
270
  0
ARC
  8
0
  6
CONTINUOUS
 62
     7
 10
-182.81763
 20
-908.93109
 40
7
 50
353.43757
 51
90.000003
  0
ARC
  8
0
  6
CONTINUOUS
 62
     7
 10
-185.11761
 20
-840.24255
 40
7
 50
87.543716
 51
180.00001
  0
ARC
  8
0
  6
CONTINUOUS
 62
     7
 10
-182.81763
 20
-841.53107
 40
7
 50
270
 51
0
  0
ARC
  8
0
  6
CONTINUOUS
 62
     7
 10
-180.81763
 20
-836.73108
 40
4
 50
179.99999
 51
270
  0
ARC
  8
0
  6
CONTINUOUS
 62
     7
 10
29.345909
 20
-715.37244
 40
8
 50
270
 51
0
  0
ARC
  8
0
  6
CONTINUOUS
 62
     7
 10
69.72094
 20
-713.41406
 40
52.375008
 50
172.07669
 51
187.92331
  0
ARC
  8
0
  6
CONTINUOUS
 62
     7
 10
121.84594
 20
-689.37244
 40
104.50002
 50
180.00001
 51
185.6071
  0
ARC
  8
0
  6
CONTINUOUS
 62
     7
 10
29.345909
 20
-663.37244
 40
8
 50
0
 51
90.000003
  0
ARC
  8
0
  6
CONTINUOUS
 62
     7
 10
69.72094
 20
-665.33081
 40
52.375008
 50
172.07669
 51
187.92331
  0
ARC
  8
0
  6
CONTINUOUS
 62
     7
 10
121.84594
 20
-689.37244
 40
104.50002
 50
174.3929
 51
179.99999
  0
ARC
  8
0
  6
CONTINUOUS
 62
     7
 10
29.345909
 20
-715.37244
 40
8
 50
270
 51
0
  0
ARC
  8
0
  6
CONTINUOUS
 62
     7
 10
69.72094
 20
-713.41406
 40
52.375008
 50
172.07669
 51
187.92331
  0
ARC
  8
0
  6
CONTINUOUS
 62
     7
 10
121.84594
 20
-689.37244
 40
104.50002
 50
180.00001
 51
185.6071
  0
ARC
  8
0
  6
CONTINUOUS
 62
     7
 10
29.345909
 20
-663.37244
 40
8
 50
0
 51
90.000003
  0
ARC
  8
0
  6
CONTINUOUS
 62
     7
 10
69.72094
 20
-665.33081
 40
52.375008
 50
172.07669
 51
187.92331
  0
ARC
  8
0
  6
CONTINUOUS
 62
     7
 10
121.84594
 20
-689.37244
 40
104.50002
 50
174.3929
 51
179.99999
  0
ARC
  8
0
  6
CONTINUOUS
 62
     7
 10
-156.31763
 20
-901.23108
 40
8
 50
270
 51
0
  0
ARC
  8
0
  6
CONTINUOUS
 62
     7
 10
-115.94262
 20
-899.27271
 40
52.375008
 50
172.07669
 51
187.92331
  0
ARC
  8
0
  6
CONTINUOUS
 62
     7
 10
-63.817589
 20
-875.23108
 40
104.50002
 50
180.00001
 51
185.6071
  0
ARC
  8
0
  6
CONTINUOUS
 62
     7
 10
-156.31763
 20
-849.23108
 40
8
 50
0
 51
90.000003
  0
ARC
  8
0
  6
CONTINUOUS
 62
     7
 10
-115.94262
 20
-851.18945
 40
52.375008
 50
172.07669
 51
187.92331
  0
ARC
  8
0
  6
CONTINUOUS
 62
     7
 10
-63.817589
 20
-875.23108
 40
104.50002
 50
174.3929
 51
179.99999
  0
ARC
  8
0
  6
CONTINUOUS
 62
     7
 10
-196.44881
 20
-657.87244
 40
4.8000002
 50
182.14366
 51
270
  0
ARC
  8
0
  6
CONTINUOUS
 62
     7
 10
-184.94881
 20
-723.07245
 40
7
 50
0
 51
90.000003
  0
ARC
  8
0
  6
CONTINUOUS
 62
     7
 10
-184.94881
 20
-655.67249
 40
7
 50
270
 51
0
  0
ARC
  8
0
  6
CONTINUOUS
 62
     7
 10
-194.24879
 20
-658.26886
 40
7
 50
99.870889
 51
178.22492
  0
ARC
  8
0
  6
CONTINUOUS
 62
     7
 10
-191.44881
 20
-650.87244
 40
4
 50
179.99999
 51
270
  0
ARC
  8
0
  6
CONTINUOUS
 62
     7
 10
-158.44881
 20
-715.37244
 40
8
 50
270
 51
0
  0
ARC
  8
0
  6
CONTINUOUS
 62
     7
 10
-118.07381
 20
-713.41406
 40
52.375008
 50
172.07669
 51
187.92331
  0
ARC
  8
0
  6
CONTINUOUS
 62
     7
 10
-65.948776
 20
-689.37244
 40
104.50002
 50
180.00001
 51
185.6071
  0
ARC
  8
0
  6
CONTINUOUS
 62
     7
 10
-158.44881
 20
-663.37244
 40
8
 50
0
 51
90.000003
  0
ARC
  8
0
  6
CONTINUOUS
 62
     7
 10
-118.07381
 20
-665.33081
 40
52.375008
 50
172.07669
 51
187.92331
  0
ARC
  8
0
  6
CONTINUOUS
 62
     7
 10
-65.948776
 20
-689.37244
 40
104.50002
 50
174.3929
 51
179.99999
  0
ARC
  8
0
  6
CONTINUOUS
 62
     7
 10
-202.24602
 20
-623.62244
 40
22.249998
 50
257.83045
 51
282.16954
  0
ARC
  8
0
  6
CONTINUOUS
 62
     7
 10
-217.44881
 20
-601.6225
 40
44.249989
 50
270
 51
278.62136
  0
ARC
  8
0
  6
CONTINUOUS
 62
     7
 10
-200.94881
 20
-636.37244
 40
5
 50
360
 51
90.000003
  0
ARC
  8
0
  6
CONTINUOUS
 62
     7
 10
-194.45798
 20
-781.50592
 40
45.625206
 50
261.50982
 51
278.49018
  0
ARC
  8
0
  6
CONTINUOUS
 62
     7
 10
-215.31763
 20
-736.13068
 40
91.000397
 50
270
 51
276.00896
  0
ARC
  8
0
  6
CONTINUOUS
 62
     7
 10
-191.81763
 20
-815.23108
 40
6
 50
360
 51
90.000003
  0
ARC
  8
0
  6
CONTINUOUS
 62
     7
 10
-12.329963
 20
-606.14746
 40
38.125019
 50
260.71048
 51
279.28953
  0
ARC
  8
0
  6
CONTINUOUS
 62
     7
 10
-10.15409
 20
-633.37244
 40
5
 50
360
 51
90.000003
  0
ARC
  8
0
  6
CONTINUOUS
 62
     7
 10
-29.654091
 20
-568.27246
 40
76.000023
 50
270
 51
276.57588
  0
ARC
  8
0
  6
CONTINUOUS
 62
     7
 10
-238.81763
 20
-815.23108
 40
6
 50
89.999996
 51
180.00001
  0
ARC
  8
0
  6
CONTINUOUS
 62
     7
 10
-215.31763
 20
-736.13068
 40
91.000397
 50
263.99104
 51
270
  0
ARC
  8
0
  6
CONTINUOUS
 62
     7
 10
-236.17728
 20
-781.50592
 40
45.625206
 50
261.50983
 51
278.49018
  0
ARC
  8
0
  6
CONTINUOUS
 62
     7
 10
-245.31763
 20
-841.73108
 40
6.8000002
 50
270
 51
5.0089557E-006
  0
ARC
  8
0
  6
CONTINUOUS
 62
     7
 10
-247.81763
 20
-908.93109
 40
7
 50
89.999996
 51
186.56242
  0
ARC
  8
0
  6
CONTINUOUS
 62
     7
 10
-245.51762
 20
-840.24255
 40
7
 50
359.99999
 51
92.456282
  0
ARC
  8
0
  6
CONTINUOUS
 62
     7
 10
-247.81763
 20
-841.53107
 40
7
 50
180.00001
 51
270
  0
ARC
  8
0
  6
CONTINUOUS
 62
     7
 10
-249.81763
 20
-836.73108
 40
4
 50
270
 51
5.0089553E-006
  0
ARC
  8
0
  6
CONTINUOUS
 62
     7
 10
-274.31763
 20
-901.23108
 40
8
 50
180.00001
 51
270
  0
ARC
  8
0
  6
CONTINUOUS
 62
     7
 10
-314.69263
 20
-899.27271
 40
52.375008
 50
352.07669
 51
7.9233148
  0
ARC
  8
0
  6
CONTINUOUS
 62
     7
 10
-366.81763
 20
-875.23108
 40
104.50002
 50
354.3929
 51
359.99999
  0
ARC
  8
0
  6
CONTINUOUS
 62
     7
 10
-274.31763
 20
-849.23108
 40
8
 50
89.999996
 51
180.00001
  0
ARC
  8
0
  6
CONTINUOUS
 62
     7
 10
-314.69263
 20
-851.18945
 40
52.375008
 50
352.07669
 51
7.9233148
  0
ARC
  8
0
  6
CONTINUOUS
 62
     7
 10
-366.81763
 20
-875.23108
 40
104.50002
 50
8.6514222E-006
 51
5.6071021
  0
ARC
  8
0
  6
CONTINUOUS
 62
     7
 10
-232.6516
 20
-623.62244
 40
22.249998
 50
257.83046
 51
282.16955
  0
ARC
  8
0
  6
CONTINUOUS
 62
     7
 10
-233.94881
 20
-636.37244
 40
5
 50
89.999996
 51
180.00001
  0
ARC
  8
0
  6
CONTINUOUS
 62
     7
 10
-217.44881
 20
-601.6225
 40
44.249989
 50
261.37865
 51
270
  0
ARC
  8
0
  6
CONTINUOUS
 62
     7
 10
-238.44881
 20
-657.87244
 40
4.8000002
 50
270
 51
357.85634
  0
ARC
  8
0
  6
CONTINUOUS
 62
     7
 10
-249.94881
 20
-723.07245
 40
7
 50
89.999996
 51
180.00001
  0
ARC
  8
0
  6
CONTINUOUS
 62
     7
 10
-249.94881
 20
-655.67249
 40
7
 50
180.00001
 51
270
  0
ARC
  8
0
  6
CONTINUOUS
 62
     7
 10
-240.6488
 20
-658.26886
 40
7
 50
1.7750792
 51
80.129109
  0
ARC
  8
0
  6
CONTINUOUS
 62
     7
 10
-243.44881
 20
-650.87244
 40
4
 50
270
 51
5.0089553E-006
  0
ARC
  8
0
  6
CONTINUOUS
 62
     7
 10
-276.44882
 20
-715.37244
 40
8
 50
180.00001
 51
270
  0
ARC
  8
0
  6
CONTINUOUS
 62
     7
 10
-316.82382
 20
-713.41406
 40
52.375008
 50
352.07669
 51
7.9233148
  0
ARC
  8
0
  6
CONTINUOUS
 62
     7
 10
-368.94882
 20
-689.37244
 40
104.50002
 50
354.3929
 51
359.99999
  0
ARC
  8
0
  6
CONTINUOUS
 62
     7
 10
-276.44882
 20
-663.37244
 40
8
 50
89.999996
 51
180.00001
  0
ARC
  8
0
  6
CONTINUOUS
 62
     7
 10
-316.82382
 20
-665.33081
 40
52.375008
 50
352.07669
 51
7.9233148
  0
ARC
  8
0
  6
CONTINUOUS
 62
     7
 10
-368.94882
 20
-689.37244
 40
104.50002
 50
8.6514222E-006
 51
5.6071021
  0
ARC
  8
0
  6
CONTINUOUS
 62
     7
 10
-29.654091
 20
-568.27246
 40
76.000023
 50
263.42412
 51
270
  0
ARC
  8
0
  6
CONTINUOUS
 62
     7
 10
-46.978218
 20
-606.14746
 40
38.125019
 50
260.71048
 51
279.28952
  0
ARC
  8
0
  6
CONTINUOUS
 62
     7
 10
-49.154091
 20
-633.37244
 40
5
 50
89.999996
 51
180.00001
  0
ARC
  8
0
  6
CONTINUOUS
 62
     7
 10
-55.854103
 20
-657.3374
 40
7
 50
359.99999
 51
84.260827
  0
ARC
  8
0
  6
CONTINUOUS
 62
     7
 10
-62.154091
 20
-655.67249
 40
7
 50
180.00001
 51
270
  0
ARC
  8
0
  6
CONTINUOUS
 62
     7
 10
-62.154091
 20
-723.07245
 40
7
 50
89.999996
 51
180.00001
  0
ARC
  8
0
  6
CONTINUOUS
 62
     7
 10
-53.654091
 20
-657.87244
 40
4.8000002
 50
270
 51
5.0089565E-006
  0
ARC
  8
0
  6
CONTINUOUS
 62
     7
 10
-59.154091
 20
-650.87244
 40
4
 50
270
 51
5.0089553E-006
  0
ARC
  8
0
  6
CONTINUOUS
 62
     7
 10
-88.654091
 20
-715.37244
 40
8
 50
180.00001
 51
270
  0
ARC
  8
0
  6
CONTINUOUS
 62
     7
 10
-129.02908
 20
-713.41406
 40
52.375008
 50
352.07669
 51
7.9233148
  0
ARC
  8
0
  6
CONTINUOUS
 62
     7
 10
-181.15411
 20
-689.37244
 40
104.50002
 50
354.3929
 51
359.99999
  0
ARC
  8
0
  6
CONTINUOUS
 62
     7
 10
-88.654091
 20
-663.37244
 40
8
 50
89.999996
 51
180.00001
  0
ARC
  8
0
  6
CONTINUOUS
 62
     7
 10
-129.02908
 20
-665.33081
 40
52.375008
 50
352.07669
 51
7.9233148
  0
ARC
  8
0
  6
CONTINUOUS
 62
     7
 10
-181.15411
 20
-689.37244
 40
104.50002
 50
8.6514222E-006
 51
5.6071021
  0
ARC
  8
0
  6
CONTINUOUS
 62
     7
 10
-88.654091
 20
-715.37244
 40
8
 50
180.00001
 51
270
  0
ARC
  8
0
  6
CONTINUOUS
 62
     7
 10
-129.02908
 20
-713.41406
 40
52.375008
 50
352.07669
 51
7.9233148
  0
ARC
  8
0
  6
CONTINUOUS
 62
     7
 10
-181.15411
 20
-689.37244
 40
104.50002
 50
354.3929
 51
359.99999
  0
ARC
  8
0
  6
CONTINUOUS
 62
     7
 10
-88.654091
 20
-663.37244
 40
8
 50
89.999996
 51
180.00001
  0
ARC
  8
0
  6
CONTINUOUS
 62
     7
 10
-129.02908
 20
-665.33081
 40
52.375008
 50
352.07669
 51
7.9233148
  0
ARC
  8
0
  6
CONTINUOUS
 62
     7
 10
-181.15411
 20
-689.37244
 40
104.50002
 50
8.6514222E-006
 51
5.6071021
  0
ARC
  8
0
  6
CONTINUOUS
 62
     7
 10
3.7560215
 20
-835.53766
 40
3
 50
175.21482
 51
183.90671
  0
ARC
  8
0
  6
CONTINUOUS
 62
     7
 10
6.745554
 20
-835.7879
 40
6
 50
109.47122
 51
175.21482
  0
ARC
  8
0
  6
CONTINUOUS
 62
     7
 10
8.745554
 20
-829.23108
 40
4
 50
179.99999
 51
270
  0
ARC
  8
0
  6
CONTINUOUS
 62
     7
 10
22.745554
 20
-916.73108
 40
9
 50
0
 51
90.000003
  0
ARC
  8
0
  6
CONTINUOUS
 62
     7
 10
22.745554
 20
-833.73108
 40
9
 50
270
 51
0
  0
ARC
  8
0
  6
CONTINUOUS
 62
     7
 10
8.245554
 20
-835.23108
 40
7.5
 50
183.9067
 51
270
  0
ARC
  8
0
  6
CONTINUOUS
 62
     7
 10
-180.26779
 20
-1061.3866
 40
9
 50
0
 51
90.000003
  0
ARC
  8
0
  6
CONTINUOUS
 62
     7
 10
-191.76779
 20
-979.8866
 40
7.5
 50
185.49679
 51
270
  0
ARC
  8
0
  6
CONTINUOUS
 62
     7
 10
-180.26779
 20
-978.3866
 40
9
 50
270
 51
0
  0
ARC
  8
0
  6
CONTINUOUS
 62
     7
 10
-192.26779
 20
-980.724
 40
7
 50
102.37363
 51
174.1695
  0
ARC
  8
0
  6
CONTINUOUS
 62
     7
 10
-196.2471
 20
-980.31763
 40
3
 50
174.1695
 51
185.49679
  0
ARC
  8
0
  6
CONTINUOUS
 62
     7
 10
-189.76779
 20
-973.8866
 40
4
 50
179.99999
 51
270
  0
ARC
  8
0
  6
CONTINUOUS
 62
     7
 10
-182.3054
 20
-1147.1248
 40
7.5
 50
183.95829
 51
270
  0
ARC
  8
0
  6
CONTINUOUS
 62
     7
 10
-177.8054
 20
-1228.6248
 40
9
 50
0
 51
90.000003
  0
ARC
  8
0
  6
CONTINUOUS
 62
     7
 10
-182.8054
 20
-1148.1426
 40
7
 50
90.000003
 51
175.90271
  0
ARC
  8
0
  6
CONTINUOUS
 62
     7
 10
-177.8054
 20
-1145.6248
 40
9
 50
270
 51
0
  0
ARC
  8
0
  6
CONTINUOUS
 62
     7
 10
-178.8054
 20
-1141.1248
 40
4
 50
179.99999
 51
270
  0
ARC
  8
0
  6
CONTINUOUS
 62
     7
 10
123.99537
 20
-846.23969
 40
84.249809
 50
173.75468
 51
186.2453
  0
ARC
  8
0
  6
CONTINUOUS
 62
     7
 10
207.99519
 20
-875.23108
 40
168.24962
 50
175.58172
 51
180.00001
  0
ARC
  8
0
  6
CONTINUOUS
 62
     7
 10
55.245552
 20
-842.23108
 40
8
 50
0
 51
90.000003
  0
ARC
  8
0
  6
CONTINUOUS
 62
     7
 10
55.245552
 20
-908.23108
 40
8
 50
270
 51
0
  0
ARC
  8
0
  6
CONTINUOUS
 62
     7
 10
207.99519
 20
-875.23108
 40
168.24962
 50
179.99999
 51
184.41828
  0
ARC
  8
0
  6
CONTINUOUS
 62
     7
 10
123.99537
 20
-904.22241
 40
84.249809
 50
173.7547
 51
186.24531
  0
ARC
  8
0
  6
CONTINUOUS
 62
     7
 10
-79.017982
 20
-990.8952
 40
84.249809
 50
173.75468
 51
186.2453
  0
ARC
  8
0
  6
CONTINUOUS
 62
     7
 10
4.9818368
 20
-1019.8866
 40
168.24962
 50
175.58172
 51
180.00001
  0
ARC
  8
0
  6
CONTINUOUS
 62
     7
 10
-147.76779
 20
-986.8866
 40
8
 50
0
 51
90.000003
  0
ARC
  8
0
  6
CONTINUOUS
 62
     7
 10
-147.76779
 20
-1052.8866
 40
8
 50
270
 51
0
  0
ARC
  8
0
  6
CONTINUOUS
 62
     7
 10
4.9818368
 20
-1019.8866
 40
168.24962
 50
179.99999
 51
184.41828
  0
ARC
  8
0
  6
CONTINUOUS
 62
     7
 10
-79.017982
 20
-1048.8779
 40
84.249809
 50
173.7547
 51
186.24531
  0
ARC
  8
0
  6
CONTINUOUS
 62
     7
 10
-76.555588
 20
-1158.1333
 40
84.249809
 50
173.75468
 51
186.2453
  0
ARC
  8
0
  6
CONTINUOUS
 62
     7
 10
7.4442306
 20
-1187.1248
 40
168.24962
 50
175.58172
 51
180.00001
  0
ARC
  8
0
  6
CONTINUOUS
 62
     7
 10
-145.3054
 20
-1154.1248
 40
8
 50
0
 51
90.000003
  0
ARC
  8
0
  6
CONTINUOUS
 62
     7
 10
-145.3054
 20
-1220.1248
 40
8
 50
270
 51
0
  0
ARC
  8
0
  6
CONTINUOUS
 62
     7
 10
7.4442306
 20
-1187.1248
 40
168.24962
 50
179.99999
 51
184.41828
  0
ARC
  8
0
  6
CONTINUOUS
 62
     7
 10
-76.555588
 20
-1216.1161
 40
84.249809
 50
173.7547
 51
186.24531
  0
ARC
  8
0
  6
CONTINUOUS
 62
     7
 10
12.118529
 20
-979.21582
 40
7.5
 50
183.60907
 51
270
  0
ARC
  8
0
  6
CONTINUOUS
 62
     7
 10
20.61853
 20
-1060.7158
 40
9
 50
0
 51
90.000003
  0
ARC
  8
0
  6
CONTINUOUS
 62
     7
 10
20.61853
 20
-977.71582
 40
9
 50
270
 51
0
  0
ARC
  8
0
  6
CONTINUOUS
 62
     7
 10
11.618529
 20
-980.14404
 40
7
 50
98.213209
 51
176.26421
  0
ARC
  8
0
  6
CONTINUOUS
 62
     7
 10
14.61853
 20
-973.21582
 40
4
 50
179.99999
 51
270
  0
ARC
  8
0
  6
CONTINUOUS
 62
     7
 10
121.86835
 20
-990.22443
 40
84.249809
 50
173.75468
 51
186.2453
  0
ARC
  8
0
  6
CONTINUOUS
 62
     7
 10
205.86816
 20
-1019.2158
 40
168.24962
 50
175.58172
 51
180.00001
  0
ARC
  8
0
  6
CONTINUOUS
 62
     7
 10
53.118526
 20
-986.21582
 40
8
 50
0
 51
90.000003
  0
ARC
  8
0
  6
CONTINUOUS
 62
     7
 10
53.118526
 20
-1052.2158
 40
8
 50
270
 51
0
  0
ARC
  8
0
  6
CONTINUOUS
 62
     7
 10
205.86816
 20
-1019.2158
 40
168.24962
 50
179.99999
 51
184.41828
  0
ARC
  8
0
  6
CONTINUOUS
 62
     7
 10
121.86835
 20
-1048.2073
 40
84.249809
 50
173.7547
 51
186.24531
  0
ARC
  8
0
  6
CONTINUOUS
 62
     7
 10
-0.73363316
 20
-807.66681
 40
17.064236
 50
256.09586
 51
283.90414
  0
ARC
  8
0
  6
CONTINUOUS
 62
     7
 10
-12.754446
 20
-790.8526
 40
33.878471
 50
270.00001
 51
279.85588
  0
ARC
  8
0
  6
CONTINUOUS
 62
     7
 10
-0.75444615
 20
-816.23108
 40
5
 50
360
 51
90.000003
  0
ARC
  8
0
  6
CONTINUOUS
 62
     7
 10
-200.56497
 20
-946.1366
 40
22.249998
 50
257.83045
 51
282.16954
  0
ARC
  8
0
  6
CONTINUOUS
 62
     7
 10
-215.76779
 20
-924.1366
 40
44.249989
 50
270
 51
278.62136
  0
ARC
  8
0
  6
CONTINUOUS
 62
     7
 10
-199.26779
 20
-958.8866
 40
5
 50
360
 51
90.000003
  0
ARC
  8
0
  6
CONTINUOUS
 62
     7
 10
-192.44576
 20
-1089.3995
 40
45.625206
 50
261.50982
 51
278.49018
  0
ARC
  8
0
  6
CONTINUOUS
 62
     7
 10
-213.3054
 20
-1044.0243
 40
91.000397
 50
270
 51
276.00896
  0
ARC
  8
0
  6
CONTINUOUS
 62
     7
 10
-189.8054
 20
-1123.1248
 40
6
 50
360
 51
90.000003
  0
ARC
  8
0
  6
CONTINUOUS
 62
     7
 10
2.442657
 20
-928.99078
 40
38.125019
 50
260.71048
 51
279.28953
  0
ARC
  8
0
  6
CONTINUOUS
 62
     7
 10
4.6185298
 20
-956.21582
 40
5
 50
360
 51
90.000003
  0
ARC
  8
0
  6
CONTINUOUS
 62
     7
 10
-14.881471
 20
-891.11578
 40
76.000023
 50
270
 51
276.57588
  0
ARC
  8
0
  6
CONTINUOUS
 62
     7
 10
-14.881471
 20
-891.11578
 40
76.000023
 50
263.42412
 51
270
  0
ARC
  8
0
  6
CONTINUOUS
 62
     7
 10
-32.205566
 20
-928.99078
 40
38.125019
 50
260.71048
 51
279.28952
  0
ARC
  8
0
  6
CONTINUOUS
 62
     7
 10
-34.381458
 20
-956.21582
 40
5
 50
89.999996
 51
180.00001
  0
ARC
  8
0
  6
CONTINUOUS
 62
     7
 10
-41.881458
 20
-979.21582
 40
7.5
 50
270
 51
356.39093
  0
ARC
  8
0
  6
CONTINUOUS
 62
     7
 10
-50.381458
 20
-1060.7158
 40
9
 50
89.999996
 51
180.00001
  0
ARC
  8
0
  6
CONTINUOUS
 62
     7
 10
-50.381458
 20
-977.71582
 40
9
 50
180.00001
 51
270
  0
ARC
  8
0
  6
CONTINUOUS
 62
     7
 10
-41.381458
 20
-980.14404
 40
7
 50
3.7357942
 51
81.786789
  0
ARC
  8
0
  6
CONTINUOUS
 62
     7
 10
-44.381458
 20
-973.21582
 40
4
 50
270
 51
5.0089553E-006
  0
ARC
  8
0
  6
CONTINUOUS
 62
     7
 10
-151.63127
 20
-990.22443
 40
84.249809
 50
353.7547
 51
6.2453149
  0
ARC
  8
0
  6
CONTINUOUS
 62
     7
 10
-235.63107
 20
-1019.2158
 40
168.24962
 50
359.99999
 51
4.4182803
  0
ARC
  8
0
  6
CONTINUOUS
 62
     7
 10
-82.881454
 20
-986.21582
 40
8
 50
89.999996
 51
180.00001
  0
ARC
  8
0
  6
CONTINUOUS
 62
     7
 10
-82.881454
 20
-1052.2158
 40
8
 50
180.00001
 51
270
  0
ARC
  8
0
  6
CONTINUOUS
 62
     7
 10
-235.63107
 20
-1019.2158
 40
168.24962
 50
355.58172
 51
8.6514222E-006
  0
ARC
  8
0
  6
CONTINUOUS
 62
     7
 10
-151.63127
 20
-1048.2073
 40
84.249809
 50
353.75469
 51
6.2453013
  0
ARC
  8
0
  6
CONTINUOUS
 62
     7
 10
-234.16505
 20
-1089.3995
 40
45.625206
 50
261.50983
 51
278.49018
  0
ARC
  8
0
  6
CONTINUOUS
 62
     7
 10
-213.3054
 20
-1044.0243
 40
91.000397
 50
263.99104
 51
270
  0
ARC
  8
0
  6
CONTINUOUS
 62
     7
 10
-236.8054
 20
-1123.1248
 40
6
 50
89.999996
 51
180.00001
  0
ARC
  8
0
  6
CONTINUOUS
 62
     7
 10
-244.3054
 20
-1147.1248
 40
7.5
 50
270
 51
356.04171
  0
ARC
  8
0
  6
CONTINUOUS
 62
     7
 10
-248.8054
 20
-1228.6248
 40
9
 50
89.999996
 51
180.00001
  0
ARC
  8
0
  6
CONTINUOUS
 62
     7
 10
-243.8054
 20
-1148.1426
 40
7
 50
4.0972888
 51
89.999996
  0
ARC
  8
0
  6
CONTINUOUS
 62
     7
 10
-248.8054
 20
-1145.6248
 40
9
 50
180.00001
 51
270
  0
ARC
  8
0
  6
CONTINUOUS
 62
     7
 10
-247.8054
 20
-1141.1248
 40
4
 50
270
 51
5.0089569E-006
  0
ARC
  8
0
  6
CONTINUOUS
 62
     7
 10
-350.05518
 20
-1158.1333
 40
84.249809
 50
353.7547
 51
6.2453149
  0
ARC
  8
0
  6
CONTINUOUS
 62
     7
 10
-434.05499
 20
-1187.1248
 40
168.24962
 50
359.99999
 51
4.4182803
  0
ARC
  8
0
  6
CONTINUOUS
 62
     7
 10
-281.30539
 20
-1154.1248
 40
8
 50
89.999996
 51
180.00001
  0
ARC
  8
0
  6
CONTINUOUS
 62
     7
 10
-281.30539
 20
-1220.1248
 40
8
 50
180.00001
 51
270
  0
ARC
  8
0
  6
CONTINUOUS
 62
     7
 10
-434.05499
 20
-1187.1248
 40
168.24962
 50
355.58172
 51
8.6514222E-006
  0
ARC
  8
0
  6
CONTINUOUS
 62
     7
 10
-350.05518
 20
-1216.1161
 40
84.249809
 50
353.75469
 51
6.2453013
  0
ARC
  8
0
  6
CONTINUOUS
 62
     7
 10
-230.97058
 20
-946.1366
 40
22.249998
 50
257.83046
 51
282.16955
  0
ARC
  8
0
  6
CONTINUOUS
 62
     7
 10
-215.76779
 20
-924.1366
 40
44.249989
 50
261.37865
 51
270
  0
ARC
  8
0
  6
CONTINUOUS
 62
     7
 10
-232.26779
 20
-958.8866
 40
5
 50
89.999996
 51
180.00001
  0
ARC
  8
0
  6
CONTINUOUS
 62
     7
 10
-251.26779
 20
-1061.3866
 40
9
 50
89.999996
 51
180.00001
  0
ARC
  8
0
  6
CONTINUOUS
 62
     7
 10
-239.76779
 20
-979.8866
 40
7.5
 50
270
 51
354.50321
  0
ARC
  8
0
  6
CONTINUOUS
 62
     7
 10
-251.26779
 20
-978.3866
 40
9
 50
180.00001
 51
270
  0
ARC
  8
0
  6
CONTINUOUS
 62
     7
 10
-239.26779
 20
-980.724
 40
7
 50
5.8305039
 51
77.62637
  0
ARC
  8
0
  6
CONTINUOUS
 62
     7
 10
-235.28848
 20
-980.31763
 40
3
 50
354.50321
 51
5.8305039
  0
ARC
  8
0
  6
CONTINUOUS
 62
     7
 10
-241.76779
 20
-973.8866
 40
4
 50
270
 51
5.0089553E-006
  0
ARC
  8
0
  6
CONTINUOUS
 62
     7
 10
-352.51758
 20
-990.8952
 40
84.249809
 50
353.7547
 51
6.2453149
  0
ARC
  8
0
  6
CONTINUOUS
 62
     7
 10
-436.5174
 20
-1019.8866
 40
168.24962
 50
359.99999
 51
4.4182803
  0
ARC
  8
0
  6
CONTINUOUS
 62
     7
 10
-283.76779
 20
-986.8866
 40
8
 50
89.999996
 51
180.00001
  0
ARC
  8
0
  6
CONTINUOUS
 62
     7
 10
-283.76779
 20
-1052.8866
 40
8
 50
180.00001
 51
270
  0
ARC
  8
0
  6
CONTINUOUS
 62
     7
 10
-436.5174
 20
-1019.8866
 40
168.24962
 50
355.58172
 51
8.6514222E-006
  0
ARC
  8
0
  6
CONTINUOUS
 62
     7
 10
-352.51758
 20
-1048.8779
 40
84.249809
 50
353.75469
 51
6.2453013
  0
ARC
  8
0
  6
CONTINUOUS
 62
     7
 10
-24.775244
 20
-807.66681
 40
17.064236
 50
256.09586
 51
283.90415
  0
ARC
  8
0
  6
CONTINUOUS
 62
     7
 10
-12.754446
 20
-790.8526
 40
33.878471
 50
260.14412
 51
269.99999
  0
ARC
  8
0
  6
CONTINUOUS
 62
     7
 10
-24.754431
 20
-816.23108
 40
5
 50
89.999996
 51
180.00001
  0
ARC
  8
0
  6
CONTINUOUS
 62
     7
 10
-29.264883
 20
-835.53766
 40
3
 50
356.09329
 51
4.7851844
  0
ARC
  8
0
  6
CONTINUOUS
 62
     7
 10
-32.254433
 20
-835.7879
 40
6
 50
4.7851844
 51
70.528779
  0
ARC
  8
0
  6
CONTINUOUS
 62
     7
 10
-34.254433
 20
-829.23108
 40
4
 50
270
 51
5.0089553E-006
  0
ARC
  8
0
  6
CONTINUOUS
 62
     7
 10
-48.254433
 20
-916.73108
 40
9
 50
89.999996
 51
180.00001
  0
ARC
  8
0
  6
CONTINUOUS
 62
     7
 10
-48.254433
 20
-833.73108
 40
9
 50
180.00001
 51
270
  0
ARC
  8
0
  6
CONTINUOUS
 62
     7
 10
-33.754433
 20
-835.23108
 40
7.5
 50
270
 51
356.0933
  0
ARC
  8
0
  6
CONTINUOUS
 62
     7
 10
-149.50424
 20
-846.23969
 40
84.249809
 50
353.7547
 51
6.2453149
  0
ARC
  8
0
  6
CONTINUOUS
 62
     7
 10
-233.50404
 20
-875.23108
 40
168.24962
 50
359.99999
 51
4.4182803
  0
ARC
  8
0
  6
CONTINUOUS
 62
     7
 10
-80.754433
 20
-842.23108
 40
8
 50
89.999996
 51
180.00001
  0
ARC
  8
0
  6
CONTINUOUS
 62
     7
 10
-80.754433
 20
-908.23108
 40
8
 50
180.00001
 51
270
  0
ARC
  8
0
  6
CONTINUOUS
 62
     7
 10
-233.50404
 20
-875.23108
 40
168.24962
 50
355.58172
 51
8.6514222E-006
  0
ARC
  8
0
  6
CONTINUOUS
 62
     7
 10
-149.50424
 20
-904.22241
 40
84.249809
 50
353.75469
 51
6.2453013
  0
ARC
  8
0
  6
CONTINUOUS
 62
     7
 10
23.080923
 20
-1229.9662
 40
9
 50
0
 51
90.000003
  0
ARC
  8
0
  6
CONTINUOUS
 62
     7
 10
23.094809
 20
-1146.9662
 40
9
 50
270
 51
356.81526
  0
ARC
  8
0
  6
CONTINUOUS
 62
     7
 10
22.080923
 20
-1148.4662
 40
7.5
 50
196.50452
 51
270
  0
ARC
  8
0
  6
CONTINUOUS
 62
     7
 10
21.580923
 20
-1150.9484
 40
7
 50
94.096046
 51
162.48668
  0
ARC
  8
0
  6
CONTINUOUS
 62
     7
 10
17.766348
 20
-1149.7446
 40
3
 50
162.48668
 51
196.50452
  0
ARC
  8
0
  6
CONTINUOUS
 62
     7
 10
26.080923
 20
-1142.4662
 40
4
 50
179.99999
 51
270
  0
ARC
  8
0
  6
CONTINUOUS
 62
     7
 10
124.33074
 20
-1159.4749
 40
84.249809
 50
173.75468
 51
186.2453
  0
ARC
  8
0
  6
CONTINUOUS
 62
     7
 10
208.33052
 20
-1188.4662
 40
168.24962
 50
175.58172
 51
180.00001
  0
ARC
  8
0
  6
CONTINUOUS
 62
     7
 10
55.580925
 20
-1155.4662
 40
8
 50
0
 51
90.000003
  0
ARC
  8
0
  6
CONTINUOUS
 62
     7
 10
55.580925
 20
-1221.4662
 40
8
 50
270
 51
0
  0
ARC
  8
0
  6
CONTINUOUS
 62
     7
 10
208.33052
 20
-1188.4662
 40
168.24962
 50
179.99999
 51
184.41828
  0
ARC
  8
0
  6
CONTINUOUS
 62
     7
 10
124.33074
 20
-1217.4575
 40
84.249809
 50
173.7547
 51
186.24531
  0
ARC
  8
0
  6
CONTINUOUS
 62
     7
 10
13.580923
 20
-1124.4662
 40
8
 50
360
 51
90.000003
  0
ARC
  8
0
  6
CONTINUOUS
 62
     7
 10
11.622549
 20
-1084.0912
 40
52.375008
 50
262.07668
 51
277.92331
  0
ARC
  8
0
  6
CONTINUOUS
 62
     7
 10
-12.419077
 20
-1031.9662
 40
104.50002
 50
270
 51
275.6071
  0
ARC
  8
0
  6
CONTINUOUS
 62
     7
 10
-12.419077
 20
-1031.9662
 40
104.50002
 50
264.3929
 51
270
  0
ARC
  8
0
  6
CONTINUOUS
 62
     7
 10
-36.460701
 20
-1084.0912
 40
52.375008
 50
262.07669
 51
277.92332
  0
ARC
  8
0
  6
CONTINUOUS
 62
     7
 10
-38.41906
 20
-1124.4662
 40
8
 50
89.999996
 51
180.00001
  0
ARC
  8
0
  6
CONTINUOUS
 62
     7
 10
-47.919075
 20
-1229.9662
 40
9
 50
89.999996
 51
180.00001
  0
ARC
  8
0
  6
CONTINUOUS
 62
     7
 10
-47.932961
 20
-1146.9662
 40
9
 50
183.18473
 51
270
  0
ARC
  8
0
  6
CONTINUOUS
 62
     7
 10
-46.919075
 20
-1148.4662
 40
7.5
 50
270
 51
343.49548
  0
ARC
  8
0
  6
CONTINUOUS
 62
     7
 10
-46.419075
 20
-1150.9484
 40
7
 50
17.513324
 51
85.903952
  0
ARC
  8
0
  6
CONTINUOUS
 62
     7
 10
-42.604485
 20
-1149.7446
 40
3
 50
343.49548
 51
17.513324
  0
ARC
  8
0
  6
CONTINUOUS
 62
     7
 10
-50.919075
 20
-1142.4662
 40
4
 50
270
 51
5.0089569E-006
  0
ARC
  8
0
  6
CONTINUOUS
 62
     7
 10
-149.16887
 20
-1159.4749
 40
84.249809
 50
353.7547
 51
6.2453149
  0
ARC
  8
0
  6
CONTINUOUS
 62
     7
 10
-233.16869
 20
-1188.4662
 40
168.24962
 50
359.99999
 51
4.4182803
  0
ARC
  8
0
  6
CONTINUOUS
 62
     7
 10
-80.41906
 20
-1155.4662
 40
8
 50
89.999996
 51
180.00001
  0
ARC
  8
0
  6
CONTINUOUS
 62
     7
 10
-80.41906
 20
-1221.4662
 40
8
 50
180.00001
 51
270
  0
ARC
  8
0
  6
CONTINUOUS
 62
     7
 10
-233.16869
 20
-1188.4662
 40
168.24962
 50
355.58172
 51
8.6514222E-006
  0
ARC
  8
0
  6
CONTINUOUS
 62
     7
 10
-149.16887
 20
-1217.4575
 40
84.249809
 50
353.75469
 51
6.2453013
  0
ARC
  8
0
  6
CONTINUOUS
 62
     7
 10
-257.04822
 20
-1514.4595
 40
22.249998
 50
347.83046
 51
12.169548
  0
ARC
  8
0
  6
CONTINUOUS
 62
     7
 10
-279.04822
 20
-1499.2566
 40
44.249989
 50
351.37864
 51
359.99999
  0
ARC
  8
0
  6
CONTINUOUS
 62
     7
 10
-244.29822
 20
-1515.7566
 40
5
 50
179.99999
 51
270
  0
ARC
  8
0
  6
CONTINUOUS
 62
     7
 10
-190.2774
 20
-1452.6927
 40
17.064236
 50
256.09586
 51
283.90414
  0
ARC
  8
0
  6
CONTINUOUS
 62
     7
 10
-202.29822
 20
-1435.8785
 40
33.878471
 50
270.00001
 51
279.85588
  0
ARC
  8
0
  6
CONTINUOUS
 62
     7
 10
-190.29822
 20
-1461.257
 40
5
 50
360
 51
90.000003
  0
ARC
  8
0
  6
CONTINUOUS
 62
     7
 10
-184.29822
 20
-1481.2566
 40
5.8000002
 50
179.99999
 51
227.50707
  0
ARC
  8
0
  6
CONTINUOUS
 62
     7
 10
-222.30109
 20
-1477.0566
 40
7
 50
181.63726
 51
270
  0
ARC
  8
0
  6
CONTINUOUS
 62
     7
 10
-190.2486
 20
-1631.4567
 40
120
 50
90.000003
 51
101.47834
  0
ARC
  8
0
  6
CONTINUOUS
 62
     7
 10
-189.79822
 20
-1463.124
 40
0.80000001
 50
360
 51
29.999997
  0
ARC
  8
0
  6
CONTINUOUS
 62
     7
 10
-222.30109
 20
-1521.4567
 40
7
 50
90.000003
 51
176.85881
  0
ARC
  8
0
  6
CONTINUOUS
 62
     7
 10
-188.15724
 20
-1517.4567
 40
6
 50
6.699756
 51
90.000003
  0
ARC
  8
0
  6
CONTINUOUS
 62
     7
 10
-188.15724
 20
-1481.0566
 40
6
 50
310.98599
 51
353.30026
  0
ARC
  8
0
  6
CONTINUOUS
 62
     7
 10
-220.09822
 20
-1484.4567
 40
30
 50
270
 51
281.47834
  0
ARC
  8
0
  6
CONTINUOUS
 62
     7
 10
-184.09822
 20
-1481.1156
 40
6
 50
96.699762
 51
180.00001
  0
ARC
  8
0
  6
CONTINUOUS
 62
     7
 10
-220.29822
 20
-1478.2566
 40
5.8000002
 50
270
 51
329.92567
  0
ARC
  8
0
  6
CONTINUOUS
 62
     7
 10
-220.49823
 20
-1481.1156
 40
6
 50
29.031743
 51
83.300236
  0
ARC
  8
0
  6
CONTINUOUS
 62
     7
 10
-186.18962
 20
-1483.3213
 40
3
 50
227.50708
 51
310.98599
  0
ARC
  8
0
  6
CONTINUOUS
 62
     7
 10
-217.87517
 20
-1479.6598
 40
3
 50
329.92567
 51
29.031743
  0
ARC
  8
0
  6
CONTINUOUS
 62
     7
 10
-182.79822
 20
-1479.7566
 40
2
 50
179.99999
 51
270
  0
ARC
  8
0
  6
CONTINUOUS
 62
     7
 10
-221.79822
 20
-1475.2566
 40
2
 50
270
 51
0
  0
ARC
  8
0
  6
CONTINUOUS
 62
     7
 10
-244.29822
 20
-1482.7566
 40
5
 50
90.000003
 51
180.00001
  0
ARC
  8
0
  6
CONTINUOUS
 62
     7
 10
-257.04822
 20
-1484.0538
 40
22.249998
 50
347.83045
 51
12.169544
  0
ARC
  8
0
  6
CONTINUOUS
 62
     7
 10
-279.04822
 20
-1499.2566
 40
44.249989
 50
5.0089561E-006
 51
8.6213568
  0
ARC
  8
0
  6
CONTINUOUS
 62
     7
 10
-202.29822
 20
-1435.8785
 40
33.878471
 50
260.14412
 51
269.99999
  0
ARC
  8
0
  6
CONTINUOUS
 62
     7
 10
-214.29822
 20
-1461.257
 40
5
 50
90.000003
 51
180.00001
  0
ARC
  8
0
  6
CONTINUOUS
 62
     7
 10
-214.79822
 20
-1463.124
 40
0.80000001
 50
150
 51
180.00001
  0
ARC
  8
0
  6
CONTINUOUS
 62
     7
 10
-214.31903
 20
-1452.6927
 40
17.064236
 50
256.09586
 51
283.90415
  0
ARC
  8
0
  6
CONTINUOUS
 62
     7
 10
-159.73398
 20
-1487.2358
 40
17.064236
 50
166.09586
 51
193.90414
  0
ARC
  8
0
  6
CONTINUOUS
 62
     7
 10
-170.16521
 20
-1486.7566
 40
0.80000001
 50
60.000002
 51
90.000003
  0
ARC
  8
0
  6
CONTINUOUS
 62
     7
 10
-168.29822
 20
-1487.2566
 40
5
 50
0
 51
90.000003
  0
ARC
  8
0
  6
CONTINUOUS
 62
     7
 10
-159.73398
 20
-1511.2775
 40
17.064236
 50
166.09586
 51
193.90414
  0
ARC
  8
0
  6
CONTINUOUS
 62
     7
 10
-142.91974
 20
-1499.2566
 40
33.878471
 50
180.00001
 51
189.85588
  0
ARC
  8
0
  6
CONTINUOUS
 62
     7
 10
-168.29822
 20
-1511.2566
 40
5
 50
270
 51
0
  0
ARC
  8
0
  6
CONTINUOUS
 62
     7
 10
-170.16521
 20
-1511.7566
 40
0.80000001
 50
270
 51
300
  0
ARC
  8
0
  6
CONTINUOUS
 62
     7
 10
-142.91974
 20
-1499.2566
 40
33.878471
 50
170.14412
 51
179.99999
  0
TEXT
  8
0
  6
CONTINUOUS
 62
     7
 10
-448.18668
 20
100.9722
 40
3.2
 41
1.0285716
  1
13
  0
TEXT
  8
0
  6
CONTINUOUS
 62
     7
 10
-449.74558
 20
58.88214
 40
3.2
 41
1.0285716
  1
20
  0
TEXT
  8
0
  6
CONTINUOUS
 62
     7
 10
-452.86335
 20
7.4387392
 40
3.2
 41
1.0285716
  1
25
  0
TEXT
  8
0
  6
CONTINUOUS
 62
     7
 10
-450.52503
 20
-56.47579
 40
3.2
 41
1.0285716
  1
30
  0
TEXT
  8
0
  6
CONTINUOUS
 62
     7
 10
-450.18433
 20
-132.60479
 40
3.2
 41
1.0285716
  1
40
  0
TEXT
  8
0
  6
CONTINUOUS
 62
     7
 10
-443.42539
 20
-210.33271
 40
3.2
 41
1.0285716
  1
50
  0
TEXT
  8
0
  6
CONTINUOUS
 62
     7
 10
-450.54114
 20
-310.81277
 40
3.2
 41
1.0285716
  1
60
  0
TEXT
  8
0
  6
CONTINUOUS
 62
     7
 10
-282.77682
 20
118.76988
 40
8
 41
0.84273711
  1
コマサスフィット継手　径違いチ－ズ
  0
TEXT
  8
0
  6
CONTINUOUS
 62
     7
 10
-252.86855
 20
84.639046
 40
8
 41
0.84892707
  1
２０×１３
  0
TEXT
  8
0
  6
CONTINUOUS
 62
     7
 10
-129.11614
 20
89.639137
 40
8
 41
0.84892707
  1
２５×１３
  0
TEXT
  8
0
  6
CONTINUOUS
 62
     7
 10
2.1364207
 20
93.389214
 40
8
 41
0.84892707
  1
２５×２０
  0
TEXT
  8
0
  6
CONTINUOUS
 62
     7
 10
-247.86844
 20
-15.362904
 40
8
 41
0.84892707
  1
３０×１３
  0
TEXT
  8
0
  6
CONTINUOUS
 62
     7
 10
-117.86592
 20
-14.11288
 40
8
 41
0.84892707
  1
３０×２０
  0
TEXT
  8
0
  6
CONTINUOUS
 62
     7
 10
9.6365671
 20
-16.612928
 40
8
 41
0.84892707
  1
３０×２５
  0
TEXT
  8
0
  6
CONTINUOUS
 62
     7
 10
-224.04254
 20
-201.18704
 40
8
 41
0.84892707
  1
４０×１３
  0
TEXT
  8
0
  6
CONTINUOUS
 62
     7
 10
-47.239542
 20
-200.3665
 40
8
 41
0.84892707
  1
４０×２０
  0
TEXT
  8
0
  6
CONTINUOUS
 62
     7
 10
-222.24295
 20
-321.61887
 40
8
 41
0.84892707
  1
４０×２５
  0
TEXT
  8
0
  6
CONTINUOUS
 62
     7
 10
-48.489565
 20
-322.8689
 40
8
 41
0.84892707
  1
４０×３０
  0
TEXT
  8
0
  6
CONTINUOUS
 62
     7
 10
-237.86826
 20
-487.8721
 40
8
 41
0.84892707
  1
５０×１３
  0
TEXT
  8
0
  6
CONTINUOUS
 62
     7
 10
-55.364698
 20
-487.8721
 40
8
 41
0.84892707
  1
５０×２０
  0
TEXT
  8
0
  6
CONTINUOUS
 62
     7
 10
-235.36821
 20
-620.37469
 40
8
 41
0.84892707
  1
５０×２５
  0
TEXT
  8
0
  6
CONTINUOUS
 62
     7
 10
-52.864649
 20
-615.37457
 40
8
 41
0.84892707
  1
５０×３０
  0
TEXT
  8
0
  6
CONTINUOUS
 62
     7
 10
-233.49317
 20
-794.12805
 40
8
 41
0.84892707
  1
５０×４０
  0
TEXT
  8
0
  6
CONTINUOUS
 62
     7
 10
-30.989223
 20
-796.62811
 40
8
 41
0.84892707
  1
６０×２０
  0
TEXT
  8
0
  6
CONTINUOUS
 62
     7
 10
-234.7432
 20
-942.88098
 40
8
 41
0.84892707
  1
６０×２５
  0
TEXT
  8
0
  6
CONTINUOUS
 62
     7
 10
-229.74309
 20
-1099.134
 40
8
 41
0.84892707
  1
６０×４０
  0
TEXT
  8
0
  6
CONTINUOUS
 62
     7
 10
-30.989223
 20
-939.13092
 40
8
 41
0.84892707
  1
６０×３０
  0
TEXT
  8
0
  6
CONTINUOUS
 62
     7
 10
-29.739201
 20
-1099.134
 40
8
 41
0.84892707
  1
６０×５０
  0
TEXT
  8
0
  6
CONTINUOUS
 62
     7
 10
-227.67961
 20
-1438.0978
 40
8
 41
1.0062112
  1
25X20X20
  0
POINT
  8
1
  6
CONTINUOUS
 62
     7
 10
-311.3107
 20
-470.71918
  0
POINT
  8
1
  6
CONTINUOUS
 62
     7
 10
-311.3107
 20
-153.71919
  0
POINT
  8
1
  6
CONTINUOUS
 62
     7
 10
-311.3107
 20
-1688.7192
  0
POINT
  8
1
  6
CONTINUOUS
 62
     7
 10
108.68929
 20
-153.71919
  0
POINT
  8
1
  6
CONTINUOUS
 62
     7
 10
-311.3107
 20
-1698.7192
  0
POINT
  8
1
  6
CONTINUOUS
 62
     7
 10
-311.3107
 20
143.28081
  0
POINT
  8
1
  6
CONTINUOUS
 62
     7
 10
-311.3107
 20
-153.71919
  0
POINT
  8
1
  6
CONTINUOUS
 62
     7
 10
-311.3107
 20
-163.71919
  0
POINT
  8
1
  6
CONTINUOUS
 62
     7
 10
-311.3107
 20
-163.71919
  0
POINT
  8
1
  6
CONTINUOUS
 62
     7
 10
-311.3107
 20
-460.71918
  0
POINT
  8
1
  6
CONTINUOUS
 62
     7
 10
-311.3107
 20
-1391.7192
  0
POINT
  8
1
  6
CONTINUOUS
 62
     7
 10
-311.3107
 20
-767.71918
  0
POINT
  8
1
  6
CONTINUOUS
 62
     7
 10
-311.3107
 20
-777.71918
  0
POINT
  8
1
  6
CONTINUOUS
 62
     7
 10
-311.3107
 20
-470.71918
  0
POINT
  8
1
  6
CONTINUOUS
 62
     7
 10
-311.3107
 20
-1074.7192
  0
POINT
  8
1
  6
CONTINUOUS
 62
     7
 10
-311.3107
 20
-1084.7192
  0
POINT
  8
1
  6
CONTINUOUS
 62
     7
 10
-311.3107
 20
-777.71918
  0
POINT
  8
1
  6
CONTINUOUS
 62
     7
 10
-311.3107
 20
-1381.7192
  0
POINT
  8
1
  6
CONTINUOUS
 62
     7
 10
-311.3107
 20
-1391.7192
  0
POINT
  8
1
  6
CONTINUOUS
 62
     7
 10
-311.3107
 20
-1084.7192
  0
LINE
  8
1
  6
CONTINUOUS
 62
     7
 10
108.68929
 20
143.28081
 11
108.68929
 21
-33.714287
  0
LINE
  8
1
  6
CONTINUOUS
 62
     2
 10
-311.3107
 20
-1391.7192
 11
108.68929
 21
-1391.7192
  0
LINE
  8
1
  6
CONTINUOUS
 62
     2
 10
-311.3107
 20
-1391.7192
 11
-311.3107
 21
-1688.7192
  0
LINE
  8
1
  6
CONTINUOUS
 62
     2
 10
-311.3107
 20
-1688.7192
 11
108.68929
 21
-1688.7192
  0
LINE
  8
1
  6
CONTINUOUS
 62
     2
 10
108.68929
 20
-1391.7192
 11
108.68929
 21
-1688.7192
  0
LINE
  8
1
  6
CONTINUOUS
 62
     2
 10
-311.3107
 20
143.28081
 11
-311.3107
 21
-153.71919
  0
LINE
  8
1
  6
CONTINUOUS
 62
     2
 10
-311.3107
 20
-153.71919
 11
108.68929
 21
-153.71919
  0
LINE
  8
1
  6
CONTINUOUS
 62
     2
 10
108.68929
 20
143.28081
 11
108.68929
 21
-153.71919
  0
LINE
  8
1
  6
CONTINUOUS
 62
     2
 10
-311.3107
 20
143.28081
 11
108.68929
 21
143.28081
  0
LINE
  8
1
  6
CONTINUOUS
 62
     2
 10
-311.3107
 20
-163.71919
 11
-311.3107
 21
-460.71918
  0
LINE
  8
1
  6
CONTINUOUS
 62
     2
 10
-311.3107
 20
-460.71918
 11
108.68929
 21
-460.71918
  0
LINE
  8
1
  6
CONTINUOUS
 62
     2
 10
108.68929
 20
-163.71919
 11
108.68929
 21
-460.71918
  0
LINE
  8
1
  6
CONTINUOUS
 62
     2
 10
-311.3107
 20
-163.71919
 11
108.68929
 21
-163.71919
  0
LINE
  8
1
  6
CONTINUOUS
 62
     2
 10
-311.3107
 20
-470.71918
 11
-311.3107
 21
-767.71918
  0
LINE
  8
1
  6
CONTINUOUS
 62
     2
 10
-311.3107
 20
-767.71918
 11
108.68929
 21
-767.71918
  0
LINE
  8
1
  6
CONTINUOUS
 62
     2
 10
-311.3107
 20
-470.71918
 11
108.68929
 21
-470.71918
  0
LINE
  8
1
  6
CONTINUOUS
 62
     2
 10
108.68929
 20
-470.71918
 11
108.68929
 21
-767.71918
  0
LINE
  8
1
  6
CONTINUOUS
 62
     2
 10
-311.3107
 20
-777.71918
 11
-311.3107
 21
-1074.7192
  0
LINE
  8
1
  6
CONTINUOUS
 62
     2
 10
-311.3107
 20
-1074.7192
 11
108.68929
 21
-1074.7192
  0
LINE
  8
1
  6
CONTINUOUS
 62
     2
 10
-311.3107
 20
-777.71918
 11
108.68929
 21
-777.71918
  0
LINE
  8
1
  6
CONTINUOUS
 62
     2
 10
108.68929
 20
-777.71918
 11
108.68929
 21
-1074.7192
  0
LINE
  8
1
  6
CONTINUOUS
 62
     2
 10
-311.3107
 20
-1084.7192
 11
-311.3107
 21
-1381.7192
  0
LINE
  8
1
  6
CONTINUOUS
 62
     2
 10
-311.3107
 20
-1381.7192
 11
108.68929
 21
-1381.7192
  0
LINE
  8
1
  6
CONTINUOUS
 62
     2
 10
-311.3107
 20
-1084.7192
 11
108.68929
 21
-1084.7192
  0
LINE
  8
1
  6
CONTINUOUS
 62
     2
 10
108.68929
 20
-1084.7192
 11
108.68929
 21
-1381.7192
  0
ENDSEC
  0
EOF
