  0
SECTION
  2
HEADER
  9
$EXTMAX
 10
108.92817
 20
144.14287
  9
$EXTMIN
 10
-311.07183
 20
-153.71428
  0
ENDSEC
  0
SECTION
  2
TABLES
  0
TABLE
  2
LTYPE
 70
    22
  0
LTYPE
  2
CONTINUOUS
 70
    64
  3
Solid line
 72
    65
 73
     0
 40
0.000000
  0
LTYPE
  2
DASHED
 70
    64
  3
__ __ __ __ __ __ __ __ __ __ __ __ __ __ __
 72
    65
 73
     2
 40
3.500000
 49
2.000000
 49
-1.500000
  0
LTYPE
  2
CENTER
 70
    64
  3
____ _ ____ _ ____ _ ____ _ ____ _ ____ _ ____
 72
    65
 73
     4
 40
17.500000
 49
13.000000
 49
-1.500000
 49
1.500000
 49
-1.500000
  0
LTYPE
  2
PHANTOM
 70
    64
  3
_____ _ _ _____ _ _ _____ _ _ _____ _ _ ____  
 72
    65
 73
     6
 40
15.500000
 49
8.000000
 49
-1.500000
 49
1.500000
 49
-1.500000
 49
1.500000
 49
-1.500000
  0
LTYPE
  2
DOT
 70
    64
  3
. . . . . . . . . . . . . . . . . . . . . . . .
 72
    65
 73
     2
 40
0.25
 49
0.0
 49
-0.25
  0
ENDTAB
  0
TABLE
  2
LAYER
 70
     2
  0
LAYER
  2
0
 70
     0
 62
     7
  6
CONTINUOUS
  0
LAYER
  2
1
 70
     0
 62
     7
  6
CONTINUOUS
  0
ENDTAB
  0
TABLE
  2
STYLE
 70
     1
  0
STYLE
  2
STANDARD
 70
     0
 40
0.000000
 41
1.000000
 50
0.000000
 71
     0
 42
0.200000
  3
txt
  4
BIGFONT
  0
ENDTAB
  0
TABLE
  2
VIEW
 70
     0
  0
ENDTAB
  0
ENDSEC
  0
SECTION
  2
BLOCKS
  0
ENDSEC
  0
SECTION
  2
ENTITIES
  0
POINT
  8
0
  6
CONTINUOUS
 62
     7
 10
-226.59099
 20
52.713776
  0
POINT
  8
0
  6
CONTINUOUS
 62
     7
 10
-151.23291
 20
52.713776
  0
POINT
  8
0
  6
CONTINUOUS
 62
     7
 10
-74.073662
 20
52.713776
  0
POINT
  8
0
  6
CONTINUOUS
 62
     7
 10
-1.1643299
 20
52.713776
  0
POINT
  8
0
  6
CONTINUOUS
 62
     7
 10
68.717049
 20
52.713776
  0
POINT
  8
0
  6
CONTINUOUS
 62
     7
 10
72.760384
 20
-54.682167
  0
POINT
  8
0
  6
CONTINUOUS
 62
     7
 10
-2.0900824
 20
-54.682167
  0
POINT
  8
0
  6
CONTINUOUS
 62
     7
 10
-72.084862
 20
-54.682167
  0
POINT
  8
0
  6
CONTINUOUS
 62
     7
 10
-151.84311
 20
-54.682167
  0
POINT
  8
0
  6
CONTINUOUS
 62
     7
 10
-226.01837
 20
-54.682167
  0
POINT
  8
0
  6
CONTINUOUS
 62
     7
 10
56.853397
 20
-271.64966
  0
POINT
  8
0
  6
CONTINUOUS
 62
     7
 10
-35.441891
 20
-271.64966
  0
POINT
  8
0
  6
CONTINUOUS
 62
     7
 10
-123.06063
 20
-271.64966
  0
POINT
  8
0
  6
CONTINUOUS
 62
     7
 10
-212.91537
 20
-271.64966
  0
POINT
  8
0
  6
CONTINUOUS
 62
     7
 10
-205.69702
 20
-405.67776
  0
POINT
  8
0
  6
CONTINUOUS
 62
     7
 10
-118.10975
 20
-405.67776
  0
POINT
  8
0
  6
CONTINUOUS
 62
     7
 10
-27.635071
 20
-405.67776
  0
POINT
  8
0
  6
CONTINUOUS
 62
     7
 10
62.14164
 20
-405.67776
  0
POINT
  8
0
  6
CONTINUOUS
 62
     7
 10
-210.20857
 20
-557.46759
  0
POINT
  8
0
  6
CONTINUOUS
 62
     7
 10
-401.50162
 20
-347.29117
  0
POINT
  8
0
  6
CONTINUOUS
 62
     7
 10
-401.50162
 20
-241.56189
  0
POINT
  8
0
  6
CONTINUOUS
 62
     7
 10
-401.50162
 20
-137.66437
  0
POINT
  8
0
  6
CONTINUOUS
 62
     7
 10
-401.50162
 20
-50.685677
  0
POINT
  8
0
  6
CONTINUOUS
 62
     7
 10
-401.50162
 20
5.3851457
  0
POINT
  8
0
  6
CONTINUOUS
 62
     7
 10
-401.50162
 20
56.199329
  0
POINT
  8
0
  6
CONTINUOUS
 62
     7
 10
-401.50162
 20
101.27591
  0
LINE
  8
0
  6
CENTER
 62
     7
 10
-401.50162
 20
119.69923
 11
-401.50162
 21
80.453743
  0
LINE
  8
0
  6
CENTER
 62
     7
 10
-419.98352
 20
101.27591
 11
-383.7355
 21
101.27591
  0
LINE
  8
0
  6
CONTINUOUS
 62
     7
 10
-385.80695
 20
101.27591
 11
-390.40381
 21
112.37373
  0
LINE
  8
0
  6
CONTINUOUS
 62
     7
 10
-390.40378
 20
112.37373
 11
-401.50162
 21
116.9706
  0
LINE
  8
0
  6
CONTINUOUS
 62
     7
 10
-412.59943
 20
112.37373
 11
-401.50162
 21
116.97059
  0
LINE
  8
0
  6
CONTINUOUS
 62
     7
 10
-417.19629
 20
101.27592
 11
-412.59943
 21
112.37373
  0
LINE
  8
0
  6
CONTINUOUS
 62
     7
 10
-412.59946
 20
90.178085
 11
-417.19632
 21
101.2759
  0
LINE
  8
0
  6
CONTINUOUS
 62
     7
 10
-401.50162
 20
85.581223
 11
-412.59946
 21
90.178093
  0
LINE
  8
0
  6
CONTINUOUS
 62
     7
 10
-390.40381
 20
90.178085
 11
-401.50162
 21
85.581223
  0
LINE
  8
0
  6
CONTINUOUS
 62
     7
 10
-385.80692
 20
101.27591
 11
-390.40381
 21
90.178093
  0
LINE
  8
0
  6
CENTER
 62
     7
 10
-425.552
 20
56.199329
 11
-377.8042
 21
56.199329
  0
LINE
  8
0
  6
CONTINUOUS
 62
     7
 10
-383.10095
 20
56.199326
 11
-388.49039
 21
69.210556
  0
LINE
  8
0
  6
CONTINUOUS
 62
     7
 10
-388.49039
 20
69.210571
 11
-401.50162
 21
74.599998
  0
LINE
  8
0
  6
CONTINUOUS
 62
     7
 10
-414.51285
 20
69.210564
 11
-401.50165
 21
74.599991
  0
LINE
  8
0
  6
CONTINUOUS
 62
     7
 10
-419.90228
 20
56.199326
 11
-414.51285
 21
69.210564
  0
LINE
  8
0
  6
CONTINUOUS
 62
     7
 10
-414.51288
 20
43.188091
 11
-419.90228
 21
56.199318
  0
LINE
  8
0
  6
CONTINUOUS
 62
     7
 10
-401.50162
 20
37.798664
 11
-414.51285
 21
43.188091
  0
LINE
  8
0
  6
CONTINUOUS
 62
     7
 10
-388.49039
 20
43.188084
 11
-401.50162
 21
37.798656
  0
LINE
  8
0
  6
CONTINUOUS
 62
     7
 10
-383.10095
 20
56.199326
 11
-388.49039
 21
43.188091
  0
LINE
  8
0
  6
CENTER
 62
     7
 10
-401.50162
 20
78.522614
 11
-401.50162
 21
35.072231
  0
LINE
  8
0
  6
CENTER
 62
     7
 10
-430.80862
 20
5.3851457
 11
-372.54755
 21
5.3851457
  0
LINE
  8
0
  6
CONTINUOUS
 62
     7
 10
-378.23019
 20
5.3851414
 11
-385.04623
 21
21.840534
  0
LINE
  8
0
  6
CONTINUOUS
 62
     7
 10
-385.04623
 20
21.840532
 11
-401.50162
 21
28.656578
  0
LINE
  8
0
  6
CONTINUOUS
 62
     7
 10
-417.957
 20
21.840536
 11
-401.50162
 21
28.656582
  0
LINE
  8
0
  6
CONTINUOUS
 62
     7
 10
-424.77307
 20
5.3851485
 11
-417.957
 21
21.84054
  0
LINE
  8
0
  6
CONTINUOUS
 62
     7
 10
-417.957
 20
-11.070247
 11
-424.77307
 21
5.3851457
  0
LINE
  8
0
  6
CONTINUOUS
 62
     7
 10
-401.50162
 20
-17.886288
 11
-417.957
 21
-11.070242
  0
LINE
  8
0
  6
CONTINUOUS
 62
     7
 10
-385.04623
 20
-11.070237
 11
-401.50162
 21
-17.886284
  0
LINE
  8
0
  6
CONTINUOUS
 62
     7
 10
-378.23019
 20
5.3851528
 11
-385.04623
 21
-11.070239
  0
LINE
  8
0
  6
CENTER
 62
     7
 10
-401.50162
 20
31.209974
 11
-401.50162
 21
-20.447704
  0
LINE
  8
0
  6
CENTER
 62
     7
 10
-434.86905
 20
-50.685677
 11
-369.74557
 21
-50.685677
  0
LINE
  8
0
  6
CONTINUOUS
 62
     7
 10
-374.983
 20
-50.685677
 11
-382.75012
 21
-31.934185
  0
LINE
  8
0
  6
CONTINUOUS
 62
     7
 10
-382.75012
 20
-31.934193
 11
-401.50162
 21
-24.167067
  0
LINE
  8
0
  6
CONTINUOUS
 62
     7
 10
-420.25308
 20
-31.934187
 11
-401.50162
 21
-24.167074
  0
LINE
  8
0
  6
CONTINUOUS
 62
     7
 10
-428.02023
 20
-50.685665
 11
-420.25311
 21
-31.934177
  0
LINE
  8
0
  6
CONTINUOUS
 62
     7
 10
-420.25311
 20
-69.437164
 11
-428.02023
 21
-50.685673
  0
LINE
  8
0
  6
CONTINUOUS
 62
     7
 10
-401.50162
 20
-77.204292
 11
-420.25311
 21
-69.437164
  0
LINE
  8
0
  6
CONTINUOUS
 62
     7
 10
-382.75012
 20
-69.437172
 11
-401.50162
 21
-77.204285
  0
LINE
  8
0
  6
CONTINUOUS
 62
     7
 10
-374.98303
 20
-50.685665
 11
-382.75015
 21
-69.437149
  0
LINE
  8
0
  6
CENTER
 62
     7
 10
-401.50162
 20
-21.654659
 11
-401.50162
 21
-81.278244
  0
LINE
  8
0
  6
CENTER
 62
     7
 10
-437.92899
 20
-137.66437
 11
-365.00909
 21
-137.66437
  0
LINE
  8
0
  6
CONTINUOUS
 62
     7
 10
-369.57104
 20
-137.66437
 11
-378.92331
 21
-115.08604
  0
LINE
  8
0
  6
CONTINUOUS
 62
     7
 10
-378.92331
 20
-115.08604
 11
-401.50162
 21
-105.7338
  0
LINE
  8
0
  6
CONTINUOUS
 62
     7
 10
-424.07996
 20
-115.08604
 11
-401.50162
 21
-105.7338
  0
LINE
  8
0
  6
CONTINUOUS
 62
     7
 10
-433.43219
 20
-137.66437
 11
-424.07996
 21
-115.08604
  0
LINE
  8
0
  6
CONTINUOUS
 62
     7
 10
-424.07996
 20
-160.24269
 11
-433.43219
 21
-137.66437
  0
LINE
  8
0
  6
CONTINUOUS
 62
     7
 10
-401.50162
 20
-169.59494
 11
-424.07996
 21
-160.24269
  0
LINE
  8
0
  6
CONTINUOUS
 62
     7
 10
-378.92331
 20
-160.24269
 11
-401.50162
 21
-169.59494
  0
LINE
  8
0
  6
CONTINUOUS
 62
     7
 10
-369.57104
 20
-137.66437
 11
-378.92331
 21
-160.24269
  0
LINE
  8
0
  6
CENTER
 62
     7
 10
-401.50162
 20
-102.03787
 11
-401.50162
 21
-172.52405
  0
LINE
  8
0
  6
CENTER
 62
     7
 10
-448.31732
 20
-241.56189
 11
-358.51984
 21
-241.56189
  0
LINE
  8
0
  6
CONTINUOUS
 62
     7
 10
-364.70029
 20
-241.56189
 11
-375.47916
 21
-215.53941
  0
LINE
  8
0
  6
CONTINUOUS
 62
     7
 10
-375.47913
 20
-215.53943
 11
-401.50162
 21
-204.76056
  0
LINE
  8
0
  6
CONTINUOUS
 62
     7
 10
-427.52408
 20
-215.53941
 11
-401.50162
 21
-204.76056
  0
LINE
  8
0
  6
CONTINUOUS
 62
     7
 10
-438.30298
 20
-241.56189
 11
-427.52411
 21
-215.5394
  0
LINE
  8
0
  6
CONTINUOUS
 62
     7
 10
-427.52408
 20
-267.58435
 11
-438.30295
 21
-241.56189
  0
LINE
  8
0
  6
CONTINUOUS
 62
     7
 10
-401.50162
 20
-278.36322
 11
-427.52411
 21
-267.58438
  0
LINE
  8
0
  6
CONTINUOUS
 62
     7
 10
-375.47916
 20
-267.58435
 11
-401.50162
 21
-278.36322
  0
LINE
  8
0
  6
CONTINUOUS
 62
     7
 10
-364.70029
 20
-241.56187
 11
-375.47916
 21
-267.58435
  0
LINE
  8
0
  6
CENTER
 62
     7
 10
-401.50162
 20
-198.1115
 11
-401.50162
 21
-283.08115
  0
LINE
  8
0
  6
CENTER
 62
     7
 10
-450.48984
 20
-347.29117
 11
-351.5195
 21
-347.29117
  0
LINE
  8
0
  6
CONTINUOUS
 62
     7
 10
-357.12354
 20
-347.29117
 11
-370.12158
 21
-315.9111
  0
LINE
  8
0
  6
CONTINUOUS
 62
     7
 10
-370.12158
 20
-315.9111
 11
-401.50162
 21
-302.91306
  0
LINE
  8
0
  6
CONTINUOUS
 62
     7
 10
-432.88165
 20
-315.9111
 11
-401.50162
 21
-302.91309
  0
LINE
  8
0
  6
CONTINUOUS
 62
     7
 10
-445.8797
 20
-347.29114
 11
-432.88165
 21
-315.9111
  0
LINE
  8
0
  6
CONTINUOUS
 62
     7
 10
-432.88162
 20
-378.67117
 11
-445.87967
 21
-347.29114
  0
LINE
  8
0
  6
CONTINUOUS
 62
     7
 10
-401.50165
 20
-391.66925
 11
-432.88168
 21
-378.6712
  0
LINE
  8
0
  6
CONTINUOUS
 62
     7
 10
-370.12158
 20
-378.6712
 11
-401.50162
 21
-391.66925
  0
LINE
  8
0
  6
CONTINUOUS
 62
     7
 10
-357.12354
 20
-347.29114
 11
-370.12158
 21
-378.6712
  0
LINE
  8
0
  6
CENTER
 62
     7
 10
-401.50162
 20
-297.08182
 11
-401.50162
 21
-397.0177
  0
LINE
  8
0
  6
CENTER
 62
     7
 10
-227.86008
 20
52.713776
 11
-267.96097
 21
52.713776
  0
LINE
  8
0
  6
CONTINUOUS
 62
     7
 10
-241.49098
 20
35.213783
 11
-241.49098
 21
52.713776
  0
LINE
  8
0
  6
CONTINUOUS
 62
     7
 10
-252.69098
 20
35.213783
 11
-252.69098
 21
52.713776
  0
LINE
  8
0
  6
CONTINUOUS
 62
     7
 10
-242.06833
 20
52.713776
 11
-242.06833
 21
51.560097
  0
LINE
  8
0
  6
CONTINUOUS
 62
     7
 10
-252.11363
 20
40.473541
 11
-252.11363
 21
38.841988
  0
LINE
  8
0
  6
CONTINUOUS
 62
     7
 10
-252.11363
 20
52.713776
 11
-252.11363
 21
51.560097
  0
LINE
  8
0
  6
CONTINUOUS
 62
     7
 10
-252.11363
 20
34.213776
 11
-242.06833
 21
34.213776
  0
LINE
  8
0
  6
CONTINUOUS
 62
     7
 10
-252.11363
 20
51.560097
 11
-242.06833
 21
51.560097
  0
LINE
  8
0
  6
CONTINUOUS
 62
     7
 10
-242.06833
 20
34.213772
 11
-241.49097
 21
35.213779
  0
LINE
  8
0
  6
CONTINUOUS
 62
     7
 10
-242.06833
 20
40.473541
 11
-242.06833
 21
38.841988
  0
LINE
  8
0
  6
CONTINUOUS
 62
     7
 10
-252.11363
 20
38.841988
 11
-242.06833
 21
38.841988
  0
LINE
  8
0
  6
CONTINUOUS
 62
     7
 10
-252.69096
 20
35.213776
 11
-252.11362
 21
34.213779
  0
LINE
  8
0
  6
CONTINUOUS
 62
     7
 10
-252.11363
 20
40.473541
 11
-242.06833
 21
40.473541
  0
LINE
  8
0
  6
CONTINUOUS
 62
     7
 10
-177.23291
 20
52.713776
 11
-177.23291
 21
30.713776
  0
LINE
  8
0
  6
CONTINUOUS
 62
     7
 10
-166.1329
 20
52.713776
 11
-166.1329
 21
30.713783
  0
LINE
  8
0
  6
CENTER
 62
     7
 10
-197.35379
 20
52.713776
 11
-150.30099
 21
52.713776
  0
LINE
  8
0
  6
CONTINUOUS
 62
     7
 10
-166.71027
 20
38.097176
 11
-166.71027
 21
34.955536
  0
LINE
  8
0
  6
CONTINUOUS
 62
     7
 10
-166.71027
 20
52.713776
 11
-166.71027
 21
50.49231
  0
LINE
  8
0
  6
CONTINUOUS
 62
     7
 10
-176.65558
 20
38.097176
 11
-176.65558
 21
34.955536
  0
LINE
  8
0
  6
CONTINUOUS
 62
     7
 10
-176.65558
 20
52.713776
 11
-176.65558
 21
50.49231
  0
LINE
  8
0
  6
CONTINUOUS
 62
     7
 10
-176.65558
 20
50.49231
 11
-166.71027
 21
50.49231
  0
LINE
  8
0
  6
CONTINUOUS
 62
     7
 10
-176.65558
 20
29.713776
 11
-166.71027
 21
29.713776
  0
LINE
  8
0
  6
CONTINUOUS
 62
     7
 10
-166.71027
 20
29.713778
 11
-166.13292
 21
30.71377
  0
LINE
  8
0
  6
CONTINUOUS
 62
     7
 10
-176.65558
 20
34.955536
 11
-166.71027
 21
34.955536
  0
LINE
  8
0
  6
CONTINUOUS
 62
     7
 10
-176.65558
 20
38.097176
 11
-166.71027
 21
38.097176
  0
LINE
  8
0
  6
CONTINUOUS
 62
     7
 10
-177.23293
 20
30.713764
 11
-176.65558
 21
29.71377
  0
LINE
  8
0
  6
CONTINUOUS
 62
     7
 10
-101.07366
 20
52.713776
 11
-101.07366
 21
30.713776
  0
LINE
  8
0
  6
CONTINUOUS
 62
     7
 10
-100.49633
 20
34.955544
 11
-91.551018
 21
34.955544
  0
LINE
  8
0
  6
CONTINUOUS
 62
     7
 10
-91.551018
 20
29.713778
 11
-90.973671
 21
30.713772
  0
LINE
  8
0
  6
CONTINUOUS
 62
     7
 10
-100.49633
 20
29.713776
 11
-91.551018
 21
29.713776
  0
LINE
  8
0
  6
CONTINUOUS
 62
     7
 10
-90.973656
 20
52.713776
 11
-90.973656
 21
30.713768
  0
LINE
  8
0
  6
CONTINUOUS
 62
     7
 10
-100.49633
 20
38.097176
 11
-91.551018
 21
38.097176
  0
LINE
  8
0
  6
CONTINUOUS
 62
     7
 10
-100.49633
 20
38.097176
 11
-100.49633
 21
34.955544
  0
LINE
  8
0
  6
CONTINUOUS
 62
     7
 10
-91.551018
 20
52.713776
 11
-91.551018
 21
50.49231
  0
LINE
  8
0
  6
CONTINUOUS
 62
     7
 10
-101.07368
 20
30.71377
 11
-100.49632
 21
29.71377
  0
LINE
  8
0
  6
CONTINUOUS
 62
     7
 10
-91.551018
 20
38.097176
 11
-91.551018
 21
34.955544
  0
LINE
  8
0
  6
CONTINUOUS
 62
     7
 10
-100.49633
 20
52.713776
 11
-100.49633
 21
50.49231
  0
LINE
  8
0
  6
CONTINUOUS
 62
     7
 10
-100.49633
 20
50.49231
 11
-91.551018
 21
50.49231
  0
LINE
  8
0
  6
CENTER
 62
     7
 10
-120.98312
 20
52.713776
 11
-74.523674
 21
52.713776
  0
LINE
  8
0
  6
CONTINUOUS
 62
     7
 10
-28.664324
 20
27.213779
 11
-28.086969
 21
26.213772
  0
LINE
  8
0
  6
CONTINUOUS
 62
     7
 10
-16.641685
 20
26.213776
 11
-22.364311
 21
26.213776
  0
LINE
  8
0
  6
CONTINUOUS
 62
     7
 10
-28.086967
 20
52.713776
 11
-28.086967
 21
49.617538
  0
LINE
  8
0
  6
CENTER
 62
     7
 10
-52.220634
 20
52.713776
 11
3.2858958
 21
52.713776
  0
LINE
  8
0
  6
CONTINUOUS
 62
     7
 10
-16.064323
 20
27.213776
 11
-16.064323
 21
52.713776
  0
LINE
  8
0
  6
CONTINUOUS
 62
     7
 10
-16.641685
 20
49.617538
 11
-22.364311
 21
49.617538
  0
LINE
  8
0
  6
CONTINUOUS
 62
     7
 10
-28.66433
 20
27.213776
 11
-28.66433
 21
52.713776
  0
LINE
  8
0
  6
CONTINUOUS
 62
     7
 10
-16.641685
 20
31.914421
 11
-22.364311
 21
31.914421
  0
LINE
  8
0
  6
CONTINUOUS
 62
     7
 10
-16.641685
 20
52.713776
 11
-16.641685
 21
49.617538
  0
LINE
  8
0
  6
CONTINUOUS
 62
     7
 10
-28.086967
 20
26.213776
 11
-22.364311
 21
26.213776
  0
LINE
  8
0
  6
CONTINUOUS
 62
     7
 10
-28.086967
 20
31.914421
 11
-22.364311
 21
31.914421
  0
LINE
  8
0
  6
CONTINUOUS
 62
     7
 10
-28.086967
 20
36.293159
 11
-22.364311
 21
36.293159
  0
LINE
  8
0
  6
CONTINUOUS
 62
     7
 10
-28.086967
 20
49.617538
 11
-22.364311
 21
49.617538
  0
LINE
  8
0
  6
CONTINUOUS
 62
     7
 10
-16.064331
 20
27.213791
 11
-16.641678
 21
26.213797
  0
LINE
  8
0
  6
CONTINUOUS
 62
     7
 10
-16.641685
 20
36.293159
 11
-16.641685
 21
31.914421
  0
LINE
  8
0
  6
CONTINUOUS
 62
     7
 10
-16.641685
 20
36.293159
 11
-22.364311
 21
36.293159
  0
LINE
  8
0
  6
CONTINUOUS
 62
     7
 10
-28.086967
 20
36.293159
 11
-28.086967
 21
31.914421
  0
LINE
  8
0
  6
CONTINUOUS
 62
     7
 10
-5.16433
 20
52.713776
 11
-5.16433
 21
41.313774
  0
LINE
  8
0
  6
CONTINUOUS
 62
     7
 10
39.217072
 20
27.213789
 11
39.794426
 21
26.213783
  0
LINE
  8
0
  6
CONTINUOUS
 62
     7
 10
51.239693
 20
26.213776
 11
45.517036
 21
26.213776
  0
LINE
  8
0
  6
CONTINUOUS
 62
     7
 10
39.794441
 20
52.713776
 11
39.794441
 21
49.617538
  0
LINE
  8
0
  6
CENTER
 62
     7
 10
15.422371
 20
52.713776
 11
71.483223
 21
52.713776
  0
LINE
  8
0
  6
CONTINUOUS
 62
     7
 10
51.817085
 20
27.213776
 11
51.817085
 21
52.713776
  0
LINE
  8
0
  6
CONTINUOUS
 62
     7
 10
51.239693
 20
49.617538
 11
45.517036
 21
49.617538
  0
LINE
  8
0
  6
CONTINUOUS
 62
     7
 10
39.217049
 20
27.213776
 11
39.217049
 21
52.713776
  0
LINE
  8
0
  6
CONTINUOUS
 62
     7
 10
51.239693
 20
31.914421
 11
45.517036
 21
31.914421
  0
LINE
  8
0
  6
CONTINUOUS
 62
     7
 10
51.239693
 20
52.713776
 11
51.239693
 21
49.617538
  0
LINE
  8
0
  6
CONTINUOUS
 62
     7
 10
39.794441
 20
26.213776
 11
45.517036
 21
26.213776
  0
LINE
  8
0
  6
CONTINUOUS
 62
     7
 10
39.794441
 20
31.914421
 11
45.517036
 21
31.914421
  0
LINE
  8
0
  6
CONTINUOUS
 62
     7
 10
39.794441
 20
36.293159
 11
45.517036
 21
36.293159
  0
LINE
  8
0
  6
CONTINUOUS
 62
     7
 10
39.794441
 20
49.617538
 11
45.517036
 21
49.617538
  0
LINE
  8
0
  6
CONTINUOUS
 62
     7
 10
51.817055
 20
27.213766
 11
51.239708
 21
26.213772
  0
LINE
  8
0
  6
CONTINUOUS
 62
     7
 10
51.239693
 20
36.293159
 11
51.239693
 21
31.914421
  0
LINE
  8
0
  6
CONTINUOUS
 62
     7
 10
51.239693
 20
36.293159
 11
45.517036
 21
36.293159
  0
LINE
  8
0
  6
CONTINUOUS
 62
     7
 10
39.794441
 20
36.293159
 11
39.794441
 21
31.914421
  0
LINE
  8
0
  6
CONTINUOUS
 62
     7
 10
-256.51837
 20
-80.182159
 11
-255.94101
 21
-81.182167
  0
LINE
  8
0
  6
CONTINUOUS
 62
     7
 10
-255.94102
 20
-54.682167
 11
-255.94102
 21
-57.778404
  0
LINE
  8
0
  6
CENTER
 62
     7
 10
-280.40274
 20
-54.682167
 11
-222.35422
 21
-54.682167
  0
LINE
  8
0
  6
CONTINUOUS
 62
     7
 10
-244.59573
 20
-71.102783
 11
-250.26837
 21
-71.102783
  0
LINE
  8
0
  6
CONTINUOUS
 62
     7
 10
-256.51837
 20
-80.182167
 11
-256.51837
 21
-54.682167
  0
LINE
  8
0
  6
CONTINUOUS
 62
     7
 10
-244.59573
 20
-57.778404
 11
-250.26837
 21
-57.778404
  0
LINE
  8
0
  6
CONTINUOUS
 62
     7
 10
-244.59573
 20
-54.682167
 11
-244.59573
 21
-57.778404
  0
LINE
  8
0
  6
CONTINUOUS
 62
     7
 10
-255.94102
 20
-81.182167
 11
-250.26837
 21
-81.182167
  0
LINE
  8
0
  6
CONTINUOUS
 62
     7
 10
-255.94102
 20
-75.481529
 11
-250.26837
 21
-75.481529
  0
LINE
  8
0
  6
CONTINUOUS
 62
     7
 10
-255.94102
 20
-71.102783
 11
-250.26837
 21
-71.102783
  0
LINE
  8
0
  6
CONTINUOUS
 62
     7
 10
-255.94102
 20
-57.778404
 11
-250.26837
 21
-57.778404
  0
LINE
  8
0
  6
CONTINUOUS
 62
     7
 10
-244.59573
 20
-71.102783
 11
-244.59573
 21
-75.481529
  0
LINE
  8
0
  6
CONTINUOUS
 62
     7
 10
-244.59573
 20
-81.182167
 11
-250.26837
 21
-81.182167
  0
LINE
  8
0
  6
CONTINUOUS
 62
     7
 10
-244.01837
 20
-80.182159
 11
-244.59572
 21
-81.182152
  0
LINE
  8
0
  6
CONTINUOUS
 62
     7
 10
-244.01837
 20
-80.182167
 11
-244.01837
 21
-54.682167
  0
LINE
  8
0
  6
CONTINUOUS
 62
     7
 10
-255.94102
 20
-71.102783
 11
-255.94102
 21
-75.481529
  0
LINE
  8
0
  6
CONTINUOUS
 62
     7
 10
-244.59573
 20
-75.481529
 11
-250.26837
 21
-75.481529
  0
LINE
  8
0
  6
CENTER
 62
     7
 10
-206.73901
 20
-54.682167
 11
-146.43921
 21
-54.682167
  0
LINE
  8
0
  6
CONTINUOUS
 62
     7
 10
-180.18842
 20
-57.408588
 11
-174.04312
 21
-57.408588
  0
LINE
  8
0
  6
CONTINUOUS
 62
     7
 10
-181.34311
 20
-84.682167
 11
-181.34311
 21
-54.682167
  0
LINE
  8
0
  6
CONTINUOUS
 62
     7
 10
-180.18842
 20
-54.682167
 11
-180.18842
 21
-57.408588
  0
LINE
  8
0
  6
CONTINUOUS
 62
     7
 10
-180.18842
 20
-79.155174
 11
-174.04312
 21
-79.155174
  0
LINE
  8
0
  6
CONTINUOUS
 62
     7
 10
-181.34311
 20
-84.682167
 11
-180.18842
 21
-86.682167
  0
LINE
  8
0
  6
CONTINUOUS
 62
     7
 10
-180.18842
 20
-75.299438
 11
-174.04312
 21
-75.299438
  0
LINE
  8
0
  6
CONTINUOUS
 62
     7
 10
-180.18842
 20
-86.682167
 11
-174.04312
 21
-86.682167
  0
LINE
  8
0
  6
CONTINUOUS
 62
     7
 10
-155.84311
 20
-54.682167
 11
-155.84311
 21
-66.082176
  0
LINE
  8
0
  6
CONTINUOUS
 62
     7
 10
-166.74313
 20
-84.682167
 11
-166.74313
 21
-54.682167
  0
LINE
  8
0
  6
CONTINUOUS
 62
     7
 10
-167.89783
 20
-75.299438
 11
-174.04312
 21
-75.299438
  0
LINE
  8
0
  6
CONTINUOUS
 62
     7
 10
-167.89783
 20
-75.299438
 11
-167.89783
 21
-79.155174
  0
LINE
  8
0
  6
CONTINUOUS
 62
     7
 10
-167.89783
 20
-86.682167
 11
-174.04312
 21
-86.682167
  0
LINE
  8
0
  6
CONTINUOUS
 62
     7
 10
-166.74312
 20
-84.682167
 11
-167.89781
 21
-86.682152
  0
LINE
  8
0
  6
CONTINUOUS
 62
     7
 10
-167.89783
 20
-79.155174
 11
-174.04312
 21
-79.155174
  0
LINE
  8
0
  6
CONTINUOUS
 62
     7
 10
-167.89783
 20
-54.682167
 11
-167.89783
 21
-57.408588
  0
LINE
  8
0
  6
CONTINUOUS
 62
     7
 10
-167.89783
 20
-57.408588
 11
-174.04312
 21
-57.408588
  0
LINE
  8
0
  6
CONTINUOUS
 62
     7
 10
-180.18842
 20
-75.299438
 11
-180.18842
 21
-79.155174
  0
LINE
  8
0
  6
CENTER
 62
     7
 10
-128.77484
 20
-54.682167
 11
-68.162102
 21
-54.682167
  0
LINE
  8
0
  6
CONTINUOUS
 62
     7
 10
-101.43017
 20
-57.408588
 11
-95.784874
 21
-57.408588
  0
LINE
  8
0
  6
CONTINUOUS
 62
     7
 10
-102.58486
 20
-84.682167
 11
-102.58486
 21
-54.682167
  0
LINE
  8
0
  6
CONTINUOUS
 62
     7
 10
-101.43017
 20
-54.682167
 11
-101.43017
 21
-57.408588
  0
LINE
  8
0
  6
CONTINUOUS
 62
     7
 10
-101.43017
 20
-79.155174
 11
-95.784874
 21
-79.155174
  0
LINE
  8
0
  6
CONTINUOUS
 62
     7
 10
-102.58488
 20
-84.682167
 11
-101.43018
 21
-86.682167
  0
LINE
  8
0
  6
CONTINUOUS
 62
     7
 10
-101.43017
 20
-75.299438
 11
-95.784874
 21
-75.299438
  0
LINE
  8
0
  6
CONTINUOUS
 62
     7
 10
-101.43017
 20
-86.682167
 11
-95.784874
 21
-86.682167
  0
LINE
  8
0
  6
CONTINUOUS
 62
     7
 10
-88.984856
 20
-84.682167
 11
-88.984856
 21
-54.682167
  0
LINE
  8
0
  6
CONTINUOUS
 62
     7
 10
-90.139549
 20
-75.299438
 11
-95.784874
 21
-75.299438
  0
LINE
  8
0
  6
CONTINUOUS
 62
     7
 10
-90.139549
 20
-75.299438
 11
-90.139549
 21
-79.155174
  0
LINE
  8
0
  6
CONTINUOUS
 62
     7
 10
-90.139549
 20
-86.682167
 11
-95.784874
 21
-86.682167
  0
LINE
  8
0
  6
CONTINUOUS
 62
     7
 10
-88.984856
 20
-84.682167
 11
-90.139557
 21
-86.682175
  0
LINE
  8
0
  6
CONTINUOUS
 62
     7
 10
-90.139549
 20
-79.155174
 11
-95.784874
 21
-79.155174
  0
LINE
  8
0
  6
CONTINUOUS
 62
     7
 10
-90.139549
 20
-54.682167
 11
-90.139549
 21
-57.408588
  0
LINE
  8
0
  6
CONTINUOUS
 62
     7
 10
-90.139549
 20
-57.408588
 11
-95.784874
 21
-57.408588
  0
LINE
  8
0
  6
CONTINUOUS
 62
     7
 10
-101.43017
 20
-75.299438
 11
-101.43017
 21
-79.155174
  0
LINE
  8
0
  6
CENTER
 62
     7
 10
-59.342525
 20
-54.682167
 11
3.0578363
 21
-54.682167
  0
LINE
  8
0
  6
CONTINUOUS
 62
     7
 10
-32.43539
 20
-57.408588
 11
-26.790094
 21
-57.408588
  0
LINE
  8
0
  6
CONTINUOUS
 62
     7
 10
-33.590115
 20
-84.682167
 11
-33.590115
 21
-54.682167
  0
LINE
  8
0
  6
CONTINUOUS
 62
     7
 10
-32.43539
 20
-54.682167
 11
-32.43539
 21
-57.408588
  0
LINE
  8
0
  6
CONTINUOUS
 62
     7
 10
-32.43539
 20
-79.155174
 11
-26.790094
 21
-79.155174
  0
LINE
  8
0
  6
CONTINUOUS
 62
     7
 10
-33.590103
 20
-84.682175
 11
-32.435402
 21
-86.682175
  0
LINE
  8
0
  6
CONTINUOUS
 62
     7
 10
-32.43539
 20
-75.299438
 11
-26.790094
 21
-75.299438
  0
LINE
  8
0
  6
CONTINUOUS
 62
     7
 10
-32.43539
 20
-86.682167
 11
-26.790094
 21
-86.682167
  0
LINE
  8
0
  6
CONTINUOUS
 62
     7
 10
-20.090113
 20
-84.682167
 11
-20.090113
 21
-54.682167
  0
LINE
  8
0
  6
CONTINUOUS
 62
     7
 10
-21.244806
 20
-75.299438
 11
-26.8901
 21
-75.299438
  0
LINE
  8
0
  6
CONTINUOUS
 62
     7
 10
-21.244806
 20
-75.299438
 11
-21.244806
 21
-79.155174
  0
LINE
  8
0
  6
CONTINUOUS
 62
     7
 10
-21.244806
 20
-86.682167
 11
-26.8901
 21
-86.682167
  0
LINE
  8
0
  6
CONTINUOUS
 62
     7
 10
-20.090088
 20
-84.682167
 11
-21.244789
 21
-86.682167
  0
LINE
  8
0
  6
CONTINUOUS
 62
     7
 10
-21.244806
 20
-79.155174
 11
-26.8901
 21
-79.155174
  0
LINE
  8
0
  6
CONTINUOUS
 62
     7
 10
-21.1448
 20
-54.682167
 11
-21.1448
 21
-57.408588
  0
LINE
  8
0
  6
CONTINUOUS
 62
     7
 10
-21.1448
 20
-57.408588
 11
-26.790094
 21
-57.408588
  0
LINE
  8
0
  6
CONTINUOUS
 62
     7
 10
-32.43539
 20
-75.299438
 11
-32.43539
 21
-79.155174
  0
LINE
  8
0
  6
CENTER
 62
     7
 10
15.914557
 20
-54.682167
 11
77.231148
 21
-54.682167
  0
LINE
  8
0
  6
CONTINUOUS
 62
     7
 10
41.415043
 20
-57.408588
 11
47.060368
 21
-57.408588
  0
LINE
  8
0
  6
CONTINUOUS
 62
     7
 10
40.26038
 20
-84.682167
 11
40.26038
 21
-54.682167
  0
LINE
  8
0
  6
CONTINUOUS
 62
     7
 10
41.415043
 20
-54.682167
 11
41.415043
 21
-57.408588
  0
LINE
  8
0
  6
CONTINUOUS
 62
     7
 10
41.415043
 20
-79.155174
 11
47.060368
 21
-79.155174
  0
LINE
  8
0
  6
CONTINUOUS
 62
     7
 10
40.260384
 20
-84.682182
 11
41.415077
 21
-86.682167
  0
LINE
  8
0
  6
CONTINUOUS
 62
     7
 10
41.415043
 20
-75.299438
 11
47.060368
 21
-75.299438
  0
LINE
  8
0
  6
CONTINUOUS
 62
     7
 10
41.415043
 20
-86.682167
 11
47.060368
 21
-86.682167
  0
LINE
  8
0
  6
CONTINUOUS
 62
     7
 10
53.26038
 20
-84.682167
 11
53.26038
 21
-54.682167
  0
LINE
  8
0
  6
CONTINUOUS
 62
     7
 10
52.105656
 20
-75.299438
 11
46.460392
 21
-75.299438
  0
LINE
  8
0
  6
CONTINUOUS
 62
     7
 10
52.105656
 20
-75.299438
 11
52.105656
 21
-79.155174
  0
LINE
  8
0
  6
CONTINUOUS
 62
     7
 10
52.105656
 20
-86.682167
 11
46.460392
 21
-86.682167
  0
LINE
  8
0
  6
CONTINUOUS
 62
     7
 10
53.260387
 20
-84.682175
 11
52.105686
 21
-86.682175
  0
LINE
  8
0
  6
CONTINUOUS
 62
     7
 10
52.105656
 20
-79.155174
 11
46.460392
 21
-79.155174
  0
LINE
  8
0
  6
CONTINUOUS
 62
     7
 10
52.205692
 20
-54.682167
 11
52.205692
 21
-57.408588
  0
LINE
  8
0
  6
CONTINUOUS
 62
     7
 10
52.205692
 20
-57.408588
 11
46.560368
 21
-57.408588
  0
LINE
  8
0
  6
CONTINUOUS
 62
     7
 10
41.415043
 20
-75.299438
 11
41.415043
 21
-79.155174
  0
LINE
  8
0
  6
CONTINUOUS
 62
     7
 10
-242.76068
 20
-307.14966
 11
-230.97008
 21
-307.14966
  0
LINE
  8
0
  6
CONTINUOUS
 62
     7
 10
-242.76068
 20
-271.64966
 11
-242.76068
 21
-275.22781
  0
LINE
  8
0
  6
CENTER
 62
     7
 10
-273.77548
 20
-271.64966
 11
-208.59644
 21
-271.64966
  0
LINE
  8
0
  6
CONTINUOUS
 62
     7
 10
-243.91537
 20
-305.14966
 11
-243.91537
 21
-271.64966
  0
LINE
  8
0
  6
CONTINUOUS
 62
     7
 10
-242.76068
 20
-275.22781
 11
-230.97008
 21
-275.22781
  0
LINE
  8
0
  6
CONTINUOUS
 62
     7
 10
-242.76068
 20
-299.15424
 11
-230.97008
 21
-299.15424
  0
LINE
  8
0
  6
CONTINUOUS
 62
     7
 10
-242.76067
 20
-307.14966
 11
-243.91537
 21
-305.14966
  0
LINE
  8
0
  6
CONTINUOUS
 62
     7
 10
-242.76068
 20
-294.09396
 11
-230.97008
 21
-294.09396
  0
LINE
  8
0
  6
CONTINUOUS
 62
     7
 10
-229.81538
 20
-305.14966
 11
-229.81538
 21
-271.64966
  0
LINE
  8
0
  6
CONTINUOUS
 62
     7
 10
-230.97008
 20
-271.64966
 11
-230.97008
 21
-275.22781
  0
LINE
  8
0
  6
CONTINUOUS
 62
     7
 10
-242.76068
 20
-294.09396
 11
-242.76068
 21
-299.15424
  0
LINE
  8
0
  6
CONTINUOUS
 62
     7
 10
-230.97006
 20
-307.14966
 11
-229.81535
 21
-305.14963
  0
LINE
  8
0
  6
CONTINUOUS
 62
     7
 10
-230.97008
 20
-294.09396
 11
-230.97008
 21
-299.15424
  0
LINE
  8
0
  6
CONTINUOUS
 62
     7
 10
-142.21532
 20
-307.14966
 11
-141.06062
 21
-305.14966
  0
LINE
  8
0
  6
CONTINUOUS
 62
     7
 10
-153.90591
 20
-307.14966
 11
-148.06064
 21
-307.14966
  0
LINE
  8
0
  6
CONTINUOUS
 62
     7
 10
-153.90591
 20
-271.64966
 11
-153.90591
 21
-275.22781
  0
LINE
  8
0
  6
CENTER
 62
     7
 10
-181.80609
 20
-271.64966
 11
-118.90658
 21
-271.64966
  0
LINE
  8
0
  6
CONTINUOUS
 62
     7
 10
-155.06064
 20
-305.14966
 11
-155.06064
 21
-271.64966
  0
LINE
  8
0
  6
CONTINUOUS
 62
     7
 10
-142.21533
 20
-271.64966
 11
-142.21533
 21
-275.22781
  0
LINE
  8
0
  6
CONTINUOUS
 62
     7
 10
-153.90591
 20
-275.22781
 11
-148.06064
 21
-275.22781
  0
LINE
  8
0
  6
CONTINUOUS
 62
     7
 10
-153.90591
 20
-299.15424
 11
-148.06064
 21
-299.15424
  0
LINE
  8
0
  6
CONTINUOUS
 62
     7
 10
-153.90591
 20
-307.14966
 11
-155.06062
 21
-305.14966
  0
LINE
  8
0
  6
CONTINUOUS
 62
     7
 10
-153.90591
 20
-294.09396
 11
-148.06064
 21
-294.09396
  0
LINE
  8
0
  6
CONTINUOUS
 62
     7
 10
-142.21533
 20
-307.14966
 11
-148.06064
 21
-307.14966
  0
LINE
  8
0
  6
CONTINUOUS
 62
     7
 10
-153.90591
 20
-294.09396
 11
-153.90591
 21
-299.15424
  0
LINE
  8
0
  6
CONTINUOUS
 62
     7
 10
-142.21533
 20
-294.09396
 11
-142.21533
 21
-299.15424
  0
LINE
  8
0
  6
CONTINUOUS
 62
     7
 10
-142.21533
 20
-275.22781
 11
-148.06064
 21
-275.22781
  0
LINE
  8
0
  6
CONTINUOUS
 62
     7
 10
-142.21533
 20
-299.15424
 11
-148.06064
 21
-299.15424
  0
LINE
  8
0
  6
CONTINUOUS
 62
     7
 10
-142.21533
 20
-294.09396
 11
-148.06064
 21
-294.09396
  0
LINE
  8
0
  6
CONTINUOUS
 62
     7
 10
-141.06064
 20
-305.14966
 11
-141.06064
 21
-271.64966
  0
LINE
  8
0
  6
CONTINUOUS
 62
     7
 10
-67.287193
 20
-307.14966
 11
-61.691891
 21
-307.14966
  0
LINE
  8
0
  6
CONTINUOUS
 62
     7
 10
-67.287193
 20
-271.64966
 11
-67.287193
 21
-275.22781
  0
LINE
  8
0
  6
CENTER
 62
     7
 10
-96.418327
 20
-271.64966
 11
-30.189571
 21
-271.64966
  0
LINE
  8
0
  6
CONTINUOUS
 62
     7
 10
-56.096584
 20
-294.09396
 11
-56.096584
 21
-299.15424
  0
LINE
  8
0
  6
CONTINUOUS
 62
     7
 10
-67.287193
 20
-275.22781
 11
-61.691891
 21
-275.22781
  0
LINE
  8
0
  6
CONTINUOUS
 62
     7
 10
-67.287193
 20
-299.15424
 11
-61.691891
 21
-299.15424
  0
LINE
  8
0
  6
CONTINUOUS
 62
     7
 10
-67.287193
 20
-294.09396
 11
-61.691891
 21
-294.09396
  0
LINE
  8
0
  6
CONTINUOUS
 62
     7
 10
-67.287193
 20
-294.09396
 11
-67.287193
 21
-299.15424
  0
LINE
  8
0
  6
CONTINUOUS
 62
     7
 10
-54.941891
 20
-305.14966
 11
-54.941891
 21
-271.64966
  0
LINE
  8
0
  6
CONTINUOUS
 62
     7
 10
-56.096584
 20
-294.09396
 11
-61.691891
 21
-294.09396
  0
LINE
  8
0
  6
CONTINUOUS
 62
     7
 10
-56.096603
 20
-307.14966
 11
-54.941895
 21
-305.14963
  0
LINE
  8
0
  6
CONTINUOUS
 62
     7
 10
-56.096584
 20
-299.15424
 11
-61.691891
 21
-299.15424
  0
LINE
  8
0
  6
CONTINUOUS
 62
     7
 10
-56.096584
 20
-275.22781
 11
-61.691891
 21
-275.22781
  0
LINE
  8
0
  6
CONTINUOUS
 62
     7
 10
-56.096584
 20
-307.14966
 11
-61.691891
 21
-307.14966
  0
LINE
  8
0
  6
CONTINUOUS
 62
     7
 10
-56.096584
 20
-271.64966
 11
-56.096584
 21
-275.22781
  0
LINE
  8
0
  6
CONTINUOUS
 62
     7
 10
-68.441887
 20
-271.64966
 11
-68.441887
 21
-305.14966
  0
LINE
  8
0
  6
CONTINUOUS
 62
     7
 10
-67.287201
 20
-307.14966
 11
-68.441895
 21
-305.14966
  0
LINE
  8
0
  6
CONTINUOUS
 62
     7
 10
-67.287193
 20
-294.09396
 11
-67.287193
 21
-299.15424
  0
LINE
  8
0
  6
CONTINUOUS
 62
     7
 10
-67.287193
 20
-271.64966
 11
-67.287193
 21
-275.22781
  0
LINE
  8
0
  6
CONTINUOUS
 62
     7
 10
23.008091
 20
-307.14966
 11
28.603367
 21
-307.14966
  0
LINE
  8
0
  6
CONTINUOUS
 62
     7
 10
23.008091
 20
-271.64966
 11
23.008091
 21
-275.22781
  0
LINE
  8
0
  6
CONTINUOUS
 62
     7
 10
21.853367
 20
-305.14966
 11
21.853367
 21
-271.64966
  0
LINE
  8
0
  6
CONTINUOUS
 62
     7
 10
34.198673
 20
-294.09396
 11
34.198673
 21
-299.15424
  0
LINE
  8
0
  6
CONTINUOUS
 62
     7
 10
23.008091
 20
-275.22781
 11
28.603367
 21
-275.22781
  0
LINE
  8
0
  6
CONTINUOUS
 62
     7
 10
23.008091
 20
-299.15424
 11
28.603367
 21
-299.15424
  0
LINE
  8
0
  6
CONTINUOUS
 62
     7
 10
23.008072
 20
-307.14966
 11
21.853363
 21
-305.14966
  0
LINE
  8
0
  6
CONTINUOUS
 62
     7
 10
23.008091
 20
-294.09396
 11
28.603367
 21
-294.09396
  0
LINE
  8
0
  6
CONTINUOUS
 62
     7
 10
23.008091
 20
-294.09396
 11
23.008091
 21
-299.15424
  0
LINE
  8
0
  6
CONTINUOUS
 62
     7
 10
35.353397
 20
-305.14966
 11
35.353397
 21
-271.64966
  0
LINE
  8
0
  6
CONTINUOUS
 62
     7
 10
34.198673
 20
-294.09396
 11
28.603367
 21
-294.09396
  0
LINE
  8
0
  6
CONTINUOUS
 62
     7
 10
34.198666
 20
-307.14966
 11
35.353367
 21
-305.14966
  0
LINE
  8
0
  6
CONTINUOUS
 62
     7
 10
34.198673
 20
-299.15424
 11
28.603367
 21
-299.15424
  0
LINE
  8
0
  6
CONTINUOUS
 62
     7
 10
34.198673
 20
-275.22781
 11
28.603367
 21
-275.22781
  0
LINE
  8
0
  6
CONTINUOUS
 62
     7
 10
34.198673
 20
-307.14966
 11
28.603367
 21
-307.14966
  0
LINE
  8
0
  6
CONTINUOUS
 62
     7
 10
34.198673
 20
-271.64966
 11
34.198673
 21
-275.22781
  0
LINE
  8
0
  6
CENTER
 62
     7
 10
61.19025
 20
-271.64966
 11
-12.481503
 21
-271.64966
  0
LINE
  8
0
  6
CONTINUOUS
 62
     7
 10
-226.59099
 20
52.713776
 11
-226.59099
 21
42.213776
  0
LINE
  8
0
  6
CONTINUOUS
 62
     7
 10
-237.59099
 20
39.092453
 11
-237.59099
 21
38.213776
  0
LINE
  8
0
  6
CONTINUOUS
 62
     7
 10
-237.59099
 20
38.213776
 11
-230.59099
 21
38.213776
  0
LINE
  8
0
  6
CONTINUOUS
 62
     7
 10
-238.09097
 20
38.713772
 11
-237.59097
 21
38.213783
  0
LINE
  8
0
  6
CONTINUOUS
 62
     7
 10
-237.59099
 20
47.950317
 11
-237.59099
 21
45.82843
  0
LINE
  8
0
  6
CONTINUOUS
 62
     7
 10
-237.59099
 20
39.092453
 11
-230.59099
 21
39.092453
  0
LINE
  8
0
  6
CONTINUOUS
 62
     7
 10
-237.59099
 20
47.950317
 11
-230.59099
 21
47.950317
  0
LINE
  8
0
  6
CONTINUOUS
 62
     7
 10
-237.59099
 20
45.82843
 11
-230.59099
 21
45.82843
  0
LINE
  8
0
  6
CONTINUOUS
 62
     7
 10
-230.59099
 20
52.713776
 11
-230.59099
 21
38.213776
  0
LINE
  8
0
  6
CONTINUOUS
 62
     7
 10
-1.1643299
 20
52.713776
 11
-1.1643299
 21
42.213776
  0
LINE
  8
0
  6
CONTINUOUS
 62
     7
 10
-12.16433
 20
39.092453
 11
-12.16433
 21
38.213776
  0
LINE
  8
0
  6
CONTINUOUS
 62
     7
 10
-12.16433
 20
38.213776
 11
-5.16433
 21
38.213776
  0
LINE
  8
0
  6
CONTINUOUS
 62
     7
 10
-12.664329
 20
38.713772
 11
-12.164317
 21
38.21376
  0
LINE
  8
0
  6
CONTINUOUS
 62
     7
 10
-12.16433
 20
47.950317
 11
-12.16433
 21
45.82843
  0
LINE
  8
0
  6
CONTINUOUS
 62
     7
 10
-12.16433
 20
39.092453
 11
-5.16433
 21
39.092453
  0
LINE
  8
0
  6
CONTINUOUS
 62
     7
 10
-12.16433
 20
47.950317
 11
-5.16433
 21
47.950317
  0
LINE
  8
0
  6
CONTINUOUS
 62
     7
 10
-12.16433
 20
45.82843
 11
-5.16433
 21
45.82843
  0
LINE
  8
0
  6
CONTINUOUS
 62
     7
 10
-5.16433
 20
52.713776
 11
-5.16433
 21
38.213776
  0
LINE
  8
0
  6
CONTINUOUS
 62
     7
 10
-151.84311
 20
-54.682167
 11
-151.84311
 21
-65.182167
  0
LINE
  8
0
  6
CONTINUOUS
 62
     7
 10
-162.84311
 20
-68.30349
 11
-162.84311
 21
-69.182167
  0
LINE
  8
0
  6
CONTINUOUS
 62
     7
 10
-162.84311
 20
-69.182167
 11
-155.84311
 21
-69.182167
  0
LINE
  8
0
  6
CONTINUOUS
 62
     7
 10
-163.34311
 20
-68.682159
 11
-162.84311
 21
-69.182159
  0
LINE
  8
0
  6
CONTINUOUS
 62
     7
 10
-162.84311
 20
-59.445621
 11
-162.84311
 21
-61.567509
  0
LINE
  8
0
  6
CONTINUOUS
 62
     7
 10
-162.84311
 20
-68.30349
 11
-155.84311
 21
-68.30349
  0
LINE
  8
0
  6
CONTINUOUS
 62
     7
 10
-162.84311
 20
-59.445621
 11
-155.84311
 21
-59.445621
  0
LINE
  8
0
  6
CONTINUOUS
 62
     7
 10
-162.84311
 20
-61.567509
 11
-155.84311
 21
-61.567509
  0
LINE
  8
0
  6
CONTINUOUS
 62
     7
 10
-155.84311
 20
-54.682167
 11
-155.84311
 21
-69.182167
  0
LINE
  8
0
  6
CONTINUOUS
 62
     7
 10
-238.09099
 20
52.713776
 11
-238.09099
 21
38.713776
  0
LINE
  8
0
  6
CONTINUOUS
 62
     7
 10
-12.66433
 20
52.713776
 11
-12.66433
 21
38.713776
  0
LINE
  8
0
  6
CONTINUOUS
 62
     7
 10
-163.34311
 20
-54.682167
 11
-163.34311
 21
-68.682167
  0
LINE
  8
0
  6
CONTINUOUS
 62
     7
 10
-151.23291
 20
52.713776
 11
-151.23291
 21
42.213776
  0
LINE
  8
0
  6
CONTINUOUS
 62
     7
 10
-162.23291
 20
39.092453
 11
-162.23291
 21
38.213776
  0
LINE
  8
0
  6
CONTINUOUS
 62
     7
 10
-162.23291
 20
38.213776
 11
-155.23291
 21
38.213776
  0
LINE
  8
0
  6
CONTINUOUS
 62
     7
 10
-162.73291
 20
38.713776
 11
-162.23291
 21
38.213776
  0
LINE
  8
0
  6
CONTINUOUS
 62
     7
 10
-162.23291
 20
47.950317
 11
-162.23291
 21
45.82843
  0
LINE
  8
0
  6
CONTINUOUS
 62
     7
 10
-162.23291
 20
39.092453
 11
-155.23291
 21
39.092453
  0
LINE
  8
0
  6
CONTINUOUS
 62
     7
 10
-162.23291
 20
47.950317
 11
-155.23291
 21
47.950317
  0
LINE
  8
0
  6
CONTINUOUS
 62
     7
 10
-162.23291
 20
45.82843
 11
-155.23291
 21
45.82843
  0
LINE
  8
0
  6
CONTINUOUS
 62
     7
 10
-155.23291
 20
52.713776
 11
-155.23291
 21
38.213776
  0
LINE
  8
0
  6
CONTINUOUS
 62
     7
 10
-162.73291
 20
52.713776
 11
-162.73291
 21
38.713776
  0
LINE
  8
0
  6
CONTINUOUS
 62
     7
 10
-74.073662
 20
52.713776
 11
-74.073662
 21
40.713776
  0
LINE
  8
0
  6
CONTINUOUS
 62
     7
 10
-79.073662
 20
52.713776
 11
-79.073662
 21
35.713776
  0
LINE
  8
0
  6
CONTINUOUS
 62
     7
 10
-87.073662
 20
46.914787
 11
-79.073662
 21
46.914787
  0
LINE
  8
0
  6
CONTINUOUS
 62
     7
 10
-87.073662
 20
46.914787
 11
-87.073662
 21
44.793465
  0
LINE
  8
0
  6
CONTINUOUS
 62
     7
 10
-87.073662
 20
36.592461
 11
-87.073662
 21
35.713776
  0
LINE
  8
0
  6
CONTINUOUS
 62
     7
 10
-87.073662
 20
36.592461
 11
-79.073662
 21
36.592461
  0
LINE
  8
0
  6
CONTINUOUS
 62
     7
 10
-87.073662
 20
35.713776
 11
-79.073662
 21
35.713776
  0
LINE
  8
0
  6
CONTINUOUS
 62
     7
 10
-87.073662
 20
35.713791
 11
-87.573662
 21
36.213791
  0
LINE
  8
0
  6
CONTINUOUS
 62
     7
 10
-87.073662
 20
44.793465
 11
-79.073662
 21
44.793465
  0
LINE
  8
0
  6
CONTINUOUS
 62
     7
 10
68.717049
 20
52.713776
 11
68.717049
 21
40.713776
  0
LINE
  8
0
  6
CONTINUOUS
 62
     7
 10
63.717049
 20
52.713776
 11
63.717049
 21
35.713776
  0
LINE
  8
0
  6
CONTINUOUS
 62
     7
 10
55.717049
 20
46.914787
 11
63.717049
 21
46.914787
  0
LINE
  8
0
  6
CONTINUOUS
 62
     7
 10
55.717049
 20
46.914787
 11
55.717049
 21
44.793465
  0
LINE
  8
0
  6
CONTINUOUS
 62
     7
 10
55.717049
 20
36.592461
 11
55.717049
 21
35.713776
  0
LINE
  8
0
  6
CONTINUOUS
 62
     7
 10
55.717049
 20
36.592461
 11
63.717049
 21
36.592461
  0
LINE
  8
0
  6
CONTINUOUS
 62
     7
 10
55.717049
 20
35.713776
 11
63.717049
 21
35.713776
  0
LINE
  8
0
  6
CONTINUOUS
 62
     7
 10
55.717056
 20
35.713791
 11
55.217068
 21
36.213783
  0
LINE
  8
0
  6
CONTINUOUS
 62
     7
 10
55.717049
 20
44.793465
 11
63.717049
 21
44.793465
  0
LINE
  8
0
  6
CONTINUOUS
 62
     7
 10
-212.91537
 20
-271.64966
 11
-212.91537
 21
-283.64966
  0
LINE
  8
0
  6
CONTINUOUS
 62
     7
 10
-217.91537
 20
-271.64966
 11
-217.91537
 21
-288.64966
  0
LINE
  8
0
  6
CONTINUOUS
 62
     7
 10
-225.91537
 20
-277.44864
 11
-217.91537
 21
-277.44864
  0
LINE
  8
0
  6
CONTINUOUS
 62
     7
 10
-225.91537
 20
-277.44864
 11
-225.91537
 21
-279.56995
  0
LINE
  8
0
  6
CONTINUOUS
 62
     7
 10
-225.91537
 20
-287.77097
 11
-225.91537
 21
-288.64966
  0
LINE
  8
0
  6
CONTINUOUS
 62
     7
 10
-225.91537
 20
-287.77097
 11
-217.91537
 21
-287.77097
  0
LINE
  8
0
  6
CONTINUOUS
 62
     7
 10
-225.91537
 20
-288.64966
 11
-217.91537
 21
-288.64966
  0
LINE
  8
0
  6
CONTINUOUS
 62
     7
 10
-225.91537
 20
-288.64966
 11
-226.41537
 21
-288.14966
  0
LINE
  8
0
  6
CONTINUOUS
 62
     7
 10
-225.91537
 20
-279.56995
 11
-217.91537
 21
-279.56995
  0
LINE
  8
0
  6
CONTINUOUS
 62
     7
 10
-87.573662
 20
52.713776
 11
-87.573662
 21
36.213776
  0
LINE
  8
0
  6
CONTINUOUS
 62
     7
 10
55.217049
 20
52.713776
 11
55.217049
 21
36.213776
  0
LINE
  8
0
  6
CONTINUOUS
 62
     7
 10
-72.084862
 20
-54.682167
 11
-72.084862
 21
-66.682167
  0
LINE
  8
0
  6
CONTINUOUS
 62
     7
 10
-77.084862
 20
-54.682167
 11
-77.084862
 21
-71.682167
  0
LINE
  8
0
  6
CONTINUOUS
 62
     7
 10
-85.084862
 20
-60.481159
 11
-77.084862
 21
-60.481159
  0
LINE
  8
0
  6
CONTINUOUS
 62
     7
 10
-85.084862
 20
-60.481159
 11
-85.084862
 21
-62.602478
  0
LINE
  8
0
  6
CONTINUOUS
 62
     7
 10
-85.084862
 20
-70.80349
 11
-85.084862
 21
-71.682167
  0
LINE
  8
0
  6
CONTINUOUS
 62
     7
 10
-85.084862
 20
-70.80349
 11
-77.084862
 21
-70.80349
  0
LINE
  8
0
  6
CONTINUOUS
 62
     7
 10
-85.084862
 20
-71.682167
 11
-77.084862
 21
-71.682167
  0
LINE
  8
0
  6
CONTINUOUS
 62
     7
 10
-85.084862
 20
-71.682167
 11
-85.584869
 21
-71.182152
  0
LINE
  8
0
  6
CONTINUOUS
 62
     7
 10
-85.084862
 20
-62.602478
 11
-77.084862
 21
-62.602478
  0
LINE
  8
0
  6
CONTINUOUS
 62
     7
 10
-85.584862
 20
-54.682167
 11
-85.584862
 21
-71.182167
  0
LINE
  8
0
  6
CONTINUOUS
 62
     7
 10
-226.41537
 20
-271.64966
 11
-226.41537
 21
-288.14966
  0
LINE
  8
0
  6
CONTINUOUS
 62
     7
 10
-240.01837
 20
-74.575378
 11
-231.01837
 21
-74.575378
  0
LINE
  8
0
  6
CONTINUOUS
 62
     7
 10
-240.51837
 20
-75.682175
 11
-240.01837
 21
-76.182175
  0
LINE
  8
0
  6
CONTINUOUS
 62
     7
 10
-240.01837
 20
-74.575378
 11
-240.01837
 21
-76.182167
  0
LINE
  8
0
  6
CONTINUOUS
 62
     7
 10
-240.01837
 20
-61.315418
 11
-240.01837
 21
-65.19455
  0
LINE
  8
0
  6
CONTINUOUS
 62
     7
 10
-240.01837
 20
-76.182167
 11
-231.01837
 21
-76.182167
  0
LINE
  8
0
  6
CONTINUOUS
 62
     7
 10
-226.01837
 20
-54.682167
 11
-226.01837
 21
-71.182167
  0
LINE
  8
0
  6
CONTINUOUS
 62
     7
 10
-231.01837
 20
-54.682167
 11
-231.01837
 21
-76.182167
  0
LINE
  8
0
  6
CONTINUOUS
 62
     7
 10
-240.01837
 20
-65.19455
 11
-231.01837
 21
-65.19455
  0
LINE
  8
0
  6
CONTINUOUS
 62
     7
 10
-240.01837
 20
-61.315418
 11
-231.01837
 21
-61.315418
  0
LINE
  8
0
  6
CONTINUOUS
 62
     7
 10
-16.090082
 20
-74.575378
 11
-7.0900826
 21
-74.575378
  0
LINE
  8
0
  6
CONTINUOUS
 62
     7
 10
-16.590107
 20
-75.682175
 11
-16.090118
 21
-76.182167
  0
LINE
  8
0
  6
CONTINUOUS
 62
     7
 10
-16.090082
 20
-74.575378
 11
-16.090082
 21
-76.182167
  0
LINE
  8
0
  6
CONTINUOUS
 62
     7
 10
-16.090082
 20
-61.315418
 11
-16.090082
 21
-65.19455
  0
LINE
  8
0
  6
CONTINUOUS
 62
     7
 10
-16.090082
 20
-76.182167
 11
-7.0900826
 21
-76.182167
  0
LINE
  8
0
  6
CONTINUOUS
 62
     7
 10
-2.0900824
 20
-54.682167
 11
-2.0900824
 21
-71.182167
  0
LINE
  8
0
  6
CONTINUOUS
 62
     7
 10
-7.0900826
 20
-54.682167
 11
-7.0900826
 21
-76.182167
  0
LINE
  8
0
  6
CONTINUOUS
 62
     7
 10
-16.090082
 20
-65.19455
 11
-7.0900826
 21
-65.19455
  0
LINE
  8
0
  6
CONTINUOUS
 62
     7
 10
-16.090082
 20
-61.315418
 11
-7.0900826
 21
-61.315418
  0
LINE
  8
0
  6
CONTINUOUS
 62
     7
 10
-137.06064
 20
-291.54285
 11
-128.06064
 21
-291.54285
  0
LINE
  8
0
  6
CONTINUOUS
 62
     7
 10
-137.56064
 20
-292.64966
 11
-137.06064
 21
-293.14966
  0
LINE
  8
0
  6
CONTINUOUS
 62
     7
 10
-137.06064
 20
-291.54285
 11
-137.06064
 21
-293.14966
  0
LINE
  8
0
  6
CONTINUOUS
 62
     7
 10
-137.06064
 20
-278.2829
 11
-137.06064
 21
-282.16202
  0
LINE
  8
0
  6
CONTINUOUS
 62
     7
 10
-137.06064
 20
-293.14966
 11
-128.06064
 21
-293.14966
  0
LINE
  8
0
  6
CONTINUOUS
 62
     7
 10
-123.06063
 20
-271.64966
 11
-123.06063
 21
-288.14966
  0
LINE
  8
0
  6
CONTINUOUS
 62
     7
 10
-128.06064
 20
-271.64966
 11
-128.06064
 21
-293.14966
  0
LINE
  8
0
  6
CONTINUOUS
 62
     7
 10
-137.06064
 20
-282.16202
 11
-128.06064
 21
-282.16202
  0
LINE
  8
0
  6
CONTINUOUS
 62
     7
 10
-137.06064
 20
-278.2829
 11
-128.06064
 21
-278.2829
  0
LINE
  8
0
  6
CONTINUOUS
 62
     7
 10
-240.51837
 20
-54.682167
 11
-240.51837
 21
-75.682167
  0
LINE
  8
0
  6
CONTINUOUS
 62
     7
 10
-16.590082
 20
-54.682167
 11
-16.590082
 21
-75.682167
  0
LINE
  8
0
  6
CONTINUOUS
 62
     7
 10
-137.56064
 20
-271.64966
 11
-137.56064
 21
-292.64966
  0
LINE
  8
0
  6
CONTINUOUS
 62
     7
 10
57.360355
 20
-78.160553
 11
57.360355
 21
-79.182167
  0
LINE
  8
0
  6
CONTINUOUS
 62
     7
 10
57.360355
 20
-78.160553
 11
67.760384
 21
-78.160553
  0
LINE
  8
0
  6
CONTINUOUS
 62
     7
 10
57.360355
 20
-63.385616
 11
67.760384
 21
-63.385616
  0
LINE
  8
0
  6
CONTINUOUS
 62
     7
 10
57.360355
 20
-63.385616
 11
57.360355
 21
-65.85202
  0
LINE
  8
0
  6
CONTINUOUS
 62
     7
 10
72.760384
 20
-54.682167
 11
72.760384
 21
-74.182167
  0
LINE
  8
0
  6
CONTINUOUS
 62
     7
 10
56.860371
 20
-78.682175
 11
57.360363
 21
-79.182167
  0
LINE
  8
0
  6
CONTINUOUS
 62
     7
 10
57.360355
 20
-79.182167
 11
67.760384
 21
-79.182167
  0
LINE
  8
0
  6
CONTINUOUS
 62
     7
 10
67.760384
 20
-54.682167
 11
67.760384
 21
-79.182167
  0
LINE
  8
0
  6
CONTINUOUS
 62
     7
 10
57.360355
 20
-65.85202
 11
67.760384
 21
-65.85202
  0
LINE
  8
0
  6
CONTINUOUS
 62
     7
 10
-35.441891
 20
-271.64966
 11
-35.441891
 21
-291.14966
  0
LINE
  8
0
  6
CONTINUOUS
 62
     7
 10
-50.841885
 20
-296.14966
 11
-40.441891
 21
-296.14966
  0
LINE
  8
0
  6
CONTINUOUS
 62
     7
 10
-51.341888
 20
-295.64966
 11
-50.8419
 21
-296.14963
  0
LINE
  8
0
  6
CONTINUOUS
 62
     7
 10
-50.841885
 20
-295.12802
 11
-40.441891
 21
-295.12802
  0
LINE
  8
0
  6
CONTINUOUS
 62
     7
 10
-50.841885
 20
-280.35309
 11
-40.441891
 21
-280.35309
  0
LINE
  8
0
  6
CONTINUOUS
 62
     7
 10
-50.841885
 20
-280.35309
 11
-50.841885
 21
-282.81949
  0
LINE
  8
0
  6
CONTINUOUS
 62
     7
 10
-50.841885
 20
-295.12802
 11
-50.841885
 21
-296.14966
  0
LINE
  8
0
  6
CONTINUOUS
 62
     7
 10
-40.441891
 20
-271.64966
 11
-40.441891
 21
-296.14966
  0
LINE
  8
0
  6
CONTINUOUS
 62
     7
 10
-50.841885
 20
-282.81949
 11
-40.441891
 21
-282.81949
  0
LINE
  8
0
  6
CONTINUOUS
 62
     7
 10
56.860355
 20
-54.682167
 11
56.860355
 21
-78.682167
  0
LINE
  8
0
  6
CONTINUOUS
 62
     7
 10
-51.341885
 20
-271.64966
 11
-51.341885
 21
-295.64966
  0
LINE
  8
0
  6
CONTINUOUS
 62
     7
 10
39.453373
 20
-281.17593
 11
50.853397
 21
-281.17593
  0
LINE
  8
0
  6
CONTINUOUS
 62
     7
 10
50.853397
 20
-271.64966
 11
50.853397
 21
-301.14966
  0
LINE
  8
0
  6
CONTINUOUS
 62
     7
 10
38.953381
 20
-300.64966
 11
39.453369
 21
-301.14966
  0
LINE
  8
0
  6
CONTINUOUS
 62
     7
 10
39.453373
 20
-299.24539
 11
50.853397
 21
-299.24539
  0
LINE
  8
0
  6
CONTINUOUS
 62
     7
 10
39.453373
 20
-285.77319
 11
50.853397
 21
-285.77319
  0
LINE
  8
0
  6
CONTINUOUS
 62
     7
 10
39.453373
 20
-301.14966
 11
50.853397
 21
-301.14966
  0
LINE
  8
0
  6
CONTINUOUS
 62
     7
 10
56.853397
 20
-271.64966
 11
56.853397
 21
-295.14966
  0
LINE
  8
0
  6
CONTINUOUS
 62
     7
 10
39.453373
 20
-281.17593
 11
39.453373
 21
-285.77319
  0
LINE
  8
0
  6
CONTINUOUS
 62
     7
 10
39.453373
 20
-299.24539
 11
39.453373
 21
-301.14966
  0
LINE
  8
0
  6
CONTINUOUS
 62
     7
 10
38.953373
 20
-271.64966
 11
38.953373
 21
-300.64966
  0
LINE
  8
0
  6
CONTINUOUS
 62
     7
 10
-269.59097
 20
52.713776
 11
-269.59097
 21
40.713776
  0
LINE
  8
0
  6
CONTINUOUS
 62
     7
 10
-264.59097
 20
52.713776
 11
-264.59097
 21
35.713776
  0
LINE
  8
0
  6
CONTINUOUS
 62
     7
 10
-256.59097
 20
46.914787
 11
-264.59097
 21
46.914787
  0
LINE
  8
0
  6
CONTINUOUS
 62
     7
 10
-256.59097
 20
46.914787
 11
-256.59097
 21
44.793465
  0
LINE
  8
0
  6
CONTINUOUS
 62
     7
 10
-256.59097
 20
36.592461
 11
-256.59097
 21
35.713776
  0
LINE
  8
0
  6
CONTINUOUS
 62
     7
 10
-256.59097
 20
36.592461
 11
-264.59097
 21
36.592461
  0
LINE
  8
0
  6
CONTINUOUS
 62
     7
 10
-256.59097
 20
35.713776
 11
-264.59097
 21
35.713776
  0
LINE
  8
0
  6
CONTINUOUS
 62
     7
 10
-256.59097
 20
35.713768
 11
-256.09097
 21
36.213768
  0
LINE
  8
0
  6
CONTINUOUS
 62
     7
 10
-256.59097
 20
44.793465
 11
-264.59097
 21
44.793465
  0
LINE
  8
0
  6
CONTINUOUS
 62
     7
 10
-256.09097
 20
52.713776
 11
-256.09097
 21
36.213776
  0
LINE
  8
0
  6
CONTINUOUS
 62
     7
 10
-181.23291
 20
32.820564
 11
-190.23291
 21
32.820564
  0
LINE
  8
0
  6
CONTINUOUS
 62
     7
 10
-180.73289
 20
31.713789
 11
-181.23291
 21
31.213778
  0
LINE
  8
0
  6
CONTINUOUS
 62
     7
 10
-181.23291
 20
32.820564
 11
-181.23291
 21
31.213776
  0
LINE
  8
0
  6
CONTINUOUS
 62
     7
 10
-181.23291
 20
46.080528
 11
-181.23291
 21
42.201393
  0
LINE
  8
0
  6
CONTINUOUS
 62
     7
 10
-181.23291
 20
31.213776
 11
-190.23291
 21
31.213776
  0
LINE
  8
0
  6
CONTINUOUS
 62
     7
 10
-195.23291
 20
52.713776
 11
-195.23291
 21
36.213776
  0
LINE
  8
0
  6
CONTINUOUS
 62
     7
 10
-190.23291
 20
52.713776
 11
-190.23291
 21
31.213776
  0
LINE
  8
0
  6
CONTINUOUS
 62
     7
 10
-181.23291
 20
42.201393
 11
-190.23291
 21
42.201393
  0
LINE
  8
0
  6
CONTINUOUS
 62
     7
 10
-181.23291
 20
46.080528
 11
-190.23291
 21
46.080528
  0
LINE
  8
0
  6
CONTINUOUS
 62
     7
 10
-105.07366
 20
32.820564
 11
-114.07366
 21
32.820564
  0
LINE
  8
0
  6
CONTINUOUS
 62
     7
 10
-104.57365
 20
31.713785
 11
-105.07366
 21
31.213774
  0
LINE
  8
0
  6
CONTINUOUS
 62
     7
 10
-105.07366
 20
32.820564
 11
-105.07366
 21
31.213776
  0
LINE
  8
0
  6
CONTINUOUS
 62
     7
 10
-105.07366
 20
46.080528
 11
-105.07366
 21
42.201393
  0
LINE
  8
0
  6
CONTINUOUS
 62
     7
 10
-105.07366
 20
31.213776
 11
-114.07366
 21
31.213776
  0
LINE
  8
0
  6
CONTINUOUS
 62
     7
 10
-119.07366
 20
52.713776
 11
-119.07366
 21
36.213776
  0
LINE
  8
0
  6
CONTINUOUS
 62
     7
 10
-114.07366
 20
52.713776
 11
-114.07366
 21
31.213776
  0
LINE
  8
0
  6
CONTINUOUS
 62
     7
 10
-105.07366
 20
42.201393
 11
-114.07366
 21
42.201393
  0
LINE
  8
0
  6
CONTINUOUS
 62
     7
 10
-105.07366
 20
46.080528
 11
-114.07366
 21
46.080528
  0
LINE
  8
0
  6
CONTINUOUS
 62
     7
 10
-180.73291
 20
52.713776
 11
-180.73291
 21
31.713776
  0
LINE
  8
0
  6
CONTINUOUS
 62
     7
 10
-104.57366
 20
52.713776
 11
-104.57366
 21
31.713776
  0
LINE
  8
0
  6
CONTINUOUS
 62
     7
 10
-32.764336
 20
29.235397
 11
-32.764336
 21
28.213776
  0
LINE
  8
0
  6
CONTINUOUS
 62
     7
 10
-32.764336
 20
29.235397
 11
-43.16433
 21
29.235397
  0
LINE
  8
0
  6
CONTINUOUS
 62
     7
 10
-32.764336
 20
44.01033
 11
-43.16433
 21
44.01033
  0
LINE
  8
0
  6
CONTINUOUS
 62
     7
 10
-32.764336
 20
44.01033
 11
-32.764336
 21
41.54393
  0
LINE
  8
0
  6
CONTINUOUS
 62
     7
 10
-48.16433
 20
52.713776
 11
-48.16433
 21
33.213776
  0
LINE
  8
0
  6
CONTINUOUS
 62
     7
 10
-32.264332
 20
28.713789
 11
-32.764343
 21
28.213778
  0
LINE
  8
0
  6
CONTINUOUS
 62
     7
 10
-32.764336
 20
28.213776
 11
-43.16433
 21
28.213776
  0
LINE
  8
0
  6
CONTINUOUS
 62
     7
 10
-43.16433
 20
52.713776
 11
-43.16433
 21
28.213776
  0
LINE
  8
0
  6
CONTINUOUS
 62
     7
 10
-32.764336
 20
41.54393
 11
-43.16433
 21
41.54393
  0
LINE
  8
0
  6
CONTINUOUS
 62
     7
 10
35.117073
 20
29.235397
 11
35.117073
 21
28.213776
  0
LINE
  8
0
  6
CONTINUOUS
 62
     7
 10
35.117073
 20
29.235397
 11
24.717079
 21
29.235397
  0
LINE
  8
0
  6
CONTINUOUS
 62
     7
 10
35.617058
 20
28.713787
 11
35.117046
 21
28.213776
  0
LINE
  8
0
  6
CONTINUOUS
 62
     7
 10
19.717079
 20
52.713776
 11
19.717079
 21
33.213776
  0
LINE
  8
0
  6
CONTINUOUS
 62
     7
 10
35.117073
 20
44.01033
 11
35.117073
 21
41.54393
  0
LINE
  8
0
  6
CONTINUOUS
 62
     7
 10
35.117073
 20
44.01033
 11
24.717079
 21
44.01033
  0
LINE
  8
0
  6
CONTINUOUS
 62
     7
 10
35.117073
 20
28.213776
 11
24.717079
 21
28.213776
  0
LINE
  8
0
  6
CONTINUOUS
 62
     7
 10
24.717079
 20
52.713776
 11
24.717079
 21
28.213776
  0
LINE
  8
0
  6
CONTINUOUS
 62
     7
 10
35.117073
 20
41.54393
 11
24.717079
 21
41.54393
  0
LINE
  8
0
  6
CONTINUOUS
 62
     7
 10
-260.61835
 20
-78.160553
 11
-260.61835
 21
-79.182167
  0
LINE
  8
0
  6
CONTINUOUS
 62
     7
 10
-260.61835
 20
-78.160553
 11
-271.01837
 21
-78.160553
  0
LINE
  8
0
  6
CONTINUOUS
 62
     7
 10
-260.11838
 20
-78.682167
 11
-260.61838
 21
-79.182167
  0
LINE
  8
0
  6
CONTINUOUS
 62
     7
 10
-276.01837
 20
-54.682167
 11
-276.01837
 21
-74.182167
  0
LINE
  8
0
  6
CONTINUOUS
 62
     7
 10
-260.61835
 20
-63.385616
 11
-260.61835
 21
-65.85202
  0
LINE
  8
0
  6
CONTINUOUS
 62
     7
 10
-260.61835
 20
-63.385616
 11
-271.01837
 21
-63.385616
  0
LINE
  8
0
  6
CONTINUOUS
 62
     7
 10
-260.61835
 20
-79.182167
 11
-271.01837
 21
-79.182167
  0
LINE
  8
0
  6
CONTINUOUS
 62
     7
 10
-271.01837
 20
-54.682167
 11
-271.01837
 21
-79.182167
  0
LINE
  8
0
  6
CONTINUOUS
 62
     7
 10
-260.61835
 20
-65.85202
 11
-271.01837
 21
-65.85202
  0
LINE
  8
0
  6
CONTINUOUS
 62
     7
 10
-32.264336
 20
52.713776
 11
-32.264336
 21
28.713776
  0
LINE
  8
0
  6
CONTINUOUS
 62
     7
 10
35.617073
 20
52.713776
 11
35.617073
 21
28.713776
  0
LINE
  8
0
  6
CONTINUOUS
 62
     7
 10
-260.11835
 20
-54.682167
 11
-260.11835
 21
-78.682167
  0
LINE
  8
0
  6
CONTINUOUS
 62
     7
 10
-185.44312
 20
-64.20845
 11
-196.84311
 21
-64.20845
  0
LINE
  8
0
  6
CONTINUOUS
 62
     7
 10
-196.84311
 20
-54.682167
 11
-196.84311
 21
-84.182167
  0
LINE
  8
0
  6
CONTINUOUS
 62
     7
 10
-184.94312
 20
-83.682159
 11
-185.44312
 21
-84.182159
  0
LINE
  8
0
  6
CONTINUOUS
 62
     7
 10
-185.44312
 20
-82.277916
 11
-196.84311
 21
-82.277916
  0
LINE
  8
0
  6
CONTINUOUS
 62
     7
 10
-185.44312
 20
-68.805717
 11
-196.84311
 21
-68.805717
  0
LINE
  8
0
  6
CONTINUOUS
 62
     7
 10
-185.44312
 20
-84.182167
 11
-196.84311
 21
-84.182167
  0
LINE
  8
0
  6
CONTINUOUS
 62
     7
 10
-185.44312
 20
-64.20845
 11
-185.44312
 21
-68.805717
  0
LINE
  8
0
  6
CONTINUOUS
 62
     7
 10
-185.44312
 20
-82.277916
 11
-185.44312
 21
-84.182167
  0
LINE
  8
0
  6
CONTINUOUS
 62
     7
 10
-185.44312
 20
-82.277916
 11
-185.44312
 21
-84.182167
  0
LINE
  8
0
  6
CONTINUOUS
 62
     7
 10
-185.44312
 20
-64.20845
 11
-185.44312
 21
-68.805717
  0
LINE
  8
0
  6
CONTINUOUS
 62
     7
 10
-185.44312
 20
-82.277916
 11
-196.84311
 21
-82.277916
  0
LINE
  8
0
  6
CONTINUOUS
 62
     7
 10
-185.44312
 20
-68.805717
 11
-196.84311
 21
-68.805717
  0
LINE
  8
0
  6
CONTINUOUS
 62
     7
 10
-185.44312
 20
-64.20845
 11
-196.84311
 21
-64.20845
  0
LINE
  8
0
  6
CONTINUOUS
 62
     7
 10
-196.84311
 20
-54.682167
 11
-196.84311
 21
-84.182167
  0
LINE
  8
0
  6
CONTINUOUS
 62
     7
 10
-202.84311
 20
-54.682167
 11
-202.84311
 21
-78.182167
  0
LINE
  8
0
  6
CONTINUOUS
 62
     7
 10
-184.94312
 20
-83.682159
 11
-185.44312
 21
-84.182159
  0
LINE
  8
0
  6
CONTINUOUS
 62
     7
 10
-185.44312
 20
-84.182167
 11
-196.84311
 21
-84.182167
  0
LINE
  8
0
  6
CONTINUOUS
 62
     7
 10
-106.68487
 20
-82.277916
 11
-106.68487
 21
-84.182167
  0
LINE
  8
0
  6
CONTINUOUS
 62
     7
 10
-106.68487
 20
-64.20845
 11
-106.68487
 21
-68.805717
  0
LINE
  8
0
  6
CONTINUOUS
 62
     7
 10
-106.68487
 20
-82.277916
 11
-118.08486
 21
-82.277916
  0
LINE
  8
0
  6
CONTINUOUS
 62
     7
 10
-106.68487
 20
-68.805717
 11
-118.08486
 21
-68.805717
  0
LINE
  8
0
  6
CONTINUOUS
 62
     7
 10
-106.68487
 20
-64.20845
 11
-118.08486
 21
-64.20845
  0
LINE
  8
0
  6
CONTINUOUS
 62
     7
 10
-118.08486
 20
-54.682167
 11
-118.08486
 21
-84.182167
  0
LINE
  8
0
  6
CONTINUOUS
 62
     7
 10
-124.08486
 20
-54.682167
 11
-124.08486
 21
-78.182167
  0
LINE
  8
0
  6
CONTINUOUS
 62
     7
 10
-106.18485
 20
-83.682167
 11
-106.68485
 21
-84.182167
  0
LINE
  8
0
  6
CONTINUOUS
 62
     7
 10
-106.68487
 20
-84.182167
 11
-118.08486
 21
-84.182167
  0
LINE
  8
0
  6
CONTINUOUS
 62
     7
 10
-106.68487
 20
-82.277916
 11
-106.68487
 21
-84.182167
  0
LINE
  8
0
  6
CONTINUOUS
 62
     7
 10
-106.68487
 20
-64.20845
 11
-106.68487
 21
-68.805717
  0
LINE
  8
0
  6
CONTINUOUS
 62
     7
 10
-106.68487
 20
-82.277916
 11
-118.08486
 21
-82.277916
  0
LINE
  8
0
  6
CONTINUOUS
 62
     7
 10
-106.68487
 20
-68.805717
 11
-118.08486
 21
-68.805717
  0
LINE
  8
0
  6
CONTINUOUS
 62
     7
 10
-106.68487
 20
-64.20845
 11
-118.08486
 21
-64.20845
  0
LINE
  8
0
  6
CONTINUOUS
 62
     7
 10
-118.08486
 20
-54.682167
 11
-118.08486
 21
-84.182167
  0
LINE
  8
0
  6
CONTINUOUS
 62
     7
 10
-124.08486
 20
-54.682167
 11
-124.08486
 21
-78.182167
  0
LINE
  8
0
  6
CONTINUOUS
 62
     7
 10
-106.18485
 20
-83.682167
 11
-106.68485
 21
-84.182167
  0
LINE
  8
0
  6
CONTINUOUS
 62
     7
 10
-106.68487
 20
-84.182167
 11
-118.08486
 21
-84.182167
  0
LINE
  8
0
  6
CONTINUOUS
 62
     7
 10
-37.69009
 20
-82.277916
 11
-37.69009
 21
-84.182167
  0
LINE
  8
0
  6
CONTINUOUS
 62
     7
 10
-37.69009
 20
-64.20845
 11
-37.69009
 21
-68.805717
  0
LINE
  8
0
  6
CONTINUOUS
 62
     7
 10
-37.69009
 20
-82.277916
 11
-49.090115
 21
-82.277916
  0
LINE
  8
0
  6
CONTINUOUS
 62
     7
 10
-37.69009
 20
-68.805717
 11
-49.090115
 21
-68.805717
  0
LINE
  8
0
  6
CONTINUOUS
 62
     7
 10
-37.69009
 20
-64.20845
 11
-49.090115
 21
-64.20845
  0
LINE
  8
0
  6
CONTINUOUS
 62
     7
 10
-49.090115
 20
-54.682167
 11
-49.090115
 21
-84.182167
  0
LINE
  8
0
  6
CONTINUOUS
 62
     7
 10
-37.190094
 20
-83.682159
 11
-37.690105
 21
-84.182175
  0
LINE
  8
0
  6
CONTINUOUS
 62
     7
 10
-37.69009
 20
-84.182167
 11
-49.090115
 21
-84.182167
  0
LINE
  8
0
  6
CONTINUOUS
 62
     7
 10
-37.69009
 20
-82.277916
 11
-37.69009
 21
-84.182167
  0
LINE
  8
0
  6
CONTINUOUS
 62
     7
 10
-37.69009
 20
-64.20845
 11
-37.69009
 21
-68.805717
  0
LINE
  8
0
  6
CONTINUOUS
 62
     7
 10
-37.69009
 20
-82.277916
 11
-49.090115
 21
-82.277916
  0
LINE
  8
0
  6
CONTINUOUS
 62
     7
 10
-37.69009
 20
-68.805717
 11
-49.090115
 21
-68.805717
  0
LINE
  8
0
  6
CONTINUOUS
 62
     7
 10
-37.69009
 20
-64.20845
 11
-49.090115
 21
-64.20845
  0
LINE
  8
0
  6
CONTINUOUS
 62
     7
 10
-49.090115
 20
-54.682167
 11
-49.090115
 21
-84.182167
  0
LINE
  8
0
  6
CONTINUOUS
 62
     7
 10
-55.090115
 20
-54.682167
 11
-55.090115
 21
-78.182167
  0
LINE
  8
0
  6
CONTINUOUS
 62
     7
 10
-37.190094
 20
-83.682159
 11
-37.690105
 21
-84.182175
  0
LINE
  8
0
  6
CONTINUOUS
 62
     7
 10
-37.69009
 20
-84.182167
 11
-49.090115
 21
-84.182167
  0
LINE
  8
0
  6
CONTINUOUS
 62
     7
 10
36.160404
 20
-82.277916
 11
36.160404
 21
-84.182167
  0
LINE
  8
0
  6
CONTINUOUS
 62
     7
 10
36.160404
 20
-64.20845
 11
36.160404
 21
-68.805717
  0
LINE
  8
0
  6
CONTINUOUS
 62
     7
 10
36.160404
 20
-82.277916
 11
24.760382
 21
-82.277916
  0
LINE
  8
0
  6
CONTINUOUS
 62
     7
 10
36.160404
 20
-68.805717
 11
24.760382
 21
-68.805717
  0
LINE
  8
0
  6
CONTINUOUS
 62
     7
 10
36.160404
 20
-64.20845
 11
24.760382
 21
-64.20845
  0
LINE
  8
0
  6
CONTINUOUS
 62
     7
 10
24.760382
 20
-54.682167
 11
24.760382
 21
-84.182167
  0
LINE
  8
0
  6
CONTINUOUS
 62
     7
 10
18.760382
 20
-54.682167
 11
18.760382
 21
-78.182167
  0
LINE
  8
0
  6
CONTINUOUS
 62
     7
 10
36.660374
 20
-83.682182
 11
36.160385
 21
-84.182175
  0
LINE
  8
0
  6
CONTINUOUS
 62
     7
 10
36.160343
 20
-84.182167
 11
24.760382
 21
-84.182167
  0
LINE
  8
0
  6
CONTINUOUS
 62
     7
 10
-184.94312
 20
-54.682167
 11
-184.94312
 21
-83.682167
  0
LINE
  8
0
  6
CONTINUOUS
 62
     7
 10
-106.18487
 20
-54.682167
 11
-106.18487
 21
-83.682167
  0
LINE
  8
0
  6
CONTINUOUS
 62
     7
 10
-37.19009
 20
-54.682167
 11
-37.19009
 21
-83.682167
  0
LINE
  8
0
  6
CONTINUOUS
 62
     7
 10
36.660343
 20
-54.682167
 11
36.660343
 21
-83.682167
  0
LINE
  8
0
  6
CONTINUOUS
 62
     7
 10
-248.41537
 20
-305.64966
 11
-247.91537
 21
-305.14966
  0
LINE
  8
0
  6
CONTINUOUS
 62
     7
 10
-248.41537
 20
-302.91104
 11
-248.41537
 21
-305.64966
  0
LINE
  8
0
  6
CONTINUOUS
 62
     7
 10
-248.41537
 20
-305.64966
 11
-259.91537
 21
-305.64966
  0
LINE
  8
0
  6
CONTINUOUS
 62
     7
 10
-248.41537
 20
-302.91104
 11
-259.91537
 21
-302.91104
  0
LINE
  8
0
  6
CONTINUOUS
 62
     7
 10
-267.91537
 20
-271.64966
 11
-267.91537
 21
-297.64966
  0
LINE
  8
0
  6
CONTINUOUS
 62
     7
 10
-248.41537
 20
-281.85992
 11
-248.41537
 21
-288.4715
  0
LINE
  8
0
  6
CONTINUOUS
 62
     7
 10
-248.41537
 20
-288.4715
 11
-259.91537
 21
-288.4715
  0
LINE
  8
0
  6
CONTINUOUS
 62
     7
 10
-259.91537
 20
-271.64966
 11
-259.91537
 21
-305.64966
  0
LINE
  8
0
  6
CONTINUOUS
 62
     7
 10
-248.41537
 20
-281.85992
 11
-259.91537
 21
-281.85992
  0
LINE
  8
0
  6
CONTINUOUS
 62
     7
 10
-171.06064
 20
-271.64966
 11
-171.06064
 21
-305.64966
  0
LINE
  8
0
  6
CONTINUOUS
 62
     7
 10
-159.56064
 20
-281.85992
 11
-159.56064
 21
-288.4715
  0
LINE
  8
0
  6
CONTINUOUS
 62
     7
 10
-159.56064
 20
-305.64966
 11
-171.06064
 21
-305.64966
  0
LINE
  8
0
  6
CONTINUOUS
 62
     7
 10
-159.56062
 20
-305.64963
 11
-159.06064
 21
-305.14966
  0
LINE
  8
0
  6
CONTINUOUS
 62
     7
 10
-159.56064
 20
-302.91104
 11
-171.06064
 21
-302.91104
  0
LINE
  8
0
  6
CONTINUOUS
 62
     7
 10
-159.56064
 20
-281.85992
 11
-171.06064
 21
-281.85992
  0
LINE
  8
0
  6
CONTINUOUS
 62
     7
 10
-159.56064
 20
-288.4715
 11
-171.06064
 21
-288.4715
  0
LINE
  8
0
  6
CONTINUOUS
 62
     7
 10
-159.56064
 20
-302.91104
 11
-159.56064
 21
-305.64966
  0
LINE
  8
0
  6
CONTINUOUS
 62
     7
 10
-179.06064
 20
-271.64966
 11
-179.06064
 21
-297.64966
  0
LINE
  8
0
  6
CONTINUOUS
 62
     7
 10
-159.56064
 20
-281.85992
 11
-159.56064
 21
-288.4715
  0
LINE
  8
0
  6
CONTINUOUS
 62
     7
 10
-159.56062
 20
-305.64963
 11
-159.06064
 21
-305.14966
  0
LINE
  8
0
  6
CONTINUOUS
 62
     7
 10
-159.56064
 20
-302.91104
 11
-171.06064
 21
-302.91104
  0
LINE
  8
0
  6
CONTINUOUS
 62
     7
 10
-159.56064
 20
-305.64966
 11
-171.06064
 21
-305.64966
  0
LINE
  8
0
  6
CONTINUOUS
 62
     7
 10
-171.06064
 20
-271.64966
 11
-171.06064
 21
-305.64966
  0
LINE
  8
0
  6
CONTINUOUS
 62
     7
 10
-159.56064
 20
-288.4715
 11
-171.06064
 21
-288.4715
  0
LINE
  8
0
  6
CONTINUOUS
 62
     7
 10
-159.56064
 20
-281.85992
 11
-171.06064
 21
-281.85992
  0
LINE
  8
0
  6
CONTINUOUS
 62
     7
 10
-159.56064
 20
-302.91104
 11
-159.56064
 21
-305.64966
  0
LINE
  8
0
  6
CONTINUOUS
 62
     7
 10
-92.441887
 20
-271.64966
 11
-92.441887
 21
-297.64966
  0
LINE
  8
0
  6
CONTINUOUS
 62
     7
 10
-72.941887
 20
-281.85992
 11
-72.941887
 21
-288.4715
  0
LINE
  8
0
  6
CONTINUOUS
 62
     7
 10
-72.941902
 20
-305.64963
 11
-72.44191
 21
-305.14966
  0
LINE
  8
0
  6
CONTINUOUS
 62
     7
 10
-72.941887
 20
-302.91104
 11
-84.441887
 21
-302.91104
  0
LINE
  8
0
  6
CONTINUOUS
 62
     7
 10
-72.941887
 20
-305.64966
 11
-84.441887
 21
-305.64966
  0
LINE
  8
0
  6
CONTINUOUS
 62
     7
 10
-84.441887
 20
-271.64966
 11
-84.441887
 21
-305.64966
  0
LINE
  8
0
  6
CONTINUOUS
 62
     7
 10
-72.941887
 20
-288.4715
 11
-84.441887
 21
-288.4715
  0
LINE
  8
0
  6
CONTINUOUS
 62
     7
 10
-72.941887
 20
-281.85992
 11
-84.441887
 21
-281.85992
  0
LINE
  8
0
  6
CONTINUOUS
 62
     7
 10
-72.941887
 20
-302.91104
 11
-72.941887
 21
-305.64966
  0
LINE
  8
0
  6
CONTINUOUS
 62
     7
 10
-2.1466329
 20
-271.64966
 11
-2.1466329
 21
-297.64966
  0
LINE
  8
0
  6
CONTINUOUS
 62
     7
 10
17.353367
 20
-281.85992
 11
17.353367
 21
-288.4715
  0
LINE
  8
0
  6
CONTINUOUS
 62
     7
 10
17.353369
 20
-305.64966
 11
17.85338
 21
-305.14966
  0
LINE
  8
0
  6
CONTINUOUS
 62
     7
 10
17.353367
 20
-302.91104
 11
5.8533673
 21
-302.91104
  0
LINE
  8
0
  6
CONTINUOUS
 62
     7
 10
17.353367
 20
-305.64966
 11
5.8533673
 21
-305.64966
  0
LINE
  8
0
  6
CONTINUOUS
 62
     7
 10
5.8533673
 20
-271.64966
 11
5.8533673
 21
-305.64966
  0
LINE
  8
0
  6
CONTINUOUS
 62
     7
 10
17.353367
 20
-288.4715
 11
5.8533673
 21
-288.4715
  0
LINE
  8
0
  6
CONTINUOUS
 62
     7
 10
17.353367
 20
-281.85992
 11
5.8533673
 21
-281.85992
  0
LINE
  8
0
  6
CONTINUOUS
 62
     7
 10
17.353367
 20
-302.91104
 11
17.353367
 21
-305.64966
  0
LINE
  8
0
  6
CONTINUOUS
 62
     7
 10
-247.91537
 20
-271.64966
 11
-247.91537
 21
-305.14966
  0
LINE
  8
0
  6
CONTINUOUS
 62
     7
 10
-159.06064
 20
-271.64966
 11
-159.06064
 21
-305.14966
  0
LINE
  8
0
  6
CONTINUOUS
 62
     7
 10
-72.441887
 20
-271.64966
 11
-72.441887
 21
-305.14966
  0
LINE
  8
0
  6
CONTINUOUS
 62
     7
 10
17.853367
 20
-271.64966
 11
17.853367
 21
-305.14966
  0
LINE
  8
0
  6
CONTINUOUS
 62
     7
 10
-256.09097
 20
36.681793
 11
-252.69098
 21
36.681793
  0
LINE
  8
0
  6
CONTINUOUS
 62
     7
 10
-241.49098
 20
39.002815
 11
-238.09099
 21
39.002815
  0
LINE
  8
0
  6
CONTINUOUS
 62
     7
 10
-241.49098
 20
70.213776
 11
-241.49098
 21
52.713776
  0
LINE
  8
0
  6
CONTINUOUS
 62
     7
 10
-252.69098
 20
70.213776
 11
-252.69098
 21
52.713776
  0
LINE
  8
0
  6
CONTINUOUS
 62
     7
 10
-252.11363
 20
64.95401
 11
-252.11363
 21
66.585564
  0
LINE
  8
0
  6
CONTINUOUS
 62
     7
 10
-252.11363
 20
71.213776
 11
-242.06833
 21
71.213776
  0
LINE
  8
0
  6
CONTINUOUS
 62
     7
 10
-242.06834
 20
71.213776
 11
-241.49098
 21
70.213768
  0
LINE
  8
0
  6
CONTINUOUS
 62
     7
 10
-242.06833
 20
64.95401
 11
-242.06833
 21
66.585564
  0
LINE
  8
0
  6
CONTINUOUS
 62
     7
 10
-252.11363
 20
66.585564
 11
-242.06833
 21
66.585564
  0
LINE
  8
0
  6
CONTINUOUS
 62
     7
 10
-252.69096
 20
70.213776
 11
-252.11362
 21
71.213776
  0
LINE
  8
0
  6
CONTINUOUS
 62
     7
 10
-252.11363
 20
64.95401
 11
-242.06833
 21
64.95401
  0
LINE
  8
0
  6
CONTINUOUS
 62
     7
 10
-226.59099
 20
52.713776
 11
-226.59099
 21
63.213776
  0
LINE
  8
0
  6
CONTINUOUS
 62
     7
 10
-237.59099
 20
66.335098
 11
-237.59099
 21
67.213776
  0
LINE
  8
0
  6
CONTINUOUS
 62
     7
 10
-237.59099
 20
67.213776
 11
-230.59099
 21
67.213776
  0
LINE
  8
0
  6
CONTINUOUS
 62
     7
 10
-238.09096
 20
66.713783
 11
-237.59097
 21
67.213776
  0
LINE
  8
0
  6
CONTINUOUS
 62
     7
 10
-237.59099
 20
57.477234
 11
-237.59099
 21
59.599121
  0
LINE
  8
0
  6
CONTINUOUS
 62
     7
 10
-237.59099
 20
66.335098
 11
-230.59099
 21
66.335098
  0
LINE
  8
0
  6
CONTINUOUS
 62
     7
 10
-237.59099
 20
57.477234
 11
-230.59099
 21
57.477234
  0
LINE
  8
0
  6
CONTINUOUS
 62
     7
 10
-237.59099
 20
59.599121
 11
-230.59099
 21
59.599121
  0
LINE
  8
0
  6
CONTINUOUS
 62
     7
 10
-230.59099
 20
52.713776
 11
-230.59099
 21
67.213776
  0
LINE
  8
0
  6
CONTINUOUS
 62
     7
 10
-238.09099
 20
52.713776
 11
-238.09099
 21
66.713776
  0
LINE
  8
0
  6
CONTINUOUS
 62
     7
 10
-269.59097
 20
52.713776
 11
-269.59097
 21
64.713776
  0
LINE
  8
0
  6
CONTINUOUS
 62
     7
 10
-264.59097
 20
52.713776
 11
-264.59097
 21
69.713776
  0
LINE
  8
0
  6
CONTINUOUS
 62
     7
 10
-256.59097
 20
58.512764
 11
-264.59097
 21
58.512764
  0
LINE
  8
0
  6
CONTINUOUS
 62
     7
 10
-256.59097
 20
58.512764
 11
-256.59097
 21
60.634087
  0
LINE
  8
0
  6
CONTINUOUS
 62
     7
 10
-256.59097
 20
68.835098
 11
-256.59097
 21
69.713776
  0
LINE
  8
0
  6
CONTINUOUS
 62
     7
 10
-256.59097
 20
68.835098
 11
-264.59097
 21
68.835098
  0
LINE
  8
0
  6
CONTINUOUS
 62
     7
 10
-256.59097
 20
69.713776
 11
-264.59097
 21
69.713776
  0
LINE
  8
0
  6
CONTINUOUS
 62
     7
 10
-256.59097
 20
69.713783
 11
-256.09097
 21
69.213783
  0
LINE
  8
0
  6
CONTINUOUS
 62
     7
 10
-256.59097
 20
60.634087
 11
-264.59097
 21
60.634087
  0
LINE
  8
0
  6
CONTINUOUS
 62
     7
 10
-256.09097
 20
52.713776
 11
-256.09097
 21
69.213776
  0
LINE
  8
0
  6
CONTINUOUS
 62
     7
 10
-256.09097
 20
68.745758
 11
-252.69098
 21
68.745758
  0
LINE
  8
0
  6
CONTINUOUS
 62
     7
 10
-241.49098
 20
66.424736
 11
-238.09099
 21
66.424736
  0
LINE
  8
0
  6
CONTINUOUS
 62
     7
 10
-180.73291
 20
32.039742
 11
-177.23291
 21
32.039742
  0
LINE
  8
0
  6
CONTINUOUS
 62
     7
 10
-166.1329
 20
38.880653
 11
-162.73291
 21
38.880653
  0
LINE
  8
0
  6
CONTINUOUS
 62
     7
 10
-177.23291
 20
52.713776
 11
-177.23291
 21
74.713776
  0
LINE
  8
0
  6
CONTINUOUS
 62
     7
 10
-166.1329
 20
52.713776
 11
-166.1329
 21
74.713768
  0
LINE
  8
0
  6
CONTINUOUS
 62
     7
 10
-166.71027
 20
67.330376
 11
-166.71027
 21
70.472015
  0
LINE
  8
0
  6
CONTINUOUS
 62
     7
 10
-166.71027
 20
52.713776
 11
-166.71027
 21
54.935242
  0
LINE
  8
0
  6
CONTINUOUS
 62
     7
 10
-176.65558
 20
67.330376
 11
-176.65558
 21
70.472015
  0
LINE
  8
0
  6
CONTINUOUS
 62
     7
 10
-176.65558
 20
52.713776
 11
-176.65558
 21
54.935242
  0
LINE
  8
0
  6
CONTINUOUS
 62
     7
 10
-176.65558
 20
54.935242
 11
-166.71027
 21
54.935242
  0
LINE
  8
0
  6
CONTINUOUS
 62
     7
 10
-176.65558
 20
75.713776
 11
-166.71027
 21
75.713776
  0
LINE
  8
0
  6
CONTINUOUS
 62
     7
 10
-166.71027
 20
75.713776
 11
-166.13292
 21
74.713776
  0
LINE
  8
0
  6
CONTINUOUS
 62
     7
 10
-176.65558
 20
70.472015
 11
-166.71027
 21
70.472015
  0
LINE
  8
0
  6
CONTINUOUS
 62
     7
 10
-176.65558
 20
67.330376
 11
-166.71027
 21
67.330376
  0
LINE
  8
0
  6
CONTINUOUS
 62
     7
 10
-177.23291
 20
74.713783
 11
-176.65556
 21
75.713776
  0
LINE
  8
0
  6
CONTINUOUS
 62
     7
 10
-151.23291
 20
52.713776
 11
-151.23291
 21
63.213776
  0
LINE
  8
0
  6
CONTINUOUS
 62
     7
 10
-162.23291
 20
66.335098
 11
-162.23291
 21
67.213776
  0
LINE
  8
0
  6
CONTINUOUS
 62
     7
 10
-162.23291
 20
67.213776
 11
-155.23291
 21
67.213776
  0
LINE
  8
0
  6
CONTINUOUS
 62
     7
 10
-162.73289
 20
66.713783
 11
-162.23291
 21
67.213776
  0
LINE
  8
0
  6
CONTINUOUS
 62
     7
 10
-162.23291
 20
57.477234
 11
-162.23291
 21
59.599121
  0
LINE
  8
0
  6
CONTINUOUS
 62
     7
 10
-162.23291
 20
66.335098
 11
-155.23291
 21
66.335098
  0
LINE
  8
0
  6
CONTINUOUS
 62
     7
 10
-162.23291
 20
57.477234
 11
-155.23291
 21
57.477234
  0
LINE
  8
0
  6
CONTINUOUS
 62
     7
 10
-162.23291
 20
59.599121
 11
-155.23291
 21
59.599121
  0
LINE
  8
0
  6
CONTINUOUS
 62
     7
 10
-155.23291
 20
52.713776
 11
-155.23291
 21
67.213776
  0
LINE
  8
0
  6
CONTINUOUS
 62
     7
 10
-162.73291
 20
52.713776
 11
-162.73291
 21
66.713776
  0
LINE
  8
0
  6
CONTINUOUS
 62
     7
 10
-181.23291
 20
72.606987
 11
-190.23291
 21
72.606987
  0
LINE
  8
0
  6
CONTINUOUS
 62
     7
 10
-180.73291
 20
73.713768
 11
-181.23291
 21
74.213768
  0
LINE
  8
0
  6
CONTINUOUS
 62
     7
 10
-181.23291
 20
72.606987
 11
-181.23291
 21
74.213776
  0
LINE
  8
0
  6
CONTINUOUS
 62
     7
 10
-181.23291
 20
59.347023
 11
-181.23291
 21
63.226158
  0
LINE
  8
0
  6
CONTINUOUS
 62
     7
 10
-181.23291
 20
74.213776
 11
-190.23291
 21
74.213776
  0
LINE
  8
0
  6
CONTINUOUS
 62
     7
 10
-195.23291
 20
52.713776
 11
-195.23291
 21
69.213776
  0
LINE
  8
0
  6
CONTINUOUS
 62
     7
 10
-190.23291
 20
52.713776
 11
-190.23291
 21
74.213776
  0
LINE
  8
0
  6
CONTINUOUS
 62
     7
 10
-181.23291
 20
63.226158
 11
-190.23291
 21
63.226158
  0
LINE
  8
0
  6
CONTINUOUS
 62
     7
 10
-181.23291
 20
59.347023
 11
-190.23291
 21
59.347023
  0
LINE
  8
0
  6
CONTINUOUS
 62
     7
 10
-180.73291
 20
52.713776
 11
-180.73291
 21
73.713776
  0
LINE
  8
0
  6
CONTINUOUS
 62
     7
 10
-180.73291
 20
73.38781
 11
-177.23291
 21
73.38781
  0
LINE
  8
0
  6
CONTINUOUS
 62
     7
 10
-166.1329
 20
66.546898
 11
-162.73291
 21
66.546898
  0
LINE
  8
0
  6
CONTINUOUS
 62
     7
 10
-104.57366
 20
31.795425
 11
-101.07366
 21
31.795425
  0
LINE
  8
0
  6
CONTINUOUS
 62
     7
 10
-90.973656
 20
36.559631
 11
-87.573662
 21
36.559631
  0
LINE
  8
0
  6
CONTINUOUS
 62
     7
 10
-101.07366
 20
52.713776
 11
-101.07366
 21
74.713776
  0
LINE
  8
0
  6
CONTINUOUS
 62
     7
 10
-100.49633
 20
70.472008
 11
-91.551018
 21
70.472008
  0
LINE
  8
0
  6
CONTINUOUS
 62
     7
 10
-91.551003
 20
75.713783
 11
-90.973656
 21
74.713791
  0
LINE
  8
0
  6
CONTINUOUS
 62
     7
 10
-100.49633
 20
75.713776
 11
-91.551018
 21
75.713776
  0
LINE
  8
0
  6
CONTINUOUS
 62
     7
 10
-90.973656
 20
52.713776
 11
-90.973656
 21
74.713783
  0
LINE
  8
0
  6
CONTINUOUS
 62
     7
 10
-100.49633
 20
67.330376
 11
-91.551018
 21
67.330376
  0
LINE
  8
0
  6
CONTINUOUS
 62
     7
 10
-100.49633
 20
67.330376
 11
-100.49633
 21
70.472008
  0
LINE
  8
0
  6
CONTINUOUS
 62
     7
 10
-91.551018
 20
52.713776
 11
-91.551018
 21
54.935242
  0
LINE
  8
0
  6
CONTINUOUS
 62
     7
 10
-101.07366
 20
74.713783
 11
-100.49632
 21
75.713776
  0
LINE
  8
0
  6
CONTINUOUS
 62
     7
 10
-91.551018
 20
67.330376
 11
-91.551018
 21
70.472008
  0
LINE
  8
0
  6
CONTINUOUS
 62
     7
 10
-100.49633
 20
52.713776
 11
-100.49633
 21
54.935242
  0
LINE
  8
0
  6
CONTINUOUS
 62
     7
 10
-100.49633
 20
54.935242
 11
-91.551018
 21
54.935242
  0
LINE
  8
0
  6
CONTINUOUS
 62
     7
 10
-74.073662
 20
52.713776
 11
-74.073662
 21
64.713776
  0
LINE
  8
0
  6
CONTINUOUS
 62
     7
 10
-79.073662
 20
52.713776
 11
-79.073662
 21
69.713776
  0
LINE
  8
0
  6
CONTINUOUS
 62
     7
 10
-87.073662
 20
58.512764
 11
-79.073662
 21
58.512764
  0
LINE
  8
0
  6
CONTINUOUS
 62
     7
 10
-87.073662
 20
58.512764
 11
-87.073662
 21
60.634087
  0
LINE
  8
0
  6
CONTINUOUS
 62
     7
 10
-87.073662
 20
68.835098
 11
-87.073662
 21
69.713776
  0
LINE
  8
0
  6
CONTINUOUS
 62
     7
 10
-87.073662
 20
68.835098
 11
-79.073662
 21
68.835098
  0
LINE
  8
0
  6
CONTINUOUS
 62
     7
 10
-87.073662
 20
69.713776
 11
-79.073662
 21
69.713776
  0
LINE
  8
0
  6
CONTINUOUS
 62
     7
 10
-87.073669
 20
69.713768
 11
-87.573662
 21
69.213783
  0
LINE
  8
0
  6
CONTINUOUS
 62
     7
 10
-87.073662
 20
60.634087
 11
-79.073662
 21
60.634087
  0
LINE
  8
0
  6
CONTINUOUS
 62
     7
 10
-87.573662
 20
52.713776
 11
-87.573662
 21
69.213776
  0
LINE
  8
0
  6
CONTINUOUS
 62
     7
 10
-105.07366
 20
72.606987
 11
-114.07366
 21
72.606987
  0
LINE
  8
0
  6
CONTINUOUS
 62
     7
 10
-104.57365
 20
73.713776
 11
-105.07365
 21
74.213776
  0
LINE
  8
0
  6
CONTINUOUS
 62
     7
 10
-105.07366
 20
72.606987
 11
-105.07366
 21
74.213776
  0
LINE
  8
0
  6
CONTINUOUS
 62
     7
 10
-105.07366
 20
59.347023
 11
-105.07366
 21
63.226158
  0
LINE
  8
0
  6
CONTINUOUS
 62
     7
 10
-105.07366
 20
74.213776
 11
-114.07366
 21
74.213776
  0
LINE
  8
0
  6
CONTINUOUS
 62
     7
 10
-119.07366
 20
52.713776
 11
-119.07366
 21
69.213776
  0
LINE
  8
0
  6
CONTINUOUS
 62
     7
 10
-114.07366
 20
52.713776
 11
-114.07366
 21
74.213776
  0
LINE
  8
0
  6
CONTINUOUS
 62
     7
 10
-105.07366
 20
63.226158
 11
-114.07366
 21
63.226158
  0
LINE
  8
0
  6
CONTINUOUS
 62
     7
 10
-105.07366
 20
59.347023
 11
-114.07366
 21
59.347023
  0
LINE
  8
0
  6
CONTINUOUS
 62
     7
 10
-104.57366
 20
52.713776
 11
-104.57366
 21
73.713776
  0
LINE
  8
0
  6
CONTINUOUS
 62
     7
 10
-104.57366
 20
73.632126
 11
-101.07366
 21
73.632126
  0
LINE
  8
0
  6
CONTINUOUS
 62
     7
 10
-90.973656
 20
68.86792
 11
-87.573662
 21
68.86792
  0
LINE
  8
0
  6
CONTINUOUS
 62
     7
 10
-32.264336
 20
28.863609
 11
-28.66433
 21
28.863609
  0
LINE
  8
0
  6
CONTINUOUS
 62
     7
 10
-16.064323
 20
39.002815
 11
-12.66433
 21
39.002815
  0
LINE
  8
0
  6
CONTINUOUS
 62
     7
 10
-28.66432
 20
78.213768
 11
-28.086973
 21
79.21376
  0
LINE
  8
0
  6
CONTINUOUS
 62
     7
 10
-16.641685
 20
79.213776
 11
-22.364311
 21
79.213776
  0
LINE
  8
0
  6
CONTINUOUS
 62
     7
 10
-28.086967
 20
52.713776
 11
-28.086967
 21
55.810013
  0
LINE
  8
0
  6
CONTINUOUS
 62
     7
 10
-16.064323
 20
78.213776
 11
-16.064323
 21
52.713776
  0
LINE
  8
0
  6
CONTINUOUS
 62
     7
 10
-16.641685
 20
55.810013
 11
-22.364311
 21
55.810013
  0
LINE
  8
0
  6
CONTINUOUS
 62
     7
 10
-28.66433
 20
78.213776
 11
-28.66433
 21
52.713776
  0
LINE
  8
0
  6
CONTINUOUS
 62
     7
 10
-16.641685
 20
73.513138
 11
-22.364311
 21
73.513138
  0
LINE
  8
0
  6
CONTINUOUS
 62
     7
 10
-16.641685
 20
52.713776
 11
-16.641685
 21
55.810013
  0
LINE
  8
0
  6
CONTINUOUS
 62
     7
 10
-28.086967
 20
79.213776
 11
-22.364311
 21
79.213776
  0
LINE
  8
0
  6
CONTINUOUS
 62
     7
 10
-28.086967
 20
73.513138
 11
-22.364311
 21
73.513138
  0
LINE
  8
0
  6
CONTINUOUS
 62
     7
 10
-28.086967
 20
69.134392
 11
-22.364311
 21
69.134392
  0
LINE
  8
0
  6
CONTINUOUS
 62
     7
 10
-28.086967
 20
55.810013
 11
-22.364311
 21
55.810013
  0
LINE
  8
0
  6
CONTINUOUS
 62
     7
 10
-16.064318
 20
78.213783
 11
-16.641668
 21
79.213783
  0
LINE
  8
0
  6
CONTINUOUS
 62
     7
 10
-16.641685
 20
69.134392
 11
-16.641685
 21
73.513138
  0
LINE
  8
0
  6
CONTINUOUS
 62
     7
 10
-16.641685
 20
69.134392
 11
-22.364311
 21
69.134392
  0
LINE
  8
0
  6
CONTINUOUS
 62
     7
 10
-28.086967
 20
69.134392
 11
-28.086967
 21
73.513138
  0
LINE
  8
0
  6
CONTINUOUS
 62
     7
 10
-5.16433
 20
52.713776
 11
-5.16433
 21
64.113777
  0
LINE
  8
0
  6
CONTINUOUS
 62
     7
 10
-1.1643299
 20
52.713776
 11
-1.1643299
 21
63.213776
  0
LINE
  8
0
  6
CONTINUOUS
 62
     7
 10
-12.16433
 20
66.335098
 11
-12.16433
 21
67.213776
  0
LINE
  8
0
  6
CONTINUOUS
 62
     7
 10
-12.16433
 20
67.213776
 11
-5.16433
 21
67.213776
  0
LINE
  8
0
  6
CONTINUOUS
 62
     7
 10
-12.66433
 20
66.713776
 11
-12.164319
 21
67.213791
  0
LINE
  8
0
  6
CONTINUOUS
 62
     7
 10
-12.16433
 20
57.477234
 11
-12.16433
 21
59.599121
  0
LINE
  8
0
  6
CONTINUOUS
 62
     7
 10
-12.16433
 20
66.335098
 11
-5.16433
 21
66.335098
  0
LINE
  8
0
  6
CONTINUOUS
 62
     7
 10
-12.16433
 20
57.477234
 11
-5.16433
 21
57.477234
  0
LINE
  8
0
  6
CONTINUOUS
 62
     7
 10
-12.16433
 20
59.599121
 11
-5.16433
 21
59.599121
  0
LINE
  8
0
  6
CONTINUOUS
 62
     7
 10
-5.16433
 20
52.713776
 11
-5.16433
 21
67.213776
  0
LINE
  8
0
  6
CONTINUOUS
 62
     7
 10
-12.66433
 20
52.713776
 11
-12.66433
 21
66.713776
  0
LINE
  8
0
  6
CONTINUOUS
 62
     7
 10
-32.764336
 20
76.192162
 11
-32.764336
 21
77.213776
  0
LINE
  8
0
  6
CONTINUOUS
 62
     7
 10
-32.764336
 20
76.192162
 11
-43.16433
 21
76.192162
  0
LINE
  8
0
  6
CONTINUOUS
 62
     7
 10
-32.764336
 20
61.417221
 11
-43.16433
 21
61.417221
  0
LINE
  8
0
  6
CONTINUOUS
 62
     7
 10
-32.764336
 20
61.417221
 11
-32.764336
 21
63.883621
  0
LINE
  8
0
  6
CONTINUOUS
 62
     7
 10
-48.16433
 20
52.713776
 11
-48.16433
 21
72.213776
  0
LINE
  8
0
  6
CONTINUOUS
 62
     7
 10
-32.264317
 20
76.713768
 11
-32.764317
 21
77.213768
  0
LINE
  8
0
  6
CONTINUOUS
 62
     7
 10
-32.764336
 20
77.213776
 11
-43.16433
 21
77.213776
  0
LINE
  8
0
  6
CONTINUOUS
 62
     7
 10
-43.16433
 20
52.713776
 11
-43.16433
 21
77.213776
  0
LINE
  8
0
  6
CONTINUOUS
 62
     7
 10
-32.764336
 20
63.883621
 11
-43.16433
 21
63.883621
  0
LINE
  8
0
  6
CONTINUOUS
 62
     7
 10
-32.264336
 20
52.713776
 11
-32.264336
 21
76.713776
  0
LINE
  8
0
  6
CONTINUOUS
 62
     7
 10
-32.264336
 20
76.563942
 11
-28.66433
 21
76.563942
  0
LINE
  8
0
  6
CONTINUOUS
 62
     7
 10
-16.064323
 20
66.424736
 11
-12.66433
 21
66.424736
  0
LINE
  8
0
  6
CONTINUOUS
 62
     7
 10
35.617073
 20
28.863609
 11
39.217049
 21
28.863609
  0
LINE
  8
0
  6
CONTINUOUS
 62
     7
 10
51.817085
 20
36.437469
 11
55.217049
 21
36.437469
  0
LINE
  8
0
  6
CONTINUOUS
 62
     7
 10
39.217056
 20
78.213783
 11
39.794403
 21
79.213776
  0
LINE
  8
0
  6
CONTINUOUS
 62
     7
 10
51.239693
 20
79.213776
 11
45.517036
 21
79.213776
  0
LINE
  8
0
  6
CONTINUOUS
 62
     7
 10
39.794441
 20
52.713776
 11
39.794441
 21
55.810013
  0
LINE
  8
0
  6
CONTINUOUS
 62
     7
 10
51.817085
 20
78.213776
 11
51.817085
 21
52.713776
  0
LINE
  8
0
  6
CONTINUOUS
 62
     7
 10
51.239693
 20
55.810013
 11
45.517036
 21
55.810013
  0
LINE
  8
0
  6
CONTINUOUS
 62
     7
 10
39.217049
 20
78.213776
 11
39.217049
 21
52.713776
  0
LINE
  8
0
  6
CONTINUOUS
 62
     7
 10
51.239693
 20
73.513138
 11
45.517036
 21
73.513138
  0
LINE
  8
0
  6
CONTINUOUS
 62
     7
 10
51.239693
 20
52.713776
 11
51.239693
 21
55.810013
  0
LINE
  8
0
  6
CONTINUOUS
 62
     7
 10
39.794441
 20
79.213776
 11
45.517036
 21
79.213776
  0
LINE
  8
0
  6
CONTINUOUS
 62
     7
 10
39.794441
 20
73.513138
 11
45.517036
 21
73.513138
  0
LINE
  8
0
  6
CONTINUOUS
 62
     7
 10
39.794441
 20
69.134392
 11
45.517036
 21
69.134392
  0
LINE
  8
0
  6
CONTINUOUS
 62
     7
 10
39.794441
 20
55.810013
 11
45.517036
 21
55.810013
  0
LINE
  8
0
  6
CONTINUOUS
 62
     7
 10
51.817078
 20
78.213791
 11
51.239731
 21
79.213791
  0
LINE
  8
0
  6
CONTINUOUS
 62
     7
 10
51.239693
 20
69.134392
 11
51.239693
 21
73.513138
  0
LINE
  8
0
  6
CONTINUOUS
 62
     7
 10
51.239693
 20
69.134392
 11
45.517036
 21
69.134392
  0
LINE
  8
0
  6
CONTINUOUS
 62
     7
 10
39.794441
 20
69.134392
 11
39.794441
 21
73.513138
  0
LINE
  8
0
  6
CONTINUOUS
 62
     7
 10
68.717049
 20
52.713776
 11
68.717049
 21
64.713776
  0
LINE
  8
0
  6
CONTINUOUS
 62
     7
 10
63.717049
 20
52.713776
 11
63.717049
 21
69.713776
  0
LINE
  8
0
  6
CONTINUOUS
 62
     7
 10
55.717049
 20
58.512764
 11
63.717049
 21
58.512764
  0
LINE
  8
0
  6
CONTINUOUS
 62
     7
 10
55.717049
 20
58.512764
 11
55.717049
 21
60.634087
  0
LINE
  8
0
  6
CONTINUOUS
 62
     7
 10
55.717049
 20
68.835098
 11
55.717049
 21
69.713776
  0
LINE
  8
0
  6
CONTINUOUS
 62
     7
 10
55.717049
 20
68.835098
 11
63.717049
 21
68.835098
  0
LINE
  8
0
  6
CONTINUOUS
 62
     7
 10
55.717049
 20
69.713776
 11
63.717049
 21
69.713776
  0
LINE
  8
0
  6
CONTINUOUS
 62
     7
 10
55.717068
 20
69.713768
 11
55.217056
 21
69.213753
  0
LINE
  8
0
  6
CONTINUOUS
 62
     7
 10
55.717049
 20
60.634087
 11
63.717049
 21
60.634087
  0
LINE
  8
0
  6
CONTINUOUS
 62
     7
 10
55.217049
 20
52.713776
 11
55.217049
 21
69.213776
  0
LINE
  8
0
  6
CONTINUOUS
 62
     7
 10
35.117073
 20
76.192162
 11
35.117073
 21
77.213776
  0
LINE
  8
0
  6
CONTINUOUS
 62
     7
 10
35.117073
 20
76.192162
 11
24.717079
 21
76.192162
  0
LINE
  8
0
  6
CONTINUOUS
 62
     7
 10
35.617069
 20
76.713768
 11
35.117062
 21
77.213783
  0
LINE
  8
0
  6
CONTINUOUS
 62
     7
 10
19.717079
 20
52.713776
 11
19.717079
 21
72.213776
  0
LINE
  8
0
  6
CONTINUOUS
 62
     7
 10
35.117073
 20
61.417221
 11
35.117073
 21
63.883621
  0
LINE
  8
0
  6
CONTINUOUS
 62
     7
 10
35.117073
 20
61.417221
 11
24.717079
 21
61.417221
  0
LINE
  8
0
  6
CONTINUOUS
 62
     7
 10
35.117073
 20
77.213776
 11
24.717079
 21
77.213776
  0
LINE
  8
0
  6
CONTINUOUS
 62
     7
 10
24.717079
 20
52.713776
 11
24.717079
 21
77.213776
  0
LINE
  8
0
  6
CONTINUOUS
 62
     7
 10
35.117073
 20
63.883621
 11
24.717079
 21
63.883621
  0
LINE
  8
0
  6
CONTINUOUS
 62
     7
 10
35.617073
 20
52.713776
 11
35.617073
 21
76.713776
  0
LINE
  8
0
  6
CONTINUOUS
 62
     7
 10
35.617073
 20
76.563942
 11
39.217049
 21
76.563942
  0
LINE
  8
0
  6
CONTINUOUS
 62
     7
 10
51.817085
 20
68.990082
 11
55.217049
 21
68.990082
  0
LINE
  8
0
  6
CONTINUOUS
 62
     7
 10
-260.11835
 20
-78.432953
 11
-256.51837
 21
-78.432953
  0
LINE
  8
0
  6
CONTINUOUS
 62
     7
 10
-244.01837
 20
-75.285461
 11
-240.51837
 21
-75.285461
  0
LINE
  8
0
  6
CONTINUOUS
 62
     7
 10
-184.94312
 20
-83.339333
 11
-181.34311
 21
-83.339333
  0
LINE
  8
0
  6
CONTINUOUS
 62
     7
 10
-166.74313
 20
-68.435043
 11
-163.34311
 21
-68.435043
  0
LINE
  8
0
  6
CONTINUOUS
 62
     7
 10
-106.18487
 20
-83.327469
 11
-102.58486
 21
-83.327469
  0
LINE
  8
0
  6
CONTINUOUS
 62
     7
 10
-88.984856
 20
-70.969147
 11
-85.584862
 21
-70.969147
  0
LINE
  8
0
  6
CONTINUOUS
 62
     7
 10
-37.19009
 20
-83.327469
 11
-33.590115
 21
-83.327469
  0
LINE
  8
0
  6
CONTINUOUS
 62
     7
 10
-20.090113
 20
-75.408546
 11
-16.590082
 21
-75.408546
  0
LINE
  8
0
  6
CONTINUOUS
 62
     7
 10
36.660343
 20
-83.327469
 11
40.26038
 21
-83.327469
  0
LINE
  8
0
  6
CONTINUOUS
 62
     7
 10
53.26038
 20
-78.528122
 11
56.860355
 21
-78.528122
  0
LINE
  8
0
  6
CONTINUOUS
 62
     7
 10
41.415043
 20
-51.95575
 11
47.060368
 21
-51.95575
  0
LINE
  8
0
  6
CONTINUOUS
 62
     7
 10
40.26038
 20
-24.682169
 11
40.26038
 21
-54.682167
  0
LINE
  8
0
  6
CONTINUOUS
 62
     7
 10
41.415043
 20
-54.682167
 11
41.415043
 21
-51.95575
  0
LINE
  8
0
  6
CONTINUOUS
 62
     7
 10
41.415043
 20
-30.209158
 11
47.060368
 21
-30.209158
  0
LINE
  8
0
  6
CONTINUOUS
 62
     7
 10
40.260387
 20
-24.682161
 11
41.415081
 21
-22.682175
  0
LINE
  8
0
  6
CONTINUOUS
 62
     7
 10
41.415043
 20
-34.064899
 11
47.060368
 21
-34.064899
  0
LINE
  8
0
  6
CONTINUOUS
 62
     7
 10
41.415043
 20
-22.682169
 11
47.060368
 21
-22.682169
  0
LINE
  8
0
  6
CONTINUOUS
 62
     7
 10
53.26038
 20
-24.682169
 11
53.26038
 21
-54.682167
  0
LINE
  8
0
  6
CONTINUOUS
 62
     7
 10
52.105656
 20
-34.064899
 11
46.460392
 21
-34.064899
  0
LINE
  8
0
  6
CONTINUOUS
 62
     7
 10
52.105656
 20
-34.064899
 11
52.105656
 21
-30.209158
  0
LINE
  8
0
  6
CONTINUOUS
 62
     7
 10
52.105656
 20
-22.682169
 11
46.460392
 21
-22.682169
  0
LINE
  8
0
  6
CONTINUOUS
 62
     7
 10
53.26038
 20
-24.682167
 11
52.105679
 21
-22.682167
  0
LINE
  8
0
  6
CONTINUOUS
 62
     7
 10
52.105656
 20
-30.209158
 11
46.460392
 21
-30.209158
  0
LINE
  8
0
  6
CONTINUOUS
 62
     7
 10
52.205692
 20
-54.682167
 11
52.205692
 21
-51.95575
  0
LINE
  8
0
  6
CONTINUOUS
 62
     7
 10
52.205692
 20
-51.95575
 11
46.560368
 21
-51.95575
  0
LINE
  8
0
  6
CONTINUOUS
 62
     7
 10
41.415043
 20
-34.064899
 11
41.415043
 21
-30.209158
  0
LINE
  8
0
  6
CONTINUOUS
 62
     7
 10
57.360355
 20
-31.203785
 11
57.360355
 21
-30.182169
  0
LINE
  8
0
  6
CONTINUOUS
 62
     7
 10
57.360355
 20
-31.203785
 11
67.760384
 21
-31.203785
  0
LINE
  8
0
  6
CONTINUOUS
 62
     7
 10
57.360355
 20
-45.978722
 11
67.760384
 21
-45.978722
  0
LINE
  8
0
  6
CONTINUOUS
 62
     7
 10
57.360355
 20
-45.978722
 11
57.360355
 21
-43.512318
  0
LINE
  8
0
  6
CONTINUOUS
 62
     7
 10
72.760384
 20
-54.682167
 11
72.760384
 21
-35.182171
  0
LINE
  8
0
  6
CONTINUOUS
 62
     7
 10
56.860374
 20
-30.682173
 11
57.360386
 21
-30.182161
  0
LINE
  8
0
  6
CONTINUOUS
 62
     7
 10
57.360355
 20
-30.182169
 11
67.760384
 21
-30.182169
  0
LINE
  8
0
  6
CONTINUOUS
 62
     7
 10
67.760384
 20
-54.682167
 11
67.760384
 21
-30.182169
  0
LINE
  8
0
  6
CONTINUOUS
 62
     7
 10
57.360355
 20
-43.512318
 11
67.760384
 21
-43.512318
  0
LINE
  8
0
  6
CONTINUOUS
 62
     7
 10
56.860355
 20
-54.682167
 11
56.860355
 21
-30.682169
  0
LINE
  8
0
  6
CONTINUOUS
 62
     7
 10
36.160404
 20
-27.08642
 11
36.160404
 21
-25.182169
  0
LINE
  8
0
  6
CONTINUOUS
 62
     7
 10
36.160404
 20
-45.155888
 11
36.160404
 21
-40.558617
  0
LINE
  8
0
  6
CONTINUOUS
 62
     7
 10
36.160404
 20
-27.08642
 11
24.760382
 21
-27.08642
  0
LINE
  8
0
  6
CONTINUOUS
 62
     7
 10
36.160404
 20
-40.558617
 11
24.760382
 21
-40.558617
  0
LINE
  8
0
  6
CONTINUOUS
 62
     7
 10
36.160404
 20
-45.155888
 11
24.760382
 21
-45.155888
  0
LINE
  8
0
  6
CONTINUOUS
 62
     7
 10
24.760382
 20
-54.682167
 11
24.760382
 21
-25.182169
  0
LINE
  8
0
  6
CONTINUOUS
 62
     7
 10
18.760382
 20
-54.682167
 11
18.760382
 21
-31.182169
  0
LINE
  8
0
  6
CONTINUOUS
 62
     7
 10
36.660374
 20
-25.682165
 11
36.160385
 21
-25.182175
  0
LINE
  8
0
  6
CONTINUOUS
 62
     7
 10
36.160343
 20
-25.182169
 11
24.760382
 21
-25.182169
  0
LINE
  8
0
  6
CONTINUOUS
 62
     7
 10
36.660343
 20
-54.682167
 11
36.660343
 21
-25.682165
  0
LINE
  8
0
  6
CONTINUOUS
 62
     7
 10
36.660343
 20
-26.036867
 11
40.26038
 21
-26.036867
  0
LINE
  8
0
  6
CONTINUOUS
 62
     7
 10
53.26038
 20
-30.836214
 11
56.860355
 21
-30.836214
  0
LINE
  8
0
  6
CONTINUOUS
 62
     7
 10
-32.43539
 20
-51.95575
 11
-26.790094
 21
-51.95575
  0
LINE
  8
0
  6
CONTINUOUS
 62
     7
 10
-33.590115
 20
-24.682169
 11
-33.590115
 21
-54.682167
  0
LINE
  8
0
  6
CONTINUOUS
 62
     7
 10
-32.43539
 20
-54.682167
 11
-32.43539
 21
-51.95575
  0
LINE
  8
0
  6
CONTINUOUS
 62
     7
 10
-32.43539
 20
-30.209158
 11
-26.790094
 21
-30.209158
  0
LINE
  8
0
  6
CONTINUOUS
 62
     7
 10
-33.590099
 20
-24.682182
 11
-32.43539
 21
-22.682169
  0
LINE
  8
0
  6
CONTINUOUS
 62
     7
 10
-32.43539
 20
-34.064899
 11
-26.790094
 21
-34.064899
  0
LINE
  8
0
  6
CONTINUOUS
 62
     7
 10
-32.43539
 20
-22.682169
 11
-26.790094
 21
-22.682169
  0
LINE
  8
0
  6
CONTINUOUS
 62
     7
 10
-20.090113
 20
-24.682169
 11
-20.090113
 21
-54.682167
  0
LINE
  8
0
  6
CONTINUOUS
 62
     7
 10
-21.244806
 20
-34.064899
 11
-26.8901
 21
-34.064899
  0
LINE
  8
0
  6
CONTINUOUS
 62
     7
 10
-21.244806
 20
-34.064899
 11
-21.244806
 21
-30.209158
  0
LINE
  8
0
  6
CONTINUOUS
 62
     7
 10
-21.244806
 20
-22.682169
 11
-26.8901
 21
-22.682169
  0
LINE
  8
0
  6
CONTINUOUS
 62
     7
 10
-20.090103
 20
-24.682163
 11
-21.244804
 21
-22.682161
  0
LINE
  8
0
  6
CONTINUOUS
 62
     7
 10
-21.244806
 20
-30.209158
 11
-26.8901
 21
-30.209158
  0
LINE
  8
0
  6
CONTINUOUS
 62
     7
 10
-21.1448
 20
-54.682167
 11
-21.1448
 21
-51.95575
  0
LINE
  8
0
  6
CONTINUOUS
 62
     7
 10
-21.1448
 20
-51.95575
 11
-26.790094
 21
-51.95575
  0
LINE
  8
0
  6
CONTINUOUS
 62
     7
 10
-32.43539
 20
-34.064899
 11
-32.43539
 21
-30.209158
  0
LINE
  8
0
  6
CONTINUOUS
 62
     7
 10
-16.090082
 20
-34.788956
 11
-7.0900826
 21
-34.788956
  0
LINE
  8
0
  6
CONTINUOUS
 62
     7
 10
-16.590105
 20
-33.682171
 11
-16.090094
 21
-33.182159
  0
LINE
  8
0
  6
CONTINUOUS
 62
     7
 10
-16.090082
 20
-34.788956
 11
-16.090082
 21
-33.182171
  0
LINE
  8
0
  6
CONTINUOUS
 62
     7
 10
-16.090082
 20
-48.04892
 11
-16.090082
 21
-44.169788
  0
LINE
  8
0
  6
CONTINUOUS
 62
     7
 10
-16.090082
 20
-33.182171
 11
-7.0900826
 21
-33.182171
  0
LINE
  8
0
  6
CONTINUOUS
 62
     7
 10
-2.0900824
 20
-54.682167
 11
-2.0900824
 21
-38.182171
  0
LINE
  8
0
  6
CONTINUOUS
 62
     7
 10
-7.0900826
 20
-54.682167
 11
-7.0900826
 21
-33.182171
  0
LINE
  8
0
  6
CONTINUOUS
 62
     7
 10
-16.090082
 20
-44.169788
 11
-7.0900826
 21
-44.169788
  0
LINE
  8
0
  6
CONTINUOUS
 62
     7
 10
-16.090082
 20
-48.04892
 11
-7.0900826
 21
-48.04892
  0
LINE
  8
0
  6
CONTINUOUS
 62
     7
 10
-16.590082
 20
-54.682167
 11
-16.590082
 21
-33.682171
  0
LINE
  8
0
  6
CONTINUOUS
 62
     7
 10
-37.69009
 20
-27.08642
 11
-37.69009
 21
-25.182169
  0
LINE
  8
0
  6
CONTINUOUS
 62
     7
 10
-37.69009
 20
-45.155888
 11
-37.69009
 21
-40.558617
  0
LINE
  8
0
  6
CONTINUOUS
 62
     7
 10
-37.69009
 20
-27.08642
 11
-49.090115
 21
-27.08642
  0
LINE
  8
0
  6
CONTINUOUS
 62
     7
 10
-37.69009
 20
-40.558617
 11
-49.090115
 21
-40.558617
  0
LINE
  8
0
  6
CONTINUOUS
 62
     7
 10
-37.69009
 20
-45.155888
 11
-49.090115
 21
-45.155888
  0
LINE
  8
0
  6
CONTINUOUS
 62
     7
 10
-49.090115
 20
-54.682167
 11
-49.090115
 21
-25.182169
  0
LINE
  8
0
  6
CONTINUOUS
 62
     7
 10
-37.190098
 20
-25.682148
 11
-37.690086
 21
-25.182158
  0
LINE
  8
0
  6
CONTINUOUS
 62
     7
 10
-37.69009
 20
-25.182169
 11
-49.090115
 21
-25.182169
  0
LINE
  8
0
  6
CONTINUOUS
 62
     7
 10
-37.69009
 20
-27.08642
 11
-37.69009
 21
-25.182169
  0
LINE
  8
0
  6
CONTINUOUS
 62
     7
 10
-37.69009
 20
-45.155888
 11
-37.69009
 21
-40.558617
  0
LINE
  8
0
  6
CONTINUOUS
 62
     7
 10
-37.69009
 20
-27.08642
 11
-49.090115
 21
-27.08642
  0
LINE
  8
0
  6
CONTINUOUS
 62
     7
 10
-37.69009
 20
-40.558617
 11
-49.090115
 21
-40.558617
  0
LINE
  8
0
  6
CONTINUOUS
 62
     7
 10
-37.69009
 20
-45.155888
 11
-49.090115
 21
-45.155888
  0
LINE
  8
0
  6
CONTINUOUS
 62
     7
 10
-49.090115
 20
-54.682167
 11
-49.090115
 21
-25.182169
  0
LINE
  8
0
  6
CONTINUOUS
 62
     7
 10
-55.090115
 20
-54.682167
 11
-55.090115
 21
-31.182169
  0
LINE
  8
0
  6
CONTINUOUS
 62
     7
 10
-37.190098
 20
-25.682148
 11
-37.690086
 21
-25.182158
  0
LINE
  8
0
  6
CONTINUOUS
 62
     7
 10
-37.69009
 20
-25.182169
 11
-49.090115
 21
-25.182169
  0
LINE
  8
0
  6
CONTINUOUS
 62
     7
 10
-37.19009
 20
-54.682167
 11
-37.19009
 21
-25.682165
  0
LINE
  8
0
  6
CONTINUOUS
 62
     7
 10
-37.19009
 20
-26.036867
 11
-33.590115
 21
-26.036867
  0
LINE
  8
0
  6
CONTINUOUS
 62
     7
 10
-20.090113
 20
-33.955788
 11
-16.590082
 21
-33.955788
  0
LINE
  8
0
  6
CONTINUOUS
 62
     7
 10
-101.43017
 20
-51.95575
 11
-95.784874
 21
-51.95575
  0
LINE
  8
0
  6
CONTINUOUS
 62
     7
 10
-102.58486
 20
-24.682169
 11
-102.58486
 21
-54.682167
  0
LINE
  8
0
  6
CONTINUOUS
 62
     7
 10
-101.43017
 20
-54.682167
 11
-101.43017
 21
-51.95575
  0
LINE
  8
0
  6
CONTINUOUS
 62
     7
 10
-101.43017
 20
-30.209158
 11
-95.784874
 21
-30.209158
  0
LINE
  8
0
  6
CONTINUOUS
 62
     7
 10
-102.58485
 20
-24.682163
 11
-101.43015
 21
-22.682163
  0
LINE
  8
0
  6
CONTINUOUS
 62
     7
 10
-101.43017
 20
-34.064899
 11
-95.784874
 21
-34.064899
  0
LINE
  8
0
  6
CONTINUOUS
 62
     7
 10
-101.43017
 20
-22.682169
 11
-95.784874
 21
-22.682169
  0
LINE
  8
0
  6
CONTINUOUS
 62
     7
 10
-88.984856
 20
-24.682169
 11
-88.984856
 21
-54.682167
  0
LINE
  8
0
  6
CONTINUOUS
 62
     7
 10
-90.139549
 20
-34.064899
 11
-95.784874
 21
-34.064899
  0
LINE
  8
0
  6
CONTINUOUS
 62
     7
 10
-90.139549
 20
-34.064899
 11
-90.139549
 21
-30.209158
  0
LINE
  8
0
  6
CONTINUOUS
 62
     7
 10
-90.139549
 20
-22.682169
 11
-95.784874
 21
-22.682169
  0
LINE
  8
0
  6
CONTINUOUS
 62
     7
 10
-88.984863
 20
-24.682171
 11
-90.139565
 21
-22.682169
  0
LINE
  8
0
  6
CONTINUOUS
 62
     7
 10
-90.139549
 20
-30.209158
 11
-95.784874
 21
-30.209158
  0
LINE
  8
0
  6
CONTINUOUS
 62
     7
 10
-90.139549
 20
-54.682167
 11
-90.139549
 21
-51.95575
  0
LINE
  8
0
  6
CONTINUOUS
 62
     7
 10
-90.139549
 20
-51.95575
 11
-95.784874
 21
-51.95575
  0
LINE
  8
0
  6
CONTINUOUS
 62
     7
 10
-101.43017
 20
-34.064899
 11
-101.43017
 21
-30.209158
  0
LINE
  8
0
  6
CONTINUOUS
 62
     7
 10
-72.084862
 20
-54.682167
 11
-72.084862
 21
-42.682167
  0
LINE
  8
0
  6
CONTINUOUS
 62
     7
 10
-77.084862
 20
-54.682167
 11
-77.084862
 21
-37.682167
  0
LINE
  8
0
  6
CONTINUOUS
 62
     7
 10
-85.084862
 20
-48.883179
 11
-77.084862
 21
-48.883179
  0
LINE
  8
0
  6
CONTINUOUS
 62
     7
 10
-85.084862
 20
-48.883179
 11
-85.084862
 21
-46.76186
  0
LINE
  8
0
  6
CONTINUOUS
 62
     7
 10
-85.084862
 20
-38.560848
 11
-85.084862
 21
-37.682167
  0
LINE
  8
0
  6
CONTINUOUS
 62
     7
 10
-85.084862
 20
-38.560848
 11
-77.084862
 21
-38.560848
  0
LINE
  8
0
  6
CONTINUOUS
 62
     7
 10
-85.084862
 20
-37.682167
 11
-77.084862
 21
-37.682167
  0
LINE
  8
0
  6
CONTINUOUS
 62
     7
 10
-85.084862
 20
-37.682182
 11
-85.584854
 21
-38.182175
  0
LINE
  8
0
  6
CONTINUOUS
 62
     7
 10
-85.084862
 20
-46.76186
 11
-77.084862
 21
-46.76186
  0
LINE
  8
0
  6
CONTINUOUS
 62
     7
 10
-85.584862
 20
-54.682167
 11
-85.584862
 21
-38.182167
  0
LINE
  8
0
  6
CONTINUOUS
 62
     7
 10
-106.68487
 20
-27.08642
 11
-106.68487
 21
-25.182169
  0
LINE
  8
0
  6
CONTINUOUS
 62
     7
 10
-106.68487
 20
-45.155888
 11
-106.68487
 21
-40.558617
  0
LINE
  8
0
  6
CONTINUOUS
 62
     7
 10
-106.68487
 20
-27.08642
 11
-118.08486
 21
-27.08642
  0
LINE
  8
0
  6
CONTINUOUS
 62
     7
 10
-106.68487
 20
-40.558617
 11
-118.08486
 21
-40.558617
  0
LINE
  8
0
  6
CONTINUOUS
 62
     7
 10
-106.68487
 20
-45.155888
 11
-118.08486
 21
-45.155888
  0
LINE
  8
0
  6
CONTINUOUS
 62
     7
 10
-118.08486
 20
-54.682167
 11
-118.08486
 21
-25.182169
  0
LINE
  8
0
  6
CONTINUOUS
 62
     7
 10
-124.08486
 20
-54.682167
 11
-124.08486
 21
-31.182169
  0
LINE
  8
0
  6
CONTINUOUS
 62
     7
 10
-106.18486
 20
-25.682171
 11
-106.68486
 21
-25.182171
  0
LINE
  8
0
  6
CONTINUOUS
 62
     7
 10
-106.68487
 20
-25.182169
 11
-118.08486
 21
-25.182169
  0
LINE
  8
0
  6
CONTINUOUS
 62
     7
 10
-106.68487
 20
-27.08642
 11
-106.68487
 21
-25.182169
  0
LINE
  8
0
  6
CONTINUOUS
 62
     7
 10
-106.68487
 20
-45.155888
 11
-106.68487
 21
-40.558617
  0
LINE
  8
0
  6
CONTINUOUS
 62
     7
 10
-106.68487
 20
-27.08642
 11
-118.08486
 21
-27.08642
  0
LINE
  8
0
  6
CONTINUOUS
 62
     7
 10
-106.68487
 20
-40.558617
 11
-118.08486
 21
-40.558617
  0
LINE
  8
0
  6
CONTINUOUS
 62
     7
 10
-106.68487
 20
-45.155888
 11
-118.08486
 21
-45.155888
  0
LINE
  8
0
  6
CONTINUOUS
 62
     7
 10
-118.08486
 20
-54.682167
 11
-118.08486
 21
-25.182169
  0
LINE
  8
0
  6
CONTINUOUS
 62
     7
 10
-124.08486
 20
-54.682167
 11
-124.08486
 21
-31.182169
  0
LINE
  8
0
  6
CONTINUOUS
 62
     7
 10
-106.18486
 20
-25.682171
 11
-106.68486
 21
-25.182171
  0
LINE
  8
0
  6
CONTINUOUS
 62
     7
 10
-106.68487
 20
-25.182169
 11
-118.08486
 21
-25.182169
  0
LINE
  8
0
  6
CONTINUOUS
 62
     7
 10
-106.18487
 20
-54.682167
 11
-106.18487
 21
-25.682165
  0
LINE
  8
0
  6
CONTINUOUS
 62
     7
 10
-106.18487
 20
-26.036867
 11
-102.58486
 21
-26.036867
  0
LINE
  8
0
  6
CONTINUOUS
 62
     7
 10
-88.984856
 20
-38.395184
 11
-85.584862
 21
-38.395184
  0
LINE
  8
0
  6
CONTINUOUS
 62
     7
 10
-180.18842
 20
-51.95575
 11
-174.04312
 21
-51.95575
  0
LINE
  8
0
  6
CONTINUOUS
 62
     7
 10
-181.34311
 20
-24.682169
 11
-181.34311
 21
-54.682167
  0
LINE
  8
0
  6
CONTINUOUS
 62
     7
 10
-180.18842
 20
-54.682167
 11
-180.18842
 21
-51.95575
  0
LINE
  8
0
  6
CONTINUOUS
 62
     7
 10
-180.18842
 20
-30.209158
 11
-174.04312
 21
-30.209158
  0
LINE
  8
0
  6
CONTINUOUS
 62
     7
 10
-181.34312
 20
-24.682165
 11
-180.18842
 21
-22.682165
  0
LINE
  8
0
  6
CONTINUOUS
 62
     7
 10
-180.18842
 20
-34.064899
 11
-174.04312
 21
-34.064899
  0
LINE
  8
0
  6
CONTINUOUS
 62
     7
 10
-180.18842
 20
-22.682169
 11
-174.04312
 21
-22.682169
  0
LINE
  8
0
  6
CONTINUOUS
 62
     7
 10
-155.84311
 20
-54.682167
 11
-155.84311
 21
-43.282162
  0
LINE
  8
0
  6
CONTINUOUS
 62
     7
 10
-166.74313
 20
-24.682169
 11
-166.74313
 21
-54.682167
  0
LINE
  8
0
  6
CONTINUOUS
 62
     7
 10
-167.89783
 20
-34.064899
 11
-174.04312
 21
-34.064899
  0
LINE
  8
0
  6
CONTINUOUS
 62
     7
 10
-167.89783
 20
-34.064899
 11
-167.89783
 21
-30.209158
  0
LINE
  8
0
  6
CONTINUOUS
 62
     7
 10
-167.89783
 20
-22.682169
 11
-174.04312
 21
-22.682169
  0
LINE
  8
0
  6
CONTINUOUS
 62
     7
 10
-166.74313
 20
-24.682169
 11
-167.89783
 21
-22.682178
  0
LINE
  8
0
  6
CONTINUOUS
 62
     7
 10
-167.89783
 20
-30.209158
 11
-174.04312
 21
-30.209158
  0
LINE
  8
0
  6
CONTINUOUS
 62
     7
 10
-167.89783
 20
-54.682167
 11
-167.89783
 21
-51.95575
  0
LINE
  8
0
  6
CONTINUOUS
 62
     7
 10
-167.89783
 20
-51.95575
 11
-174.04312
 21
-51.95575
  0
LINE
  8
0
  6
CONTINUOUS
 62
     7
 10
-180.18842
 20
-34.064899
 11
-180.18842
 21
-30.209158
  0
LINE
  8
0
  6
CONTINUOUS
 62
     7
 10
-151.84311
 20
-54.682167
 11
-151.84311
 21
-44.182167
  0
LINE
  8
0
  6
CONTINUOUS
 62
     7
 10
-162.84311
 20
-41.060848
 11
-162.84311
 21
-40.182167
  0
LINE
  8
0
  6
CONTINUOUS
 62
     7
 10
-162.84311
 20
-40.182167
 11
-155.84311
 21
-40.182167
  0
LINE
  8
0
  6
CONTINUOUS
 62
     7
 10
-163.34312
 20
-40.682171
 11
-162.84312
 21
-40.182171
  0
LINE
  8
0
  6
CONTINUOUS
 62
     7
 10
-162.84311
 20
-49.918713
 11
-162.84311
 21
-47.796825
  0
LINE
  8
0
  6
CONTINUOUS
 62
     7
 10
-162.84311
 20
-41.060848
 11
-155.84311
 21
-41.060848
  0
LINE
  8
0
  6
CONTINUOUS
 62
     7
 10
-162.84311
 20
-49.918713
 11
-155.84311
 21
-49.918713
  0
LINE
  8
0
  6
CONTINUOUS
 62
     7
 10
-162.84311
 20
-47.796825
 11
-155.84311
 21
-47.796825
  0
LINE
  8
0
  6
CONTINUOUS
 62
     7
 10
-155.84311
 20
-54.682167
 11
-155.84311
 21
-40.182167
  0
LINE
  8
0
  6
CONTINUOUS
 62
     7
 10
-163.34311
 20
-54.682167
 11
-163.34311
 21
-40.682167
  0
LINE
  8
0
  6
CONTINUOUS
 62
     7
 10
-185.44312
 20
-45.155888
 11
-196.84311
 21
-45.155888
  0
LINE
  8
0
  6
CONTINUOUS
 62
     7
 10
-196.84311
 20
-54.682167
 11
-196.84311
 21
-25.182169
  0
LINE
  8
0
  6
CONTINUOUS
 62
     7
 10
-184.94312
 20
-25.682158
 11
-185.44312
 21
-25.182158
  0
LINE
  8
0
  6
CONTINUOUS
 62
     7
 10
-185.44312
 20
-27.08642
 11
-196.84311
 21
-27.08642
  0
LINE
  8
0
  6
CONTINUOUS
 62
     7
 10
-185.44312
 20
-40.558617
 11
-196.84311
 21
-40.558617
  0
LINE
  8
0
  6
CONTINUOUS
 62
     7
 10
-185.44312
 20
-25.182169
 11
-196.84311
 21
-25.182169
  0
LINE
  8
0
  6
CONTINUOUS
 62
     7
 10
-185.44312
 20
-45.155888
 11
-185.44312
 21
-40.558617
  0
LINE
  8
0
  6
CONTINUOUS
 62
     7
 10
-185.44312
 20
-27.08642
 11
-185.44312
 21
-25.182169
  0
LINE
  8
0
  6
CONTINUOUS
 62
     7
 10
-185.44312
 20
-27.08642
 11
-185.44312
 21
-25.182169
  0
LINE
  8
0
  6
CONTINUOUS
 62
     7
 10
-185.44312
 20
-45.155888
 11
-185.44312
 21
-40.558617
  0
LINE
  8
0
  6
CONTINUOUS
 62
     7
 10
-185.44312
 20
-27.08642
 11
-196.84311
 21
-27.08642
  0
LINE
  8
0
  6
CONTINUOUS
 62
     7
 10
-185.44312
 20
-40.558617
 11
-196.84311
 21
-40.558617
  0
LINE
  8
0
  6
CONTINUOUS
 62
     7
 10
-185.44312
 20
-45.155888
 11
-196.84311
 21
-45.155888
  0
LINE
  8
0
  6
CONTINUOUS
 62
     7
 10
-196.84311
 20
-54.682167
 11
-196.84311
 21
-25.182169
  0
LINE
  8
0
  6
CONTINUOUS
 62
     7
 10
-202.84311
 20
-54.682167
 11
-202.84311
 21
-31.182169
  0
LINE
  8
0
  6
CONTINUOUS
 62
     7
 10
-184.94312
 20
-25.682158
 11
-185.44312
 21
-25.182158
  0
LINE
  8
0
  6
CONTINUOUS
 62
     7
 10
-185.44312
 20
-25.182169
 11
-196.84311
 21
-25.182169
  0
LINE
  8
0
  6
CONTINUOUS
 62
     7
 10
-184.94312
 20
-54.682167
 11
-184.94312
 21
-25.682165
  0
LINE
  8
0
  6
CONTINUOUS
 62
     7
 10
-184.94312
 20
-26.025003
 11
-181.34311
 21
-26.025003
  0
LINE
  8
0
  6
CONTINUOUS
 62
     7
 10
-166.74313
 20
-40.929287
 11
-163.34311
 21
-40.929287
  0
LINE
  8
0
  6
CONTINUOUS
 62
     7
 10
-256.51837
 20
-29.182156
 11
-255.94102
 21
-28.18215
  0
LINE
  8
0
  6
CONTINUOUS
 62
     7
 10
-255.94102
 20
-54.682167
 11
-255.94102
 21
-51.58593
  0
LINE
  8
0
  6
CONTINUOUS
 62
     7
 10
-244.59573
 20
-38.261551
 11
-250.26837
 21
-38.261551
  0
LINE
  8
0
  6
CONTINUOUS
 62
     7
 10
-256.51837
 20
-29.182165
 11
-256.51837
 21
-54.682167
  0
LINE
  8
0
  6
CONTINUOUS
 62
     7
 10
-244.59573
 20
-51.58593
 11
-250.26837
 21
-51.58593
  0
LINE
  8
0
  6
CONTINUOUS
 62
     7
 10
-244.59573
 20
-54.682167
 11
-244.59573
 21
-51.58593
  0
LINE
  8
0
  6
CONTINUOUS
 62
     7
 10
-255.94102
 20
-28.182169
 11
-250.26837
 21
-28.182169
  0
LINE
  8
0
  6
CONTINUOUS
 62
     7
 10
-255.94102
 20
-33.882809
 11
-250.26837
 21
-33.882809
  0
LINE
  8
0
  6
CONTINUOUS
 62
     7
 10
-255.94102
 20
-38.261551
 11
-250.26837
 21
-38.261551
  0
LINE
  8
0
  6
CONTINUOUS
 62
     7
 10
-255.94102
 20
-51.58593
 11
-250.26837
 21
-51.58593
  0
LINE
  8
0
  6
CONTINUOUS
 62
     7
 10
-244.59573
 20
-38.261551
 11
-244.59573
 21
-33.882809
  0
LINE
  8
0
  6
CONTINUOUS
 62
     7
 10
-244.59573
 20
-28.182169
 11
-250.26837
 21
-28.182169
  0
LINE
  8
0
  6
CONTINUOUS
 62
     7
 10
-244.01837
 20
-29.182169
 11
-244.59572
 21
-28.182175
  0
LINE
  8
0
  6
CONTINUOUS
 62
     7
 10
-244.01837
 20
-29.182165
 11
-244.01837
 21
-54.682167
  0
LINE
  8
0
  6
CONTINUOUS
 62
     7
 10
-255.94102
 20
-38.261551
 11
-255.94102
 21
-33.882809
  0
LINE
  8
0
  6
CONTINUOUS
 62
     7
 10
-244.59573
 20
-33.882809
 11
-250.26837
 21
-33.882809
  0
LINE
  8
0
  6
CONTINUOUS
 62
     7
 10
-240.01837
 20
-34.788956
 11
-231.01837
 21
-34.788956
  0
LINE
  8
0
  6
CONTINUOUS
 62
     7
 10
-240.51836
 20
-33.682163
 11
-240.01836
 21
-33.182163
  0
LINE
  8
0
  6
CONTINUOUS
 62
     7
 10
-240.01837
 20
-34.788956
 11
-240.01837
 21
-33.182171
  0
LINE
  8
0
  6
CONTINUOUS
 62
     7
 10
-240.01837
 20
-48.04892
 11
-240.01837
 21
-44.169788
  0
LINE
  8
0
  6
CONTINUOUS
 62
     7
 10
-240.01837
 20
-33.182171
 11
-231.01837
 21
-33.182171
  0
LINE
  8
0
  6
CONTINUOUS
 62
     7
 10
-226.01837
 20
-54.682167
 11
-226.01837
 21
-38.182171
  0
LINE
  8
0
  6
CONTINUOUS
 62
     7
 10
-231.01837
 20
-54.682167
 11
-231.01837
 21
-33.182171
  0
LINE
  8
0
  6
CONTINUOUS
 62
     7
 10
-240.01837
 20
-44.169788
 11
-231.01837
 21
-44.169788
  0
LINE
  8
0
  6
CONTINUOUS
 62
     7
 10
-240.01837
 20
-48.04892
 11
-231.01837
 21
-48.04892
  0
LINE
  8
0
  6
CONTINUOUS
 62
     7
 10
-240.51837
 20
-54.682167
 11
-240.51837
 21
-33.682171
  0
LINE
  8
0
  6
CONTINUOUS
 62
     7
 10
-260.61835
 20
-31.203785
 11
-260.61835
 21
-30.182169
  0
LINE
  8
0
  6
CONTINUOUS
 62
     7
 10
-260.61835
 20
-31.203785
 11
-271.01837
 21
-31.203785
  0
LINE
  8
0
  6
CONTINUOUS
 62
     7
 10
-260.11835
 20
-30.682161
 11
-260.61835
 21
-30.182161
  0
LINE
  8
0
  6
CONTINUOUS
 62
     7
 10
-276.01837
 20
-54.682167
 11
-276.01837
 21
-35.182171
  0
LINE
  8
0
  6
CONTINUOUS
 62
     7
 10
-260.61835
 20
-45.978722
 11
-260.61835
 21
-43.512318
  0
LINE
  8
0
  6
CONTINUOUS
 62
     7
 10
-260.61835
 20
-45.978722
 11
-271.01837
 21
-45.978722
  0
LINE
  8
0
  6
CONTINUOUS
 62
     7
 10
-260.61835
 20
-30.182169
 11
-271.01837
 21
-30.182169
  0
LINE
  8
0
  6
CONTINUOUS
 62
     7
 10
-271.01837
 20
-54.682167
 11
-271.01837
 21
-30.182169
  0
LINE
  8
0
  6
CONTINUOUS
 62
     7
 10
-260.61835
 20
-43.512318
 11
-271.01837
 21
-43.512318
  0
LINE
  8
0
  6
CONTINUOUS
 62
     7
 10
-260.11835
 20
-54.682167
 11
-260.11835
 21
-30.682169
  0
LINE
  8
0
  6
CONTINUOUS
 62
     7
 10
-260.11835
 20
-30.931381
 11
-256.51837
 21
-30.931381
  0
LINE
  8
0
  6
CONTINUOUS
 62
     7
 10
-244.01837
 20
-34.078873
 11
-240.51837
 21
-34.078873
  0
LINE
  8
0
  6
CONTINUOUS
 62
     7
 10
17.853367
 20
-304.90717
 11
21.853367
 21
-304.90717
  0
LINE
  8
0
  6
CONTINUOUS
 62
     7
 10
35.353397
 20
-300.39066
 11
38.953373
 21
-300.39066
  0
LINE
  8
0
  6
CONTINUOUS
 62
     7
 10
-72.441887
 20
-305.02295
 11
-68.441887
 21
-305.02295
  0
LINE
  8
0
  6
CONTINUOUS
 62
     7
 10
-54.941891
 20
-295.41092
 11
-51.341885
 21
-295.41092
  0
LINE
  8
0
  6
CONTINUOUS
 62
     7
 10
-159.06064
 20
-304.90717
 11
-155.06064
 21
-304.90717
  0
LINE
  8
0
  6
CONTINUOUS
 62
     7
 10
-141.06064
 20
-292.63153
 11
-137.56064
 21
-292.63153
  0
LINE
  8
0
  6
CONTINUOUS
 62
     7
 10
-247.91537
 20
-304.79135
 11
-243.91537
 21
-304.79135
  0
LINE
  8
0
  6
CONTINUOUS
 62
     7
 10
-229.81538
 20
-287.99921
 11
-226.41537
 21
-287.99921
  0
LINE
  8
0
  6
CONTINUOUS
 62
     7
 10
-242.76068
 20
-236.14964
 11
-230.97008
 21
-236.14964
  0
LINE
  8
0
  6
CONTINUOUS
 62
     7
 10
-242.76068
 20
-271.64966
 11
-242.76068
 21
-268.0715
  0
LINE
  8
0
  6
CONTINUOUS
 62
     7
 10
-243.91537
 20
-238.14964
 11
-243.91537
 21
-271.64966
  0
LINE
  8
0
  6
CONTINUOUS
 62
     7
 10
-242.76068
 20
-268.0715
 11
-230.97008
 21
-268.0715
  0
LINE
  8
0
  6
CONTINUOUS
 62
     7
 10
-242.76068
 20
-244.14505
 11
-230.97008
 21
-244.14505
  0
LINE
  8
0
  6
CONTINUOUS
 62
     7
 10
-242.76067
 20
-236.14966
 11
-243.91536
 21
-238.14964
  0
LINE
  8
0
  6
CONTINUOUS
 62
     7
 10
-242.76068
 20
-249.20534
 11
-230.97008
 21
-249.20534
  0
LINE
  8
0
  6
CONTINUOUS
 62
     7
 10
-229.81538
 20
-238.14964
 11
-229.81538
 21
-271.64966
  0
LINE
  8
0
  6
CONTINUOUS
 62
     7
 10
-230.97008
 20
-271.64966
 11
-230.97008
 21
-268.0715
  0
LINE
  8
0
  6
CONTINUOUS
 62
     7
 10
-242.76068
 20
-249.20534
 11
-242.76068
 21
-244.14505
  0
LINE
  8
0
  6
CONTINUOUS
 62
     7
 10
-230.97006
 20
-236.14964
 11
-229.81537
 21
-238.14964
  0
LINE
  8
0
  6
CONTINUOUS
 62
     7
 10
-230.97008
 20
-249.20534
 11
-230.97008
 21
-244.14505
  0
LINE
  8
0
  6
CONTINUOUS
 62
     7
 10
-212.91537
 20
-271.64966
 11
-212.91537
 21
-259.64966
  0
LINE
  8
0
  6
CONTINUOUS
 62
     7
 10
-217.91537
 20
-271.64966
 11
-217.91537
 21
-254.64964
  0
LINE
  8
0
  6
CONTINUOUS
 62
     7
 10
-225.91537
 20
-265.85065
 11
-217.91537
 21
-265.85065
  0
LINE
  8
0
  6
CONTINUOUS
 62
     7
 10
-225.91537
 20
-265.85065
 11
-225.91537
 21
-263.72934
  0
LINE
  8
0
  6
CONTINUOUS
 62
     7
 10
-225.91537
 20
-255.52832
 11
-225.91537
 21
-254.64964
  0
LINE
  8
0
  6
CONTINUOUS
 62
     7
 10
-225.91537
 20
-255.52832
 11
-217.91537
 21
-255.52832
  0
LINE
  8
0
  6
CONTINUOUS
 62
     7
 10
-225.91537
 20
-254.64964
 11
-217.91537
 21
-254.64964
  0
LINE
  8
0
  6
CONTINUOUS
 62
     7
 10
-225.91537
 20
-254.64966
 11
-226.41536
 21
-255.14964
  0
LINE
  8
0
  6
CONTINUOUS
 62
     7
 10
-225.91537
 20
-263.72934
 11
-217.91537
 21
-263.72934
  0
LINE
  8
0
  6
CONTINUOUS
 62
     7
 10
-226.41537
 20
-271.64966
 11
-226.41537
 21
-255.14964
  0
LINE
  8
0
  6
CONTINUOUS
 62
     7
 10
-248.41536
 20
-237.64964
 11
-247.91536
 21
-238.14964
  0
LINE
  8
0
  6
CONTINUOUS
 62
     7
 10
-248.41537
 20
-240.38826
 11
-248.41537
 21
-237.64964
  0
LINE
  8
0
  6
CONTINUOUS
 62
     7
 10
-248.41537
 20
-237.64964
 11
-259.91537
 21
-237.64964
  0
LINE
  8
0
  6
CONTINUOUS
 62
     7
 10
-248.41537
 20
-240.38826
 11
-259.91537
 21
-240.38826
  0
LINE
  8
0
  6
CONTINUOUS
 62
     7
 10
-267.91537
 20
-271.64966
 11
-267.91537
 21
-245.64964
  0
LINE
  8
0
  6
CONTINUOUS
 62
     7
 10
-248.41537
 20
-261.43936
 11
-248.41537
 21
-254.82779
  0
LINE
  8
0
  6
CONTINUOUS
 62
     7
 10
-248.41537
 20
-254.82779
 11
-259.91537
 21
-254.82779
  0
LINE
  8
0
  6
CONTINUOUS
 62
     7
 10
-259.91537
 20
-271.64966
 11
-259.91537
 21
-237.64964
  0
LINE
  8
0
  6
CONTINUOUS
 62
     7
 10
-248.41537
 20
-261.43936
 11
-259.91537
 21
-261.43936
  0
LINE
  8
0
  6
CONTINUOUS
 62
     7
 10
-247.91537
 20
-271.64966
 11
-247.91537
 21
-238.14964
  0
LINE
  8
0
  6
CONTINUOUS
 62
     7
 10
-247.91537
 20
-238.50795
 11
-243.91537
 21
-238.50795
  0
LINE
  8
0
  6
CONTINUOUS
 62
     7
 10
-229.81538
 20
-255.30009
 11
-226.41537
 21
-255.30009
  0
LINE
  8
0
  6
CONTINUOUS
 62
     7
 10
-142.21532
 20
-236.14964
 11
-141.06062
 21
-238.14964
  0
LINE
  8
0
  6
CONTINUOUS
 62
     7
 10
-153.90591
 20
-236.14964
 11
-148.06064
 21
-236.14964
  0
LINE
  8
0
  6
CONTINUOUS
 62
     7
 10
-153.90591
 20
-271.64966
 11
-153.90591
 21
-268.0715
  0
LINE
  8
0
  6
CONTINUOUS
 62
     7
 10
-155.06064
 20
-238.14964
 11
-155.06064
 21
-271.64966
  0
LINE
  8
0
  6
CONTINUOUS
 62
     7
 10
-142.21533
 20
-271.64966
 11
-142.21533
 21
-268.0715
  0
LINE
  8
0
  6
CONTINUOUS
 62
     7
 10
-153.90591
 20
-268.0715
 11
-148.06064
 21
-268.0715
  0
LINE
  8
0
  6
CONTINUOUS
 62
     7
 10
-153.90591
 20
-244.14505
 11
-148.06064
 21
-244.14505
  0
LINE
  8
0
  6
CONTINUOUS
 62
     7
 10
-153.90593
 20
-236.14966
 11
-155.06062
 21
-238.14964
  0
LINE
  8
0
  6
CONTINUOUS
 62
     7
 10
-153.90591
 20
-249.20534
 11
-148.06064
 21
-249.20534
  0
LINE
  8
0
  6
CONTINUOUS
 62
     7
 10
-142.21533
 20
-236.14964
 11
-148.06064
 21
-236.14964
  0
LINE
  8
0
  6
CONTINUOUS
 62
     7
 10
-153.90591
 20
-249.20534
 11
-153.90591
 21
-244.14505
  0
LINE
  8
0
  6
CONTINUOUS
 62
     7
 10
-142.21533
 20
-249.20534
 11
-142.21533
 21
-244.14505
  0
LINE
  8
0
  6
CONTINUOUS
 62
     7
 10
-142.21533
 20
-268.0715
 11
-148.06064
 21
-268.0715
  0
LINE
  8
0
  6
CONTINUOUS
 62
     7
 10
-142.21533
 20
-244.14505
 11
-148.06064
 21
-244.14505
  0
LINE
  8
0
  6
CONTINUOUS
 62
     7
 10
-142.21533
 20
-249.20534
 11
-148.06064
 21
-249.20534
  0
LINE
  8
0
  6
CONTINUOUS
 62
     7
 10
-141.06064
 20
-238.14964
 11
-141.06064
 21
-271.64966
  0
LINE
  8
0
  6
CONTINUOUS
 62
     7
 10
-137.06064
 20
-251.75644
 11
-128.06064
 21
-251.75644
  0
LINE
  8
0
  6
CONTINUOUS
 62
     7
 10
-137.56061
 20
-250.64964
 11
-137.06062
 21
-250.14966
  0
LINE
  8
0
  6
CONTINUOUS
 62
     7
 10
-137.06064
 20
-251.75644
 11
-137.06064
 21
-250.14964
  0
LINE
  8
0
  6
CONTINUOUS
 62
     7
 10
-137.06064
 20
-265.01639
 11
-137.06064
 21
-261.13727
  0
LINE
  8
0
  6
CONTINUOUS
 62
     7
 10
-137.06064
 20
-250.14964
 11
-128.06064
 21
-250.14964
  0
LINE
  8
0
  6
CONTINUOUS
 62
     7
 10
-123.06063
 20
-271.64966
 11
-123.06063
 21
-255.14964
  0
LINE
  8
0
  6
CONTINUOUS
 62
     7
 10
-128.06064
 20
-271.64966
 11
-128.06064
 21
-250.14964
  0
LINE
  8
0
  6
CONTINUOUS
 62
     7
 10
-137.06064
 20
-261.13727
 11
-128.06064
 21
-261.13727
  0
LINE
  8
0
  6
CONTINUOUS
 62
     7
 10
-137.06064
 20
-265.01639
 11
-128.06064
 21
-265.01639
  0
LINE
  8
0
  6
CONTINUOUS
 62
     7
 10
-137.56064
 20
-271.64966
 11
-137.56064
 21
-250.64964
  0
LINE
  8
0
  6
CONTINUOUS
 62
     7
 10
-171.06064
 20
-271.64966
 11
-171.06064
 21
-237.64964
  0
LINE
  8
0
  6
CONTINUOUS
 62
     7
 10
-159.56064
 20
-261.43936
 11
-159.56064
 21
-254.82779
  0
LINE
  8
0
  6
CONTINUOUS
 62
     7
 10
-159.56064
 20
-237.64964
 11
-171.06064
 21
-237.64964
  0
LINE
  8
0
  6
CONTINUOUS
 62
     7
 10
-159.56062
 20
-237.64963
 11
-159.06061
 21
-238.14964
  0
LINE
  8
0
  6
CONTINUOUS
 62
     7
 10
-159.56064
 20
-240.38826
 11
-171.06064
 21
-240.38826
  0
LINE
  8
0
  6
CONTINUOUS
 62
     7
 10
-159.56064
 20
-261.43936
 11
-171.06064
 21
-261.43936
  0
LINE
  8
0
  6
CONTINUOUS
 62
     7
 10
-159.56064
 20
-254.82779
 11
-171.06064
 21
-254.82779
  0
LINE
  8
0
  6
CONTINUOUS
 62
     7
 10
-159.56064
 20
-240.38826
 11
-159.56064
 21
-237.64964
  0
LINE
  8
0
  6
CONTINUOUS
 62
     7
 10
-179.06064
 20
-271.64966
 11
-179.06064
 21
-245.64964
  0
LINE
  8
0
  6
CONTINUOUS
 62
     7
 10
-159.56064
 20
-261.43936
 11
-159.56064
 21
-254.82779
  0
LINE
  8
0
  6
CONTINUOUS
 62
     7
 10
-159.56062
 20
-237.64963
 11
-159.06061
 21
-238.14964
  0
LINE
  8
0
  6
CONTINUOUS
 62
     7
 10
-159.56064
 20
-240.38826
 11
-171.06064
 21
-240.38826
  0
LINE
  8
0
  6
CONTINUOUS
 62
     7
 10
-159.56064
 20
-237.64964
 11
-171.06064
 21
-237.64964
  0
LINE
  8
0
  6
CONTINUOUS
 62
     7
 10
-171.06064
 20
-271.64966
 11
-171.06064
 21
-237.64964
  0
LINE
  8
0
  6
CONTINUOUS
 62
     7
 10
-159.56064
 20
-254.82779
 11
-171.06064
 21
-254.82779
  0
LINE
  8
0
  6
CONTINUOUS
 62
     7
 10
-159.56064
 20
-261.43936
 11
-171.06064
 21
-261.43936
  0
LINE
  8
0
  6
CONTINUOUS
 62
     7
 10
-159.56064
 20
-240.38826
 11
-159.56064
 21
-237.64964
  0
LINE
  8
0
  6
CONTINUOUS
 62
     7
 10
-159.06064
 20
-271.64966
 11
-159.06064
 21
-238.14964
  0
LINE
  8
0
  6
CONTINUOUS
 62
     7
 10
-159.06064
 20
-238.39214
 11
-155.06064
 21
-238.39214
  0
LINE
  8
0
  6
CONTINUOUS
 62
     7
 10
-141.06064
 20
-250.66777
 11
-137.56064
 21
-250.66777
  0
LINE
  8
0
  6
CONTINUOUS
 62
     7
 10
-67.287193
 20
-236.14964
 11
-61.691891
 21
-236.14964
  0
LINE
  8
0
  6
CONTINUOUS
 62
     7
 10
-67.287193
 20
-271.64966
 11
-67.287193
 21
-268.0715
  0
LINE
  8
0
  6
CONTINUOUS
 62
     7
 10
-56.096584
 20
-249.20534
 11
-56.096584
 21
-244.14505
  0
LINE
  8
0
  6
CONTINUOUS
 62
     7
 10
-67.287193
 20
-268.0715
 11
-61.691891
 21
-268.0715
  0
LINE
  8
0
  6
CONTINUOUS
 62
     7
 10
-67.287193
 20
-244.14505
 11
-61.691891
 21
-244.14505
  0
LINE
  8
0
  6
CONTINUOUS
 62
     7
 10
-67.287193
 20
-249.20534
 11
-61.691891
 21
-249.20534
  0
LINE
  8
0
  6
CONTINUOUS
 62
     7
 10
-67.287193
 20
-249.20534
 11
-67.287193
 21
-244.14505
  0
LINE
  8
0
  6
CONTINUOUS
 62
     7
 10
-54.941891
 20
-238.14964
 11
-54.941891
 21
-271.64966
  0
LINE
  8
0
  6
CONTINUOUS
 62
     7
 10
-56.096584
 20
-249.20534
 11
-61.691891
 21
-249.20534
  0
LINE
  8
0
  6
CONTINUOUS
 62
     7
 10
-56.096603
 20
-236.14966
 11
-54.941902
 21
-238.14966
  0
LINE
  8
0
  6
CONTINUOUS
 62
     7
 10
-56.096584
 20
-244.14505
 11
-61.691891
 21
-244.14505
  0
LINE
  8
0
  6
CONTINUOUS
 62
     7
 10
-56.096584
 20
-268.0715
 11
-61.691891
 21
-268.0715
  0
LINE
  8
0
  6
CONTINUOUS
 62
     7
 10
-56.096584
 20
-236.14964
 11
-61.691891
 21
-236.14964
  0
LINE
  8
0
  6
CONTINUOUS
 62
     7
 10
-56.096584
 20
-271.64966
 11
-56.096584
 21
-268.0715
  0
LINE
  8
0
  6
CONTINUOUS
 62
     7
 10
-68.441887
 20
-271.64966
 11
-68.441887
 21
-238.14964
  0
LINE
  8
0
  6
CONTINUOUS
 62
     7
 10
-67.287201
 20
-236.14964
 11
-68.441895
 21
-238.14964
  0
LINE
  8
0
  6
CONTINUOUS
 62
     7
 10
-67.287193
 20
-249.20534
 11
-67.287193
 21
-244.14505
  0
LINE
  8
0
  6
CONTINUOUS
 62
     7
 10
-67.287193
 20
-271.64966
 11
-67.287193
 21
-268.0715
  0
LINE
  8
0
  6
CONTINUOUS
 62
     7
 10
-35.441891
 20
-271.64966
 11
-35.441891
 21
-252.14964
  0
LINE
  8
0
  6
CONTINUOUS
 62
     7
 10
-50.841885
 20
-247.14964
 11
-40.441891
 21
-247.14964
  0
LINE
  8
0
  6
CONTINUOUS
 62
     7
 10
-51.341881
 20
-247.64967
 11
-50.841869
 21
-247.14966
  0
LINE
  8
0
  6
CONTINUOUS
 62
     7
 10
-50.841885
 20
-248.17126
 11
-40.441891
 21
-248.17126
  0
LINE
  8
0
  6
CONTINUOUS
 62
     7
 10
-50.841885
 20
-262.9462
 11
-40.441891
 21
-262.9462
  0
LINE
  8
0
  6
CONTINUOUS
 62
     7
 10
-50.841885
 20
-262.9462
 11
-50.841885
 21
-260.4798
  0
LINE
  8
0
  6
CONTINUOUS
 62
     7
 10
-50.841885
 20
-248.17126
 11
-50.841885
 21
-247.14964
  0
LINE
  8
0
  6
CONTINUOUS
 62
     7
 10
-40.441891
 20
-271.64966
 11
-40.441891
 21
-247.14964
  0
LINE
  8
0
  6
CONTINUOUS
 62
     7
 10
-50.841885
 20
-260.4798
 11
-40.441891
 21
-260.4798
  0
LINE
  8
0
  6
CONTINUOUS
 62
     7
 10
-51.341885
 20
-271.64966
 11
-51.341885
 21
-247.64964
  0
LINE
  8
0
  6
CONTINUOUS
 62
     7
 10
-92.441887
 20
-271.64966
 11
-92.441887
 21
-245.64964
  0
LINE
  8
0
  6
CONTINUOUS
 62
     7
 10
-72.941887
 20
-261.43936
 11
-72.941887
 21
-254.82779
  0
LINE
  8
0
  6
CONTINUOUS
 62
     7
 10
-72.94191
 20
-237.64966
 11
-72.441902
 21
-238.14967
  0
LINE
  8
0
  6
CONTINUOUS
 62
     7
 10
-72.941887
 20
-240.38826
 11
-84.441887
 21
-240.38826
  0
LINE
  8
0
  6
CONTINUOUS
 62
     7
 10
-72.941887
 20
-237.64964
 11
-84.441887
 21
-237.64964
  0
LINE
  8
0
  6
CONTINUOUS
 62
     7
 10
-84.441887
 20
-271.64966
 11
-84.441887
 21
-237.64964
  0
LINE
  8
0
  6
CONTINUOUS
 62
     7
 10
-72.941887
 20
-254.82779
 11
-84.441887
 21
-254.82779
  0
LINE
  8
0
  6
CONTINUOUS
 62
     7
 10
-72.941887
 20
-261.43936
 11
-84.441887
 21
-261.43936
  0
LINE
  8
0
  6
CONTINUOUS
 62
     7
 10
-72.941887
 20
-240.38826
 11
-72.941887
 21
-237.64964
  0
LINE
  8
0
  6
CONTINUOUS
 62
     7
 10
-72.441887
 20
-271.64966
 11
-72.441887
 21
-238.14964
  0
LINE
  8
0
  6
CONTINUOUS
 62
     7
 10
-72.441887
 20
-238.27634
 11
-68.441887
 21
-238.27634
  0
LINE
  8
0
  6
CONTINUOUS
 62
     7
 10
-54.941891
 20
-247.88838
 11
-51.341885
 21
-247.88838
  0
LINE
  8
0
  6
CONTINUOUS
 62
     7
 10
23.008091
 20
-236.14964
 11
28.603367
 21
-236.14964
  0
LINE
  8
0
  6
CONTINUOUS
 62
     7
 10
23.008091
 20
-271.64966
 11
23.008091
 21
-268.0715
  0
LINE
  8
0
  6
CONTINUOUS
 62
     7
 10
21.853367
 20
-238.14964
 11
21.853367
 21
-271.64966
  0
LINE
  8
0
  6
CONTINUOUS
 62
     7
 10
34.198673
 20
-249.20534
 11
34.198673
 21
-244.14505
  0
LINE
  8
0
  6
CONTINUOUS
 62
     7
 10
23.008091
 20
-268.0715
 11
28.603367
 21
-268.0715
  0
LINE
  8
0
  6
CONTINUOUS
 62
     7
 10
23.008091
 20
-244.14505
 11
28.603367
 21
-244.14505
  0
LINE
  8
0
  6
CONTINUOUS
 62
     7
 10
23.00807
 20
-236.14964
 11
21.853369
 21
-238.14964
  0
LINE
  8
0
  6
CONTINUOUS
 62
     7
 10
23.008091
 20
-249.20534
 11
28.603367
 21
-249.20534
  0
LINE
  8
0
  6
CONTINUOUS
 62
     7
 10
23.008091
 20
-249.20534
 11
23.008091
 21
-244.14505
  0
LINE
  8
0
  6
CONTINUOUS
 62
     7
 10
35.353397
 20
-238.14964
 11
35.353397
 21
-271.64966
  0
LINE
  8
0
  6
CONTINUOUS
 62
     7
 10
34.198673
 20
-249.20534
 11
28.603367
 21
-249.20534
  0
LINE
  8
0
  6
CONTINUOUS
 62
     7
 10
34.198673
 20
-236.14964
 11
35.353382
 21
-238.14966
  0
LINE
  8
0
  6
CONTINUOUS
 62
     7
 10
34.198673
 20
-244.14505
 11
28.603367
 21
-244.14505
  0
LINE
  8
0
  6
CONTINUOUS
 62
     7
 10
34.198673
 20
-268.0715
 11
28.603367
 21
-268.0715
  0
LINE
  8
0
  6
CONTINUOUS
 62
     7
 10
34.198673
 20
-236.14964
 11
28.603367
 21
-236.14964
  0
LINE
  8
0
  6
CONTINUOUS
 62
     7
 10
34.198673
 20
-271.64966
 11
34.198673
 21
-268.0715
  0
LINE
  8
0
  6
CONTINUOUS
 62
     7
 10
39.453373
 20
-262.12338
 11
50.853397
 21
-262.12338
  0
LINE
  8
0
  6
CONTINUOUS
 62
     7
 10
50.853397
 20
-271.64966
 11
50.853397
 21
-242.14964
  0
LINE
  8
0
  6
CONTINUOUS
 62
     7
 10
38.953377
 20
-242.64964
 11
39.453369
 21
-242.14966
  0
LINE
  8
0
  6
CONTINUOUS
 62
     7
 10
39.453373
 20
-244.05391
 11
50.853397
 21
-244.05391
  0
LINE
  8
0
  6
CONTINUOUS
 62
     7
 10
39.453373
 20
-257.52609
 11
50.853397
 21
-257.52609
  0
LINE
  8
0
  6
CONTINUOUS
 62
     7
 10
39.453373
 20
-242.14964
 11
50.853397
 21
-242.14964
  0
LINE
  8
0
  6
CONTINUOUS
 62
     7
 10
56.853397
 20
-271.64966
 11
56.853397
 21
-248.14964
  0
LINE
  8
0
  6
CONTINUOUS
 62
     7
 10
39.453373
 20
-262.12338
 11
39.453373
 21
-257.52609
  0
LINE
  8
0
  6
CONTINUOUS
 62
     7
 10
39.453373
 20
-244.05391
 11
39.453373
 21
-242.14964
  0
LINE
  8
0
  6
CONTINUOUS
 62
     7
 10
38.953373
 20
-271.64966
 11
38.953373
 21
-242.64964
  0
LINE
  8
0
  6
CONTINUOUS
 62
     7
 10
-2.1466329
 20
-271.64966
 11
-2.1466329
 21
-245.64964
  0
LINE
  8
0
  6
CONTINUOUS
 62
     7
 10
17.353367
 20
-261.43936
 11
17.353367
 21
-254.82779
  0
LINE
  8
0
  6
CONTINUOUS
 62
     7
 10
17.35339
 20
-237.64966
 11
17.853378
 21
-238.14964
  0
LINE
  8
0
  6
CONTINUOUS
 62
     7
 10
17.353367
 20
-240.38826
 11
5.8533673
 21
-240.38826
  0
LINE
  8
0
  6
CONTINUOUS
 62
     7
 10
17.353367
 20
-237.64964
 11
5.8533673
 21
-237.64964
  0
LINE
  8
0
  6
CONTINUOUS
 62
     7
 10
5.8533673
 20
-271.64966
 11
5.8533673
 21
-237.64964
  0
LINE
  8
0
  6
CONTINUOUS
 62
     7
 10
17.353367
 20
-254.82779
 11
5.8533673
 21
-254.82779
  0
LINE
  8
0
  6
CONTINUOUS
 62
     7
 10
17.353367
 20
-261.43936
 11
5.8533673
 21
-261.43936
  0
LINE
  8
0
  6
CONTINUOUS
 62
     7
 10
17.353367
 20
-240.38826
 11
17.353367
 21
-237.64964
  0
LINE
  8
0
  6
CONTINUOUS
 62
     7
 10
17.853367
 20
-271.64966
 11
17.853367
 21
-238.14964
  0
LINE
  8
0
  6
CONTINUOUS
 62
     7
 10
17.853367
 20
-238.39214
 11
21.853367
 21
-238.39214
  0
LINE
  8
0
  6
CONTINUOUS
 62
     7
 10
35.353397
 20
-242.90865
 11
38.953373
 21
-242.90865
  0
LINE
  8
0
  6
CONTINUOUS
 62
     7
 10
-132.10976
 20
-425.57095
 11
-123.10975
 21
-425.57095
  0
LINE
  8
0
  6
CONTINUOUS
 62
     7
 10
-132.60974
 20
-426.67773
 11
-132.10974
 21
-427.17776
  0
LINE
  8
0
  6
CONTINUOUS
 62
     7
 10
-132.10976
 20
-425.57095
 11
-132.10976
 21
-427.17776
  0
LINE
  8
0
  6
CONTINUOUS
 62
     7
 10
-132.10976
 20
-412.311
 11
-132.10976
 21
-416.19012
  0
LINE
  8
0
  6
CONTINUOUS
 62
     7
 10
-132.10976
 20
-427.17776
 11
-123.10975
 21
-427.17776
  0
LINE
  8
0
  6
CONTINUOUS
 62
     7
 10
-118.10975
 20
-405.67776
 11
-118.10975
 21
-422.17776
  0
LINE
  8
0
  6
CONTINUOUS
 62
     7
 10
-123.10975
 20
-405.67776
 11
-123.10975
 21
-427.17776
  0
LINE
  8
0
  6
CONTINUOUS
 62
     7
 10
-132.10976
 20
-416.19012
 11
-123.10975
 21
-416.19012
  0
LINE
  8
0
  6
CONTINUOUS
 62
     7
 10
-132.10976
 20
-412.311
 11
-123.10975
 21
-412.311
  0
LINE
  8
0
  6
CONTINUOUS
 62
     7
 10
-43.035072
 20
-429.15613
 11
-43.035072
 21
-430.17776
  0
LINE
  8
0
  6
CONTINUOUS
 62
     7
 10
-43.035072
 20
-429.15613
 11
-32.635071
 21
-429.15613
  0
LINE
  8
0
  6
CONTINUOUS
 62
     7
 10
-43.035072
 20
-414.3812
 11
-32.635071
 21
-414.3812
  0
LINE
  8
0
  6
CONTINUOUS
 62
     7
 10
-43.035072
 20
-414.3812
 11
-43.035072
 21
-416.8476
  0
LINE
  8
0
  6
CONTINUOUS
 62
     7
 10
-27.635071
 20
-405.67776
 11
-27.635071
 21
-425.17776
  0
LINE
  8
0
  6
CONTINUOUS
 62
     7
 10
-43.535061
 20
-429.67773
 11
-43.035072
 21
-430.17773
  0
LINE
  8
0
  6
CONTINUOUS
 62
     7
 10
-43.035072
 20
-430.17776
 11
-32.635071
 21
-430.17776
  0
LINE
  8
0
  6
CONTINUOUS
 62
     7
 10
-32.635071
 20
-405.67776
 11
-32.635071
 21
-430.17776
  0
LINE
  8
0
  6
CONTINUOUS
 62
     7
 10
-43.035072
 20
-416.8476
 11
-32.635071
 21
-416.8476
  0
LINE
  8
0
  6
CONTINUOUS
 62
     7
 10
44.741634
 20
-415.20404
 11
56.14164
 21
-415.20404
  0
LINE
  8
0
  6
CONTINUOUS
 62
     7
 10
56.14164
 20
-405.67776
 11
56.14164
 21
-435.17776
  0
LINE
  8
0
  6
CONTINUOUS
 62
     7
 10
44.241623
 20
-434.67776
 11
44.741634
 21
-435.17776
  0
LINE
  8
0
  6
CONTINUOUS
 62
     7
 10
44.741634
 20
-433.2735
 11
56.14164
 21
-433.2735
  0
LINE
  8
0
  6
CONTINUOUS
 62
     7
 10
44.741634
 20
-419.8013
 11
56.14164
 21
-419.8013
  0
LINE
  8
0
  6
CONTINUOUS
 62
     7
 10
44.741638
 20
-435.17776
 11
56.14164
 21
-435.17776
  0
LINE
  8
0
  6
CONTINUOUS
 62
     7
 10
62.14164
 20
-405.67776
 11
62.14164
 21
-429.17776
  0
LINE
  8
0
  6
CONTINUOUS
 62
     7
 10
44.741634
 20
-415.20404
 11
44.741634
 21
-419.8013
  0
LINE
  8
0
  6
CONTINUOUS
 62
     7
 10
44.741634
 20
-433.2735
 11
44.741634
 21
-435.17776
  0
LINE
  8
0
  6
CONTINUOUS
 62
     7
 10
-229.70857
 20
-591.46759
 11
-230.20857
 21
-590.96765
  0
LINE
  8
0
  6
CONTINUOUS
 62
     7
 10
-229.70857
 20
-588.729
 11
-229.70857
 21
-591.46759
  0
LINE
  8
0
  6
CONTINUOUS
 62
     7
 10
-229.70857
 20
-591.46759
 11
-218.20857
 21
-591.46759
  0
LINE
  8
0
  6
CONTINUOUS
 62
     7
 10
-229.70857
 20
-588.729
 11
-218.20857
 21
-588.729
  0
LINE
  8
0
  6
CONTINUOUS
 62
     7
 10
-210.20857
 20
-557.46759
 11
-210.20857
 21
-583.46759
  0
LINE
  8
0
  6
CONTINUOUS
 62
     7
 10
-229.70857
 20
-567.67792
 11
-229.70857
 21
-574.28949
  0
LINE
  8
0
  6
CONTINUOUS
 62
     7
 10
-229.70857
 20
-574.28949
 11
-218.20857
 21
-574.28949
  0
LINE
  8
0
  6
CONTINUOUS
 62
     7
 10
-218.20857
 20
-557.46759
 11
-218.20857
 21
-591.46759
  0
LINE
  8
0
  6
CONTINUOUS
 62
     7
 10
-229.70857
 20
-567.67792
 11
-218.20857
 21
-567.67792
  0
LINE
  8
0
  6
CONTINUOUS
 62
     7
 10
-137.26445
 20
-405.67776
 11
-137.26445
 21
-409.39294
  0
LINE
  8
0
  6
CONTINUOUS
 62
     7
 10
-145.10976
 20
-448.67776
 11
-137.26445
 21
-448.67776
  0
LINE
  8
0
  6
CONTINUOUS
 62
     7
 10
-145.10976
 20
-433.34262
 11
-137.26445
 21
-433.34262
  0
LINE
  8
0
  6
CENTER
 62
     7
 10
-189.10477
 20
-405.67776
 11
-110.01765
 21
-405.67776
  0
LINE
  8
0
  6
CONTINUOUS
 62
     7
 10
-145.10976
 20
-409.39294
 11
-137.26445
 21
-409.39294
  0
LINE
  8
0
  6
CONTINUOUS
 62
     7
 10
-145.10976
 20
-438.59668
 11
-152.95505
 21
-438.59668
  0
LINE
  8
0
  6
CONTINUOUS
 62
     7
 10
-145.10976
 20
-438.59668
 11
-137.26445
 21
-438.59668
  0
LINE
  8
0
  6
CONTINUOUS
 62
     7
 10
-152.95505
 20
-405.67776
 11
-152.95505
 21
-409.39294
  0
LINE
  8
0
  6
CONTINUOUS
 62
     7
 10
-152.95506
 20
-448.67776
 11
-154.10977
 21
-446.67773
  0
LINE
  8
0
  6
CONTINUOUS
 62
     7
 10
-145.10976
 20
-448.67776
 11
-152.95505
 21
-448.67776
  0
LINE
  8
0
  6
CONTINUOUS
 62
     7
 10
-154.10976
 20
-446.67776
 11
-154.10976
 21
-405.67776
  0
LINE
  8
0
  6
CONTINUOUS
 62
     7
 10
-136.10976
 20
-446.67776
 11
-136.10976
 21
-405.67776
  0
LINE
  8
0
  6
CONTINUOUS
 62
     7
 10
-137.26445
 20
-448.67773
 11
-136.10976
 21
-446.67776
  0
LINE
  8
0
  6
CONTINUOUS
 62
     7
 10
-152.95505
 20
-433.34262
 11
-152.95505
 21
-438.59668
  0
LINE
  8
0
  6
CONTINUOUS
 62
     7
 10
-137.26445
 20
-433.34262
 11
-137.26445
 21
-438.59668
  0
LINE
  8
0
  6
CONTINUOUS
 62
     7
 10
-145.10976
 20
-409.39294
 11
-152.95505
 21
-409.39294
  0
LINE
  8
0
  6
CONTINUOUS
 62
     7
 10
-145.10976
 20
-433.34262
 11
-152.95505
 21
-433.34262
  0
LINE
  8
0
  6
CONTINUOUS
 62
     7
 10
-55.885071
 20
-433.34262
 11
-48.289772
 21
-433.34262
  0
LINE
  8
0
  6
CONTINUOUS
 62
     7
 10
-48.289772
 20
-448.67773
 11
-47.135078
 21
-446.67776
  0
LINE
  8
0
  6
CONTINUOUS
 62
     7
 10
-55.885071
 20
-409.39294
 11
-48.289772
 21
-409.39294
  0
LINE
  8
0
  6
CENTER
 62
     7
 10
-95.79776
 20
-405.67776
 11
-23.987934
 21
-405.67776
  0
LINE
  8
0
  6
CONTINUOUS
 62
     7
 10
-55.885071
 20
-448.67776
 11
-48.289772
 21
-448.67776
  0
LINE
  8
0
  6
CONTINUOUS
 62
     7
 10
-55.885071
 20
-438.59668
 11
-63.48037
 21
-438.59668
  0
LINE
  8
0
  6
CONTINUOUS
 62
     7
 10
-55.885071
 20
-438.59668
 11
-48.289772
 21
-438.59668
  0
LINE
  8
0
  6
CONTINUOUS
 62
     7
 10
-63.48037
 20
-405.67776
 11
-63.48037
 21
-409.39294
  0
LINE
  8
0
  6
CONTINUOUS
 62
     7
 10
-63.480366
 20
-448.67773
 11
-64.635056
 21
-446.67776
  0
LINE
  8
0
  6
CONTINUOUS
 62
     7
 10
-48.289772
 20
-405.67776
 11
-48.289772
 21
-409.39294
  0
LINE
  8
0
  6
CONTINUOUS
 62
     7
 10
-55.885071
 20
-448.67776
 11
-63.48037
 21
-448.67776
  0
LINE
  8
0
  6
CONTINUOUS
 62
     7
 10
-64.635071
 20
-446.67776
 11
-64.635071
 21
-405.67776
  0
LINE
  8
0
  6
CONTINUOUS
 62
     7
 10
-48.289772
 20
-433.34262
 11
-48.289772
 21
-438.59668
  0
LINE
  8
0
  6
CONTINUOUS
 62
     7
 10
-63.48037
 20
-433.34262
 11
-63.48037
 21
-438.59668
  0
LINE
  8
0
  6
CONTINUOUS
 62
     7
 10
-47.135071
 20
-446.67776
 11
-47.135071
 21
-405.67776
  0
LINE
  8
0
  6
CONTINUOUS
 62
     7
 10
-55.885071
 20
-409.39294
 11
-63.48037
 21
-409.39294
  0
LINE
  8
0
  6
CONTINUOUS
 62
     7
 10
-55.885071
 20
-433.34262
 11
-63.48037
 21
-433.34262
  0
LINE
  8
0
  6
CONTINUOUS
 62
     7
 10
31.89164
 20
-433.34262
 11
39.486938
 21
-433.34262
  0
LINE
  8
0
  6
CONTINUOUS
 62
     7
 10
39.486942
 20
-448.67776
 11
40.641651
 21
-446.67776
  0
LINE
  8
0
  6
CONTINUOUS
 62
     7
 10
31.89164
 20
-409.39294
 11
39.486938
 21
-409.39294
  0
LINE
  8
0
  6
CENTER
 62
     7
 10
-14.073123
 20
-405.67776
 11
66.986801
 21
-405.67776
  0
LINE
  8
0
  6
CONTINUOUS
 62
     7
 10
31.89164
 20
-448.67776
 11
39.486938
 21
-448.67776
  0
LINE
  8
0
  6
CONTINUOUS
 62
     7
 10
31.89164
 20
-438.59668
 11
24.296337
 21
-438.59668
  0
LINE
  8
0
  6
CONTINUOUS
 62
     7
 10
31.89164
 20
-438.59668
 11
39.486938
 21
-438.59668
  0
LINE
  8
0
  6
CONTINUOUS
 62
     7
 10
24.296337
 20
-405.67776
 11
24.296337
 21
-409.39294
  0
LINE
  8
0
  6
CONTINUOUS
 62
     7
 10
24.296339
 20
-448.67776
 11
23.14163
 21
-446.67773
  0
LINE
  8
0
  6
CONTINUOUS
 62
     7
 10
39.486938
 20
-405.67776
 11
39.486938
 21
-409.39294
  0
LINE
  8
0
  6
CONTINUOUS
 62
     7
 10
31.89164
 20
-448.67776
 11
24.296337
 21
-448.67776
  0
LINE
  8
0
  6
CONTINUOUS
 62
     7
 10
23.14164
 20
-446.67776
 11
23.14164
 21
-405.67776
  0
LINE
  8
0
  6
CONTINUOUS
 62
     7
 10
39.486938
 20
-433.34262
 11
39.486938
 21
-438.59668
  0
LINE
  8
0
  6
CONTINUOUS
 62
     7
 10
24.296337
 20
-433.34262
 11
24.296337
 21
-438.59668
  0
LINE
  8
0
  6
CONTINUOUS
 62
     7
 10
40.64164
 20
-446.67776
 11
40.64164
 21
-405.67776
  0
LINE
  8
0
  6
CONTINUOUS
 62
     7
 10
31.89164
 20
-409.39294
 11
24.296337
 21
-409.39294
  0
LINE
  8
0
  6
CONTINUOUS
 62
     7
 10
31.89164
 20
-433.34262
 11
24.296337
 21
-433.34262
  0
LINE
  8
0
  6
CONTINUOUS
 62
     7
 10
-235.36328
 20
-600.46759
 11
-234.20859
 21
-598.46765
  0
LINE
  8
0
  6
CENTER
 62
     7
 10
-282.63376
 20
-557.46759
 11
-206.26846
 21
-557.46759
  0
LINE
  8
0
  6
CONTINUOUS
 62
     7
 10
-235.36328
 20
-585.13251
 11
-235.36328
 21
-590.38654
  0
LINE
  8
0
  6
CONTINUOUS
 62
     7
 10
-242.20857
 20
-590.38654
 11
-249.05388
 21
-590.38654
  0
LINE
  8
0
  6
CONTINUOUS
 62
     7
 10
-234.20857
 20
-598.46759
 11
-234.20857
 21
-557.46759
  0
LINE
  8
0
  6
CONTINUOUS
 62
     7
 10
-249.05388
 20
-557.46759
 11
-249.05388
 21
-561.1828
  0
LINE
  8
0
  6
CONTINUOUS
 62
     7
 10
-249.05385
 20
-600.46765
 11
-250.20856
 21
-598.46759
  0
LINE
  8
0
  6
CONTINUOUS
 62
     7
 10
-242.20857
 20
-600.46759
 11
-249.05388
 21
-600.46759
  0
LINE
  8
0
  6
CONTINUOUS
 62
     7
 10
-250.20857
 20
-598.46759
 11
-250.20857
 21
-557.46759
  0
LINE
  8
0
  6
CONTINUOUS
 62
     7
 10
-242.20857
 20
-585.13251
 11
-235.36328
 21
-585.13251
  0
LINE
  8
0
  6
CONTINUOUS
 62
     7
 10
-242.20857
 20
-561.1828
 11
-235.36328
 21
-561.1828
  0
LINE
  8
0
  6
CONTINUOUS
 62
     7
 10
-249.05388
 20
-585.13251
 11
-249.05388
 21
-590.38654
  0
LINE
  8
0
  6
CONTINUOUS
 62
     7
 10
-242.20857
 20
-600.46759
 11
-235.36328
 21
-600.46759
  0
LINE
  8
0
  6
CONTINUOUS
 62
     7
 10
-242.20857
 20
-561.1828
 11
-249.05388
 21
-561.1828
  0
LINE
  8
0
  6
CONTINUOUS
 62
     7
 10
-242.20857
 20
-585.13251
 11
-249.05388
 21
-585.13251
  0
LINE
  8
0
  6
CONTINUOUS
 62
     7
 10
-242.20857
 20
-590.38654
 11
-235.36328
 21
-590.38654
  0
LINE
  8
0
  6
CONTINUOUS
 62
     7
 10
-235.36328
 20
-557.46759
 11
-235.36328
 21
-561.1828
  0
LINE
  8
0
  6
CONTINUOUS
 62
     7
 10
-181.10976
 20
-405.67776
 11
-181.10976
 21
-438.67776
  0
LINE
  8
0
  6
CONTINUOUS
 62
     7
 10
-158.10976
 20
-443.83429
 11
-173.10976
 21
-443.83429
  0
LINE
  8
0
  6
CONTINUOUS
 62
     7
 10
-158.10976
 20
-418.63925
 11
-173.10976
 21
-418.63925
  0
LINE
  8
0
  6
CONTINUOUS
 62
     7
 10
-173.10976
 20
-405.67776
 11
-173.10976
 21
-446.67776
  0
LINE
  8
0
  6
CONTINUOUS
 62
     7
 10
-158.10976
 20
-425.504
 11
-173.10976
 21
-425.504
  0
LINE
  8
0
  6
CONTINUOUS
 62
     7
 10
-158.10976
 20
-418.63925
 11
-158.10976
 21
-425.504
  0
LINE
  8
0
  6
CONTINUOUS
 62
     7
 10
-158.10976
 20
-443.83429
 11
-158.10976
 21
-446.67776
  0
LINE
  8
0
  6
CONTINUOUS
 62
     7
 10
-158.10976
 20
-446.67776
 11
-157.60976
 21
-446.17776
  0
LINE
  8
0
  6
CONTINUOUS
 62
     7
 10
-158.10976
 20
-446.67776
 11
-173.10976
 21
-446.67776
  0
LINE
  8
0
  6
CONTINUOUS
 62
     7
 10
-83.635071
 20
-405.67776
 11
-83.635071
 21
-446.67776
  0
LINE
  8
0
  6
CONTINUOUS
 62
     7
 10
-68.635071
 20
-418.63925
 11
-83.635071
 21
-418.63925
  0
LINE
  8
0
  6
CONTINUOUS
 62
     7
 10
-68.635071
 20
-443.83429
 11
-83.635071
 21
-443.83429
  0
LINE
  8
0
  6
CONTINUOUS
 62
     7
 10
-91.635071
 20
-405.67776
 11
-91.635071
 21
-438.67776
  0
LINE
  8
0
  6
CONTINUOUS
 62
     7
 10
-68.635071
 20
-425.504
 11
-83.635071
 21
-425.504
  0
LINE
  8
0
  6
CONTINUOUS
 62
     7
 10
-68.635071
 20
-418.63925
 11
-68.635071
 21
-425.504
  0
LINE
  8
0
  6
CONTINUOUS
 62
     7
 10
-68.635071
 20
-443.83429
 11
-68.635071
 21
-446.67776
  0
LINE
  8
0
  6
CONTINUOUS
 62
     7
 10
-68.635063
 20
-446.67773
 11
-68.135078
 21
-446.17776
  0
LINE
  8
0
  6
CONTINUOUS
 62
     7
 10
-68.635071
 20
-446.67776
 11
-83.635071
 21
-446.67776
  0
LINE
  8
0
  6
CONTINUOUS
 62
     7
 10
4.1416373
 20
-405.67776
 11
4.1416373
 21
-446.67776
  0
LINE
  8
0
  6
CONTINUOUS
 62
     7
 10
19.141638
 20
-418.63925
 11
4.1416373
 21
-418.63925
  0
LINE
  8
0
  6
CONTINUOUS
 62
     7
 10
19.141638
 20
-443.83429
 11
4.1416373
 21
-443.83429
  0
LINE
  8
0
  6
CONTINUOUS
 62
     7
 10
-3.8583627
 20
-405.67776
 11
-3.8583627
 21
-438.67776
  0
LINE
  8
0
  6
CONTINUOUS
 62
     7
 10
19.141638
 20
-425.504
 11
4.1416373
 21
-425.504
  0
LINE
  8
0
  6
CONTINUOUS
 62
     7
 10
19.141638
 20
-418.63925
 11
19.141638
 21
-425.504
  0
LINE
  8
0
  6
CONTINUOUS
 62
     7
 10
19.141638
 20
-443.83429
 11
19.141638
 21
-446.67776
  0
LINE
  8
0
  6
CONTINUOUS
 62
     7
 10
19.141642
 20
-446.67773
 11
19.641632
 21
-446.17776
  0
LINE
  8
0
  6
CONTINUOUS
 62
     7
 10
19.141638
 20
-446.67776
 11
4.1416373
 21
-446.67776
  0
LINE
  8
0
  6
CONTINUOUS
 62
     7
 10
-269.20856
 20
-557.46759
 11
-269.20856
 21
-598.46759
  0
LINE
  8
0
  6
CONTINUOUS
 62
     7
 10
-254.20857
 20
-570.42908
 11
-269.20856
 21
-570.42908
  0
LINE
  8
0
  6
CONTINUOUS
 62
     7
 10
-254.20857
 20
-595.62415
 11
-269.20856
 21
-595.62415
  0
LINE
  8
0
  6
CONTINUOUS
 62
     7
 10
-277.20856
 20
-557.46759
 11
-277.20856
 21
-590.46759
  0
LINE
  8
0
  6
CONTINUOUS
 62
     7
 10
-254.20857
 20
-577.29382
 11
-269.20856
 21
-577.29382
  0
LINE
  8
0
  6
CONTINUOUS
 62
     7
 10
-254.20857
 20
-570.42908
 11
-254.20857
 21
-577.29382
  0
LINE
  8
0
  6
CONTINUOUS
 62
     7
 10
-254.20857
 20
-595.62415
 11
-254.20857
 21
-598.46759
  0
LINE
  8
0
  6
CONTINUOUS
 62
     7
 10
-254.20856
 20
-598.46759
 11
-253.70856
 21
-597.96759
  0
LINE
  8
0
  6
CONTINUOUS
 62
     7
 10
-254.20857
 20
-598.46759
 11
-269.20856
 21
-598.46759
  0
LINE
  8
0
  6
CONTINUOUS
 62
     7
 10
-239.54231
 20
-405.67776
 11
-239.54231
 21
-409.39294
  0
LINE
  8
0
  6
CONTINUOUS
 62
     7
 10
-223.77042
 20
-409.39294
 11
-239.54231
 21
-409.39294
  0
LINE
  8
0
  6
CONTINUOUS
 62
     7
 10
-239.54231
 20
-448.67773
 11
-240.69701
 21
-446.67776
  0
LINE
  8
0
  6
CENTER
 62
     7
 10
-277.42819
 20
-405.67776
 11
-196.13315
 21
-405.67776
  0
LINE
  8
0
  6
CONTINUOUS
 62
     7
 10
-223.75171
 20
-433.34262
 11
-239.54231
 21
-433.34262
  0
LINE
  8
0
  6
CONTINUOUS
 62
     7
 10
-223.75171
 20
-405.67776
 11
-223.75171
 21
-409.39294
  0
LINE
  8
0
  6
CONTINUOUS
 62
     7
 10
-223.75172
 20
-448.67776
 11
-222.59702
 21
-446.67773
  0
LINE
  8
0
  6
CONTINUOUS
 62
     7
 10
-222.59702
 20
-446.67776
 11
-222.59702
 21
-405.67776
  0
LINE
  8
0
  6
CONTINUOUS
 62
     7
 10
-223.75171
 20
-438.59668
 11
-239.54231
 21
-438.59668
  0
LINE
  8
0
  6
CONTINUOUS
 62
     7
 10
-223.75171
 20
-433.34262
 11
-223.75171
 21
-438.59668
  0
LINE
  8
0
  6
CONTINUOUS
 62
     7
 10
-240.69702
 20
-446.67776
 11
-240.69702
 21
-405.67776
  0
LINE
  8
0
  6
CONTINUOUS
 62
     7
 10
-223.75171
 20
-448.67776
 11
-239.54231
 21
-448.67776
  0
LINE
  8
0
  6
CONTINUOUS
 62
     7
 10
-239.54231
 20
-433.34262
 11
-239.54231
 21
-438.59668
  0
LINE
  8
0
  6
CONTINUOUS
 62
     7
 10
-244.69702
 20
-446.67776
 11
-259.69702
 21
-446.67776
  0
LINE
  8
0
  6
CONTINUOUS
 62
     7
 10
-244.69702
 20
-446.67776
 11
-244.19701
 21
-446.17773
  0
LINE
  8
0
  6
CONTINUOUS
 62
     7
 10
-244.69702
 20
-443.83429
 11
-244.69702
 21
-446.67776
  0
LINE
  8
0
  6
CONTINUOUS
 62
     7
 10
-267.69702
 20
-405.67776
 11
-267.69702
 21
-438.67776
  0
LINE
  8
0
  6
CONTINUOUS
 62
     7
 10
-244.69702
 20
-443.83429
 11
-259.69702
 21
-443.83429
  0
LINE
  8
0
  6
CONTINUOUS
 62
     7
 10
-244.69702
 20
-418.63925
 11
-259.69702
 21
-418.63925
  0
LINE
  8
0
  6
CONTINUOUS
 62
     7
 10
-259.69702
 20
-405.67776
 11
-259.69702
 21
-446.67776
  0
LINE
  8
0
  6
CONTINUOUS
 62
     7
 10
-244.69702
 20
-425.504
 11
-259.69702
 21
-425.504
  0
LINE
  8
0
  6
CONTINUOUS
 62
     7
 10
-244.69702
 20
-418.63925
 11
-244.69702
 21
-425.504
  0
LINE
  8
0
  6
CONTINUOUS
 62
     7
 10
-244.19702
 20
-405.67776
 11
-244.19702
 21
-446.17776
  0
LINE
  8
0
  6
CONTINUOUS
 62
     7
 10
-157.60976
 20
-405.67776
 11
-157.60976
 21
-446.17776
  0
LINE
  8
0
  6
CONTINUOUS
 62
     7
 10
-68.135071
 20
-405.67776
 11
-68.135071
 21
-446.17776
  0
LINE
  8
0
  6
CONTINUOUS
 62
     7
 10
19.641638
 20
-405.67776
 11
19.641638
 21
-446.17776
  0
LINE
  8
0
  6
CONTINUOUS
 62
     7
 10
-253.70857
 20
-557.46759
 11
-253.70857
 21
-597.96759
  0
LINE
  8
0
  6
CONTINUOUS
 62
     7
 10
-205.69702
 20
-405.67776
 11
-205.69702
 21
-417.67776
  0
LINE
  8
0
  6
CONTINUOUS
 62
     7
 10
-210.69702
 20
-405.67776
 11
-210.69702
 21
-422.67776
  0
LINE
  8
0
  6
CONTINUOUS
 62
     7
 10
-218.69702
 20
-411.47675
 11
-210.69702
 21
-411.47675
  0
LINE
  8
0
  6
CONTINUOUS
 62
     7
 10
-218.69702
 20
-411.47675
 11
-218.69702
 21
-413.59805
  0
LINE
  8
0
  6
CONTINUOUS
 62
     7
 10
-218.69702
 20
-421.79907
 11
-218.69702
 21
-422.67776
  0
LINE
  8
0
  6
CONTINUOUS
 62
     7
 10
-218.69702
 20
-421.79907
 11
-210.69702
 21
-421.79907
  0
LINE
  8
0
  6
CONTINUOUS
 62
     7
 10
-218.69702
 20
-422.67776
 11
-210.69702
 21
-422.67776
  0
LINE
  8
0
  6
CONTINUOUS
 62
     7
 10
-218.69702
 20
-422.67776
 11
-219.19702
 21
-422.17776
  0
LINE
  8
0
  6
CONTINUOUS
 62
     7
 10
-218.69702
 20
-413.59805
 11
-210.69702
 21
-413.59805
  0
LINE
  8
0
  6
CONTINUOUS
 62
     7
 10
-219.19702
 20
-405.67776
 11
-219.19702
 21
-422.17776
  0
LINE
  8
0
  6
CONTINUOUS
 62
     7
 10
-132.60976
 20
-405.67776
 11
-132.60976
 21
-426.67776
  0
LINE
  8
0
  6
CONTINUOUS
 62
     7
 10
-43.535072
 20
-405.67776
 11
-43.535072
 21
-429.67776
  0
LINE
  8
0
  6
CONTINUOUS
 62
     7
 10
44.241638
 20
-405.67776
 11
44.241638
 21
-434.67776
  0
LINE
  8
0
  6
CONTINUOUS
 62
     7
 10
-230.20857
 20
-557.46759
 11
-230.20857
 21
-590.96759
  0
LINE
  8
0
  6
CONTINUOUS
 62
     7
 10
-253.70857
 20
-597.95483
 11
-250.20857
 21
-597.95483
  0
LINE
  8
0
  6
CONTINUOUS
 62
     7
 10
-234.20857
 20
-590.46265
 11
-230.20857
 21
-590.46265
  0
LINE
  8
0
  6
CONTINUOUS
 62
     7
 10
-244.19702
 20
-445.82297
 11
-240.69702
 21
-445.82297
  0
LINE
  8
0
  6
CONTINUOUS
 62
     7
 10
-222.59702
 20
-422.00482
 11
-219.19702
 21
-422.00482
  0
LINE
  8
0
  6
CONTINUOUS
 62
     7
 10
-157.60976
 20
-445.97092
 11
-154.10976
 21
-445.97092
  0
LINE
  8
0
  6
CONTINUOUS
 62
     7
 10
-136.10976
 20
-426.29504
 11
-132.60976
 21
-426.29504
  0
LINE
  8
0
  6
CONTINUOUS
 62
     7
 10
-68.135071
 20
-445.97092
 11
-64.635071
 21
-445.97092
  0
LINE
  8
0
  6
CONTINUOUS
 62
     7
 10
-47.135071
 20
-429.25385
 11
-43.535072
 21
-429.25385
  0
LINE
  8
0
  6
CONTINUOUS
 62
     7
 10
19.641638
 20
-446.11887
 11
23.14164
 21
-446.11887
  0
LINE
  8
0
  6
CONTINUOUS
 62
     7
 10
40.64164
 20
-434.28375
 11
44.241638
 21
-434.28375
  0
LINE
  8
0
  6
CONTINUOUS
 62
     7
 10
-229.70856
 20
-523.46759
 11
-230.20856
 21
-523.96759
  0
LINE
  8
0
  6
CONTINUOUS
 62
     7
 10
-229.70857
 20
-526.20624
 11
-229.70857
 21
-523.46759
  0
LINE
  8
0
  6
CONTINUOUS
 62
     7
 10
-229.70857
 20
-523.46759
 11
-218.20857
 21
-523.46759
  0
LINE
  8
0
  6
CONTINUOUS
 62
     7
 10
-229.70857
 20
-526.20624
 11
-218.20857
 21
-526.20624
  0
LINE
  8
0
  6
CONTINUOUS
 62
     7
 10
-210.20857
 20
-557.46759
 11
-210.20857
 21
-531.46759
  0
LINE
  8
0
  6
CONTINUOUS
 62
     7
 10
-229.70857
 20
-547.25732
 11
-229.70857
 21
-540.64575
  0
LINE
  8
0
  6
CONTINUOUS
 62
     7
 10
-229.70857
 20
-540.64575
 11
-218.20857
 21
-540.64575
  0
LINE
  8
0
  6
CONTINUOUS
 62
     7
 10
-218.20857
 20
-557.46759
 11
-218.20857
 21
-523.46759
  0
LINE
  8
0
  6
CONTINUOUS
 62
     7
 10
-229.70857
 20
-547.25732
 11
-218.20857
 21
-547.25732
  0
LINE
  8
0
  6
CONTINUOUS
 62
     7
 10
-235.36328
 20
-514.46759
 11
-234.20859
 21
-516.46759
  0
LINE
  8
0
  6
CONTINUOUS
 62
     7
 10
-235.36328
 20
-529.80273
 11
-235.36328
 21
-524.54871
  0
LINE
  8
0
  6
CONTINUOUS
 62
     7
 10
-242.20857
 20
-524.54871
 11
-249.05388
 21
-524.54871
  0
LINE
  8
0
  6
CONTINUOUS
 62
     7
 10
-234.20857
 20
-516.46759
 11
-234.20857
 21
-557.46759
  0
LINE
  8
0
  6
CONTINUOUS
 62
     7
 10
-249.05388
 20
-557.46759
 11
-249.05388
 21
-553.75244
  0
LINE
  8
0
  6
CONTINUOUS
 62
     7
 10
-249.05388
 20
-514.46765
 11
-250.20857
 21
-516.46759
  0
LINE
  8
0
  6
CONTINUOUS
 62
     7
 10
-242.20857
 20
-514.46759
 11
-249.05388
 21
-514.46759
  0
LINE
  8
0
  6
CONTINUOUS
 62
     7
 10
-250.20857
 20
-516.46759
 11
-250.20857
 21
-557.46759
  0
LINE
  8
0
  6
CONTINUOUS
 62
     7
 10
-242.20857
 20
-529.80273
 11
-235.36328
 21
-529.80273
  0
LINE
  8
0
  6
CONTINUOUS
 62
     7
 10
-242.20857
 20
-553.75244
 11
-235.36328
 21
-553.75244
  0
LINE
  8
0
  6
CONTINUOUS
 62
     7
 10
-249.05388
 20
-529.80273
 11
-249.05388
 21
-524.54871
  0
LINE
  8
0
  6
CONTINUOUS
 62
     7
 10
-242.20857
 20
-514.46759
 11
-235.36328
 21
-514.46759
  0
LINE
  8
0
  6
CONTINUOUS
 62
     7
 10
-242.20857
 20
-553.75244
 11
-249.05388
 21
-553.75244
  0
LINE
  8
0
  6
CONTINUOUS
 62
     7
 10
-242.20857
 20
-529.80273
 11
-249.05388
 21
-529.80273
  0
LINE
  8
0
  6
CONTINUOUS
 62
     7
 10
-242.20857
 20
-524.54871
 11
-235.36328
 21
-524.54871
  0
LINE
  8
0
  6
CONTINUOUS
 62
     7
 10
-235.36328
 20
-557.46759
 11
-235.36328
 21
-553.75244
  0
LINE
  8
0
  6
CONTINUOUS
 62
     7
 10
-269.20856
 20
-557.46759
 11
-269.20856
 21
-516.46759
  0
LINE
  8
0
  6
CONTINUOUS
 62
     7
 10
-254.20857
 20
-544.5061
 11
-269.20856
 21
-544.5061
  0
LINE
  8
0
  6
CONTINUOUS
 62
     7
 10
-254.20857
 20
-519.3111
 11
-269.20856
 21
-519.3111
  0
LINE
  8
0
  6
CONTINUOUS
 62
     7
 10
-277.20856
 20
-557.46759
 11
-277.20856
 21
-524.46759
  0
LINE
  8
0
  6
CONTINUOUS
 62
     7
 10
-254.20857
 20
-537.64136
 11
-269.20856
 21
-537.64136
  0
LINE
  8
0
  6
CONTINUOUS
 62
     7
 10
-254.20857
 20
-544.5061
 11
-254.20857
 21
-537.64136
  0
LINE
  8
0
  6
CONTINUOUS
 62
     7
 10
-254.20857
 20
-519.3111
 11
-254.20857
 21
-516.46759
  0
LINE
  8
0
  6
CONTINUOUS
 62
     7
 10
-254.20859
 20
-516.46765
 11
-253.70859
 21
-516.96765
  0
LINE
  8
0
  6
CONTINUOUS
 62
     7
 10
-254.20857
 20
-516.46759
 11
-269.20856
 21
-516.46759
  0
LINE
  8
0
  6
CONTINUOUS
 62
     7
 10
-253.70857
 20
-557.46759
 11
-253.70857
 21
-516.96759
  0
LINE
  8
0
  6
CONTINUOUS
 62
     7
 10
-230.20857
 20
-557.46759
 11
-230.20857
 21
-523.96759
  0
LINE
  8
0
  6
CONTINUOUS
 62
     7
 10
-253.70857
 20
-516.98041
 11
-250.20857
 21
-516.98041
  0
LINE
  8
0
  6
CONTINUOUS
 62
     7
 10
-234.20857
 20
-524.4726
 11
-230.20857
 21
-524.4726
  0
LINE
  8
0
  6
CONTINUOUS
 62
     7
 10
-239.54231
 20
-405.67776
 11
-239.54231
 21
-401.96259
  0
LINE
  8
0
  6
CONTINUOUS
 62
     7
 10
-223.77042
 20
-401.96259
 11
-239.54231
 21
-401.96259
  0
LINE
  8
0
  6
CONTINUOUS
 62
     7
 10
-239.54233
 20
-362.67776
 11
-240.69702
 21
-364.67773
  0
LINE
  8
0
  6
CONTINUOUS
 62
     7
 10
-223.75171
 20
-378.01288
 11
-239.54231
 21
-378.01288
  0
LINE
  8
0
  6
CONTINUOUS
 62
     7
 10
-223.75171
 20
-405.67776
 11
-223.75171
 21
-401.96259
  0
LINE
  8
0
  6
CONTINUOUS
 62
     7
 10
-223.75172
 20
-362.67776
 11
-222.59702
 21
-364.67776
  0
LINE
  8
0
  6
CONTINUOUS
 62
     7
 10
-222.59702
 20
-364.67776
 11
-222.59702
 21
-405.67776
  0
LINE
  8
0
  6
CONTINUOUS
 62
     7
 10
-223.75171
 20
-372.75885
 11
-239.54231
 21
-372.75885
  0
LINE
  8
0
  6
CONTINUOUS
 62
     7
 10
-223.75171
 20
-378.01288
 11
-223.75171
 21
-372.75885
  0
LINE
  8
0
  6
CONTINUOUS
 62
     7
 10
-240.69702
 20
-364.67776
 11
-240.69702
 21
-405.67776
  0
LINE
  8
0
  6
CONTINUOUS
 62
     7
 10
-223.75171
 20
-362.67776
 11
-239.54231
 21
-362.67776
  0
LINE
  8
0
  6
CONTINUOUS
 62
     7
 10
-239.54231
 20
-378.01288
 11
-239.54231
 21
-372.75885
  0
LINE
  8
0
  6
CONTINUOUS
 62
     7
 10
-244.69702
 20
-364.67776
 11
-259.69702
 21
-364.67776
  0
LINE
  8
0
  6
CONTINUOUS
 62
     7
 10
-244.69702
 20
-364.67776
 11
-244.19702
 21
-365.17776
  0
LINE
  8
0
  6
CONTINUOUS
 62
     7
 10
-244.69702
 20
-367.52124
 11
-244.69702
 21
-364.67776
  0
LINE
  8
0
  6
CONTINUOUS
 62
     7
 10
-267.69702
 20
-405.67776
 11
-267.69702
 21
-372.67776
  0
LINE
  8
0
  6
CONTINUOUS
 62
     7
 10
-244.69702
 20
-367.52124
 11
-259.69702
 21
-367.52124
  0
LINE
  8
0
  6
CONTINUOUS
 62
     7
 10
-244.69702
 20
-392.71628
 11
-259.69702
 21
-392.71628
  0
LINE
  8
0
  6
CONTINUOUS
 62
     7
 10
-259.69702
 20
-405.67776
 11
-259.69702
 21
-364.67776
  0
LINE
  8
0
  6
CONTINUOUS
 62
     7
 10
-244.69702
 20
-385.85153
 11
-259.69702
 21
-385.85153
  0
LINE
  8
0
  6
CONTINUOUS
 62
     7
 10
-244.69702
 20
-392.71628
 11
-244.69702
 21
-385.85153
  0
LINE
  8
0
  6
CONTINUOUS
 62
     7
 10
-244.19702
 20
-405.67776
 11
-244.19702
 21
-365.17776
  0
LINE
  8
0
  6
CONTINUOUS
 62
     7
 10
-205.69702
 20
-405.67776
 11
-205.69702
 21
-393.67776
  0
LINE
  8
0
  6
CONTINUOUS
 62
     7
 10
-210.69702
 20
-405.67776
 11
-210.69702
 21
-388.67776
  0
LINE
  8
0
  6
CONTINUOUS
 62
     7
 10
-218.69702
 20
-399.87875
 11
-210.69702
 21
-399.87875
  0
LINE
  8
0
  6
CONTINUOUS
 62
     7
 10
-218.69702
 20
-399.87875
 11
-218.69702
 21
-397.75745
  0
LINE
  8
0
  6
CONTINUOUS
 62
     7
 10
-218.69702
 20
-389.55643
 11
-218.69702
 21
-388.67776
  0
LINE
  8
0
  6
CONTINUOUS
 62
     7
 10
-218.69702
 20
-389.55643
 11
-210.69702
 21
-389.55643
  0
LINE
  8
0
  6
CONTINUOUS
 62
     7
 10
-218.69702
 20
-388.67776
 11
-210.69702
 21
-388.67776
  0
LINE
  8
0
  6
CONTINUOUS
 62
     7
 10
-218.69702
 20
-388.67776
 11
-219.19702
 21
-389.17776
  0
LINE
  8
0
  6
CONTINUOUS
 62
     7
 10
-218.69702
 20
-397.75745
 11
-210.69702
 21
-397.75745
  0
LINE
  8
0
  6
CONTINUOUS
 62
     7
 10
-219.19702
 20
-405.67776
 11
-219.19702
 21
-389.17776
  0
LINE
  8
0
  6
CONTINUOUS
 62
     7
 10
-244.19702
 20
-365.53253
 11
-240.69702
 21
-365.53253
  0
LINE
  8
0
  6
CONTINUOUS
 62
     7
 10
-222.59702
 20
-389.35068
 11
-219.19702
 21
-389.35068
  0
LINE
  8
0
  6
CONTINUOUS
 62
     7
 10
-132.10976
 20
-385.78455
 11
-123.10975
 21
-385.78455
  0
LINE
  8
0
  6
CONTINUOUS
 62
     7
 10
-132.60976
 20
-384.67776
 11
-132.10974
 21
-384.17773
  0
LINE
  8
0
  6
CONTINUOUS
 62
     7
 10
-132.10976
 20
-385.78455
 11
-132.10976
 21
-384.17776
  0
LINE
  8
0
  6
CONTINUOUS
 62
     7
 10
-132.10976
 20
-399.04449
 11
-132.10976
 21
-395.16537
  0
LINE
  8
0
  6
CONTINUOUS
 62
     7
 10
-132.10976
 20
-384.17776
 11
-123.10975
 21
-384.17776
  0
LINE
  8
0
  6
CONTINUOUS
 62
     7
 10
-118.10975
 20
-405.67776
 11
-118.10975
 21
-389.17776
  0
LINE
  8
0
  6
CONTINUOUS
 62
     7
 10
-123.10975
 20
-405.67776
 11
-123.10975
 21
-384.17776
  0
LINE
  8
0
  6
CONTINUOUS
 62
     7
 10
-132.10976
 20
-395.16537
 11
-123.10975
 21
-395.16537
  0
LINE
  8
0
  6
CONTINUOUS
 62
     7
 10
-132.10976
 20
-399.04449
 11
-123.10975
 21
-399.04449
  0
LINE
  8
0
  6
CONTINUOUS
 62
     7
 10
-137.26445
 20
-405.67776
 11
-137.26445
 21
-401.96259
  0
LINE
  8
0
  6
CONTINUOUS
 62
     7
 10
-145.10976
 20
-362.67776
 11
-137.26445
 21
-362.67776
  0
LINE
  8
0
  6
CONTINUOUS
 62
     7
 10
-145.10976
 20
-378.01288
 11
-137.26445
 21
-378.01288
  0
LINE
  8
0
  6
CONTINUOUS
 62
     7
 10
-145.10976
 20
-401.96259
 11
-137.26445
 21
-401.96259
  0
LINE
  8
0
  6
CONTINUOUS
 62
     7
 10
-145.10976
 20
-372.75885
 11
-152.95505
 21
-372.75885
  0
LINE
  8
0
  6
CONTINUOUS
 62
     7
 10
-145.10976
 20
-372.75885
 11
-137.26445
 21
-372.75885
  0
LINE
  8
0
  6
CONTINUOUS
 62
     7
 10
-152.95505
 20
-405.67776
 11
-152.95505
 21
-401.96259
  0
LINE
  8
0
  6
CONTINUOUS
 62
     7
 10
-152.95505
 20
-362.67776
 11
-154.10976
 21
-364.67776
  0
LINE
  8
0
  6
CONTINUOUS
 62
     7
 10
-145.10976
 20
-362.67776
 11
-152.95505
 21
-362.67776
  0
LINE
  8
0
  6
CONTINUOUS
 62
     7
 10
-154.10976
 20
-364.67776
 11
-154.10976
 21
-405.67776
  0
LINE
  8
0
  6
CONTINUOUS
 62
     7
 10
-136.10976
 20
-364.67776
 11
-136.10976
 21
-405.67776
  0
LINE
  8
0
  6
CONTINUOUS
 62
     7
 10
-137.26445
 20
-362.67776
 11
-136.10976
 21
-364.67776
  0
LINE
  8
0
  6
CONTINUOUS
 62
     7
 10
-152.95505
 20
-378.01288
 11
-152.95505
 21
-372.75885
  0
LINE
  8
0
  6
CONTINUOUS
 62
     7
 10
-137.26445
 20
-378.01288
 11
-137.26445
 21
-372.75885
  0
LINE
  8
0
  6
CONTINUOUS
 62
     7
 10
-145.10976
 20
-401.96259
 11
-152.95505
 21
-401.96259
  0
LINE
  8
0
  6
CONTINUOUS
 62
     7
 10
-145.10976
 20
-378.01288
 11
-152.95505
 21
-378.01288
  0
LINE
  8
0
  6
CONTINUOUS
 62
     7
 10
-181.10976
 20
-405.67776
 11
-181.10976
 21
-372.67776
  0
LINE
  8
0
  6
CONTINUOUS
 62
     7
 10
-158.10976
 20
-367.52124
 11
-173.10976
 21
-367.52124
  0
LINE
  8
0
  6
CONTINUOUS
 62
     7
 10
-158.10976
 20
-392.71628
 11
-173.10976
 21
-392.71628
  0
LINE
  8
0
  6
CONTINUOUS
 62
     7
 10
-173.10976
 20
-405.67776
 11
-173.10976
 21
-364.67776
  0
LINE
  8
0
  6
CONTINUOUS
 62
     7
 10
-158.10976
 20
-385.85153
 11
-173.10976
 21
-385.85153
  0
LINE
  8
0
  6
CONTINUOUS
 62
     7
 10
-158.10976
 20
-392.71628
 11
-158.10976
 21
-385.85153
  0
LINE
  8
0
  6
CONTINUOUS
 62
     7
 10
-158.10976
 20
-367.52124
 11
-158.10976
 21
-364.67776
  0
LINE
  8
0
  6
CONTINUOUS
 62
     7
 10
-158.10977
 20
-364.67776
 11
-157.60977
 21
-365.17776
  0
LINE
  8
0
  6
CONTINUOUS
 62
     7
 10
-158.10976
 20
-364.67776
 11
-173.10976
 21
-364.67776
  0
LINE
  8
0
  6
CONTINUOUS
 62
     7
 10
-157.60976
 20
-405.67776
 11
-157.60976
 21
-365.17776
  0
LINE
  8
0
  6
CONTINUOUS
 62
     7
 10
-132.60976
 20
-405.67776
 11
-132.60976
 21
-384.67776
  0
LINE
  8
0
  6
CONTINUOUS
 62
     7
 10
-157.60976
 20
-365.38458
 11
-154.10976
 21
-365.38458
  0
LINE
  8
0
  6
CONTINUOUS
 62
     7
 10
-136.10976
 20
-385.06046
 11
-132.60976
 21
-385.06046
  0
LINE
  8
0
  6
CONTINUOUS
 62
     7
 10
-43.035072
 20
-382.19937
 11
-43.035072
 21
-381.17776
  0
LINE
  8
0
  6
CONTINUOUS
 62
     7
 10
-43.035072
 20
-382.19937
 11
-32.635071
 21
-382.19937
  0
LINE
  8
0
  6
CONTINUOUS
 62
     7
 10
-43.035072
 20
-396.9743
 11
-32.635071
 21
-396.9743
  0
LINE
  8
0
  6
CONTINUOUS
 62
     7
 10
-43.035072
 20
-396.9743
 11
-43.035072
 21
-394.5079
  0
LINE
  8
0
  6
CONTINUOUS
 62
     7
 10
-27.635071
 20
-405.67776
 11
-27.635071
 21
-386.17776
  0
LINE
  8
0
  6
CONTINUOUS
 62
     7
 10
-43.535076
 20
-381.67776
 11
-43.035065
 21
-381.17773
  0
LINE
  8
0
  6
CONTINUOUS
 62
     7
 10
-43.035072
 20
-381.17776
 11
-32.635071
 21
-381.17776
  0
LINE
  8
0
  6
CONTINUOUS
 62
     7
 10
-32.635071
 20
-405.67776
 11
-32.635071
 21
-381.17776
  0
LINE
  8
0
  6
CONTINUOUS
 62
     7
 10
-43.035072
 20
-394.5079
 11
-32.635071
 21
-394.5079
  0
LINE
  8
0
  6
CONTINUOUS
 62
     7
 10
-55.885071
 20
-378.01288
 11
-48.289772
 21
-378.01288
  0
LINE
  8
0
  6
CONTINUOUS
 62
     7
 10
-48.289764
 20
-362.67776
 11
-47.135071
 21
-364.67773
  0
LINE
  8
0
  6
CONTINUOUS
 62
     7
 10
-55.885071
 20
-401.96259
 11
-48.289772
 21
-401.96259
  0
LINE
  8
0
  6
CONTINUOUS
 62
     7
 10
-55.885071
 20
-362.67776
 11
-48.289772
 21
-362.67776
  0
LINE
  8
0
  6
CONTINUOUS
 62
     7
 10
-55.885071
 20
-372.75885
 11
-63.48037
 21
-372.75885
  0
LINE
  8
0
  6
CONTINUOUS
 62
     7
 10
-55.885071
 20
-372.75885
 11
-48.289772
 21
-372.75885
  0
LINE
  8
0
  6
CONTINUOUS
 62
     7
 10
-63.48037
 20
-405.67776
 11
-63.48037
 21
-401.96259
  0
LINE
  8
0
  6
CONTINUOUS
 62
     7
 10
-63.480373
 20
-362.67776
 11
-64.635071
 21
-364.67773
  0
LINE
  8
0
  6
CONTINUOUS
 62
     7
 10
-48.289772
 20
-405.67776
 11
-48.289772
 21
-401.96259
  0
LINE
  8
0
  6
CONTINUOUS
 62
     7
 10
-55.885071
 20
-362.67776
 11
-63.48037
 21
-362.67776
  0
LINE
  8
0
  6
CONTINUOUS
 62
     7
 10
-64.635071
 20
-364.67776
 11
-64.635071
 21
-405.67776
  0
LINE
  8
0
  6
CONTINUOUS
 62
     7
 10
-48.289772
 20
-378.01288
 11
-48.289772
 21
-372.75885
  0
LINE
  8
0
  6
CONTINUOUS
 62
     7
 10
-63.48037
 20
-378.01288
 11
-63.48037
 21
-372.75885
  0
LINE
  8
0
  6
CONTINUOUS
 62
     7
 10
-47.135071
 20
-364.67776
 11
-47.135071
 21
-405.67776
  0
LINE
  8
0
  6
CONTINUOUS
 62
     7
 10
-55.885071
 20
-401.96259
 11
-63.48037
 21
-401.96259
  0
LINE
  8
0
  6
CONTINUOUS
 62
     7
 10
-55.885071
 20
-378.01288
 11
-63.48037
 21
-378.01288
  0
LINE
  8
0
  6
CONTINUOUS
 62
     7
 10
-83.635071
 20
-405.67776
 11
-83.635071
 21
-364.67776
  0
LINE
  8
0
  6
CONTINUOUS
 62
     7
 10
-68.635071
 20
-392.71628
 11
-83.635071
 21
-392.71628
  0
LINE
  8
0
  6
CONTINUOUS
 62
     7
 10
-68.635071
 20
-367.52124
 11
-83.635071
 21
-367.52124
  0
LINE
  8
0
  6
CONTINUOUS
 62
     7
 10
-91.635071
 20
-405.67776
 11
-91.635071
 21
-372.67776
  0
LINE
  8
0
  6
CONTINUOUS
 62
     7
 10
-68.635071
 20
-385.85153
 11
-83.635071
 21
-385.85153
  0
LINE
  8
0
  6
CONTINUOUS
 62
     7
 10
-68.635071
 20
-392.71628
 11
-68.635071
 21
-385.85153
  0
LINE
  8
0
  6
CONTINUOUS
 62
     7
 10
-68.635071
 20
-367.52124
 11
-68.635071
 21
-364.67776
  0
LINE
  8
0
  6
CONTINUOUS
 62
     7
 10
-68.635078
 20
-364.67776
 11
-68.135078
 21
-365.17776
  0
LINE
  8
0
  6
CONTINUOUS
 62
     7
 10
-68.635071
 20
-364.67776
 11
-83.635071
 21
-364.67776
  0
LINE
  8
0
  6
CONTINUOUS
 62
     7
 10
-68.135071
 20
-405.67776
 11
-68.135071
 21
-365.17776
  0
LINE
  8
0
  6
CONTINUOUS
 62
     7
 10
-43.535072
 20
-405.67776
 11
-43.535072
 21
-381.67776
  0
LINE
  8
0
  6
CONTINUOUS
 62
     7
 10
-68.135071
 20
-365.38458
 11
-64.635071
 21
-365.38458
  0
LINE
  8
0
  6
CONTINUOUS
 62
     7
 10
-47.135071
 20
-382.10168
 11
-43.535072
 21
-382.10168
  0
LINE
  8
0
  6
CONTINUOUS
 62
     7
 10
44.741634
 20
-396.15149
 11
56.14164
 21
-396.15149
  0
LINE
  8
0
  6
CONTINUOUS
 62
     7
 10
56.14164
 20
-405.67776
 11
56.14164
 21
-376.17776
  0
LINE
  8
0
  6
CONTINUOUS
 62
     7
 10
44.241642
 20
-376.67776
 11
44.741642
 21
-376.17776
  0
LINE
  8
0
  6
CONTINUOUS
 62
     7
 10
44.741634
 20
-378.082
 11
56.14164
 21
-378.082
  0
LINE
  8
0
  6
CONTINUOUS
 62
     7
 10
44.741634
 20
-391.5542
 11
56.14164
 21
-391.5542
  0
LINE
  8
0
  6
CONTINUOUS
 62
     7
 10
44.741638
 20
-376.17776
 11
56.14164
 21
-376.17776
  0
LINE
  8
0
  6
CONTINUOUS
 62
     7
 10
62.14164
 20
-405.67776
 11
62.14164
 21
-382.17776
  0
LINE
  8
0
  6
CONTINUOUS
 62
     7
 10
44.741634
 20
-396.15149
 11
44.741634
 21
-391.5542
  0
LINE
  8
0
  6
CONTINUOUS
 62
     7
 10
44.741634
 20
-378.082
 11
44.741634
 21
-376.17776
  0
LINE
  8
0
  6
CONTINUOUS
 62
     7
 10
31.89164
 20
-378.01288
 11
39.486938
 21
-378.01288
  0
LINE
  8
0
  6
CONTINUOUS
 62
     7
 10
39.486938
 20
-362.67773
 11
40.641647
 21
-364.67776
  0
LINE
  8
0
  6
CONTINUOUS
 62
     7
 10
31.89164
 20
-401.96259
 11
39.486938
 21
-401.96259
  0
LINE
  8
0
  6
CONTINUOUS
 62
     7
 10
31.89164
 20
-362.67776
 11
39.486938
 21
-362.67776
  0
LINE
  8
0
  6
CONTINUOUS
 62
     7
 10
31.89164
 20
-372.75885
 11
24.296337
 21
-372.75885
  0
LINE
  8
0
  6
CONTINUOUS
 62
     7
 10
31.89164
 20
-372.75885
 11
39.486938
 21
-372.75885
  0
LINE
  8
0
  6
CONTINUOUS
 62
     7
 10
24.296337
 20
-405.67776
 11
24.296337
 21
-401.96259
  0
LINE
  8
0
  6
CONTINUOUS
 62
     7
 10
24.296343
 20
-362.67776
 11
23.141634
 21
-364.67776
  0
LINE
  8
0
  6
CONTINUOUS
 62
     7
 10
39.486938
 20
-405.67776
 11
39.486938
 21
-401.96259
  0
LINE
  8
0
  6
CONTINUOUS
 62
     7
 10
31.89164
 20
-362.67776
 11
24.296337
 21
-362.67776
  0
LINE
  8
0
  6
CONTINUOUS
 62
     7
 10
23.14164
 20
-364.67776
 11
23.14164
 21
-405.67776
  0
LINE
  8
0
  6
CONTINUOUS
 62
     7
 10
39.486938
 20
-378.01288
 11
39.486938
 21
-372.75885
  0
LINE
  8
0
  6
CONTINUOUS
 62
     7
 10
24.296337
 20
-378.01288
 11
24.296337
 21
-372.75885
  0
LINE
  8
0
  6
CONTINUOUS
 62
     7
 10
40.64164
 20
-364.67776
 11
40.64164
 21
-405.67776
  0
LINE
  8
0
  6
CONTINUOUS
 62
     7
 10
31.89164
 20
-401.96259
 11
24.296337
 21
-401.96259
  0
LINE
  8
0
  6
CONTINUOUS
 62
     7
 10
31.89164
 20
-378.01288
 11
24.296337
 21
-378.01288
  0
LINE
  8
0
  6
CONTINUOUS
 62
     7
 10
4.1416373
 20
-405.67776
 11
4.1416373
 21
-364.67776
  0
LINE
  8
0
  6
CONTINUOUS
 62
     7
 10
19.141638
 20
-392.71628
 11
4.1416373
 21
-392.71628
  0
LINE
  8
0
  6
CONTINUOUS
 62
     7
 10
19.141638
 20
-367.52124
 11
4.1416373
 21
-367.52124
  0
LINE
  8
0
  6
CONTINUOUS
 62
     7
 10
-3.8583627
 20
-405.67776
 11
-3.8583627
 21
-372.67776
  0
LINE
  8
0
  6
CONTINUOUS
 62
     7
 10
19.141638
 20
-385.85153
 11
4.1416373
 21
-385.85153
  0
LINE
  8
0
  6
CONTINUOUS
 62
     7
 10
19.141638
 20
-392.71628
 11
19.141638
 21
-385.85153
  0
LINE
  8
0
  6
CONTINUOUS
 62
     7
 10
19.141638
 20
-367.52124
 11
19.141638
 21
-364.67776
  0
LINE
  8
0
  6
CONTINUOUS
 62
     7
 10
19.14164
 20
-364.67776
 11
19.64163
 21
-365.17773
  0
LINE
  8
0
  6
CONTINUOUS
 62
     7
 10
19.141638
 20
-364.67776
 11
4.1416373
 21
-364.67776
  0
LINE
  8
0
  6
CONTINUOUS
 62
     7
 10
19.641638
 20
-405.67776
 11
19.641638
 21
-365.17776
  0
LINE
  8
0
  6
CONTINUOUS
 62
     7
 10
44.241638
 20
-405.67776
 11
44.241638
 21
-376.67776
  0
LINE
  8
0
  6
CONTINUOUS
 62
     7
 10
19.641638
 20
-365.23666
 11
23.14164
 21
-365.23666
  0
LINE
  8
0
  6
CONTINUOUS
 62
     7
 10
40.64164
 20
-377.07175
 11
44.241638
 21
-377.07175
  0
CIRCLE
  8
0
  6
CONTINUOUS
 62
     7
 10
-401.50162
 20
101.27591
 40
14.5
  0
CIRCLE
  8
0
  6
CONTINUOUS
 62
     7
 10
-401.50162
 20
101.27591
 40
8.0500002
  0
CIRCLE
  8
0
  6
CONTINUOUS
 62
     7
 10
-401.50162
 20
56.199329
 40
17
  0
CIRCLE
  8
0
  6
CONTINUOUS
 62
     7
 10
-401.50162
 20
56.199329
 40
11.25
  0
CIRCLE
  8
0
  6
CONTINUOUS
 62
     7
 10
-401.50162
 20
5.3851457
 40
21.5
  0
CIRCLE
  8
0
  6
CONTINUOUS
 62
     7
 10
-401.50162
 20
5.3851457
 40
14.4
  0
CIRCLE
  8
0
  6
CONTINUOUS
 62
     7
 10
-401.50162
 20
-50.685677
 40
24.5
  0
CIRCLE
  8
0
  6
CONTINUOUS
 62
     7
 10
-401.50162
 20
-50.685677
 40
17.25
  0
CIRCLE
  8
0
  6
CONTINUOUS
 62
     7
 10
-401.50162
 20
-137.66437
 40
29.5
  0
CIRCLE
  8
0
  6
CONTINUOUS
 62
     7
 10
-401.50162
 20
-137.66437
 40
21.65
  0
CIRCLE
  8
0
  6
CONTINUOUS
 62
     7
 10
-401.50162
 20
-241.56189
 40
34
  0
CIRCLE
  8
0
  6
CONTINUOUS
 62
     7
 10
-401.50162
 20
-241.56189
 40
24.65
  0
CIRCLE
  8
0
  6
CONTINUOUS
 62
     7
 10
-401.50162
 20
-347.29117
 40
41
  0
CIRCLE
  8
0
  6
CONTINUOUS
 62
     7
 10
-401.50162
 20
-347.29117
 40
30.65
  0
ARC
  8
0
  6
CONTINUOUS
 62
     7
 10
-225.79114
 20
46.016815
 40
26.899843
 50
168.1078
 51
191.8922
  0
ARC
  8
0
  6
CONTINUOUS
 62
     7
 10
-246.4173
 20
36.527885
 40
4.9263086
 50
331.98232
 51
28.017682
  0
ARC
  8
0
  6
CONTINUOUS
 62
     7
 10
-268.39081
 20
46.016815
 40
26.899843
 50
348.1078
 51
11.892202
  0
ARC
  8
0
  6
CONTINUOUS
 62
     7
 10
-247.76468
 20
36.527885
 40
4.9263086
 50
151.98232
 51
208.01769
  0
ARC
  8
0
  6
CONTINUOUS
 62
     7
 10
-170.99554
 20
32.334656
 40
6.2373786
 50
155.15344
 51
204.84655
  0
ARC
  8
0
  6
CONTINUOUS
 62
     7
 10
-143.68057
 20
44.294739
 40
33.552326
 50
169.35556
 51
190.64443
  0
ARC
  8
0
  6
CONTINUOUS
 62
     7
 10
-172.3703
 20
32.334656
 40
6.2373786
 50
335.15344
 51
24.84656
  0
ARC
  8
0
  6
CONTINUOUS
 62
     7
 10
-199.68524
 20
44.294739
 40
33.552326
 50
349.35557
 51
10.64443
  0
ARC
  8
0
  6
CONTINUOUS
 62
     7
 10
-94.836205
 20
32.334656
 40
6.2374678
 50
155.15381
 51
204.84618
  0
ARC
  8
0
  6
CONTINUOUS
 62
     7
 10
-124.52648
 20
44.294746
 40
33.552814
 50
349.35573
 51
10.64427
  0
ARC
  8
0
  6
CONTINUOUS
 62
     7
 10
-67.520836
 20
44.294746
 40
33.552814
 50
169.35573
 51
190.64427
  0
ARC
  8
0
  6
CONTINUOUS
 62
     7
 10
-97.211113
 20
32.334656
 40
6.2374678
 50
335.15381
 51
24.846186
  0
ARC
  8
0
  6
CONTINUOUS
 62
     7
 10
-21.346916
 20
29.064102
 40
7.3179798
 50
157.07688
 51
202.92312
  0
ARC
  8
0
  6
CONTINUOUS
 62
     7
 10
-23.381737
 20
29.064102
 40
7.3179798
 50
337.07688
 51
22.923115
  0
ARC
  8
0
  6
CONTINUOUS
 62
     7
 10
10.062691
 20
42.955345
 40
38.72702
 50
170.09415
 51
189.90584
  0
ARC
  8
0
  6
CONTINUOUS
 62
     7
 10
-54.791344
 20
42.955345
 40
38.72702
 50
350.09416
 51
9.9058404
  0
ARC
  8
0
  6
CONTINUOUS
 62
     7
 10
46.534492
 20
29.064102
 40
7.3179798
 50
157.07688
 51
202.92312
  0
ARC
  8
0
  6
CONTINUOUS
 62
     7
 10
44.499641
 20
29.064102
 40
7.3179798
 50
337.07688
 51
22.923115
  0
ARC
  8
0
  6
CONTINUOUS
 62
     7
 10
77.944099
 20
42.955345
 40
38.72702
 50
170.09415
 51
189.90584
  0
ARC
  8
0
  6
CONTINUOUS
 62
     7
 10
13.090034
 20
42.955345
 40
38.72702
 50
350.09416
 51
9.9058404
  0
ARC
  8
0
  6
CONTINUOUS
 62
     7
 10
-282.74539
 20
-64.440598
 40
38.72702
 50
350.09416
 51
9.9058404
  0
ARC
  8
0
  6
CONTINUOUS
 62
     7
 10
-251.3358
 20
-78.331848
 40
7.3179798
 50
337.07688
 51
22.923115
  0
ARC
  8
0
  6
CONTINUOUS
 62
     7
 10
-249.20096
 20
-78.331848
 40
7.3179798
 50
157.07688
 51
202.92312
  0
ARC
  8
0
  6
CONTINUOUS
 62
     7
 10
-217.79135
 20
-64.440598
 40
38.72702
 50
170.09415
 51
189.90584
  0
ARC
  8
0
  6
CONTINUOUS
 62
     7
 10
-146.11581
 20
-66.354012
 40
35.227299
 50
165.28954
 51
194.71046
  0
ARC
  8
0
  6
CONTINUOUS
 62
     7
 10
-173.45215
 20
-82.918671
 40
6.7092843
 50
325.87928
 51
34.120722
  0
ARC
  8
0
  6
CONTINUOUS
 62
     7
 10
-201.97043
 20
-66.354012
 40
35.227299
 50
345.28954
 51
14.710455
  0
ARC
  8
0
  6
CONTINUOUS
 62
     7
 10
-174.63409
 20
-82.918671
 40
6.7092843
 50
145.87928
 51
214.12072
  0
ARC
  8
0
  6
CONTINUOUS
 62
     7
 10
-67.357567
 20
-66.354012
 40
35.227299
 50
165.28954
 51
194.71046
  0
ARC
  8
0
  6
CONTINUOUS
 62
     7
 10
-95.693901
 20
-82.918671
 40
6.7092843
 50
325.87928
 51
34.120722
  0
ARC
  8
0
  6
CONTINUOUS
 62
     7
 10
-124.21215
 20
-66.354012
 40
35.227299
 50
345.28954
 51
14.710455
  0
ARC
  8
0
  6
CONTINUOUS
 62
     7
 10
-95.875816
 20
-82.918671
 40
6.7092843
 50
145.87928
 51
214.12072
  0
ARC
  8
0
  6
CONTINUOUS
 62
     7
 10
1.6372124
 20
-66.354012
 40
35.227299
 50
165.28954
 51
194.71046
  0
ARC
  8
0
  6
CONTINUOUS
 62
     7
 10
-26.799128
 20
-82.918671
 40
6.7092843
 50
325.87928
 51
34.120722
  0
ARC
  8
0
  6
CONTINUOUS
 62
     7
 10
-55.31741
 20
-66.354012
 40
35.227299
 50
345.28954
 51
14.710455
  0
ARC
  8
0
  6
CONTINUOUS
 62
     7
 10
-26.881067
 20
-82.918671
 40
6.7092843
 50
145.87928
 51
214.12072
  0
ARC
  8
0
  6
CONTINUOUS
 62
     7
 10
75.487679
 20
-66.354012
 40
35.227299
 50
165.28954
 51
194.71046
  0
ARC
  8
0
  6
CONTINUOUS
 62
     7
 10
46.551334
 20
-82.918671
 40
6.7092843
 50
325.87928
 51
34.120722
  0
ARC
  8
0
  6
CONTINUOUS
 62
     7
 10
18.033087
 20
-66.354012
 40
35.227299
 50
345.28954
 51
14.710455
  0
ARC
  8
0
  6
CONTINUOUS
 62
     7
 10
46.969425
 20
-82.918671
 40
6.7092843
 50
145.87928
 51
214.12072
  0
ARC
  8
0
  6
CONTINUOUS
 62
     7
 10
-204.80728
 20
-284.66089
 40
39.108093
 50
166.04231
 51
193.95769
  0
ARC
  8
0
  6
CONTINUOUS
 62
     7
 10
-268.92346
 20
-284.66089
 40
39.108093
 50
346.04231
 51
13.957685
  0
ARC
  8
0
  6
CONTINUOUS
 62
     7
 10
-236.42133
 20
-303.15195
 40
7.4946027
 50
147.76379
 51
212.2362
  0
ARC
  8
0
  6
CONTINUOUS
 62
     7
 10
-237.30943
 20
-303.15195
 40
7.4946027
 50
327.7638
 51
32.236201
  0
ARC
  8
0
  6
CONTINUOUS
 62
     7
 10
-115.95254
 20
-284.66089
 40
39.108093
 50
166.04231
 51
193.95769
  0
ARC
  8
0
  6
CONTINUOUS
 62
     7
 10
-148.55469
 20
-303.15195
 40
7.4946027
 50
327.7638
 51
32.236201
  0
ARC
  8
0
  6
CONTINUOUS
 62
     7
 10
-180.16873
 20
-284.66089
 40
39.108093
 50
346.04231
 51
13.957685
  0
ARC
  8
0
  6
CONTINUOUS
 62
     7
 10
-147.56656
 20
-303.15195
 40
7.4946027
 50
147.76379
 51
212.2362
  0
ARC
  8
0
  6
CONTINUOUS
 62
     7
 10
-62.43594
 20
-303.15195
 40
7.4946027
 50
327.7638
 51
32.236201
  0
ARC
  8
0
  6
CONTINUOUS
 62
     7
 10
-94.04998
 20
-284.66089
 40
39.108093
 50
346.04231
 51
13.957685
  0
ARC
  8
0
  6
CONTINUOUS
 62
     7
 10
-29.333797
 20
-284.66089
 40
39.108093
 50
166.04231
 51
193.95769
  0
ARC
  8
0
  6
CONTINUOUS
 62
     7
 10
-60.947842
 20
-303.15195
 40
7.4946027
 50
147.76379
 51
212.2362
  0
ARC
  8
0
  6
CONTINUOUS
 62
     7
 10
60.961491
 20
-284.66089
 40
39.108093
 50
166.04231
 51
193.95769
  0
ARC
  8
0
  6
CONTINUOUS
 62
     7
 10
27.859318
 20
-303.15195
 40
7.4946027
 50
327.7638
 51
32.236201
  0
ARC
  8
0
  6
CONTINUOUS
 62
     7
 10
29.347446
 20
-303.15195
 40
7.4946027
 50
147.76379
 51
212.2362
  0
ARC
  8
0
  6
CONTINUOUS
 62
     7
 10
-3.7547262
 20
-284.66089
 40
39.108093
 50
346.04231
 51
13.957685
  0
ARC
  8
0
  6
CONTINUOUS
 62
     7
 10
-230.59099
 20
42.213776
 40
4
 50
270
 51
0
  0
ARC
  8
0
  6
CONTINUOUS
 62
     7
 10
-226.49762
 20
42.460442
 40
11.59337
 50
163.11152
 51
196.88848
  0
ARC
  8
0
  6
CONTINUOUS
 62
     7
 10
-215.15042
 20
52.713776
 40
22.940548
 50
179.99999
 51
191.9843
  0
ARC
  8
0
  6
CONTINUOUS
 62
     7
 10
-5.16433
 20
42.213776
 40
4
 50
270
 51
0
  0
ARC
  8
0
  6
CONTINUOUS
 62
     7
 10
-1.0709461
 20
42.460442
 40
11.59337
 50
163.11152
 51
196.88848
  0
ARC
  8
0
  6
CONTINUOUS
 62
     7
 10
10.276222
 20
52.713776
 40
22.940548
 50
179.99999
 51
191.9843
  0
ARC
  8
0
  6
CONTINUOUS
 62
     7
 10
-155.84311
 20
-65.182167
 40
4
 50
270
 51
0
  0
ARC
  8
0
  6
CONTINUOUS
 62
     7
 10
-151.74976
 20
-64.935501
 40
11.59337
 50
163.11152
 51
196.88848
  0
ARC
  8
0
  6
CONTINUOUS
 62
     7
 10
-140.40256
 20
-54.682167
 40
22.940548
 50
179.99999
 51
191.9843
  0
ARC
  8
0
  6
CONTINUOUS
 62
     7
 10
-155.23291
 20
42.213776
 40
4
 50
270
 51
0
  0
ARC
  8
0
  6
CONTINUOUS
 62
     7
 10
-151.13956
 20
42.460442
 40
11.59337
 50
163.11152
 51
196.88848
  0
ARC
  8
0
  6
CONTINUOUS
 62
     7
 10
-139.79236
 20
52.713776
 40
22.940548
 50
179.99999
 51
191.9843
  0
ARC
  8
0
  6
CONTINUOUS
 62
     7
 10
-70.509422
 20
40.692963
 40
17.064236
 50
166.09586
 51
193.90414
  0
ARC
  8
0
  6
CONTINUOUS
 62
     7
 10
-53.695183
 20
52.713776
 40
33.878471
 50
180.00001
 51
189.85588
  0
ARC
  8
0
  6
CONTINUOUS
 62
     7
 10
-79.073662
 20
40.713776
 40
5
 50
270
 51
0
  0
ARC
  8
0
  6
CONTINUOUS
 62
     7
 10
72.281319
 20
40.692963
 40
17.064236
 50
166.09586
 51
193.90414
  0
ARC
  8
0
  6
CONTINUOUS
 62
     7
 10
89.095528
 20
52.713776
 40
33.878471
 50
180.00001
 51
189.85588
  0
ARC
  8
0
  6
CONTINUOUS
 62
     7
 10
63.717049
 20
40.713776
 40
5
 50
270
 51
0
  0
ARC
  8
0
  6
CONTINUOUS
 62
     7
 10
-209.35114
 20
-283.67047
 40
17.064236
 50
166.09586
 51
193.90414
  0
ARC
  8
0
  6
CONTINUOUS
 62
     7
 10
-192.5369
 20
-271.64966
 40
33.878471
 50
180.00001
 51
189.85588
  0
ARC
  8
0
  6
CONTINUOUS
 62
     7
 10
-217.91537
 20
-283.64966
 40
5
 50
270
 51
0
  0
ARC
  8
0
  6
CONTINUOUS
 62
     7
 10
-68.520622
 20
-66.70298
 40
17.064236
 50
166.09586
 51
193.90414
  0
ARC
  8
0
  6
CONTINUOUS
 62
     7
 10
-51.706387
 20
-54.682167
 40
33.878471
 50
180.00001
 51
189.85588
  0
ARC
  8
0
  6
CONTINUOUS
 62
     7
 10
-77.084862
 20
-66.682167
 40
5
 50
270
 51
0
  0
ARC
  8
0
  6
CONTINUOUS
 62
     7
 10
-218.26837
 20
-69.884964
 40
22.249998
 50
167.83045
 51
192.16954
  0
ARC
  8
0
  6
CONTINUOUS
 62
     7
 10
-196.26837
 20
-54.682167
 40
44.249989
 50
180.00001
 51
188.62136
  0
ARC
  8
0
  6
CONTINUOUS
 62
     7
 10
-231.01837
 20
-71.182167
 40
5
 50
270
 51
0
  0
ARC
  8
0
  6
CONTINUOUS
 62
     7
 10
5.6598868
 20
-69.884964
 40
22.249998
 50
167.83045
 51
192.16954
  0
ARC
  8
0
  6
CONTINUOUS
 62
     7
 10
27.659887
 20
-54.682167
 40
44.249989
 50
180.00001
 51
188.62136
  0
ARC
  8
0
  6
CONTINUOUS
 62
     7
 10
-7.0900826
 20
-71.182167
 40
5
 50
270
 51
0
  0
ARC
  8
0
  6
CONTINUOUS
 62
     7
 10
-115.31063
 20
-286.85245
 40
22.249998
 50
167.83045
 51
192.16954
  0
ARC
  8
0
  6
CONTINUOUS
 62
     7
 10
-93.310631
 20
-271.64966
 40
44.249989
 50
180.00001
 51
188.62136
  0
ARC
  8
0
  6
CONTINUOUS
 62
     7
 10
-128.06064
 20
-288.14966
 40
5
 50
270
 51
0
  0
ARC
  8
0
  6
CONTINUOUS
 62
     7
 10
94.98542
 20
-72.006287
 40
38.125019
 50
170.71048
 51
189.28953
  0
ARC
  8
0
  6
CONTINUOUS
 62
     7
 10
67.760384
 20
-74.182167
 40
5
 50
270
 51
0
  0
ARC
  8
0
  6
CONTINUOUS
 62
     7
 10
132.86041
 20
-54.682167
 40
76.000023
 50
180.00001
 51
186.57588
  0
ARC
  8
0
  6
CONTINUOUS
 62
     7
 10
-13.216885
 20
-288.97375
 40
38.125019
 50
170.71048
 51
189.28953
  0
ARC
  8
0
  6
CONTINUOUS
 62
     7
 10
-40.441891
 20
-291.14966
 40
5
 50
270
 51
0
  0
ARC
  8
0
  6
CONTINUOUS
 62
     7
 10
24.658115
 20
-271.64966
 40
76.000023
 50
180.00001
 51
186.57588
  0
ARC
  8
0
  6
CONTINUOUS
 62
     7
 10
84.57856
 20
-292.50931
 40
45.625206
 50
171.50982
 51
188.49018
  0
ARC
  8
0
  6
CONTINUOUS
 62
     7
 10
129.9538
 20
-271.64966
 40
91.000397
 50
180.00001
 51
186.00896
  0
ARC
  8
0
  6
CONTINUOUS
 62
     7
 10
50.853397
 20
-295.14966
 40
6
 50
270
 51
0
  0
ARC
  8
0
  6
CONTINUOUS
 62
     7
 10
-273.15521
 20
40.692963
 40
17.064236
 50
346.09586
 51
13.904143
  0
ARC
  8
0
  6
CONTINUOUS
 62
     7
 10
-289.96945
 20
52.713776
 40
33.878471
 50
350.14412
 51
359.99999
  0
ARC
  8
0
  6
CONTINUOUS
 62
     7
 10
-264.59097
 20
40.713776
 40
5
 50
179.99999
 51
270
  0
ARC
  8
0
  6
CONTINUOUS
 62
     7
 10
-202.98291
 20
37.510979
 40
22.249998
 50
347.83046
 51
12.169548
  0
ARC
  8
0
  6
CONTINUOUS
 62
     7
 10
-224.98291
 20
52.713776
 40
44.249989
 50
351.37864
 51
359.99999
  0
ARC
  8
0
  6
CONTINUOUS
 62
     7
 10
-190.23291
 20
36.213776
 40
5
 50
179.99999
 51
270
  0
ARC
  8
0
  6
CONTINUOUS
 62
     7
 10
-126.82366
 20
37.510979
 40
22.249998
 50
347.83046
 51
12.169548
  0
ARC
  8
0
  6
CONTINUOUS
 62
     7
 10
-148.82367
 20
52.713776
 40
44.249989
 50
351.37864
 51
359.99999
  0
ARC
  8
0
  6
CONTINUOUS
 62
     7
 10
-114.07366
 20
36.213776
 40
5
 50
179.99999
 51
270
  0
ARC
  8
0
  6
CONTINUOUS
 62
     7
 10
-70.389336
 20
35.389664
 40
38.125019
 50
350.71047
 51
9.2895166
  0
ARC
  8
0
  6
CONTINUOUS
 62
     7
 10
-43.16433
 20
33.213776
 40
5
 50
179.99999
 51
270
  0
ARC
  8
0
  6
CONTINUOUS
 62
     7
 10
-108.26434
 20
52.713776
 40
76.000023
 50
353.42412
 51
359.99999
  0
ARC
  8
0
  6
CONTINUOUS
 62
     7
 10
-2.5079579
 20
35.389664
 40
38.125019
 50
350.71047
 51
9.2895166
  0
ARC
  8
0
  6
CONTINUOUS
 62
     7
 10
24.717079
 20
33.213776
 40
5
 50
179.99999
 51
270
  0
ARC
  8
0
  6
CONTINUOUS
 62
     7
 10
-40.382957
 20
52.713776
 40
76.000023
 50
353.42412
 51
359.99999
  0
ARC
  8
0
  6
CONTINUOUS
 62
     7
 10
-298.24338
 20
-72.006287
 40
38.125019
 50
350.71047
 51
9.2895166
  0
ARC
  8
0
  6
CONTINUOUS
 62
     7
 10
-271.01837
 20
-74.182167
 40
5
 50
179.99999
 51
270
  0
ARC
  8
0
  6
CONTINUOUS
 62
     7
 10
-336.11838
 20
-54.682167
 40
76.000023
 50
353.42412
 51
359.99999
  0
ARC
  8
0
  6
CONTINUOUS
 62
     7
 10
-230.56833
 20
-75.541817
 40
45.625206
 50
351.50982
 51
8.4901796
  0
ARC
  8
0
  6
CONTINUOUS
 62
     7
 10
-275.94351
 20
-54.682167
 40
91.000397
 50
353.99104
 51
359.99999
  0
ARC
  8
0
  6
CONTINUOUS
 62
     7
 10
-196.84311
 20
-78.182167
 40
6
 50
179.99999
 51
270
  0
ARC
  8
0
  6
CONTINUOUS
 62
     7
 10
-230.56833
 20
-75.541817
 40
45.625206
 50
351.50982
 51
8.4901796
  0
ARC
  8
0
  6
CONTINUOUS
 62
     7
 10
-275.94351
 20
-54.682167
 40
91.000397
 50
353.99104
 51
359.99999
  0
ARC
  8
0
  6
CONTINUOUS
 62
     7
 10
-196.84311
 20
-78.182167
 40
6
 50
179.99999
 51
270
  0
ARC
  8
0
  6
CONTINUOUS
 62
     7
 10
-151.81006
 20
-75.541817
 40
45.625206
 50
351.50982
 51
8.4901796
  0
ARC
  8
0
  6
CONTINUOUS
 62
     7
 10
-197.18527
 20
-54.682167
 40
91.000397
 50
353.99104
 51
359.99999
  0
ARC
  8
0
  6
CONTINUOUS
 62
     7
 10
-118.08486
 20
-78.182167
 40
6
 50
179.99999
 51
270
  0
ARC
  8
0
  6
CONTINUOUS
 62
     7
 10
-151.81006
 20
-75.541817
 40
45.625206
 50
351.50982
 51
8.4901796
  0
ARC
  8
0
  6
CONTINUOUS
 62
     7
 10
-197.18527
 20
-54.682167
 40
91.000397
 50
353.99104
 51
359.99999
  0
ARC
  8
0
  6
CONTINUOUS
 62
     7
 10
-118.08486
 20
-78.182167
 40
6
 50
179.99999
 51
270
  0
ARC
  8
0
  6
CONTINUOUS
 62
     7
 10
-82.8153
 20
-75.541817
 40
45.625206
 50
351.50982
 51
8.4901796
  0
ARC
  8
0
  6
CONTINUOUS
 62
     7
 10
-128.19049
 20
-54.682167
 40
91.000397
 50
353.99104
 51
359.99999
  0
ARC
  8
0
  6
CONTINUOUS
 62
     7
 10
-49.090115
 20
-78.182167
 40
6
 50
179.99999
 51
270
  0
ARC
  8
0
  6
CONTINUOUS
 62
     7
 10
-82.8153
 20
-75.541817
 40
45.625206
 50
351.50982
 51
8.4901796
  0
ARC
  8
0
  6
CONTINUOUS
 62
     7
 10
-128.19049
 20
-54.682167
 40
91.000397
 50
353.99104
 51
359.99999
  0
ARC
  8
0
  6
CONTINUOUS
 62
     7
 10
-49.090115
 20
-78.182167
 40
6
 50
179.99999
 51
270
  0
ARC
  8
0
  6
CONTINUOUS
 62
     7
 10
-8.964838
 20
-75.541817
 40
45.625206
 50
351.50982
 51
8.4901796
  0
ARC
  8
0
  6
CONTINUOUS
 62
     7
 10
-54.340023
 20
-54.682167
 40
91.000397
 50
353.99104
 51
359.99999
  0
ARC
  8
0
  6
CONTINUOUS
 62
     7
 10
24.760382
 20
-78.182167
 40
6
 50
179.99999
 51
270
  0
ARC
  8
0
  6
CONTINUOUS
 62
     7
 10
-259.91537
 20
-297.64966
 40
8
 50
179.99999
 51
270
  0
ARC
  8
0
  6
CONTINUOUS
 62
     7
 10
-300.29037
 20
-295.69128
 40
52.375008
 50
352.07669
 51
7.9233148
  0
ARC
  8
0
  6
CONTINUOUS
 62
     7
 10
-352.41537
 20
-271.64966
 40
104.50002
 50
354.3929
 51
359.99999
  0
ARC
  8
0
  6
CONTINUOUS
 62
     7
 10
-211.43564
 20
-295.69128
 40
52.375008
 50
352.07669
 51
7.9233148
  0
ARC
  8
0
  6
CONTINUOUS
 62
     7
 10
-263.56064
 20
-271.64966
 40
104.50002
 50
354.3929
 51
359.99999
  0
ARC
  8
0
  6
CONTINUOUS
 62
     7
 10
-171.06064
 20
-297.64966
 40
8
 50
179.99999
 51
270
  0
ARC
  8
0
  6
CONTINUOUS
 62
     7
 10
-211.43564
 20
-295.69128
 40
52.375008
 50
352.07669
 51
7.9233148
  0
ARC
  8
0
  6
CONTINUOUS
 62
     7
 10
-171.06064
 20
-297.64966
 40
8
 50
179.99999
 51
270
  0
ARC
  8
0
  6
CONTINUOUS
 62
     7
 10
-263.56064
 20
-271.64966
 40
104.50002
 50
354.3929
 51
359.99999
  0
ARC
  8
0
  6
CONTINUOUS
 62
     7
 10
-124.81689
 20
-295.69128
 40
52.375008
 50
352.07669
 51
7.9233148
  0
ARC
  8
0
  6
CONTINUOUS
 62
     7
 10
-84.441887
 20
-297.64966
 40
8
 50
179.99999
 51
270
  0
ARC
  8
0
  6
CONTINUOUS
 62
     7
 10
-176.94193
 20
-271.64966
 40
104.50002
 50
354.3929
 51
359.99999
  0
ARC
  8
0
  6
CONTINUOUS
 62
     7
 10
-34.521633
 20
-295.69128
 40
52.375008
 50
352.07669
 51
7.9233148
  0
ARC
  8
0
  6
CONTINUOUS
 62
     7
 10
5.8533673
 20
-297.64966
 40
8
 50
179.99999
 51
270
  0
ARC
  8
0
  6
CONTINUOUS
 62
     7
 10
-86.646629
 20
-271.64966
 40
104.50002
 50
354.3929
 51
359.99999
  0
ARC
  8
0
  6
CONTINUOUS
 62
     7
 10
-225.79114
 20
59.410736
 40
26.899843
 50
168.1078
 51
191.8922
  0
ARC
  8
0
  6
CONTINUOUS
 62
     7
 10
-246.4173
 20
68.899673
 40
4.9263086
 50
331.98232
 51
28.017682
  0
ARC
  8
0
  6
CONTINUOUS
 62
     7
 10
-268.39081
 20
59.410736
 40
26.899843
 50
348.1078
 51
11.892202
  0
ARC
  8
0
  6
CONTINUOUS
 62
     7
 10
-247.76468
 20
68.899673
 40
4.9263086
 50
151.98231
 51
208.01767
  0
ARC
  8
0
  6
CONTINUOUS
 62
     7
 10
-230.59099
 20
63.213776
 40
4
 50
0
 51
90.000003
  0
ARC
  8
0
  6
CONTINUOUS
 62
     7
 10
-226.49762
 20
62.96711
 40
11.59337
 50
163.11152
 51
196.88848
  0
ARC
  8
0
  6
CONTINUOUS
 62
     7
 10
-215.15042
 20
52.713776
 40
22.940548
 50
168.0157
 51
180.00001
  0
ARC
  8
0
  6
CONTINUOUS
 62
     7
 10
-273.15521
 20
64.734589
 40
17.064236
 50
346.09586
 51
13.904139
  0
ARC
  8
0
  6
CONTINUOUS
 62
     7
 10
-289.96945
 20
52.713776
 40
33.878471
 50
8.6514222E-006
 51
9.8558759
  0
ARC
  8
0
  6
CONTINUOUS
 62
     7
 10
-264.59097
 20
64.713776
 40
5
 50
89.999996
 51
180.00001
  0
ARC
  8
0
  6
CONTINUOUS
 62
     7
 10
-170.99554
 20
73.092896
 40
6.2373786
 50
155.15344
 51
204.84655
  0
ARC
  8
0
  6
CONTINUOUS
 62
     7
 10
-143.68057
 20
61.132813
 40
33.552326
 50
169.35556
 51
190.64443
  0
ARC
  8
0
  6
CONTINUOUS
 62
     7
 10
-172.3703
 20
73.092896
 40
6.2373786
 50
335.15344
 51
24.84656
  0
ARC
  8
0
  6
CONTINUOUS
 62
     7
 10
-199.68524
 20
61.132813
 40
33.552326
 50
349.35557
 51
10.64443
  0
ARC
  8
0
  6
CONTINUOUS
 62
     7
 10
-155.23291
 20
63.213776
 40
4
 50
0
 51
90.000003
  0
ARC
  8
0
  6
CONTINUOUS
 62
     7
 10
-151.13956
 20
62.96711
 40
11.59337
 50
163.11152
 51
196.88848
  0
ARC
  8
0
  6
CONTINUOUS
 62
     7
 10
-139.79236
 20
52.713776
 40
22.940548
 50
168.0157
 51
180.00001
  0
ARC
  8
0
  6
CONTINUOUS
 62
     7
 10
-202.98291
 20
67.916573
 40
22.249998
 50
347.83045
 51
12.169544
  0
ARC
  8
0
  6
CONTINUOUS
 62
     7
 10
-224.98291
 20
52.713776
 40
44.249989
 50
5.0089561E-006
 51
8.6213568
  0
ARC
  8
0
  6
CONTINUOUS
 62
     7
 10
-190.23291
 20
69.213776
 40
5
 50
89.999996
 51
180.00001
  0
ARC
  8
0
  6
CONTINUOUS
 62
     7
 10
-94.836205
 20
73.092896
 40
6.2374678
 50
155.15381
 51
204.84618
  0
ARC
  8
0
  6
CONTINUOUS
 62
     7
 10
-124.52648
 20
61.132805
 40
33.552814
 50
349.35573
 51
10.64427
  0
ARC
  8
0
  6
CONTINUOUS
 62
     7
 10
-67.520836
 20
61.132805
 40
33.552814
 50
169.35573
 51
190.64427
  0
ARC
  8
0
  6
CONTINUOUS
 62
     7
 10
-97.211113
 20
73.092896
 40
6.2374678
 50
335.15381
 51
24.846186
  0
ARC
  8
0
  6
CONTINUOUS
 62
     7
 10
-70.509422
 20
64.734589
 40
17.064236
 50
166.09586
 51
193.90414
  0
ARC
  8
0
  6
CONTINUOUS
 62
     7
 10
-53.695183
 20
52.713776
 40
33.878471
 50
170.14412
 51
179.99999
  0
ARC
  8
0
  6
CONTINUOUS
 62
     7
 10
-79.073662
 20
64.713776
 40
5
 50
0
 51
90.000003
  0
ARC
  8
0
  6
CONTINUOUS
 62
     7
 10
-126.82366
 20
67.916573
 40
22.249998
 50
347.83045
 51
12.169544
  0
ARC
  8
0
  6
CONTINUOUS
 62
     7
 10
-148.82367
 20
52.713776
 40
44.249989
 50
5.0089561E-006
 51
8.6213568
  0
ARC
  8
0
  6
CONTINUOUS
 62
     7
 10
-114.07366
 20
69.213776
 40
5
 50
89.999996
 51
180.00001
  0
ARC
  8
0
  6
CONTINUOUS
 62
     7
 10
-21.346916
 20
76.363457
 40
7.3179798
 50
157.07688
 51
202.92312
  0
ARC
  8
0
  6
CONTINUOUS
 62
     7
 10
-23.381737
 20
76.363457
 40
7.3179798
 50
337.07688
 51
22.923115
  0
ARC
  8
0
  6
CONTINUOUS
 62
     7
 10
10.062691
 20
62.472206
 40
38.72702
 50
170.09415
 51
189.90584
  0
ARC
  8
0
  6
CONTINUOUS
 62
     7
 10
-54.791344
 20
62.472206
 40
38.72702
 50
350.09416
 51
9.9058404
  0
ARC
  8
0
  6
CONTINUOUS
 62
     7
 10
-5.16433
 20
63.213776
 40
4
 50
0
 51
90.000003
  0
ARC
  8
0
  6
CONTINUOUS
 62
     7
 10
-1.0709461
 20
62.96711
 40
11.59337
 50
163.11152
 51
196.88848
  0
ARC
  8
0
  6
CONTINUOUS
 62
     7
 10
10.276222
 20
52.713776
 40
22.940548
 50
168.0157
 51
180.00001
  0
ARC
  8
0
  6
CONTINUOUS
 62
     7
 10
-70.389336
 20
70.037895
 40
38.125019
 50
350.71048
 51
9.2895268
  0
ARC
  8
0
  6
CONTINUOUS
 62
     7
 10
-43.16433
 20
72.213776
 40
5
 50
89.999996
 51
180.00001
  0
ARC
  8
0
  6
CONTINUOUS
 62
     7
 10
-108.26434
 20
52.713776
 40
76.000023
 50
5.0089561E-006
 51
6.575879
  0
ARC
  8
0
  6
CONTINUOUS
 62
     7
 10
46.534492
 20
76.363457
 40
7.3179798
 50
157.07688
 51
202.92312
  0
ARC
  8
0
  6
CONTINUOUS
 62
     7
 10
44.499641
 20
76.363457
 40
7.3179798
 50
337.07688
 51
22.923115
  0
ARC
  8
0
  6
CONTINUOUS
 62
     7
 10
77.944099
 20
62.472206
 40
38.72702
 50
170.09415
 51
189.90584
  0
ARC
  8
0
  6
CONTINUOUS
 62
     7
 10
13.090034
 20
62.472206
 40
38.72702
 50
350.09416
 51
9.9058404
  0
ARC
  8
0
  6
CONTINUOUS
 62
     7
 10
72.281319
 20
64.734589
 40
17.064236
 50
166.09586
 51
193.90414
  0
ARC
  8
0
  6
CONTINUOUS
 62
     7
 10
89.095528
 20
52.713776
 40
33.878471
 50
170.14412
 51
179.99999
  0
ARC
  8
0
  6
CONTINUOUS
 62
     7
 10
63.717049
 20
64.713776
 40
5
 50
0
 51
90.000003
  0
ARC
  8
0
  6
CONTINUOUS
 62
     7
 10
-2.5079579
 20
70.037895
 40
38.125019
 50
350.71048
 51
9.2895268
  0
ARC
  8
0
  6
CONTINUOUS
 62
     7
 10
24.717079
 20
72.213776
 40
5
 50
89.999996
 51
180.00001
  0
ARC
  8
0
  6
CONTINUOUS
 62
     7
 10
-40.382957
 20
52.713776
 40
76.000023
 50
5.0089561E-006
 51
6.575879
  0
ARC
  8
0
  6
CONTINUOUS
 62
     7
 10
75.487679
 20
-43.010323
 40
35.227299
 50
165.28954
 51
194.71046
  0
ARC
  8
0
  6
CONTINUOUS
 62
     7
 10
46.551334
 20
-26.445662
 40
6.7092843
 50
325.87928
 51
34.120722
  0
ARC
  8
0
  6
CONTINUOUS
 62
     7
 10
18.033087
 20
-43.010323
 40
35.227299
 50
345.28954
 51
14.710455
  0
ARC
  8
0
  6
CONTINUOUS
 62
     7
 10
46.969425
 20
-26.445662
 40
6.7092843
 50
145.87928
 51
214.12072
  0
ARC
  8
0
  6
CONTINUOUS
 62
     7
 10
94.98542
 20
-37.358051
 40
38.125019
 50
170.71047
 51
189.28951
  0
ARC
  8
0
  6
CONTINUOUS
 62
     7
 10
67.760384
 20
-35.182171
 40
5
 50
0
 51
90.000003
  0
ARC
  8
0
  6
CONTINUOUS
 62
     7
 10
132.86041
 20
-54.682167
 40
76.000023
 50
173.42412
 51
179.99999
  0
ARC
  8
0
  6
CONTINUOUS
 62
     7
 10
-8.964838
 20
-33.822517
 40
45.625206
 50
351.50982
 51
8.4901761
  0
ARC
  8
0
  6
CONTINUOUS
 62
     7
 10
-54.340023
 20
-54.682167
 40
91.000397
 50
5.0089561E-006
 51
6.0089597
  0
ARC
  8
0
  6
CONTINUOUS
 62
     7
 10
24.760382
 20
-31.182169
 40
6
 50
89.999996
 51
180.00001
  0
ARC
  8
0
  6
CONTINUOUS
 62
     7
 10
1.6372124
 20
-43.010323
 40
35.227299
 50
165.28954
 51
194.71046
  0
ARC
  8
0
  6
CONTINUOUS
 62
     7
 10
-26.799128
 20
-26.445662
 40
6.7092843
 50
325.87928
 51
34.120722
  0
ARC
  8
0
  6
CONTINUOUS
 62
     7
 10
-55.31741
 20
-43.010323
 40
35.227299
 50
345.28954
 51
14.710455
  0
ARC
  8
0
  6
CONTINUOUS
 62
     7
 10
-26.881067
 20
-26.445662
 40
6.7092843
 50
145.87928
 51
214.12072
  0
ARC
  8
0
  6
CONTINUOUS
 62
     7
 10
5.6598868
 20
-39.479374
 40
22.249998
 50
167.83045
 51
192.16954
  0
ARC
  8
0
  6
CONTINUOUS
 62
     7
 10
27.659887
 20
-54.682167
 40
44.249989
 50
171.37864
 51
179.99999
  0
ARC
  8
0
  6
CONTINUOUS
 62
     7
 10
-7.0900826
 20
-38.182171
 40
5
 50
0
 51
90.000003
  0
ARC
  8
0
  6
CONTINUOUS
 62
     7
 10
-82.8153
 20
-33.822517
 40
45.625206
 50
351.50982
 51
8.4901761
  0
ARC
  8
0
  6
CONTINUOUS
 62
     7
 10
-128.19049
 20
-54.682167
 40
91.000397
 50
5.0089561E-006
 51
6.0089597
  0
ARC
  8
0
  6
CONTINUOUS
 62
     7
 10
-49.090115
 20
-31.182169
 40
6
 50
89.999996
 51
180.00001
  0
ARC
  8
0
  6
CONTINUOUS
 62
     7
 10
-82.8153
 20
-33.822517
 40
45.625206
 50
351.50982
 51
8.4901761
  0
ARC
  8
0
  6
CONTINUOUS
 62
     7
 10
-128.19049
 20
-54.682167
 40
91.000397
 50
5.0089561E-006
 51
6.0089597
  0
ARC
  8
0
  6
CONTINUOUS
 62
     7
 10
-49.090115
 20
-31.182169
 40
6
 50
89.999996
 51
180.00001
  0
ARC
  8
0
  6
CONTINUOUS
 62
     7
 10
-67.357567
 20
-43.010323
 40
35.227299
 50
165.28954
 51
194.71046
  0
ARC
  8
0
  6
CONTINUOUS
 62
     7
 10
-95.693901
 20
-26.445662
 40
6.7092843
 50
325.87928
 51
34.120722
  0
ARC
  8
0
  6
CONTINUOUS
 62
     7
 10
-124.21215
 20
-43.010323
 40
35.227299
 50
345.28954
 51
14.710455
  0
ARC
  8
0
  6
CONTINUOUS
 62
     7
 10
-95.875816
 20
-26.445662
 40
6.7092843
 50
145.87928
 51
214.12072
  0
ARC
  8
0
  6
CONTINUOUS
 62
     7
 10
-68.520622
 20
-42.661354
 40
17.064236
 50
166.09586
 51
193.90414
  0
ARC
  8
0
  6
CONTINUOUS
 62
     7
 10
-51.706387
 20
-54.682167
 40
33.878471
 50
170.14412
 51
179.99999
  0
ARC
  8
0
  6
CONTINUOUS
 62
     7
 10
-77.084862
 20
-42.682167
 40
5
 50
0
 51
90.000003
  0
ARC
  8
0
  6
CONTINUOUS
 62
     7
 10
-151.81006
 20
-33.822517
 40
45.625206
 50
351.50982
 51
8.4901761
  0
ARC
  8
0
  6
CONTINUOUS
 62
     7
 10
-197.18527
 20
-54.682167
 40
91.000397
 50
5.0089561E-006
 51
6.0089597
  0
ARC
  8
0
  6
CONTINUOUS
 62
     7
 10
-118.08486
 20
-31.182169
 40
6
 50
89.999996
 51
180.00001
  0
ARC
  8
0
  6
CONTINUOUS
 62
     7
 10
-151.81006
 20
-33.822517
 40
45.625206
 50
351.50982
 51
8.4901761
  0
ARC
  8
0
  6
CONTINUOUS
 62
     7
 10
-197.18527
 20
-54.682167
 40
91.000397
 50
5.0089561E-006
 51
6.0089597
  0
ARC
  8
0
  6
CONTINUOUS
 62
     7
 10
-118.08486
 20
-31.182169
 40
6
 50
89.999996
 51
180.00001
  0
ARC
  8
0
  6
CONTINUOUS
 62
     7
 10
-196.84311
 20
-31.182169
 40
6
 50
89.999996
 51
180.00001
  0
ARC
  8
0
  6
CONTINUOUS
 62
     7
 10
-146.11581
 20
-43.010323
 40
35.227299
 50
165.28954
 51
194.71046
  0
ARC
  8
0
  6
CONTINUOUS
 62
     7
 10
-173.45215
 20
-26.445662
 40
6.7092843
 50
325.87928
 51
34.120722
  0
ARC
  8
0
  6
CONTINUOUS
 62
     7
 10
-201.97043
 20
-43.010323
 40
35.227299
 50
345.28954
 51
14.710455
  0
ARC
  8
0
  6
CONTINUOUS
 62
     7
 10
-174.63409
 20
-26.445662
 40
6.7092843
 50
145.87928
 51
214.12072
  0
ARC
  8
0
  6
CONTINUOUS
 62
     7
 10
-155.84311
 20
-44.182167
 40
4
 50
0
 51
90.000003
  0
ARC
  8
0
  6
CONTINUOUS
 62
     7
 10
-151.74976
 20
-44.428837
 40
11.59337
 50
163.11152
 51
196.88848
  0
ARC
  8
0
  6
CONTINUOUS
 62
     7
 10
-140.40256
 20
-54.682167
 40
22.940548
 50
168.0157
 51
180.00001
  0
ARC
  8
0
  6
CONTINUOUS
 62
     7
 10
-230.56833
 20
-33.822517
 40
45.625206
 50
351.50982
 51
8.4901761
  0
ARC
  8
0
  6
CONTINUOUS
 62
     7
 10
-275.94351
 20
-54.682167
 40
91.000397
 50
5.0089561E-006
 51
6.0089597
  0
ARC
  8
0
  6
CONTINUOUS
 62
     7
 10
-196.84311
 20
-31.182169
 40
6
 50
89.999996
 51
180.00001
  0
ARC
  8
0
  6
CONTINUOUS
 62
     7
 10
-230.56833
 20
-33.822517
 40
45.625206
 50
351.50982
 51
8.4901761
  0
ARC
  8
0
  6
CONTINUOUS
 62
     7
 10
-275.94351
 20
-54.682167
 40
91.000397
 50
5.0089561E-006
 51
6.0089597
  0
ARC
  8
0
  6
CONTINUOUS
 62
     7
 10
-282.74539
 20
-44.92374
 40
38.72702
 50
350.09416
 51
9.9058404
  0
ARC
  8
0
  6
CONTINUOUS
 62
     7
 10
-251.3358
 20
-31.032488
 40
7.3179798
 50
337.07688
 51
22.923115
  0
ARC
  8
0
  6
CONTINUOUS
 62
     7
 10
-249.20096
 20
-31.032488
 40
7.3179798
 50
157.07688
 51
202.92312
  0
ARC
  8
0
  6
CONTINUOUS
 62
     7
 10
-217.79135
 20
-44.92374
 40
38.72702
 50
170.09415
 51
189.90584
  0
ARC
  8
0
  6
CONTINUOUS
 62
     7
 10
-218.26837
 20
-39.479374
 40
22.249998
 50
167.83045
 51
192.16954
  0
ARC
  8
0
  6
CONTINUOUS
 62
     7
 10
-196.26837
 20
-54.682167
 40
44.249989
 50
171.37864
 51
179.99999
  0
ARC
  8
0
  6
CONTINUOUS
 62
     7
 10
-231.01837
 20
-38.182171
 40
5
 50
0
 51
90.000003
  0
ARC
  8
0
  6
CONTINUOUS
 62
     7
 10
-298.24338
 20
-37.358051
 40
38.125019
 50
350.71048
 51
9.2895268
  0
ARC
  8
0
  6
CONTINUOUS
 62
     7
 10
-271.01837
 20
-35.182171
 40
5
 50
89.999996
 51
180.00001
  0
ARC
  8
0
  6
CONTINUOUS
 62
     7
 10
-336.11838
 20
-54.682167
 40
76.000023
 50
5.0089561E-006
 51
6.575879
  0
ARC
  8
0
  6
CONTINUOUS
 62
     7
 10
-204.80728
 20
-258.6384
 40
39.108093
 50
166.04231
 51
193.95769
  0
ARC
  8
0
  6
CONTINUOUS
 62
     7
 10
-268.92346
 20
-258.6384
 40
39.108093
 50
346.04231
 51
13.957685
  0
ARC
  8
0
  6
CONTINUOUS
 62
     7
 10
-236.42133
 20
-240.14735
 40
7.4946027
 50
147.76379
 51
212.2362
  0
ARC
  8
0
  6
CONTINUOUS
 62
     7
 10
-237.30943
 20
-240.14735
 40
7.4946027
 50
327.7638
 51
32.236201
  0
ARC
  8
0
  6
CONTINUOUS
 62
     7
 10
-209.35114
 20
-259.62885
 40
17.064236
 50
166.09586
 51
193.90414
  0
ARC
  8
0
  6
CONTINUOUS
 62
     7
 10
-192.5369
 20
-271.64966
 40
33.878471
 50
170.14412
 51
179.99999
  0
ARC
  8
0
  6
CONTINUOUS
 62
     7
 10
-217.91537
 20
-259.64966
 40
5
 50
0
 51
90.000003
  0
ARC
  8
0
  6
CONTINUOUS
 62
     7
 10
-259.91537
 20
-245.64964
 40
8
 50
89.999996
 51
180.00001
  0
ARC
  8
0
  6
CONTINUOUS
 62
     7
 10
-300.29037
 20
-247.60802
 40
52.375008
 50
352.07669
 51
7.9233114
  0
ARC
  8
0
  6
CONTINUOUS
 62
     7
 10
-352.41537
 20
-271.64966
 40
104.50002
 50
5.0089561E-006
 51
5.6070987
  0
ARC
  8
0
  6
CONTINUOUS
 62
     7
 10
-115.95254
 20
-258.6384
 40
39.108093
 50
166.04231
 51
193.95769
  0
ARC
  8
0
  6
CONTINUOUS
 62
     7
 10
-148.55469
 20
-240.14735
 40
7.4946027
 50
327.7638
 51
32.236201
  0
ARC
  8
0
  6
CONTINUOUS
 62
     7
 10
-180.16873
 20
-258.6384
 40
39.108093
 50
346.04231
 51
13.957685
  0
ARC
  8
0
  6
CONTINUOUS
 62
     7
 10
-147.56656
 20
-240.14735
 40
7.4946027
 50
147.76379
 51
212.2362
  0
ARC
  8
0
  6
CONTINUOUS
 62
     7
 10
-115.31063
 20
-256.44684
 40
22.249998
 50
167.83045
 51
192.16954
  0
ARC
  8
0
  6
CONTINUOUS
 62
     7
 10
-93.310631
 20
-271.64966
 40
44.249989
 50
171.37864
 51
179.99999
  0
ARC
  8
0
  6
CONTINUOUS
 62
     7
 10
-128.06064
 20
-255.14964
 40
5
 50
0
 51
90.000003
  0
ARC
  8
0
  6
CONTINUOUS
 62
     7
 10
-211.43564
 20
-247.60802
 40
52.375008
 50
352.07669
 51
7.9233114
  0
ARC
  8
0
  6
CONTINUOUS
 62
     7
 10
-263.56064
 20
-271.64966
 40
104.50002
 50
5.0089561E-006
 51
5.6070987
  0
ARC
  8
0
  6
CONTINUOUS
 62
     7
 10
-171.06064
 20
-245.64964
 40
8
 50
89.999996
 51
180.00001
  0
ARC
  8
0
  6
CONTINUOUS
 62
     7
 10
-211.43564
 20
-247.60802
 40
52.375008
 50
352.07669
 51
7.9233114
  0
ARC
  8
0
  6
CONTINUOUS
 62
     7
 10
-171.06064
 20
-245.64964
 40
8
 50
89.999996
 51
180.00001
  0
ARC
  8
0
  6
CONTINUOUS
 62
     7
 10
-263.56064
 20
-271.64966
 40
104.50002
 50
5.0089561E-006
 51
5.6070987
  0
ARC
  8
0
  6
CONTINUOUS
 62
     7
 10
-62.43594
 20
-240.14735
 40
7.4946027
 50
327.7638
 51
32.236201
  0
ARC
  8
0
  6
CONTINUOUS
 62
     7
 10
-94.04998
 20
-258.6384
 40
39.108093
 50
346.04231
 51
13.957685
  0
ARC
  8
0
  6
CONTINUOUS
 62
     7
 10
-29.333797
 20
-258.6384
 40
39.108093
 50
166.04231
 51
193.95769
  0
ARC
  8
0
  6
CONTINUOUS
 62
     7
 10
-60.947842
 20
-240.14735
 40
7.4946027
 50
147.76379
 51
212.2362
  0
ARC
  8
0
  6
CONTINUOUS
 62
     7
 10
-13.216885
 20
-254.32553
 40
38.125019
 50
170.71047
 51
189.28951
  0
ARC
  8
0
  6
CONTINUOUS
 62
     7
 10
-40.441891
 20
-252.14964
 40
5
 50
0
 51
90.000003
  0
ARC
  8
0
  6
CONTINUOUS
 62
     7
 10
24.658115
 20
-271.64966
 40
76.000023
 50
173.42412
 51
179.99999
  0
ARC
  8
0
  6
CONTINUOUS
 62
     7
 10
-124.81689
 20
-247.60802
 40
52.375008
 50
352.07669
 51
7.9233114
  0
ARC
  8
0
  6
CONTINUOUS
 62
     7
 10
-84.441887
 20
-245.64964
 40
8
 50
89.999996
 51
180.00001
  0
ARC
  8
0
  6
CONTINUOUS
 62
     7
 10
-176.94193
 20
-271.64966
 40
104.50002
 50
5.0089561E-006
 51
5.6070987
  0
ARC
  8
0
  6
CONTINUOUS
 62
     7
 10
60.961491
 20
-258.6384
 40
39.108093
 50
166.04231
 51
193.95769
  0
ARC
  8
0
  6
CONTINUOUS
 62
     7
 10
27.859318
 20
-240.14735
 40
7.4946027
 50
327.7638
 51
32.236201
  0
ARC
  8
0
  6
CONTINUOUS
 62
     7
 10
29.347446
 20
-240.14735
 40
7.4946027
 50
147.76379
 51
212.2362
  0
ARC
  8
0
  6
CONTINUOUS
 62
     7
 10
-3.7547262
 20
-258.6384
 40
39.108093
 50
346.04231
 51
13.957685
  0
ARC
  8
0
  6
CONTINUOUS
 62
     7
 10
84.57856
 20
-250.78999
 40
45.625206
 50
171.50982
 51
188.49018
  0
ARC
  8
0
  6
CONTINUOUS
 62
     7
 10
129.9538
 20
-271.64966
 40
91.000397
 50
173.99104
 51
179.99999
  0
ARC
  8
0
  6
CONTINUOUS
 62
     7
 10
50.853397
 20
-248.14964
 40
6
 50
0
 51
90.000003
  0
ARC
  8
0
  6
CONTINUOUS
 62
     7
 10
-34.521633
 20
-247.60802
 40
52.375008
 50
352.07669
 51
7.9233114
  0
ARC
  8
0
  6
CONTINUOUS
 62
     7
 10
5.8533673
 20
-245.64964
 40
8
 50
89.999996
 51
180.00001
  0
ARC
  8
0
  6
CONTINUOUS
 62
     7
 10
-86.646629
 20
-271.64966
 40
104.50002
 50
5.0089561E-006
 51
5.6070987
  0
ARC
  8
0
  6
CONTINUOUS
 62
     7
 10
-110.35976
 20
-420.88055
 40
22.249998
 50
167.83045
 51
192.16954
  0
ARC
  8
0
  6
CONTINUOUS
 62
     7
 10
-88.359764
 20
-405.67776
 40
44.249989
 50
180.00001
 51
188.62136
  0
ARC
  8
0
  6
CONTINUOUS
 62
     7
 10
-123.10975
 20
-422.17776
 40
5
 50
270
 51
0
  0
ARC
  8
0
  6
CONTINUOUS
 62
     7
 10
-5.4100528
 20
-423.00186
 40
38.125019
 50
170.71048
 51
189.28953
  0
ARC
  8
0
  6
CONTINUOUS
 62
     7
 10
-32.635071
 20
-425.17776
 40
5
 50
270
 51
0
  0
ARC
  8
0
  6
CONTINUOUS
 62
     7
 10
32.464947
 20
-405.67776
 40
76.000023
 50
180.00001
 51
186.57588
  0
ARC
  8
0
  6
CONTINUOUS
 62
     7
 10
89.866844
 20
-426.53741
 40
45.625206
 50
171.50982
 51
188.49018
  0
ARC
  8
0
  6
CONTINUOUS
 62
     7
 10
135.24203
 20
-405.67776
 40
91.000397
 50
180.00001
 51
186.00896
  0
ARC
  8
0
  6
CONTINUOUS
 62
     7
 10
56.14164
 20
-429.17776
 40
6
 50
270
 51
0
  0
ARC
  8
0
  6
CONTINUOUS
 62
     7
 10
-218.20857
 20
-583.46759
 40
8
 50
270
 51
0
  0
ARC
  8
0
  6
CONTINUOUS
 62
     7
 10
-177.83357
 20
-581.50928
 40
52.375008
 50
172.07669
 51
187.92331
  0
ARC
  8
0
  6
CONTINUOUS
 62
     7
 10
-125.70855
 20
-557.46759
 40
104.50002
 50
180.00001
 51
185.6071
  0
ARC
  8
0
  6
CONTINUOUS
 62
     7
 10
-198.77982
 20
-421.36777
 40
62.670059
 50
348.98432
 51
11.015681
  0
ARC
  8
0
  6
CONTINUOUS
 62
     7
 10
-91.43969
 20
-421.36777
 40
62.670059
 50
168.98432
 51
191.01568
  0
ARC
  8
0
  6
CONTINUOUS
 62
     7
 10
-142.53362
 20
-443.63721
 40
11.57641
 50
154.1883
 51
205.8117
  0
ARC
  8
0
  6
CONTINUOUS
 62
     7
 10
-147.68588
 20
-443.63721
 40
11.57641
 50
334.1883
 51
25.811698
  0
ARC
  8
0
  6
CONTINUOUS
 62
     7
 10
-1.9650112
 20
-421.36777
 40
62.670059
 50
168.98432
 51
191.01568
  0
ARC
  8
0
  6
CONTINUOUS
 62
     7
 10
-53.058941
 20
-443.63721
 40
11.57641
 50
154.1883
 51
205.8117
  0
ARC
  8
0
  6
CONTINUOUS
 62
     7
 10
-58.711201
 20
-443.63721
 40
11.57641
 50
334.1883
 51
25.811698
  0
ARC
  8
0
  6
CONTINUOUS
 62
     7
 10
-109.80513
 20
-421.36777
 40
62.670059
 50
348.98432
 51
11.015681
  0
ARC
  8
0
  6
CONTINUOUS
 62
     7
 10
85.811699
 20
-421.36777
 40
62.670059
 50
168.98432
 51
191.01568
  0
ARC
  8
0
  6
CONTINUOUS
 62
     7
 10
34.71777
 20
-443.63721
 40
11.57641
 50
154.1883
 51
205.8117
  0
ARC
  8
0
  6
CONTINUOUS
 62
     7
 10
29.065506
 20
-443.63721
 40
11.57641
 50
334.1883
 51
25.811698
  0
ARC
  8
0
  6
CONTINUOUS
 62
     7
 10
-22.028421
 20
-421.36777
 40
62.670059
 50
348.98432
 51
11.015681
  0
ARC
  8
0
  6
CONTINUOUS
 62
     7
 10
-245.78471
 20
-595.42706
 40
11.57641
 50
334.1883
 51
25.811698
  0
ARC
  8
0
  6
CONTINUOUS
 62
     7
 10
-187.53851
 20
-573.15765
 40
62.670059
 50
168.98432
 51
191.01568
  0
ARC
  8
0
  6
CONTINUOUS
 62
     7
 10
-238.63245
 20
-595.42706
 40
11.57641
 50
154.1883
 51
205.8117
  0
ARC
  8
0
  6
CONTINUOUS
 62
     7
 10
-296.87863
 20
-573.15765
 40
62.670059
 50
348.98432
 51
11.015681
  0
ARC
  8
0
  6
CONTINUOUS
 62
     7
 10
-173.10976
 20
-438.67776
 40
8
 50
179.99999
 51
270
  0
ARC
  8
0
  6
CONTINUOUS
 62
     7
 10
-325.85938
 20
-405.67776
 40
168.24962
 50
355.58172
 51
5.0089565E-006
  0
ARC
  8
0
  6
CONTINUOUS
 62
     7
 10
-241.85956
 20
-434.66913
 40
84.249809
 50
353.75469
 51
6.2453013
  0
ARC
  8
0
  6
CONTINUOUS
 62
     7
 10
-83.635071
 20
-438.67776
 40
8
 50
179.99999
 51
270
  0
ARC
  8
0
  6
CONTINUOUS
 62
     7
 10
-236.38469
 20
-405.67776
 40
168.24962
 50
355.58172
 51
5.0089565E-006
  0
ARC
  8
0
  6
CONTINUOUS
 62
     7
 10
-152.38487
 20
-434.66913
 40
84.249809
 50
353.75469
 51
6.2453013
  0
ARC
  8
0
  6
CONTINUOUS
 62
     7
 10
4.1416373
 20
-438.67776
 40
8
 50
179.99999
 51
270
  0
ARC
  8
0
  6
CONTINUOUS
 62
     7
 10
-148.60797
 20
-405.67776
 40
168.24962
 50
355.58172
 51
5.0089565E-006
  0
ARC
  8
0
  6
CONTINUOUS
 62
     7
 10
-64.60817
 20
-434.66913
 40
84.249809
 50
353.75469
 51
6.2453013
  0
ARC
  8
0
  6
CONTINUOUS
 62
     7
 10
-269.20856
 20
-590.46759
 40
8
 50
179.99999
 51
270
  0
ARC
  8
0
  6
CONTINUOUS
 62
     7
 10
-421.95819
 20
-557.46759
 40
168.24962
 50
355.58172
 51
5.0089565E-006
  0
ARC
  8
0
  6
CONTINUOUS
 62
     7
 10
-337.95837
 20
-586.45898
 40
84.249809
 50
353.75469
 51
6.2453013
  0
ARC
  8
0
  6
CONTINUOUS
 62
     7
 10
-178.02696
 20
-421.36777
 40
62.670059
 50
168.98432
 51
191.01568
  0
ARC
  8
0
  6
CONTINUOUS
 62
     7
 10
-285.26709
 20
-421.36777
 40
62.670059
 50
348.98432
 51
11.015681
  0
ARC
  8
0
  6
CONTINUOUS
 62
     7
 10
-234.17314
 20
-443.63721
 40
11.57641
 50
334.1883
 51
25.811698
  0
ARC
  8
0
  6
CONTINUOUS
 62
     7
 10
-229.12088
 20
-443.63721
 40
11.57641
 50
154.1883
 51
205.8117
  0
ARC
  8
0
  6
CONTINUOUS
 62
     7
 10
-259.69702
 20
-438.67776
 40
8
 50
179.99999
 51
270
  0
ARC
  8
0
  6
CONTINUOUS
 62
     7
 10
-412.44662
 20
-405.67776
 40
168.24962
 50
355.58172
 51
5.0089565E-006
  0
ARC
  8
0
  6
CONTINUOUS
 62
     7
 10
-328.44684
 20
-434.66913
 40
84.249809
 50
353.75469
 51
6.2453013
  0
ARC
  8
0
  6
CONTINUOUS
 62
     7
 10
-202.13278
 20
-417.69858
 40
17.064236
 50
166.09586
 51
193.90414
  0
ARC
  8
0
  6
CONTINUOUS
 62
     7
 10
-185.31854
 20
-405.67776
 40
33.878471
 50
180.00001
 51
189.85588
  0
ARC
  8
0
  6
CONTINUOUS
 62
     7
 10
-210.69702
 20
-417.67776
 40
5
 50
270
 51
0
  0
ARC
  8
0
  6
CONTINUOUS
 62
     7
 10
-218.20857
 20
-531.46759
 40
8
 50
0
 51
90.000003
  0
ARC
  8
0
  6
CONTINUOUS
 62
     7
 10
-177.83357
 20
-533.42596
 40
52.375008
 50
172.07669
 51
187.92331
  0
ARC
  8
0
  6
CONTINUOUS
 62
     7
 10
-125.70855
 20
-557.46759
 40
104.50002
 50
174.3929
 51
179.99999
  0
ARC
  8
0
  6
CONTINUOUS
 62
     7
 10
-245.78471
 20
-519.50818
 40
11.57641
 50
334.1883
 51
25.811698
  0
ARC
  8
0
  6
CONTINUOUS
 62
     7
 10
-187.53851
 20
-541.77759
 40
62.670059
 50
168.98432
 51
191.01568
  0
ARC
  8
0
  6
CONTINUOUS
 62
     7
 10
-238.63245
 20
-519.50818
 40
11.57641
 50
154.1883
 51
205.8117
  0
ARC
  8
0
  6
CONTINUOUS
 62
     7
 10
-296.87863
 20
-541.77759
 40
62.670059
 50
348.98432
 51
11.015681
  0
ARC
  8
0
  6
CONTINUOUS
 62
     7
 10
-269.20856
 20
-524.46759
 40
8
 50
89.999996
 51
180.00001
  0
ARC
  8
0
  6
CONTINUOUS
 62
     7
 10
-421.95819
 20
-557.46759
 40
168.24962
 50
359.99999
 51
4.4182803
  0
ARC
  8
0
  6
CONTINUOUS
 62
     7
 10
-337.95837
 20
-528.47626
 40
84.249809
 50
353.7547
 51
6.2453115
  0
ARC
  8
0
  6
CONTINUOUS
 62
     7
 10
-178.02696
 20
-389.98773
 40
62.670059
 50
168.98432
 51
191.01568
  0
ARC
  8
0
  6
CONTINUOUS
 62
     7
 10
-285.26709
 20
-389.98773
 40
62.670059
 50
348.98432
 51
11.015681
  0
ARC
  8
0
  6
CONTINUOUS
 62
     7
 10
-234.17314
 20
-367.71829
 40
11.57641
 50
334.1883
 51
25.811698
  0
ARC
  8
0
  6
CONTINUOUS
 62
     7
 10
-229.12088
 20
-367.71829
 40
11.57641
 50
154.1883
 51
205.8117
  0
ARC
  8
0
  6
CONTINUOUS
 62
     7
 10
-259.69702
 20
-372.67776
 40
8
 50
89.999996
 51
180.00001
  0
ARC
  8
0
  6
CONTINUOUS
 62
     7
 10
-412.44662
 20
-405.67776
 40
168.24962
 50
359.99999
 51
4.4182803
  0
ARC
  8
0
  6
CONTINUOUS
 62
     7
 10
-328.44684
 20
-376.68637
 40
84.249809
 50
353.7547
 51
6.2453115
  0
ARC
  8
0
  6
CONTINUOUS
 62
     7
 10
-202.13278
 20
-393.65695
 40
17.064236
 50
166.09586
 51
193.90414
  0
ARC
  8
0
  6
CONTINUOUS
 62
     7
 10
-185.31854
 20
-405.67776
 40
33.878471
 50
170.14412
 51
179.99999
  0
ARC
  8
0
  6
CONTINUOUS
 62
     7
 10
-210.69702
 20
-393.67776
 40
5
 50
0
 51
90.000003
  0
ARC
  8
0
  6
CONTINUOUS
 62
     7
 10
-241.85956
 20
-376.68637
 40
84.249809
 50
353.7547
 51
6.2453115
  0
ARC
  8
0
  6
CONTINUOUS
 62
     7
 10
-110.35976
 20
-390.47495
 40
22.249998
 50
167.83045
 51
192.16954
  0
ARC
  8
0
  6
CONTINUOUS
 62
     7
 10
-88.359764
 20
-405.67776
 40
44.249989
 50
171.37864
 51
179.99999
  0
ARC
  8
0
  6
CONTINUOUS
 62
     7
 10
-123.10975
 20
-389.17776
 40
5
 50
0
 51
90.000003
  0
ARC
  8
0
  6
CONTINUOUS
 62
     7
 10
-198.77982
 20
-389.98773
 40
62.670059
 50
348.98432
 51
11.015681
  0
ARC
  8
0
  6
CONTINUOUS
 62
     7
 10
-91.43969
 20
-389.98773
 40
62.670059
 50
168.98432
 51
191.01568
  0
ARC
  8
0
  6
CONTINUOUS
 62
     7
 10
-142.53362
 20
-367.71829
 40
11.57641
 50
154.1883
 51
205.8117
  0
ARC
  8
0
  6
CONTINUOUS
 62
     7
 10
-147.68588
 20
-367.71829
 40
11.57641
 50
334.1883
 51
25.811698
  0
ARC
  8
0
  6
CONTINUOUS
 62
     7
 10
-173.10976
 20
-372.67776
 40
8
 50
89.999996
 51
180.00001
  0
ARC
  8
0
  6
CONTINUOUS
 62
     7
 10
-325.85938
 20
-405.67776
 40
168.24962
 50
359.99999
 51
4.4182803
  0
ARC
  8
0
  6
CONTINUOUS
 62
     7
 10
-5.4100528
 20
-388.35364
 40
38.125019
 50
170.71047
 51
189.28951
  0
ARC
  8
0
  6
CONTINUOUS
 62
     7
 10
-32.635071
 20
-386.17776
 40
5
 50
0
 51
90.000003
  0
ARC
  8
0
  6
CONTINUOUS
 62
     7
 10
32.464947
 20
-405.67776
 40
76.000023
 50
173.42412
 51
179.99999
  0
ARC
  8
0
  6
CONTINUOUS
 62
     7
 10
-1.9650112
 20
-389.98773
 40
62.670059
 50
168.98432
 51
191.01568
  0
ARC
  8
0
  6
CONTINUOUS
 62
     7
 10
-53.058941
 20
-367.71829
 40
11.57641
 50
154.1883
 51
205.8117
  0
ARC
  8
0
  6
CONTINUOUS
 62
     7
 10
-58.711201
 20
-367.71829
 40
11.57641
 50
334.1883
 51
25.811698
  0
ARC
  8
0
  6
CONTINUOUS
 62
     7
 10
-109.80513
 20
-389.98773
 40
62.670059
 50
348.98432
 51
11.015681
  0
ARC
  8
0
  6
CONTINUOUS
 62
     7
 10
-83.635071
 20
-372.67776
 40
8
 50
89.999996
 51
180.00001
  0
ARC
  8
0
  6
CONTINUOUS
 62
     7
 10
-236.38469
 20
-405.67776
 40
168.24962
 50
359.99999
 51
4.4182803
  0
ARC
  8
0
  6
CONTINUOUS
 62
     7
 10
-152.38487
 20
-376.68637
 40
84.249809
 50
353.7547
 51
6.2453115
  0
ARC
  8
0
  6
CONTINUOUS
 62
     7
 10
89.866844
 20
-384.81812
 40
45.625206
 50
171.50982
 51
188.49018
  0
ARC
  8
0
  6
CONTINUOUS
 62
     7
 10
135.24203
 20
-405.67776
 40
91.000397
 50
173.99104
 51
179.99999
  0
ARC
  8
0
  6
CONTINUOUS
 62
     7
 10
56.14164
 20
-382.17776
 40
6
 50
0
 51
90.000003
  0
ARC
  8
0
  6
CONTINUOUS
 62
     7
 10
85.811699
 20
-389.98773
 40
62.670059
 50
168.98432
 51
191.01568
  0
ARC
  8
0
  6
CONTINUOUS
 62
     7
 10
34.71777
 20
-367.71829
 40
11.57641
 50
154.1883
 51
205.8117
  0
ARC
  8
0
  6
CONTINUOUS
 62
     7
 10
29.065506
 20
-367.71829
 40
11.57641
 50
334.1883
 51
25.811698
  0
ARC
  8
0
  6
CONTINUOUS
 62
     7
 10
-22.028421
 20
-389.98773
 40
62.670059
 50
348.98432
 51
11.015681
  0
ARC
  8
0
  6
CONTINUOUS
 62
     7
 10
4.1416373
 20
-372.67776
 40
8
 50
89.999996
 51
180.00001
  0
ARC
  8
0
  6
CONTINUOUS
 62
     7
 10
-148.60797
 20
-405.67776
 40
168.24962
 50
359.99999
 51
4.4182803
  0
ARC
  8
0
  6
CONTINUOUS
 62
     7
 10
-64.60817
 20
-376.68637
 40
84.249809
 50
353.7547
 51
6.2453115
  0
TEXT
  8
0
  6
CONTINUOUS
 62
     7
 10
-448.18668
 20
100.9722
 40
3.2
 41
1.0285716
  1
13
  0
TEXT
  8
0
  6
CONTINUOUS
 62
     7
 10
-449.74558
 20
58.88214
 40
3.2
 41
1.0285716
  1
20
  0
TEXT
  8
0
  6
CONTINUOUS
 62
     7
 10
-452.86335
 20
7.4387392
 40
3.2
 41
1.0285716
  1
25
  0
TEXT
  8
0
  6
CONTINUOUS
 62
     7
 10
-450.52503
 20
-56.47579
 40
3.2
 41
1.0285716
  1
30
  0
TEXT
  8
0
  6
CONTINUOUS
 62
     7
 10
-450.18433
 20
-132.60479
 40
3.2
 41
1.0285716
  1
40
  0
TEXT
  8
0
  6
CONTINUOUS
 62
     7
 10
-443.42539
 20
-210.33271
 40
3.2
 41
1.0285716
  1
50
  0
TEXT
  8
0
  6
CONTINUOUS
 62
     7
 10
-450.54114
 20
-310.81277
 40
3.2
 41
1.0285716
  1
60
  0
TEXT
  8
0
  6
CONTINUOUS
 62
     7
 10
-282.77682
 20
118.76988
 40
8
 41
0.84260121
  1
コマサスフィット継手　径違いソケット
  0
TEXT
  8
0
  6
CONTINUOUS
 62
     7
 10
-198.58957
 20
93.925171
 40
8
 41
0.84892707
  1
２５×１３
  0
TEXT
  8
0
  6
CONTINUOUS
 62
     7
 10
-124.06612
 20
92.19207
 40
8
 41
0.84892707
  1
２５×２０
  0
TEXT
  8
0
  6
CONTINUOUS
 62
     7
 10
-51.275778
 20
93.058624
 40
8
 41
0.84892707
  1
３０×１３
  0
TEXT
  8
0
  6
CONTINUOUS
 62
     7
 10
16.315258
 20
93.925171
 40
8
 41
0.84892707
  1
３０×２０
  0
TEXT
  8
0
  6
CONTINUOUS
 62
     7
 10
-276.57921
 20
-8.3279309
 40
8
 41
0.84892707
  1
３０×２５
  0
TEXT
  8
0
  6
CONTINUOUS
 62
     7
 10
-206.38854
 20
-5.7282759
 40
8
 41
0.84892707
  1
４０×１３
  0
TEXT
  8
0
  6
CONTINUOUS
 62
     7
 10
-121.46646
 20
-6.5948277
 40
8
 41
0.84892707
  1
４０×２０
  0
TEXT
  8
0
  6
CONTINUOUS
 62
     7
 10
-53.875433
 20
-4.8617241
 40
8
 41
0.84892707
  1
４０×２５
  0
TEXT
  8
0
  6
CONTINUOUS
 62
     7
 10
16.315258
 20
-2.262069
 40
8
 41
0.84892707
  1
４０×３０
  0
TEXT
  8
0
  6
CONTINUOUS
 62
     7
 10
-267.91371
 20
-215.43379
 40
8
 41
0.84892707
  1
５０×２０
  0
TEXT
  8
0
  6
CONTINUOUS
 62
     7
 10
-182.99164
 20
-216.30034
 40
8
 41
0.84892707
  1
５０×２５
  0
TEXT
  8
0
  6
CONTINUOUS
 62
     7
 10
-92.870256
 20
-214.56725
 40
8
 41
0.84892707
  1
５０×３０
  0
TEXT
  8
0
  6
CONTINUOUS
 62
     7
 10
3.3169827
 20
-215.43379
 40
8
 41
0.84892707
  1
５０×４０
  0
TEXT
  8
0
  6
CONTINUOUS
 62
     7
 10
-273.11302
 20
92.19207
 40
8
 41
0.84892707
  1
２０×１３
  0
TEXT
  8
0
  6
CONTINUOUS
 62
     7
 10
-180.39198
 20
-346.28311
 40
8
 41
0.84892707
  1
６０×２５
  0
TEXT
  8
0
  6
CONTINUOUS
 62
     7
 10
-84.204744
 20
-344.54999
 40
8
 41
0.84892707
  1
６０×３０
  0
TEXT
  8
0
  6
CONTINUOUS
 62
     7
 10
-266.18059
 20
-346.28311
 40
8
 41
0.84892707
  1
６０×２０
  0
TEXT
  8
0
  6
CONTINUOUS
 62
     7
 10
1.5838795
 20
-343.68344
 40
8
 41
0.84892707
  1
６０×４０
  0
TEXT
  8
0
  6
CONTINUOUS
 62
     7
 10
-260.2672
 20
-496.77429
 40
8
 41
0.84892707
  1
６０×５０
  0
POINT
  8
1
  6
CONTINUOUS
 62
     7
 10
-311.3107
 20
-470.71918
  0
POINT
  8
1
  6
CONTINUOUS
 62
     7
 10
-311.3107
 20
-153.71919
  0
POINT
  8
1
  6
CONTINUOUS
 62
     7
 10
-311.3107
 20
-767.71918
  0
POINT
  8
1
  6
CONTINUOUS
 62
     7
 10
108.68929
 20
-153.71919
  0
POINT
  8
1
  6
CONTINUOUS
 62
     7
 10
-311.3107
 20
-777.71918
  0
POINT
  8
1
  6
CONTINUOUS
 62
     7
 10
-311.3107
 20
143.28081
  0
POINT
  8
1
  6
CONTINUOUS
 62
     7
 10
-311.3107
 20
-153.71919
  0
POINT
  8
1
  6
CONTINUOUS
 62
     7
 10
-311.3107
 20
-163.71919
  0
POINT
  8
1
  6
CONTINUOUS
 62
     7
 10
-311.3107
 20
-163.71919
  0
POINT
  8
1
  6
CONTINUOUS
 62
     7
 10
-311.3107
 20
-460.71918
  0
POINT
  8
1
  6
CONTINUOUS
 62
     7
 10
-311.3107
 20
-470.71918
  0
LINE
  8
1
  6
CONTINUOUS
 62
     7
 10
108.68929
 20
143.28081
 11
108.68929
 21
-33.714287
  0
LINE
  8
1
  6
CONTINUOUS
 62
     2
 10
-311.3107
 20
-470.71918
 11
108.68929
 21
-470.71918
  0
LINE
  8
1
  6
CONTINUOUS
 62
     2
 10
-311.3107
 20
-470.71918
 11
-311.3107
 21
-767.71918
  0
LINE
  8
1
  6
CONTINUOUS
 62
     2
 10
-311.3107
 20
-767.71918
 11
108.68929
 21
-767.71918
  0
LINE
  8
1
  6
CONTINUOUS
 62
     2
 10
108.68929
 20
-470.71918
 11
108.68929
 21
-767.71918
  0
LINE
  8
1
  6
CONTINUOUS
 62
     2
 10
-311.3107
 20
143.28081
 11
-311.3107
 21
-153.71919
  0
LINE
  8
1
  6
CONTINUOUS
 62
     2
 10
-311.3107
 20
-153.71919
 11
108.68929
 21
-153.71919
  0
LINE
  8
1
  6
CONTINUOUS
 62
     2
 10
108.68929
 20
143.28081
 11
108.68929
 21
-153.71919
  0
LINE
  8
1
  6
CONTINUOUS
 62
     2
 10
-311.3107
 20
143.28081
 11
108.68929
 21
143.28081
  0
LINE
  8
1
  6
CONTINUOUS
 62
     2
 10
-311.3107
 20
-163.71919
 11
-311.3107
 21
-460.71918
  0
LINE
  8
1
  6
CONTINUOUS
 62
     2
 10
-311.3107
 20
-460.71918
 11
108.68929
 21
-460.71918
  0
LINE
  8
1
  6
CONTINUOUS
 62
     2
 10
108.68929
 20
-163.71919
 11
108.68929
 21
-460.71918
  0
LINE
  8
1
  6
CONTINUOUS
 62
     2
 10
-311.3107
 20
-163.71919
 11
108.68929
 21
-163.71919
  0
ENDSEC
  0
EOF
