  0
SECTION
  2
HEADER
  9
$EXTMAX
 10
208.5
 20
148.5
  9
$EXTMIN
 10
-208.5
 20
-148.5
  0
ENDSEC
  0
SECTION
  2
TABLES
  0
TABLE
  2
LTYPE
 70
    22
  0
LTYPE
  2
CONTINUOUS
 70
    64
  3
Solid line
 72
    65
 73
     0
 40
0.000000
  0
LTYPE
  2
DASHED
 70
    64
  3
__ __ __ __ __ __ __ __ __ __ __ __ __ __ __
 72
    65
 73
     2
 40
3.500000
 49
2.000000
 49
-1.500000
  0
LTYPE
  2
CENTER
 70
    64
  3
____ _ ____ _ ____ _ ____ _ ____ _ ____ _ ____
 72
    65
 73
     4
 40
17.500000
 49
13.000000
 49
-1.500000
 49
1.500000
 49
-1.500000
  0
LTYPE
  2
PHANTOM
 70
    64
  3
_____ _ _ _____ _ _ _____ _ _ _____ _ _ ____  
 72
    65
 73
     6
 40
15.500000
 49
8.000000
 49
-1.500000
 49
1.500000
 49
-1.500000
 49
1.500000
 49
-1.500000
  0
LTYPE
  2
DOT
 70
    64
  3
. . . . . . . . . . . . . . . . . . . . . . . .
 72
    65
 73
     2
 40
0.25
 49
0.0
 49
-0.25
  0
ENDTAB
  0
TABLE
  2
LAYER
 70
     3
  0
LAYER
  2
0
 70
     0
 62
     7
  6
CONTINUOUS
  0
LAYER
  2
1
 70
     0
 62
     7
  6
CONTINUOUS
  0
LAYER
  2
2
 70
     0
 62
     7
  6
CONTINUOUS
  0
ENDTAB
  0
TABLE
  2
STYLE
 70
     1
  0
STYLE
  2
STANDARD
 70
     0
 40
0.000000
 41
1.000000
 50
0.000000
 71
     0
 42
0.200000
  3
txt
  4
BIGFONT
  0
ENDTAB
  0
TABLE
  2
VIEW
 70
     0
  0
ENDTAB
  0
ENDSEC
  0
SECTION
  2
BLOCKS
  0
ENDSEC
  0
SECTION
  2
ENTITIES
  0
POINT
  8
0
  6
CONTINUOUS
 62
     7
 10
96.470497
 20
72.746841
  0
POINT
  8
0
  6
CONTINUOUS
 62
     7
 10
96.470497
 20
72.746841
  0
POINT
  8
0
  6
CONTINUOUS
 62
     7
 10
-78.522224
 20
-59.823399
  0
POINT
  8
0
  6
CONTINUOUS
 62
     7
 10
92.493385
 20
-61.149101
  0
POINT
  8
0
  6
CONTINUOUS
 62
     7
 10
-107.68768
 20
-254.70166
  0
POINT
  8
0
  6
CONTINUOUS
 62
     7
 10
69.956451
 20
-257.35306
  0
POINT
  8
0
  6
CONTINUOUS
 62
     7
 10
96.470497
 20
72.746841
  0
POINT
  8
0
  6
CONTINUOUS
 62
     7
 10
96.470497
 20
72.746841
  0
POINT
  8
0
  6
CONTINUOUS
 62
     7
 10
-139.50453
 20
74.07254
  0
POINT
  8
0
  6
CONTINUOUS
 62
     7
 10
-22.84272
 20
72.746841
  0
POINT
  8
0
  6
CONTINUOUS
 62
     7
 10
-334.99207
 20
115.29343
  0
POINT
  8
0
  6
CONTINUOUS
 62
     7
 10
-334.99207
 20
70.216858
  0
POINT
  8
0
  6
CONTINUOUS
 62
     7
 10
-334.99207
 20
19.402674
  0
POINT
  8
0
  6
CONTINUOUS
 62
     7
 10
-334.99207
 20
-36.668148
  0
POINT
  8
0
  6
CONTINUOUS
 62
     7
 10
-334.99207
 20
-123.64684
  0
POINT
  8
0
  6
CONTINUOUS
 62
     7
 10
-334.99207
 20
-227.54436
  0
POINT
  8
0
  6
CONTINUOUS
 62
     7
 10
-334.99207
 20
-333.27365
  0
LINE
  8
0
  6
CONTINUOUS
 62
     7
 10
-139.50453
 20
52.972542
 11
-125.00453
 21
52.972542
  0
LINE
  8
0
  6
CENTER
 62
     7
 10
-139.50453
 20
79.4589
 11
-139.50453
 21
30.188093
  0
LINE
  8
0
  6
CENTER
 62
     7
 10
-144.46022
 20
74.07254
 11
-94.683044
 21
74.07254
  0
LINE
  8
0
  6
CONTINUOUS
 62
     7
 10
-124.50453
 20
56.072544
 11
-124.50453
 21
53.472542
  0
LINE
  8
0
  6
CONTINUOUS
 62
     7
 10
-125.00454
 20
52.972546
 11
-124.50454
 21
53.472546
  0
LINE
  8
0
  6
CENTER
 62
     7
 10
-22.84272
 20
84.585876
 11
-22.84272
 21
30.891354
  0
LINE
  8
0
  6
CENTER
 62
     7
 10
20.233536
 20
72.746841
 11
-36.48304
 21
72.746841
  0
LINE
  8
0
  6
CONTINUOUS
 62
     7
 10
-5.3427205
 20
52.246841
 11
-5.3427205
 21
51.146847
  0
LINE
  8
0
  6
CONTINUOUS
 62
     7
 10
-5.8427205
 20
50.646847
 11
-22.84272
 21
50.646847
  0
LINE
  8
0
  6
CONTINUOUS
 62
     7
 10
-5.8427248
 20
50.646851
 11
-5.3427253
 21
51.146851
  0
LINE
  8
0
  6
CONTINUOUS
 62
     7
 10
118.4705
 20
45.746838
 11
118.4705
 21
44.246838
  0
LINE
  8
0
  6
CONTINUOUS
 62
     7
 10
96.470497
 20
43.746838
 11
117.9705
 21
43.746838
  0
LINE
  8
0
  6
CENTER
 62
     7
 10
96.470497
 20
87.096642
 11
96.470497
 21
22.933823
  0
LINE
  8
0
  6
CENTER
 62
     7
 10
83.707176
 20
72.746841
 11
148.23384
 21
72.746841
  0
LINE
  8
0
  6
CONTINUOUS
 62
     7
 10
117.9705
 20
43.746841
 11
118.4705
 21
44.246841
  0
LINE
  8
0
  6
CENTER
 62
     7
 10
-89.568451
 20
-59.823399
 11
-17.274311
 21
-59.823399
  0
LINE
  8
0
  6
DASHED
 62
     7
 10
-53.022221
 20
-90.823402
 11
-53.329807
 21
-90.823402
  0
LINE
  8
0
  6
CENTER
 62
     7
 10
-78.522224
 20
-49.32288
 11
-78.522224
 21
-115.56284
  0
LINE
  8
0
  6
CONTINUOUS
 62
     7
 10
-53.522221
 20
-93.323402
 11
-78.522224
 21
-93.323402
  0
LINE
  8
0
  6
CONTINUOUS
 62
     7
 10
-53.022213
 20
-92.823395
 11
-53.522213
 21
-93.323395
  0
LINE
  8
0
  6
CONTINUOUS
 62
     7
 10
-53.022221
 20
-91.823402
 11
-53.022221
 21
-92.823402
  0
LINE
  8
0
  6
CONTINUOUS
 62
     7
 10
-103.97007
 20
-90.823402
 11
-104.02222
 21
-90.823402
  0
LINE
  8
0
  6
CONTINUOUS
 62
     7
 10
-53.022221
 20
-90.823402
 11
-53.022221
 21
-92.823402
  0
LINE
  8
0
  6
DASHED
 62
     7
 10
-47.522221
 20
-85.323402
 11
-47.522221
 21
-85.015816
  0
LINE
  8
0
  6
CONTINUOUS
 62
     7
 10
122.99339
 20
-98.149101
 11
122.16496
 21
-98.149101
  0
LINE
  8
0
  6
CONTINUOUS
 62
     7
 10
122.99339
 20
-98.149101
 11
122.99339
 21
-100.1491
  0
LINE
  8
0
  6
CENTER
 62
     7
 10
77.533669
 20
-61.149101
 11
162.8051
 21
-61.149101
  0
LINE
  8
0
  6
CENTER
 62
     7
 10
92.493385
 20
-46.189392
 11
92.493385
 21
-129.73665
  0
LINE
  8
0
  6
CONTINUOUS
 62
     7
 10
61.993389
 20
-98.149101
 11
62.68594
 21
-98.149101
  0
LINE
  8
0
  6
CONTINUOUS
 62
     7
 10
122.49339
 20
-100.6491
 11
92.493385
 21
-100.6491
  0
LINE
  8
0
  6
CONTINUOUS
 62
     7
 10
122.99339
 20
-100.1491
 11
122.49339
 21
-100.6491
  0
LINE
  8
0
  6
CENTER
 62
     7
 10
-107.68768
 20
-232.48175
 11
-107.68768
 21
-331.42642
  0
LINE
  8
0
  6
CONTINUOUS
 62
     7
 10
-73.687675
 20
-297.70166
 11
-107.68768
 21
-297.70166
  0
LINE
  8
0
  6
CENTER
 62
     7
 10
-129.90758
 20
-254.70166
 11
-30.27425
 21
-254.70166
  0
LINE
  8
0
  6
CONTINUOUS
 62
     7
 10
-73.187675
 20
-294.20166
 11
-73.187675
 21
-297.20166
  0
LINE
  8
0
  6
CONTINUOUS
 62
     7
 10
-73.687691
 20
-297.70166
 11
-73.187675
 21
-297.20166
  0
LINE
  8
0
  6
CONTINUOUS
 62
     7
 10
-74.53228
 20
-294.20166
 11
-73.187675
 21
-294.20166
  0
LINE
  8
0
  6
CONTINUOUS
 62
     7
 10
-142.18768
 20
-294.20166
 11
-140.8515
 21
-294.20166
  0
LINE
  8
0
  6
CENTER
 62
     7
 10
44.625912
 20
-257.35306
 11
153.82828
 21
-257.35306
  0
LINE
  8
0
  6
CENTER
 62
     7
 10
69.956451
 20
-230.66966
 11
69.956451
 21
-349.85547
  0
LINE
  8
0
  6
CONTINUOUS
 62
     7
 10
27.956448
 20
-301.85306
 11
28.709827
 21
-301.85306
  0
LINE
  8
0
  6
CONTINUOUS
 62
     7
 10
111.45646
 20
-306.35306
 11
69.956451
 21
-306.35306
  0
LINE
  8
0
  6
CONTINUOUS
 62
     7
 10
111.95644
 20
-305.85306
 11
111.45644
 21
-306.35306
  0
LINE
  8
0
  6
CONTINUOUS
 62
     7
 10
111.95646
 20
-301.85306
 11
111.95646
 21
-305.85306
  0
LINE
  8
0
  6
CONTINUOUS
 62
     7
 10
110.45646
 20
-301.85306
 11
111.95646
 21
-301.85306
  0
LINE
  8
0
  6
CONTINUOUS
 62
     7
 10
111.45646
 20
-301.85306
 11
109.20728
 21
-301.85306
  0
LINE
  8
0
  6
CONTINUOUS
 62
     7
 10
116.36371
 20
39.746838
 11
116.36371
 21
30.746838
  0
LINE
  8
0
  6
CONTINUOUS
 62
     7
 10
117.4705
 20
40.246834
 11
117.97049
 21
39.746838
  0
LINE
  8
0
  6
CONTINUOUS
 62
     7
 10
116.36371
 20
39.746838
 11
117.9705
 21
39.746838
  0
LINE
  8
0
  6
CONTINUOUS
 62
     7
 10
103.10374
 20
39.746838
 11
106.98288
 21
39.746838
  0
LINE
  8
0
  6
CONTINUOUS
 62
     7
 10
117.9705
 20
39.746838
 11
117.9705
 21
30.746838
  0
LINE
  8
0
  6
CONTINUOUS
 62
     7
 10
79.970497
 20
25.746838
 11
112.9705
 21
25.746838
  0
LINE
  8
0
  6
CONTINUOUS
 62
     7
 10
96.470497
 20
30.746838
 11
117.9705
 21
30.746838
  0
LINE
  8
0
  6
CONTINUOUS
 62
     7
 10
106.98288
 20
39.746838
 11
106.98288
 21
30.746838
  0
LINE
  8
0
  6
CONTINUOUS
 62
     7
 10
103.10374
 20
39.746838
 11
103.10374
 21
30.746838
  0
LINE
  8
0
  6
CONTINUOUS
 62
     7
 10
102.01966
 20
-104.7491
 11
102.01966
 21
-116.1491
  0
LINE
  8
0
  6
CONTINUOUS
 62
     7
 10
92.493385
 20
-116.1491
 11
121.99338
 21
-116.1491
  0
LINE
  8
0
  6
CONTINUOUS
 62
     7
 10
121.49339
 20
-104.24909
 11
121.99339
 21
-104.74909
  0
LINE
  8
0
  6
CONTINUOUS
 62
     7
 10
120.08913
 20
-104.7491
 11
120.08913
 21
-116.1491
  0
LINE
  8
0
  6
CONTINUOUS
 62
     7
 10
106.61694
 20
-104.7491
 11
106.61694
 21
-116.1491
  0
LINE
  8
0
  6
CONTINUOUS
 62
     7
 10
121.99338
 20
-104.7491
 11
121.99338
 21
-116.1491
  0
LINE
  8
0
  6
CONTINUOUS
 62
     7
 10
68.993385
 20
-122.1491
 11
115.99338
 21
-122.1491
  0
LINE
  8
0
  6
CONTINUOUS
 62
     7
 10
102.01966
 20
-104.7491
 11
106.61694
 21
-104.7491
  0
LINE
  8
0
  6
CONTINUOUS
 62
     7
 10
120.08913
 20
-104.7491
 11
121.99338
 21
-104.7491
  0
LINE
  8
0
  6
CONTINUOUS
 62
     7
 10
-150.00453
 20
38.072536
 11
-129.00453
 21
38.072536
  0
LINE
  8
0
  6
CONTINUOUS
 62
     7
 10
-125.88321
 20
49.072536
 11
-125.00453
 21
49.072536
  0
LINE
  8
0
  6
CONTINUOUS
 62
     7
 10
-125.00453
 20
49.072536
 11
-125.00453
 21
42.072536
  0
LINE
  8
0
  6
CONTINUOUS
 62
     7
 10
-125.50453
 20
49.572536
 11
-125.00453
 21
49.072533
  0
LINE
  8
0
  6
CONTINUOUS
 62
     7
 10
-134.74107
 20
49.072536
 11
-132.61919
 21
49.072536
  0
LINE
  8
0
  6
CONTINUOUS
 62
     7
 10
-125.88321
 20
49.072536
 11
-125.88321
 21
42.072536
  0
LINE
  8
0
  6
CONTINUOUS
 62
     7
 10
-134.74107
 20
49.072536
 11
-134.74107
 21
42.072536
  0
LINE
  8
0
  6
CONTINUOUS
 62
     7
 10
-132.61919
 20
49.072536
 11
-132.61919
 21
42.072536
  0
LINE
  8
0
  6
CONTINUOUS
 62
     7
 10
-139.50453
 20
42.072536
 11
-125.00453
 21
42.072536
  0
LINE
  8
0
  6
CONTINUOUS
 62
     7
 10
-139.50453
 20
49.572536
 11
-125.50453
 21
49.572536
  0
LINE
  8
0
  6
CONTINUOUS
 62
     7
 10
-118.40453
 20
74.07254
 11
-118.40453
 21
59.572544
  0
LINE
  8
0
  6
CONTINUOUS
 62
     7
 10
-121.50453
 20
59.072544
 11
-118.90453
 21
59.072544
  0
LINE
  8
0
  6
CONTINUOUS
 62
     7
 10
-118.40453
 20
59.572544
 11
-118.90453
 21
59.072544
  0
LINE
  8
0
  6
CONTINUOUS
 62
     7
 10
-115.00452
 20
74.07254
 11
-115.00452
 21
60.072544
  0
LINE
  8
0
  6
CONTINUOUS
 62
     7
 10
-103.50452
 20
84.57254
 11
-103.50452
 21
63.572544
  0
LINE
  8
0
  6
CONTINUOUS
 62
     7
 10
-114.50452
 20
60.451221
 11
-114.50452
 21
59.572544
  0
LINE
  8
0
  6
CONTINUOUS
 62
     7
 10
-114.50452
 20
59.572544
 11
-107.50452
 21
59.572544
  0
LINE
  8
0
  6
CONTINUOUS
 62
     7
 10
-115.00453
 20
60.072548
 11
-114.50453
 21
59.572548
  0
LINE
  8
0
  6
CONTINUOUS
 62
     7
 10
-114.50452
 20
69.309082
 11
-114.50452
 21
67.187195
  0
LINE
  8
0
  6
CONTINUOUS
 62
     7
 10
-114.50452
 20
60.451221
 11
-107.50452
 21
60.451221
  0
LINE
  8
0
  6
CONTINUOUS
 62
     7
 10
-114.50452
 20
69.309082
 11
-107.50452
 21
69.309082
  0
LINE
  8
0
  6
CONTINUOUS
 62
     7
 10
-114.50452
 20
67.187195
 11
-107.50452
 21
67.187195
  0
LINE
  8
0
  6
CONTINUOUS
 62
     7
 10
-107.50452
 20
74.07254
 11
-107.50452
 21
59.572544
  0
LINE
  8
0
  6
CONTINUOUS
 62
     7
 10
-34.84272
 20
33.746849
 11
-10.84272
 21
33.746849
  0
LINE
  8
0
  6
CONTINUOUS
 62
     7
 10
-22.84272
 20
38.746845
 11
-5.8427205
 21
38.746845
  0
LINE
  8
0
  6
CONTINUOUS
 62
     7
 10
-17.043732
 20
46.746849
 11
-17.043732
 21
38.746845
  0
LINE
  8
0
  6
CONTINUOUS
 62
     7
 10
-17.043732
 20
46.746849
 11
-14.922413
 21
46.746849
  0
LINE
  8
0
  6
CONTINUOUS
 62
     7
 10
-6.7214017
 20
46.746849
 11
-5.8427205
 21
46.746849
  0
LINE
  8
0
  6
CONTINUOUS
 62
     7
 10
-6.7214017
 20
46.746849
 11
-6.7214017
 21
38.746845
  0
LINE
  8
0
  6
CONTINUOUS
 62
     7
 10
-5.8427205
 20
46.746845
 11
-5.8427205
 21
38.746845
  0
LINE
  8
0
  6
CONTINUOUS
 62
     7
 10
-5.8427205
 20
46.746849
 11
-6.342721
 21
47.246849
  0
LINE
  8
0
  6
CONTINUOUS
 62
     7
 10
-14.922413
 20
46.746849
 11
-14.922413
 21
38.746845
  0
LINE
  8
0
  6
CONTINUOUS
 62
     7
 10
-22.84272
 20
47.246845
 11
-6.3427205
 21
47.246845
  0
LINE
  8
0
  6
CONTINUOUS
 62
     7
 10
-2.3427241
 20
55.246841
 11
-1.2427294
 21
55.246841
  0
LINE
  8
0
  6
CONTINUOUS
 62
     7
 10
-0.74272943
 20
55.746841
 11
-0.74272943
 21
72.746841
  0
LINE
  8
0
  6
CONTINUOUS
 62
     7
 10
-0.74273169
 20
55.746838
 11
-1.2427323
 21
55.246838
  0
LINE
  8
0
  6
CONTINUOUS
 62
     7
 10
16.15727
 20
84.746841
 11
16.15727
 21
60.746841
  0
LINE
  8
0
  6
CONTINUOUS
 62
     7
 10
11.157272
 20
72.746841
 11
11.157272
 21
55.746841
  0
LINE
  8
0
  6
CONTINUOUS
 62
     7
 10
3.1572683
 20
66.947853
 11
11.157272
 21
66.947853
  0
LINE
  8
0
  6
CONTINUOUS
 62
     7
 10
3.1572683
 20
66.947853
 11
3.1572683
 21
64.82653
  0
LINE
  8
0
  6
CONTINUOUS
 62
     7
 10
3.1572683
 20
56.625519
 11
3.1572683
 21
55.746841
  0
LINE
  8
0
  6
CONTINUOUS
 62
     7
 10
3.1572683
 20
56.625519
 11
11.157272
 21
56.625519
  0
LINE
  8
0
  6
CONTINUOUS
 62
     7
 10
3.1572721
 20
55.746841
 11
11.157272
 21
55.746841
  0
LINE
  8
0
  6
CONTINUOUS
 62
     7
 10
3.1572721
 20
55.746838
 11
2.6572714
 21
56.246838
  0
LINE
  8
0
  6
CONTINUOUS
 62
     7
 10
3.1572683
 20
64.82653
 11
11.157272
 21
64.82653
  0
LINE
  8
0
  6
CONTINUOUS
 62
     7
 10
2.6572721
 20
72.746841
 11
2.6572721
 21
56.246841
  0
LINE
  8
0
  6
CONTINUOUS
 62
     7
 10
-139.50453
 20
54.972542
 11
-124.50453
 21
54.972542
  0
LINE
  8
0
  6
CONTINUOUS
 62
     7
 10
-120.40453
 20
74.07254
 11
-120.40453
 21
59.072536
  0
LINE
  8
0
  6
CONTINUOUS
 62
     7
 10
-2.7427294
 20
55.246841
 11
-2.7427294
 21
72.746841
  0
LINE
  8
0
  6
CONTINUOUS
 62
     7
 10
-5.3427205
 20
52.646847
 11
-22.84272
 21
52.646847
  0
LINE
  8
0
  6
DASHED
 62
     7
 10
-2.7427294
 20
55.246841
 11
-2.7427294
 21
56.686226
  0
LINE
  8
0
  6
DASHED
 62
     7
 10
-5.3427205
 20
52.646847
 11
-6.782105
 21
52.646847
  0
LINE
  8
0
  6
CONTINUOUS
 62
     7
 10
96.470497
 20
40.246838
 11
117.4705
 21
40.246838
  0
LINE
  8
0
  6
CONTINUOUS
 62
     7
 10
96.470497
 20
45.746838
 11
118.4705
 21
45.746838
  0
LINE
  8
0
  6
CONTINUOUS
 62
     7
 10
123.4705
 20
72.746841
 11
123.4705
 21
50.746841
  0
LINE
  8
0
  6
CONTINUOUS
 62
     7
 10
123.4705
 20
50.746841
 11
124.9705
 21
50.746841
  0
LINE
  8
0
  6
CONTINUOUS
 62
     7
 10
125.4705
 20
72.746841
 11
125.4705
 21
51.246841
  0
LINE
  8
0
  6
CONTINUOUS
 62
     7
 10
125.4705
 20
51.246841
 11
124.9705
 21
50.746841
  0
LINE
  8
0
  6
CONTINUOUS
 62
     7
 10
129.4705
 20
52.85363
 11
138.4705
 21
52.85363
  0
LINE
  8
0
  6
CONTINUOUS
 62
     7
 10
128.9705
 20
51.746841
 11
129.4705
 21
51.246841
  0
LINE
  8
0
  6
CONTINUOUS
 62
     7
 10
129.4705
 20
52.85363
 11
129.4705
 21
51.246841
  0
LINE
  8
0
  6
CONTINUOUS
 62
     7
 10
129.4705
 20
66.113594
 11
129.4705
 21
62.234459
  0
LINE
  8
0
  6
CONTINUOUS
 62
     7
 10
129.4705
 20
51.246841
 11
138.4705
 21
51.246841
  0
LINE
  8
0
  6
CONTINUOUS
 62
     7
 10
143.4705
 20
89.246841
 11
143.4705
 21
56.246841
  0
LINE
  8
0
  6
CONTINUOUS
 62
     7
 10
138.4705
 20
72.746841
 11
138.4705
 21
51.246841
  0
LINE
  8
0
  6
CONTINUOUS
 62
     7
 10
129.4705
 20
62.234459
 11
138.4705
 21
62.234459
  0
LINE
  8
0
  6
CONTINUOUS
 62
     7
 10
129.4705
 20
66.113594
 11
138.4705
 21
66.113594
  0
LINE
  8
0
  6
CONTINUOUS
 62
     7
 10
128.9705
 20
72.746841
 11
128.9705
 21
51.746841
  0
LINE
  8
0
  6
CONTINUOUS
 62
     7
 10
-55.043842
 20
-97.423401
 11
-54.022221
 21
-97.423401
  0
LINE
  8
0
  6
CONTINUOUS
 62
     7
 10
-55.043842
 20
-97.423401
 11
-55.043842
 21
-107.8234
  0
LINE
  8
0
  6
CONTINUOUS
 62
     7
 10
-69.818779
 20
-97.423401
 11
-69.818779
 21
-107.8234
  0
LINE
  8
0
  6
CONTINUOUS
 62
     7
 10
-69.818779
 20
-97.423401
 11
-67.352379
 21
-97.423401
  0
LINE
  8
0
  6
CONTINUOUS
 62
     7
 10
-98.022224
 20
-112.8234
 11
-59.022221
 21
-112.8234
  0
LINE
  8
0
  6
CONTINUOUS
 62
     7
 10
-54.522221
 20
-96.923401
 11
-54.022221
 21
-97.423401
  0
LINE
  8
0
  6
CONTINUOUS
 62
     7
 10
-54.022221
 20
-97.423401
 11
-54.022221
 21
-107.8234
  0
LINE
  8
0
  6
CONTINUOUS
 62
     7
 10
-78.522224
 20
-107.8234
 11
-54.022221
 21
-107.8234
  0
LINE
  8
0
  6
CONTINUOUS
 62
     7
 10
-67.352379
 20
-97.423401
 11
-67.352379
 21
-107.8234
  0
LINE
  8
0
  6
CONTINUOUS
 62
     7
 10
-78.522224
 20
-96.923401
 11
-54.522221
 21
-96.923401
  0
LINE
  8
0
  6
CONTINUOUS
 62
     7
 10
-53.522221
 20
-90.823402
 11
-78.522224
 21
-90.823402
  0
LINE
  8
0
  6
DASHED
 62
     7
 10
-47.522221
 20
-85.323402
 11
-47.522221
 21
-85.015816
  0
LINE
  8
0
  6
CONTINUOUS
 62
     7
 10
-45.022221
 20
-84.823402
 11
-45.022221
 21
-59.823399
  0
LINE
  8
0
  6
CONTINUOUS
 62
     7
 10
-45.522224
 20
-85.32341
 11
-45.022224
 21
-84.82341
  0
LINE
  8
0
  6
CONTINUOUS
 62
     7
 10
-46.522221
 20
-85.323402
 11
-45.522221
 21
-85.323402
  0
LINE
  8
0
  6
CONTINUOUS
 62
     7
 10
-47.522221
 20
-34.375553
 11
-47.522221
 21
-34.323399
  0
LINE
  8
0
  6
CONTINUOUS
 62
     7
 10
-47.522221
 20
-84.823402
 11
-47.522221
 21
-59.823399
  0
LINE
  8
0
  6
CONTINUOUS
 62
     7
 10
-47.522221
 20
-85.323402
 11
-45.522221
 21
-85.323402
  0
LINE
  8
0
  6
DASHED
 62
     7
 10
-53.022221
 20
-90.823402
 11
-53.329807
 21
-90.823402
  0
LINE
  8
0
  6
CONTINUOUS
 62
     7
 10
-40.922215
 20
-83.301781
 11
-40.922215
 21
-84.323402
  0
LINE
  8
0
  6
CONTINUOUS
 62
     7
 10
-40.922215
 20
-83.301781
 11
-30.522221
 21
-83.301781
  0
LINE
  8
0
  6
CONTINUOUS
 62
     7
 10
-40.922215
 20
-68.526848
 11
-30.522221
 21
-68.526848
  0
LINE
  8
0
  6
CONTINUOUS
 62
     7
 10
-40.922215
 20
-68.526848
 11
-40.922215
 21
-70.993256
  0
LINE
  8
0
  6
CONTINUOUS
 62
     7
 10
-25.522221
 20
-40.323399
 11
-25.522221
 21
-79.323402
  0
LINE
  8
0
  6
CONTINUOUS
 62
     7
 10
-41.422222
 20
-83.823395
 11
-40.922222
 21
-84.323395
  0
LINE
  8
0
  6
CONTINUOUS
 62
     7
 10
-40.922215
 20
-84.323402
 11
-30.522221
 21
-84.323402
  0
LINE
  8
0
  6
CONTINUOUS
 62
     7
 10
-30.522221
 20
-59.823399
 11
-30.522221
 21
-84.323402
  0
LINE
  8
0
  6
CONTINUOUS
 62
     7
 10
-40.922215
 20
-70.993256
 11
-30.522221
 21
-70.993256
  0
LINE
  8
0
  6
CONTINUOUS
 62
     7
 10
-41.422215
 20
-59.823399
 11
-41.422215
 21
-83.823402
  0
LINE
  8
0
  6
CONTINUOUS
 62
     7
 10
92.493385
 20
-104.2491
 11
121.49339
 21
-104.2491
  0
LINE
  8
0
  6
CONTINUOUS
 62
     7
 10
122.49339
 20
-98.149101
 11
92.493385
 21
-98.149101
  0
LINE
  8
0
  6
CONTINUOUS
 62
     7
 10
129.49338
 20
-91.649101
 11
129.49338
 21
-90.820679
  0
LINE
  8
0
  6
CONTINUOUS
 62
     7
 10
129.49338
 20
-91.649101
 11
131.49338
 21
-91.649101
  0
LINE
  8
0
  6
CONTINUOUS
 62
     7
 10
129.49338
 20
-30.649103
 11
129.49338
 21
-31.34166
  0
LINE
  8
0
  6
CONTINUOUS
 62
     7
 10
131.99338
 20
-91.149101
 11
131.99338
 21
-61.149101
  0
LINE
  8
0
  6
CONTINUOUS
 62
     7
 10
131.49338
 20
-91.649101
 11
131.99338
 21
-91.149101
  0
LINE
  8
0
  6
CONTINUOUS
 62
     7
 10
129.49338
 20
-91.149101
 11
129.49338
 21
-61.149101
  0
LINE
  8
0
  6
CONTINUOUS
 62
     7
 10
136.09338
 20
-70.675385
 11
147.49338
 21
-70.675385
  0
LINE
  8
0
  6
CONTINUOUS
 62
     7
 10
147.49338
 20
-61.149101
 11
147.49338
 21
-90.649101
  0
LINE
  8
0
  6
CONTINUOUS
 62
     7
 10
135.59338
 20
-90.149094
 11
136.09338
 21
-90.649094
  0
LINE
  8
0
  6
CONTINUOUS
 62
     7
 10
136.09338
 20
-88.74485
 11
147.49338
 21
-88.74485
  0
LINE
  8
0
  6
CONTINUOUS
 62
     7
 10
136.09338
 20
-75.272659
 11
147.49338
 21
-75.272659
  0
LINE
  8
0
  6
CONTINUOUS
 62
     7
 10
136.09338
 20
-90.649101
 11
147.49338
 21
-90.649101
  0
LINE
  8
0
  6
CONTINUOUS
 62
     7
 10
153.49338
 20
-37.649101
 11
153.49338
 21
-84.649101
  0
LINE
  8
0
  6
CONTINUOUS
 62
     7
 10
136.09338
 20
-70.675385
 11
136.09338
 21
-75.272659
  0
LINE
  8
0
  6
CONTINUOUS
 62
     7
 10
136.09338
 20
-88.74485
 11
136.09338
 21
-90.649101
  0
LINE
  8
0
  6
CONTINUOUS
 62
     7
 10
135.59338
 20
-61.149101
 11
135.59338
 21
-90.149101
  0
LINE
  8
0
  6
CONTINUOUS
 62
     7
 10
-73.687683
 20
-302.20166
 11
-74.187691
 21
-301.70166
  0
LINE
  8
0
  6
CONTINUOUS
 62
     7
 10
-76.426277
 20
-302.20166
 11
-73.687675
 21
-302.20166
  0
LINE
  8
0
  6
CONTINUOUS
 62
     7
 10
-73.687675
 20
-302.20166
 11
-73.687675
 21
-313.70166
  0
LINE
  8
0
  6
CONTINUOUS
 62
     7
 10
-76.426277
 20
-302.20166
 11
-76.426277
 21
-313.70166
  0
LINE
  8
0
  6
CONTINUOUS
 62
     7
 10
-133.68768
 20
-321.70166
 11
-81.687675
 21
-321.70166
  0
LINE
  8
0
  6
CONTINUOUS
 62
     7
 10
-97.477386
 20
-302.20166
 11
-90.865807
 21
-302.20166
  0
LINE
  8
0
  6
CONTINUOUS
 62
     7
 10
-90.865807
 20
-302.20166
 11
-90.865807
 21
-313.70166
  0
LINE
  8
0
  6
CONTINUOUS
 62
     7
 10
-107.68768
 20
-313.70166
 11
-73.687675
 21
-313.70166
  0
LINE
  8
0
  6
CONTINUOUS
 62
     7
 10
-97.477386
 20
-302.20166
 11
-97.477386
 21
-313.70166
  0
LINE
  8
0
  6
CONTINUOUS
 62
     7
 10
-107.68768
 20
-301.70166
 11
-74.187675
 21
-301.70166
  0
LINE
  8
0
  6
CONTINUOUS
 62
     7
 10
-64.687668
 20
-288.70166
 11
-64.687668
 21
-254.70166
  0
LINE
  8
0
  6
CONTINUOUS
 62
     7
 10
-68.187668
 20
-289.20166
 11
-65.187668
 21
-289.20166
  0
LINE
  8
0
  6
CONTINUOUS
 62
     7
 10
-64.687668
 20
-288.70166
 11
-65.187668
 21
-289.20166
  0
LINE
  8
0
  6
CONTINUOUS
 62
     7
 10
-68.187668
 20
-287.85706
 11
-68.187668
 21
-289.20166
  0
LINE
  8
0
  6
CONTINUOUS
 62
     7
 10
-68.187668
 20
-220.20166
 11
-68.187668
 21
-221.53784
  0
LINE
  8
0
  6
CONTINUOUS
 62
     7
 10
-60.187687
 20
-288.70166
 11
-60.687675
 21
-288.20166
  0
LINE
  8
0
  6
CONTINUOUS
 62
     7
 10
-60.187675
 20
-285.96304
 11
-60.187675
 21
-288.70166
  0
LINE
  8
0
  6
CONTINUOUS
 62
     7
 10
-60.187675
 20
-288.70166
 11
-48.687675
 21
-288.70166
  0
LINE
  8
0
  6
CONTINUOUS
 62
     7
 10
-60.187675
 20
-285.96304
 11
-48.687675
 21
-285.96304
  0
LINE
  8
0
  6
CONTINUOUS
 62
     7
 10
-40.687675
 20
-228.70164
 11
-40.687675
 21
-280.70166
  0
LINE
  8
0
  6
CONTINUOUS
 62
     7
 10
-60.187675
 20
-264.91196
 11
-60.187675
 21
-271.52353
  0
LINE
  8
0
  6
CONTINUOUS
 62
     7
 10
-60.187675
 20
-271.52353
 11
-48.687675
 21
-271.52353
  0
LINE
  8
0
  6
CONTINUOUS
 62
     7
 10
-48.687675
 20
-254.70166
 11
-48.687675
 21
-288.70166
  0
LINE
  8
0
  6
CONTINUOUS
 62
     7
 10
-60.187675
 20
-264.91196
 11
-48.687675
 21
-264.91196
  0
LINE
  8
0
  6
CONTINUOUS
 62
     7
 10
-60.687675
 20
-254.70166
 11
-60.687675
 21
-288.20166
  0
LINE
  8
0
  6
CONTINUOUS
 62
     7
 10
-73.687675
 20
-294.20166
 11
-107.68768
 21
-294.20166
  0
LINE
  8
0
  6
CONTINUOUS
 62
     7
 10
-68.187668
 20
-288.70166
 11
-68.187668
 21
-254.70166
  0
LINE
  8
0
  6
CONTINUOUS
 62
     7
 10
110.95646
 20
-310.35306
 11
110.95646
 21
-325.35306
  0
LINE
  8
0
  6
CONTINUOUS
 62
     7
 10
110.95644
 20
-310.35306
 11
110.45646
 21
-309.85306
  0
LINE
  8
0
  6
CONTINUOUS
 62
     7
 10
108.11298
 20
-310.35306
 11
110.95646
 21
-310.35306
  0
LINE
  8
0
  6
CONTINUOUS
 62
     7
 10
36.956448
 20
-333.35306
 11
102.95646
 21
-333.35306
  0
LINE
  8
0
  6
CONTINUOUS
 62
     7
 10
69.956451
 20
-309.85306
 11
110.45646
 21
-309.85306
  0
LINE
  8
0
  6
CONTINUOUS
 62
     7
 10
108.11298
 20
-310.35306
 11
108.11298
 21
-325.35306
  0
LINE
  8
0
  6
CONTINUOUS
 62
     7
 10
82.917938
 20
-310.35306
 11
82.917938
 21
-325.35306
  0
LINE
  8
0
  6
CONTINUOUS
 62
     7
 10
69.956451
 20
-325.35306
 11
110.95646
 21
-325.35306
  0
LINE
  8
0
  6
CONTINUOUS
 62
     7
 10
89.782677
 20
-310.35306
 11
89.782677
 21
-325.35306
  0
LINE
  8
0
  6
CONTINUOUS
 62
     7
 10
82.917938
 20
-310.35306
 11
89.782677
 21
-310.35306
  0
LINE
  8
0
  6
CONTINUOUS
 62
     7
 10
111.45646
 20
-301.85306
 11
69.956451
 21
-301.85306
  0
LINE
  8
0
  6
CONTINUOUS
 62
     7
 10
114.45646
 20
-215.35306
 11
114.45646
 21
-216.10645
  0
LINE
  8
0
  6
CONTINUOUS
 62
     7
 10
118.95646
 20
-298.85306
 11
118.95646
 21
-257.35306
  0
LINE
  8
0
  6
CONTINUOUS
 62
     7
 10
118.45644
 20
-299.35306
 11
118.95644
 21
-298.85306
  0
LINE
  8
0
  6
CONTINUOUS
 62
     7
 10
114.45646
 20
-299.35306
 11
118.45644
 21
-299.35306
  0
LINE
  8
0
  6
CONTINUOUS
 62
     7
 10
114.45646
 20
-298.85306
 11
114.45646
 21
-257.35306
  0
LINE
  8
0
  6
CONTINUOUS
 62
     7
 10
114.45646
 20
-297.85306
 11
114.45646
 21
-299.35306
  0
LINE
  8
0
  6
CONTINUOUS
 62
     7
 10
114.45646
 20
-298.85306
 11
114.45646
 21
-296.60391
  0
LINE
  8
0
  6
CONTINUOUS
 62
     7
 10
122.95646
 20
-298.35306
 11
137.95645
 21
-298.35306
  0
LINE
  8
0
  6
CONTINUOUS
 62
     7
 10
122.95646
 20
-298.35306
 11
122.45645
 21
-297.85306
  0
LINE
  8
0
  6
CONTINUOUS
 62
     7
 10
122.95646
 20
-295.50958
 11
122.95646
 21
-298.35306
  0
LINE
  8
0
  6
CONTINUOUS
 62
     7
 10
145.95645
 20
-224.35306
 11
145.95645
 21
-290.35306
  0
LINE
  8
0
  6
CONTINUOUS
 62
     7
 10
122.45646
 20
-257.35306
 11
122.45646
 21
-297.85306
  0
LINE
  8
0
  6
CONTINUOUS
 62
     7
 10
122.95646
 20
-295.50958
 11
137.95645
 21
-295.50958
  0
LINE
  8
0
  6
CONTINUOUS
 62
     7
 10
122.95646
 20
-270.31454
 11
137.95645
 21
-270.31454
  0
LINE
  8
0
  6
CONTINUOUS
 62
     7
 10
137.95645
 20
-257.35306
 11
137.95645
 21
-298.35306
  0
LINE
  8
0
  6
CONTINUOUS
 62
     7
 10
122.95646
 20
-277.17929
 11
137.95645
 21
-277.17929
  0
LINE
  8
0
  6
CONTINUOUS
 62
     7
 10
122.95646
 20
-270.31454
 11
122.95646
 21
-277.17929
  0
LINE
  8
0
  6
CONTINUOUS
 62
     7
 10
-125.73854
 20
52.972542
 11
-125.73854
 21
49.572536
  0
LINE
  8
0
  6
CONTINUOUS
 62
     7
 10
-118.40453
 20
60.510273
 11
-115.00452
 21
60.510273
  0
LINE
  8
0
  6
CONTINUOUS
 62
     7
 10
-139.50453
 20
52.972542
 11
-154.00453
 21
52.972542
  0
LINE
  8
0
  6
CONTINUOUS
 62
     7
 10
-154.50453
 20
54.972542
 11
-154.50453
 21
53.472542
  0
LINE
  8
0
  6
CONTINUOUS
 62
     7
 10
-154.00452
 20
52.972534
 11
-154.50452
 21
53.472534
  0
LINE
  8
0
  6
CONTINUOUS
 62
     7
 10
-139.50453
 20
54.972542
 11
-154.50453
 21
54.972542
  0
LINE
  8
0
  6
CONTINUOUS
 62
     7
 10
-153.12585
 20
49.072536
 11
-154.00453
 21
49.072536
  0
LINE
  8
0
  6
CONTINUOUS
 62
     7
 10
-154.00453
 20
49.072536
 11
-154.00453
 21
42.072536
  0
LINE
  8
0
  6
CONTINUOUS
 62
     7
 10
-153.50453
 20
49.572533
 11
-154.00453
 21
49.072533
  0
LINE
  8
0
  6
CONTINUOUS
 62
     7
 10
-144.26799
 20
49.072536
 11
-146.38988
 21
49.072536
  0
LINE
  8
0
  6
CONTINUOUS
 62
     7
 10
-153.12585
 20
49.072536
 11
-153.12585
 21
42.072536
  0
LINE
  8
0
  6
CONTINUOUS
 62
     7
 10
-144.26799
 20
49.072536
 11
-144.26799
 21
42.072536
  0
LINE
  8
0
  6
CONTINUOUS
 62
     7
 10
-146.38988
 20
49.072536
 11
-146.38988
 21
42.072536
  0
LINE
  8
0
  6
CONTINUOUS
 62
     7
 10
-139.50453
 20
42.072536
 11
-154.00453
 21
42.072536
  0
LINE
  8
0
  6
CONTINUOUS
 62
     7
 10
-139.50453
 20
49.572536
 11
-153.50453
 21
49.572536
  0
LINE
  8
0
  6
CONTINUOUS
 62
     7
 10
-153.27052
 20
52.972542
 11
-153.27052
 21
49.572536
  0
LINE
  8
0
  6
CONTINUOUS
 62
     7
 10
-118.40453
 20
74.07254
 11
-118.40453
 21
88.57254
  0
LINE
  8
0
  6
CONTINUOUS
 62
     7
 10
-120.40453
 20
89.07254
 11
-118.90453
 21
89.07254
  0
LINE
  8
0
  6
CONTINUOUS
 62
     7
 10
-118.40453
 20
88.57254
 11
-118.90453
 21
89.07254
  0
LINE
  8
0
  6
CONTINUOUS
 62
     7
 10
-115.00452
 20
74.07254
 11
-115.00452
 21
88.07254
  0
LINE
  8
0
  6
CONTINUOUS
 62
     7
 10
-114.50452
 20
87.693863
 11
-114.50452
 21
88.57254
  0
LINE
  8
0
  6
CONTINUOUS
 62
     7
 10
-114.50452
 20
88.57254
 11
-107.50452
 21
88.57254
  0
LINE
  8
0
  6
CONTINUOUS
 62
     7
 10
-115.00452
 20
88.072533
 11
-114.50452
 21
88.572533
  0
LINE
  8
0
  6
CONTINUOUS
 62
     7
 10
-114.50452
 20
78.835999
 11
-114.50452
 21
80.957886
  0
LINE
  8
0
  6
CONTINUOUS
 62
     7
 10
-114.50452
 20
87.693863
 11
-107.50452
 21
87.693863
  0
LINE
  8
0
  6
CONTINUOUS
 62
     7
 10
-114.50452
 20
78.835999
 11
-107.50452
 21
78.835999
  0
LINE
  8
0
  6
CONTINUOUS
 62
     7
 10
-114.50452
 20
80.957886
 11
-107.50452
 21
80.957886
  0
LINE
  8
0
  6
CONTINUOUS
 62
     7
 10
-107.50452
 20
74.07254
 11
-107.50452
 21
88.57254
  0
LINE
  8
0
  6
CONTINUOUS
 62
     7
 10
-118.40453
 20
87.634811
 11
-115.00452
 21
87.634811
  0
LINE
  8
0
  6
CONTINUOUS
 62
     7
 10
-120.40453
 20
74.07254
 11
-120.40453
 21
89.072548
  0
LINE
  8
0
  6
CONTINUOUS
 62
     7
 10
-6.6228681
 20
50.646847
 11
-6.6228681
 21
47.246845
  0
LINE
  8
0
  6
CONTINUOUS
 62
     7
 10
-40.34272
 20
52.646847
 11
-40.34272
 21
51.146854
  0
LINE
  8
0
  6
CONTINUOUS
 62
     7
 10
-39.84272
 20
50.646847
 11
-22.84272
 21
50.646847
  0
LINE
  8
0
  6
CONTINUOUS
 62
     7
 10
-39.842716
 20
50.646851
 11
-40.342716
 21
51.146851
  0
LINE
  8
0
  6
CONTINUOUS
 62
     7
 10
-40.34272
 20
52.646847
 11
-22.84272
 21
52.646847
  0
LINE
  8
0
  6
CONTINUOUS
 62
     7
 10
-22.84272
 20
38.746845
 11
-39.84272
 21
38.746845
  0
LINE
  8
0
  6
CONTINUOUS
 62
     7
 10
-28.641708
 20
46.746849
 11
-28.641708
 21
38.746845
  0
LINE
  8
0
  6
CONTINUOUS
 62
     7
 10
-28.641708
 20
46.746849
 11
-30.763023
 21
46.746849
  0
LINE
  8
0
  6
CONTINUOUS
 62
     7
 10
-38.964043
 20
46.746849
 11
-39.84272
 21
46.746849
  0
LINE
  8
0
  6
CONTINUOUS
 62
     7
 10
-38.964043
 20
46.746849
 11
-38.964043
 21
38.746845
  0
LINE
  8
0
  6
CONTINUOUS
 62
     7
 10
-39.84272
 20
46.746845
 11
-39.84272
 21
38.746845
  0
LINE
  8
0
  6
CONTINUOUS
 62
     7
 10
-39.842716
 20
46.746845
 11
-39.342716
 21
47.246845
  0
LINE
  8
0
  6
CONTINUOUS
 62
     7
 10
-30.763023
 20
46.746849
 11
-30.763023
 21
38.746845
  0
LINE
  8
0
  6
CONTINUOUS
 62
     7
 10
-22.84272
 20
47.246845
 11
-39.34272
 21
47.246845
  0
LINE
  8
0
  6
CONTINUOUS
 62
     7
 10
-39.062576
 20
50.646847
 11
-39.062576
 21
47.246845
  0
LINE
  8
0
  6
CONTINUOUS
 62
     7
 10
-0.74272943
 20
56.68557
 11
2.6572721
 21
56.68557
  0
LINE
  8
0
  6
CONTINUOUS
 62
     7
 10
-0.74272943
 20
89.746841
 11
-0.74272943
 21
72.746841
  0
LINE
  8
0
  6
CONTINUOUS
 62
     7
 10
-0.74273241
 20
89.746841
 11
-1.242733
 21
90.246841
  0
LINE
  8
0
  6
CONTINUOUS
 62
     7
 10
-2.7427294
 20
90.246841
 11
-2.7427294
 21
72.746841
  0
LINE
  8
0
  6
CONTINUOUS
 62
     7
 10
11.157272
 20
72.746841
 11
11.157272
 21
89.746841
  0
LINE
  8
0
  6
CONTINUOUS
 62
     7
 10
3.1572683
 20
78.54583
 11
11.157272
 21
78.54583
  0
LINE
  8
0
  6
CONTINUOUS
 62
     7
 10
3.1572683
 20
78.54583
 11
3.1572683
 21
80.667152
  0
LINE
  8
0
  6
CONTINUOUS
 62
     7
 10
3.1572683
 20
88.868164
 11
3.1572683
 21
89.746841
  0
LINE
  8
0
  6
CONTINUOUS
 62
     7
 10
3.1572683
 20
88.868164
 11
11.157272
 21
88.868164
  0
LINE
  8
0
  6
CONTINUOUS
 62
     7
 10
3.1572721
 20
89.746841
 11
11.157272
 21
89.746841
  0
LINE
  8
0
  6
CONTINUOUS
 62
     7
 10
3.1572685
 20
89.746841
 11
2.657268
 21
89.246841
  0
LINE
  8
0
  6
CONTINUOUS
 62
     7
 10
3.1572683
 20
80.667152
 11
11.157272
 21
80.667152
  0
LINE
  8
0
  6
CONTINUOUS
 62
     7
 10
2.6572721
 20
72.746841
 11
2.6572721
 21
89.246841
  0
LINE
  8
0
  6
CONTINUOUS
 62
     7
 10
-0.74272943
 20
88.808113
 11
2.6572721
 21
88.808113
  0
LINE
  8
0
  6
CONTINUOUS
 62
     7
 10
-2.7427294
 20
90.246841
 11
-1.2427294
 21
90.246841
  0
LINE
  8
0
  6
CONTINUOUS
 62
     7
 10
125.4705
 20
52.230843
 11
128.9705
 21
52.230843
  0
LINE
  8
0
  6
CONTINUOUS
 62
     7
 10
117.10596
 20
43.746838
 11
117.10596
 21
40.246838
  0
LINE
  8
0
  6
CONTINUOUS
 62
     7
 10
74.470497
 20
45.746838
 11
74.470497
 21
44.246838
  0
LINE
  8
0
  6
CONTINUOUS
 62
     7
 10
96.470497
 20
43.746838
 11
74.970497
 21
43.746838
  0
LINE
  8
0
  6
CONTINUOUS
 62
     7
 10
74.970497
 20
43.746838
 11
74.470497
 21
44.246838
  0
LINE
  8
0
  6
CONTINUOUS
 62
     7
 10
76.577286
 20
39.746838
 11
76.577286
 21
30.746838
  0
LINE
  8
0
  6
CONTINUOUS
 62
     7
 10
75.470497
 20
40.246834
 11
74.970505
 21
39.746838
  0
LINE
  8
0
  6
CONTINUOUS
 62
     7
 10
76.577286
 20
39.746838
 11
74.970497
 21
39.746838
  0
LINE
  8
0
  6
CONTINUOUS
 62
     7
 10
89.83725
 20
39.746838
 11
85.958115
 21
39.746838
  0
LINE
  8
0
  6
CONTINUOUS
 62
     7
 10
74.970497
 20
39.746838
 11
74.970497
 21
30.746838
  0
LINE
  8
0
  6
CONTINUOUS
 62
     7
 10
96.470497
 20
30.746838
 11
74.970497
 21
30.746838
  0
LINE
  8
0
  6
CONTINUOUS
 62
     7
 10
85.958115
 20
39.746838
 11
85.958115
 21
30.746838
  0
LINE
  8
0
  6
CONTINUOUS
 62
     7
 10
89.83725
 20
39.746838
 11
89.83725
 21
30.746838
  0
LINE
  8
0
  6
CONTINUOUS
 62
     7
 10
96.470497
 20
45.746838
 11
74.470497
 21
45.746838
  0
LINE
  8
0
  6
CONTINUOUS
 62
     7
 10
75.835037
 20
43.746838
 11
75.835037
 21
40.246838
  0
LINE
  8
0
  6
CONTINUOUS
 62
     7
 10
96.470497
 20
40.246838
 11
75.470497
 21
40.246838
  0
LINE
  8
0
  6
CONTINUOUS
 62
     7
 10
123.4705
 20
94.746841
 11
124.9705
 21
94.746841
  0
LINE
  8
0
  6
CONTINUOUS
 62
     7
 10
125.4705
 20
72.746841
 11
125.4705
 21
94.246841
  0
LINE
  8
0
  6
CONTINUOUS
 62
     7
 10
125.4705
 20
94.246841
 11
124.9705
 21
94.746841
  0
LINE
  8
0
  6
CONTINUOUS
 62
     7
 10
129.4705
 20
92.640053
 11
138.4705
 21
92.640053
  0
LINE
  8
0
  6
CONTINUOUS
 62
     7
 10
128.97049
 20
93.746841
 11
129.47049
 21
94.246841
  0
LINE
  8
0
  6
CONTINUOUS
 62
     7
 10
129.4705
 20
92.640053
 11
129.4705
 21
94.246841
  0
LINE
  8
0
  6
CONTINUOUS
 62
     7
 10
129.4705
 20
79.380089
 11
129.4705
 21
83.259224
  0
LINE
  8
0
  6
CONTINUOUS
 62
     7
 10
129.4705
 20
94.246841
 11
138.4705
 21
94.246841
  0
LINE
  8
0
  6
CONTINUOUS
 62
     7
 10
138.4705
 20
72.746841
 11
138.4705
 21
94.246841
  0
LINE
  8
0
  6
CONTINUOUS
 62
     7
 10
129.4705
 20
83.259224
 11
138.4705
 21
83.259224
  0
LINE
  8
0
  6
CONTINUOUS
 62
     7
 10
129.4705
 20
79.380089
 11
138.4705
 21
79.380089
  0
LINE
  8
0
  6
CONTINUOUS
 62
     7
 10
128.9705
 20
72.746841
 11
128.9705
 21
93.746841
  0
LINE
  8
0
  6
CONTINUOUS
 62
     7
 10
125.4705
 20
93.26284
 11
128.9705
 21
93.26284
  0
LINE
  8
0
  6
CONTINUOUS
 62
     7
 10
123.4705
 20
72.746841
 11
123.4705
 21
94.746841
  0
LINE
  8
0
  6
CONTINUOUS
 62
     7
 10
-54.787373
 20
-93.323402
 11
-54.787373
 21
-96.923401
  0
LINE
  8
0
  6
CONTINUOUS
 62
     7
 10
-103.52222
 20
-93.323402
 11
-78.522224
 21
-93.323402
  0
LINE
  8
0
  6
CONTINUOUS
 62
     7
 10
-104.02222
 20
-92.823395
 11
-103.52222
 21
-93.323395
  0
LINE
  8
0
  6
CONTINUOUS
 62
     7
 10
-104.02222
 20
-91.823402
 11
-104.02222
 21
-92.823402
  0
LINE
  8
0
  6
CONTINUOUS
 62
     7
 10
-104.02222
 20
-90.823402
 11
-104.02222
 21
-92.823402
  0
LINE
  8
0
  6
CONTINUOUS
 62
     7
 10
-102.0006
 20
-97.423401
 11
-103.02222
 21
-97.423401
  0
LINE
  8
0
  6
CONTINUOUS
 62
     7
 10
-102.0006
 20
-97.423401
 11
-102.0006
 21
-107.8234
  0
LINE
  8
0
  6
CONTINUOUS
 62
     7
 10
-87.22567
 20
-97.423401
 11
-87.22567
 21
-107.8234
  0
LINE
  8
0
  6
CONTINUOUS
 62
     7
 10
-87.22567
 20
-97.423401
 11
-89.69207
 21
-97.423401
  0
LINE
  8
0
  6
CONTINUOUS
 62
     7
 10
-103.52222
 20
-90.823402
 11
-78.522224
 21
-90.823402
  0
LINE
  8
0
  6
CONTINUOUS
 62
     7
 10
-102.52222
 20
-96.923409
 11
-103.02222
 21
-97.423409
  0
LINE
  8
0
  6
CONTINUOUS
 62
     7
 10
-103.02222
 20
-97.423401
 11
-103.02222
 21
-107.8234
  0
LINE
  8
0
  6
CONTINUOUS
 62
     7
 10
-78.522224
 20
-107.8234
 11
-103.02222
 21
-107.8234
  0
LINE
  8
0
  6
CONTINUOUS
 62
     7
 10
-89.69207
 20
-97.423401
 11
-89.69207
 21
-107.8234
  0
LINE
  8
0
  6
CONTINUOUS
 62
     7
 10
-78.522224
 20
-96.923401
 11
-102.52222
 21
-96.923401
  0
LINE
  8
0
  6
CONTINUOUS
 62
     7
 10
-102.25707
 20
-93.323402
 11
-102.25707
 21
-96.923401
  0
LINE
  8
0
  6
CONTINUOUS
 62
     7
 10
-45.022221
 20
-83.503319
 11
-41.422215
 21
-83.503319
  0
LINE
  8
0
  6
CONTINUOUS
 62
     7
 10
-45.022221
 20
-34.823399
 11
-45.022221
 21
-59.823399
  0
LINE
  8
0
  6
CONTINUOUS
 62
     7
 10
-45.522224
 20
-34.323399
 11
-45.022224
 21
-34.823399
  0
LINE
  8
0
  6
CONTINUOUS
 62
     7
 10
-46.522221
 20
-34.323399
 11
-45.522221
 21
-34.323399
  0
LINE
  8
0
  6
CONTINUOUS
 62
     7
 10
-47.522221
 20
-34.323399
 11
-45.522221
 21
-34.323399
  0
LINE
  8
0
  6
CONTINUOUS
 62
     7
 10
-40.922215
 20
-36.345013
 11
-40.922215
 21
-35.323399
  0
LINE
  8
0
  6
CONTINUOUS
 62
     7
 10
-40.922215
 20
-36.345013
 11
-30.522221
 21
-36.345013
  0
LINE
  8
0
  6
CONTINUOUS
 62
     7
 10
-40.922215
 20
-51.119953
 11
-30.522221
 21
-51.119953
  0
LINE
  8
0
  6
CONTINUOUS
 62
     7
 10
-40.922215
 20
-51.119953
 11
-40.922215
 21
-48.653545
  0
LINE
  8
0
  6
CONTINUOUS
 62
     7
 10
-47.522221
 20
-34.823399
 11
-47.522221
 21
-59.823399
  0
LINE
  8
0
  6
CONTINUOUS
 62
     7
 10
-41.422222
 20
-35.82341
 11
-40.922222
 21
-35.32341
  0
LINE
  8
0
  6
CONTINUOUS
 62
     7
 10
-40.922215
 20
-35.323399
 11
-30.522221
 21
-35.323399
  0
LINE
  8
0
  6
CONTINUOUS
 62
     7
 10
-30.522221
 20
-59.823399
 11
-30.522221
 21
-35.323399
  0
LINE
  8
0
  6
CONTINUOUS
 62
     7
 10
-40.922215
 20
-48.653545
 11
-30.522221
 21
-48.653545
  0
LINE
  8
0
  6
CONTINUOUS
 62
     7
 10
-41.422215
 20
-59.823399
 11
-41.422215
 21
-35.823399
  0
LINE
  8
0
  6
CONTINUOUS
 62
     7
 10
-45.022221
 20
-36.143482
 11
-41.422215
 21
-36.143482
  0
LINE
  8
0
  6
CONTINUOUS
 62
     7
 10
121.17292
 20
-100.6491
 11
121.17292
 21
-104.2491
  0
LINE
  8
0
  6
CONTINUOUS
 62
     7
 10
131.99338
 20
-89.547371
 11
135.59338
 21
-89.547371
  0
LINE
  8
0
  6
CONTINUOUS
 62
     7
 10
61.993389
 20
-98.149101
 11
61.993389
 21
-100.1491
  0
LINE
  8
0
  6
CONTINUOUS
 62
     7
 10
62.493389
 20
-100.6491
 11
92.493385
 21
-100.6491
  0
LINE
  8
0
  6
CONTINUOUS
 62
     7
 10
61.993385
 20
-100.14911
 11
62.493385
 21
-100.64911
  0
LINE
  8
0
  6
CONTINUOUS
 62
     7
 10
82.96711
 20
-104.7491
 11
82.96711
 21
-116.1491
  0
LINE
  8
0
  6
CONTINUOUS
 62
     7
 10
92.493385
 20
-116.1491
 11
62.993389
 21
-116.1491
  0
LINE
  8
0
  6
CONTINUOUS
 62
     7
 10
63.493389
 20
-104.2491
 11
62.993385
 21
-104.7491
  0
LINE
  8
0
  6
CONTINUOUS
 62
     7
 10
64.897652
 20
-104.7491
 11
64.897652
 21
-116.1491
  0
LINE
  8
0
  6
CONTINUOUS
 62
     7
 10
78.369835
 20
-104.7491
 11
78.369835
 21
-116.1491
  0
LINE
  8
0
  6
CONTINUOUS
 62
     7
 10
62.993389
 20
-104.7491
 11
62.993389
 21
-116.1491
  0
LINE
  8
0
  6
CONTINUOUS
 62
     7
 10
82.96711
 20
-104.7491
 11
78.369835
 21
-104.7491
  0
LINE
  8
0
  6
CONTINUOUS
 62
     7
 10
64.897652
 20
-104.7491
 11
62.993389
 21
-104.7491
  0
LINE
  8
0
  6
CONTINUOUS
 62
     7
 10
92.493385
 20
-104.2491
 11
63.493389
 21
-104.2491
  0
LINE
  8
0
  6
CONTINUOUS
 62
     7
 10
63.813854
 20
-100.6491
 11
63.813854
 21
-104.2491
  0
LINE
  8
0
  6
CONTINUOUS
 62
     7
 10
62.493389
 20
-98.149101
 11
92.493385
 21
-98.149101
  0
LINE
  8
0
  6
CONTINUOUS
 62
     7
 10
129.49338
 20
-30.649101
 11
131.49338
 21
-30.649101
  0
LINE
  8
0
  6
CONTINUOUS
 62
     7
 10
131.99338
 20
-31.149101
 11
131.99338
 21
-61.149101
  0
LINE
  8
0
  6
CONTINUOUS
 62
     7
 10
131.49339
 20
-30.649101
 11
131.99339
 21
-31.149103
  0
LINE
  8
0
  6
CONTINUOUS
 62
     7
 10
136.09338
 20
-51.622822
 11
147.49338
 21
-51.622822
  0
LINE
  8
0
  6
CONTINUOUS
 62
     7
 10
147.49338
 20
-61.149101
 11
147.49338
 21
-31.649101
  0
LINE
  8
0
  6
CONTINUOUS
 62
     7
 10
135.5934
 20
-32.149105
 11
136.0934
 21
-31.649103
  0
LINE
  8
0
  6
CONTINUOUS
 62
     7
 10
136.09338
 20
-33.553352
 11
147.49338
 21
-33.553352
  0
LINE
  8
0
  6
CONTINUOUS
 62
     7
 10
136.09338
 20
-47.025547
 11
147.49338
 21
-47.025547
  0
LINE
  8
0
  6
CONTINUOUS
 62
     7
 10
136.09338
 20
-31.649101
 11
147.49338
 21
-31.649101
  0
LINE
  8
0
  6
CONTINUOUS
 62
     7
 10
136.09338
 20
-51.622822
 11
136.09338
 21
-47.025547
  0
LINE
  8
0
  6
CONTINUOUS
 62
     7
 10
136.09338
 20
-33.553352
 11
136.09338
 21
-31.649101
  0
LINE
  8
0
  6
CONTINUOUS
 62
     7
 10
135.59338
 20
-61.149101
 11
135.59338
 21
-32.149101
  0
LINE
  8
0
  6
CONTINUOUS
 62
     7
 10
131.99338
 20
-32.750828
 11
135.59338
 21
-32.750828
  0
LINE
  8
0
  6
CONTINUOUS
 62
     7
 10
129.49338
 20
-31.149101
 11
129.49338
 21
-61.149101
  0
LINE
  8
0
  6
CONTINUOUS
 62
     7
 10
-74.731667
 20
-297.70166
 11
-74.731667
 21
-301.70166
  0
LINE
  8
0
  6
CONTINUOUS
 62
     7
 10
-64.687668
 20
-287.4364
 11
-60.687675
 21
-287.4364
  0
LINE
  8
0
  6
CONTINUOUS
 62
     7
 10
-141.68767
 20
-297.70166
 11
-107.68768
 21
-297.70166
  0
LINE
  8
0
  6
CONTINUOUS
 62
     7
 10
-142.18767
 20
-294.20166
 11
-142.18767
 21
-297.20166
  0
LINE
  8
0
  6
CONTINUOUS
 62
     7
 10
-141.68768
 20
-297.70166
 11
-142.18768
 21
-297.20166
  0
LINE
  8
0
  6
CONTINUOUS
 62
     7
 10
-141.68767
 20
-302.20163
 11
-141.18768
 21
-301.70166
  0
LINE
  8
0
  6
CONTINUOUS
 62
     7
 10
-138.94907
 20
-302.20166
 11
-141.68767
 21
-302.20166
  0
LINE
  8
0
  6
CONTINUOUS
 62
     7
 10
-141.68767
 20
-302.20166
 11
-141.68767
 21
-313.70166
  0
LINE
  8
0
  6
CONTINUOUS
 62
     7
 10
-138.94907
 20
-302.20166
 11
-138.94907
 21
-313.70166
  0
LINE
  8
0
  6
CONTINUOUS
 62
     7
 10
-117.89796
 20
-302.20166
 11
-124.50954
 21
-302.20166
  0
LINE
  8
0
  6
CONTINUOUS
 62
     7
 10
-124.50954
 20
-302.20166
 11
-124.50954
 21
-313.70166
  0
LINE
  8
0
  6
CONTINUOUS
 62
     7
 10
-107.68768
 20
-313.70166
 11
-141.68767
 21
-313.70166
  0
LINE
  8
0
  6
CONTINUOUS
 62
     7
 10
-117.89796
 20
-302.20166
 11
-117.89796
 21
-313.70166
  0
LINE
  8
0
  6
CONTINUOUS
 62
     7
 10
-107.68768
 20
-301.70166
 11
-141.18767
 21
-301.70166
  0
LINE
  8
0
  6
CONTINUOUS
 62
     7
 10
-140.64368
 20
-297.70166
 11
-140.64368
 21
-301.70166
  0
LINE
  8
0
  6
CONTINUOUS
 62
     7
 10
-141.68767
 20
-294.20166
 11
-107.68768
 21
-294.20166
  0
LINE
  8
0
  6
CONTINUOUS
 62
     7
 10
-64.687668
 20
-220.70166
 11
-64.687668
 21
-254.70166
  0
LINE
  8
0
  6
CONTINUOUS
 62
     7
 10
-60.187679
 20
-220.70166
 11
-60.687672
 21
-221.20164
  0
LINE
  8
0
  6
CONTINUOUS
 62
     7
 10
-60.187675
 20
-223.44026
 11
-60.187675
 21
-220.70166
  0
LINE
  8
0
  6
CONTINUOUS
 62
     7
 10
-60.187675
 20
-223.44026
 11
-48.687675
 21
-223.44026
  0
LINE
  8
0
  6
CONTINUOUS
 62
     7
 10
-60.187675
 20
-244.49136
 11
-60.187675
 21
-237.87979
  0
LINE
  8
0
  6
CONTINUOUS
 62
     7
 10
-60.187675
 20
-237.87979
 11
-48.687675
 21
-237.87979
  0
LINE
  8
0
  6
CONTINUOUS
 62
     7
 10
-48.687675
 20
-254.70166
 11
-48.687675
 21
-220.70166
  0
LINE
  8
0
  6
CONTINUOUS
 62
     7
 10
-60.187675
 20
-244.49136
 11
-48.687675
 21
-244.49136
  0
LINE
  8
0
  6
CONTINUOUS
 62
     7
 10
-60.687675
 20
-254.70166
 11
-60.687675
 21
-221.20166
  0
LINE
  8
0
  6
CONTINUOUS
 62
     7
 10
-64.687668
 20
-221.9669
 11
-60.687675
 21
-221.9669
  0
LINE
  8
0
  6
CONTINUOUS
 62
     7
 10
-68.187668
 20
-220.20166
 11
-65.187668
 21
-220.20166
  0
LINE
  8
0
  6
CONTINUOUS
 62
     7
 10
-64.687668
 20
-220.70164
 11
-65.187668
 21
-220.20164
  0
LINE
  8
0
  6
CONTINUOUS
 62
     7
 10
-60.187675
 20
-220.70166
 11
-48.687675
 21
-220.70166
  0
LINE
  8
0
  6
CONTINUOUS
 62
     7
 10
-68.187668
 20
-220.70166
 11
-68.187668
 21
-254.70166
  0
LINE
  8
0
  6
CONTINUOUS
 62
     7
 10
118.95646
 20
-297.00131
 11
122.45646
 21
-297.00131
  0
LINE
  8
0
  6
CONTINUOUS
 62
     7
 10
109.95951
 20
-306.35306
 11
109.95951
 21
-309.85306
  0
LINE
  8
0
  6
CONTINUOUS
 62
     7
 10
28.45644
 20
-306.35306
 11
69.956451
 21
-306.35306
  0
LINE
  8
0
  6
CONTINUOUS
 62
     7
 10
27.956442
 20
-305.85306
 11
28.456444
 21
-306.35306
  0
LINE
  8
0
  6
CONTINUOUS
 62
     7
 10
27.95644
 20
-301.85306
 11
27.95644
 21
-305.85306
  0
LINE
  8
0
  6
CONTINUOUS
 62
     7
 10
28.95644
 20
-310.35306
 11
28.95644
 21
-325.35306
  0
LINE
  8
0
  6
CONTINUOUS
 62
     7
 10
28.95644
 20
-310.35306
 11
29.45644
 21
-309.85306
  0
LINE
  8
0
  6
CONTINUOUS
 62
     7
 10
31.799915
 20
-310.35306
 11
28.95644
 21
-310.35306
  0
LINE
  8
0
  6
CONTINUOUS
 62
     7
 10
69.956451
 20
-309.85306
 11
29.45644
 21
-309.85306
  0
LINE
  8
0
  6
CONTINUOUS
 62
     7
 10
31.799915
 20
-310.35306
 11
31.799915
 21
-325.35306
  0
LINE
  8
0
  6
CONTINUOUS
 62
     7
 10
56.994961
 20
-310.35306
 11
56.994961
 21
-325.35306
  0
LINE
  8
0
  6
CONTINUOUS
 62
     7
 10
69.956451
 20
-325.35306
 11
28.95644
 21
-325.35306
  0
LINE
  8
0
  6
CONTINUOUS
 62
     7
 10
50.130222
 20
-310.35306
 11
50.130222
 21
-325.35306
  0
LINE
  8
0
  6
CONTINUOUS
 62
     7
 10
56.994961
 20
-310.35306
 11
50.130222
 21
-310.35306
  0
LINE
  8
0
  6
CONTINUOUS
 62
     7
 10
29.953392
 20
-306.35306
 11
29.953392
 21
-309.85306
  0
LINE
  8
0
  6
CONTINUOUS
 62
     7
 10
28.45644
 20
-301.85306
 11
69.956451
 21
-301.85306
  0
LINE
  8
0
  6
CONTINUOUS
 62
     7
 10
118.95646
 20
-215.85306
 11
118.95646
 21
-257.35306
  0
LINE
  8
0
  6
CONTINUOUS
 62
     7
 10
118.45645
 20
-215.35306
 11
118.95645
 21
-215.85306
  0
LINE
  8
0
  6
CONTINUOUS
 62
     7
 10
114.45646
 20
-215.35306
 11
118.45644
 21
-215.35306
  0
LINE
  8
0
  6
CONTINUOUS
 62
     7
 10
122.95646
 20
-216.35306
 11
137.95645
 21
-216.35306
  0
LINE
  8
0
  6
CONTINUOUS
 62
     7
 10
122.95645
 20
-216.35306
 11
122.45645
 21
-216.85306
  0
LINE
  8
0
  6
CONTINUOUS
 62
     7
 10
122.95646
 20
-219.19653
 11
122.95646
 21
-216.35306
  0
LINE
  8
0
  6
CONTINUOUS
 62
     7
 10
122.45646
 20
-257.35306
 11
122.45646
 21
-216.85306
  0
LINE
  8
0
  6
CONTINUOUS
 62
     7
 10
122.95646
 20
-219.19653
 11
137.95645
 21
-219.19653
  0
LINE
  8
0
  6
CONTINUOUS
 62
     7
 10
122.95646
 20
-244.39157
 11
137.95645
 21
-244.39157
  0
LINE
  8
0
  6
CONTINUOUS
 62
     7
 10
137.95645
 20
-257.35306
 11
137.95645
 21
-216.35306
  0
LINE
  8
0
  6
CONTINUOUS
 62
     7
 10
122.95646
 20
-237.52682
 11
137.95645
 21
-237.52682
  0
LINE
  8
0
  6
CONTINUOUS
 62
     7
 10
122.95646
 20
-244.39157
 11
122.95646
 21
-237.52682
  0
LINE
  8
0
  6
CONTINUOUS
 62
     7
 10
118.95646
 20
-217.7048
 11
122.45646
 21
-217.7048
  0
LINE
  8
0
  6
CONTINUOUS
 62
     7
 10
114.45646
 20
-215.85306
 11
114.45646
 21
-257.35306
  0
LINE
  8
0
  6
CENTER
 62
     7
 10
-334.99207
 20
133.71675
 11
-334.99207
 21
94.471268
  0
LINE
  8
0
  6
CENTER
 62
     7
 10
-353.47397
 20
115.29343
 11
-317.22595
 21
115.29343
  0
LINE
  8
0
  6
CONTINUOUS
 62
     7
 10
-319.29739
 20
115.29343
 11
-323.89426
 21
126.39125
  0
LINE
  8
0
  6
CONTINUOUS
 62
     7
 10
-323.89423
 20
126.39125
 11
-334.99207
 21
130.98813
  0
LINE
  8
0
  6
CONTINUOUS
 62
     7
 10
-346.08987
 20
126.39125
 11
-334.99207
 21
130.98811
  0
LINE
  8
0
  6
CONTINUOUS
 62
     7
 10
-350.68674
 20
115.29343
 11
-346.08987
 21
126.39126
  0
LINE
  8
0
  6
CONTINUOUS
 62
     7
 10
-346.08987
 20
104.19561
 11
-350.68677
 21
115.29343
  0
LINE
  8
0
  6
CONTINUOUS
 62
     7
 10
-334.99203
 20
99.598747
 11
-346.08987
 21
104.19562
  0
LINE
  8
0
  6
CONTINUOUS
 62
     7
 10
-323.89423
 20
104.19561
 11
-334.99203
 21
99.598747
  0
LINE
  8
0
  6
CONTINUOUS
 62
     7
 10
-319.29736
 20
115.29343
 11
-323.89423
 21
104.19562
  0
LINE
  8
0
  6
CENTER
 62
     7
 10
-359.04245
 20
70.216858
 11
-311.29465
 21
70.216858
  0
LINE
  8
0
  6
CONTINUOUS
 62
     7
 10
-316.5914
 20
70.21685
 11
-321.98083
 21
83.228081
  0
LINE
  8
0
  6
CONTINUOUS
 62
     7
 10
-321.98083
 20
83.228088
 11
-334.99203
 21
88.617516
  0
LINE
  8
0
  6
CONTINUOUS
 62
     7
 10
-348.0033
 20
83.228088
 11
-334.99207
 21
88.617516
  0
LINE
  8
0
  6
CONTINUOUS
 62
     7
 10
-353.39273
 20
70.21685
 11
-348.0033
 21
83.228088
  0
LINE
  8
0
  6
CONTINUOUS
 62
     7
 10
-348.0033
 20
57.205616
 11
-353.39273
 21
70.216843
  0
LINE
  8
0
  6
CONTINUOUS
 62
     7
 10
-334.99207
 20
51.816189
 11
-348.0033
 21
57.205616
  0
LINE
  8
0
  6
CONTINUOUS
 62
     7
 10
-321.98083
 20
57.205608
 11
-334.99207
 21
51.816181
  0
LINE
  8
0
  6
CONTINUOUS
 62
     7
 10
-316.5914
 20
70.21685
 11
-321.9808
 21
57.205612
  0
LINE
  8
0
  6
CENTER
 62
     7
 10
-334.99207
 20
92.540138
 11
-334.99207
 21
49.08976
  0
LINE
  8
0
  6
CENTER
 62
     7
 10
-364.29907
 20
19.402674
 11
-306.03799
 21
19.402674
  0
LINE
  8
0
  6
CONTINUOUS
 62
     7
 10
-311.72064
 20
19.402668
 11
-318.53668
 21
35.858059
  0
LINE
  8
0
  6
CONTINUOUS
 62
     7
 10
-318.53665
 20
35.858055
 11
-334.99203
 21
42.674103
  0
LINE
  8
0
  6
CONTINUOUS
 62
     7
 10
-351.44745
 20
35.858063
 11
-334.99203
 21
42.674107
  0
LINE
  8
0
  6
CONTINUOUS
 62
     7
 10
-358.26349
 20
19.402672
 11
-351.44745
 21
35.858063
  0
LINE
  8
0
  6
CONTINUOUS
 62
     7
 10
-351.44745
 20
2.9472792
 11
-358.26349
 21
19.402672
  0
LINE
  8
0
  6
CONTINUOUS
 62
     7
 10
-334.99203
 20
-3.8687582
 11
-351.44742
 21
2.9472883
  0
LINE
  8
0
  6
CONTINUOUS
 62
     7
 10
-318.53665
 20
2.9472954
 11
-334.99207
 21
-3.8687513
  0
LINE
  8
0
  6
CONTINUOUS
 62
     7
 10
-311.72061
 20
19.402676
 11
-318.53668
 21
2.947284
  0
LINE
  8
0
  6
CENTER
 62
     7
 10
-334.99207
 20
45.227501
 11
-334.99207
 21
-6.4301767
  0
LINE
  8
0
  6
CENTER
 62
     7
 10
-368.3595
 20
-36.668148
 11
-303.23602
 21
-36.668148
  0
LINE
  8
0
  6
CONTINUOUS
 62
     7
 10
-308.47345
 20
-36.668144
 11
-316.24057
 21
-17.916653
  0
LINE
  8
0
  6
CONTINUOUS
 62
     7
 10
-316.24057
 20
-17.916662
 11
-334.99207
 21
-10.149536
  0
LINE
  8
0
  6
CONTINUOUS
 62
     7
 10
-353.74353
 20
-17.916655
 11
-334.99207
 21
-10.149541
  0
LINE
  8
0
  6
CONTINUOUS
 62
     7
 10
-361.51068
 20
-36.668133
 11
-353.74356
 21
-17.916647
  0
LINE
  8
0
  6
CONTINUOUS
 62
     7
 10
-353.74356
 20
-55.419636
 11
-361.51068
 21
-36.66814
  0
LINE
  8
0
  6
CONTINUOUS
 62
     7
 10
-334.99203
 20
-63.18676
 11
-353.74356
 21
-55.419632
  0
LINE
  8
0
  6
CONTINUOUS
 62
     7
 10
-316.24057
 20
-55.41964
 11
-334.99203
 21
-63.186752
  0
LINE
  8
0
  6
CONTINUOUS
 62
     7
 10
-308.47345
 20
-36.668137
 11
-316.24057
 21
-55.419621
  0
LINE
  8
0
  6
CENTER
 62
     7
 10
-334.99207
 20
-7.6371317
 11
-334.99207
 21
-67.260719
  0
LINE
  8
0
  6
CENTER
 62
     7
 10
-371.41943
 20
-123.64684
 11
-298.49954
 21
-123.64684
  0
LINE
  8
0
  6
CONTINUOUS
 62
     7
 10
-303.06149
 20
-123.64684
 11
-312.41373
 21
-101.06852
  0
LINE
  8
0
  6
CONTINUOUS
 62
     7
 10
-312.41376
 20
-101.0685
 11
-334.99207
 21
-91.716263
  0
LINE
  8
0
  6
CONTINUOUS
 62
     7
 10
-357.57037
 20
-101.06852
 11
-334.99207
 21
-91.71627
  0
LINE
  8
0
  6
CONTINUOUS
 62
     7
 10
-366.92264
 20
-123.64684
 11
-357.57037
 21
-101.06851
  0
LINE
  8
0
  6
CONTINUOUS
 62
     7
 10
-357.57037
 20
-146.22516
 11
-366.92264
 21
-123.64684
  0
LINE
  8
0
  6
CONTINUOUS
 62
     7
 10
-334.99207
 20
-155.57739
 11
-357.57037
 21
-146.22516
  0
LINE
  8
0
  6
CONTINUOUS
 62
     7
 10
-312.41373
 20
-146.22516
 11
-334.99207
 21
-155.57741
  0
LINE
  8
0
  6
CONTINUOUS
 62
     7
 10
-303.06149
 20
-123.64683
 11
-312.41376
 21
-146.22516
  0
LINE
  8
0
  6
CENTER
 62
     7
 10
-334.99207
 20
-88.020348
 11
-334.99207
 21
-158.50652
  0
LINE
  8
0
  6
CENTER
 62
     7
 10
-381.80777
 20
-227.54436
 11
-292.01028
 21
-227.54436
  0
LINE
  8
0
  6
CONTINUOUS
 62
     7
 10
-298.19073
 20
-227.54436
 11
-308.96957
 21
-201.52188
  0
LINE
  8
0
  6
CONTINUOUS
 62
     7
 10
-308.96957
 20
-201.5219
 11
-334.99207
 21
-190.74303
  0
LINE
  8
0
  6
CONTINUOUS
 62
     7
 10
-361.01453
 20
-201.52188
 11
-334.99207
 21
-190.74303
  0
LINE
  8
0
  6
CONTINUOUS
 62
     7
 10
-371.7934
 20
-227.54436
 11
-361.01453
 21
-201.52187
  0
LINE
  8
0
  6
CONTINUOUS
 62
     7
 10
-361.01453
 20
-253.56682
 11
-371.7934
 21
-227.54436
  0
LINE
  8
0
  6
CONTINUOUS
 62
     7
 10
-334.99207
 20
-264.3457
 11
-361.01456
 21
-253.56683
  0
LINE
  8
0
  6
CONTINUOUS
 62
     7
 10
-308.9696
 20
-253.56683
 11
-334.99207
 21
-264.34567
  0
LINE
  8
0
  6
CONTINUOUS
 62
     7
 10
-298.19073
 20
-227.54434
 11
-308.9696
 21
-253.56683
  0
LINE
  8
0
  6
CENTER
 62
     7
 10
-334.99207
 20
-184.09396
 11
-334.99207
 21
-269.06363
  0
LINE
  8
0
  6
CENTER
 62
     7
 10
-383.98029
 20
-333.27365
 11
-285.00995
 21
-333.27365
  0
LINE
  8
0
  6
CONTINUOUS
 62
     7
 10
-290.61398
 20
-333.27362
 11
-303.61203
 21
-301.89359
  0
LINE
  8
0
  6
CONTINUOUS
 62
     7
 10
-303.61203
 20
-301.89359
 11
-334.99207
 21
-288.89554
  0
LINE
  8
0
  6
CONTINUOUS
 62
     7
 10
-366.3721
 20
-301.89359
 11
-334.99207
 21
-288.89554
  0
LINE
  8
0
  6
CONTINUOUS
 62
     7
 10
-379.37015
 20
-333.27362
 11
-366.3721
 21
-301.89355
  0
LINE
  8
0
  6
CONTINUOUS
 62
     7
 10
-366.37207
 20
-364.65366
 11
-379.37012
 21
-333.27362
  0
LINE
  8
0
  6
CONTINUOUS
 62
     7
 10
-334.9921
 20
-377.65173
 11
-366.37213
 21
-364.65369
  0
LINE
  8
0
  6
CONTINUOUS
 62
     7
 10
-303.61203
 20
-364.65366
 11
-334.99207
 21
-377.6517
  0
LINE
  8
0
  6
CONTINUOUS
 62
     7
 10
-290.61398
 20
-333.27362
 11
-303.61203
 21
-364.65366
  0
LINE
  8
0
  6
CENTER
 62
     7
 10
-334.99207
 20
-283.0643
 11
-334.99207
 21
-383.00018
  0
ARC
  8
0
  6
CONTINUOUS
 62
     7
 10
-124.50453
 20
59.072544
 40
24.5
 50
135
 51
176.4591
  0
ARC
  8
0
  6
CONTINUOUS
 62
     7
 10
-124.50453
 20
59.072544
 40
5.5
 50
135
 51
164.96892
  0
ARC
  8
0
  6
CENTER
 62
     7
 10
-124.50453
 20
59.072544
 40
15
 50
90.000003
 51
180.00001
  0
ARC
  8
0
  6
CONTINUOUS
 62
     7
 10
-124.00453
 20
60.951672
 40
6
 50
194.05523
 51
265.21979
  0
ARC
  8
0
  6
CONTINUOUS
 62
     7
 10
-127.88478
 20
59.980244
 40
2
 50
164.96892
 51
194.05522
  0
ARC
  8
0
  6
CONTINUOUS
 62
     7
 10
-154.9463
 20
60.956257
 40
6
 50
274.22245
 51
356.4591
  0
ARC
  8
0
  6
CONTINUOUS
 62
     7
 10
-121.50453
 20
56.072544
 40
3
 50
135
 51
180.00001
  0
ARC
  8
0
  6
CONTINUOUS
 62
     7
 10
-3.8427203
 20
53.746841
 40
31.5
 50
135
 51
172.55208
  0
ARC
  8
0
  6
CENTER
 62
     7
 10
-2.8427203
 20
52.746841
 40
20
 50
90.000003
 51
180.00001
  0
ARC
  8
0
  6
CONTINUOUS
 62
     7
 10
-2.3427203
 20
52.246841
 40
3
 50
135
 51
180.00001
  0
ARC
  8
0
  6
CONTINUOUS
 62
     7
 10
-41.026329
 20
58.607773
 40
6
 50
276.54225
 51
352.55207
  0
ARC
  8
0
  6
CENTER
 62
     7
 10
119.47049
 20
49.746841
 40
23
 50
90.000003
 51
180.00001
  0
ARC
  8
0
  6
CONTINUOUS
 62
     7
 10
119.4705
 20
49.746841
 40
38.5
 50
135
 51
176.23408
  0
ARC
  8
0
  6
CONTINUOUS
 62
     7
 10
74.068748
 20
52.735302
 40
7
 50
273.29018
 51
356.23409
  0
ARC
  8
0
  6
CONTINUOUS
 62
     7
 10
123.4705
 20
45.746841
 40
5
 50
135
 51
180.00003
  0
ARC
  8
0
  6
CONTINUOUS
 62
     7
 10
118.9705
 20
52.728958
 40
7
 50
196.9153
 51
265.90395
  0
ARC
  8
0
  6
CONTINUOUS
 62
     7
 10
119.4705
 20
49.746841
 40
7.5
 50
135
 51
163.87726
  0
ARC
  8
0
  6
CONTINUOUS
 62
     7
 10
114.18682
 20
51.27417
 40
2
 50
163.87726
 51
196.91531
  0
ARC
  8
0
  6
CONTINUOUS
 62
     7
 10
-47.041508
 20
-91.304115
 40
12.521858
 50
135
 51
141.61864
  0
ARC
  8
0
  6
CENTER
 62
     7
 10
-46.522221
 20
-91.823402
 40
32
 50
90.000003
 51
180.00001
  0
ARC
  8
0
  6
CONTINUOUS
 62
     7
 10
-47.041508
 20
-91.304115
 40
6
 50
135
 51
175.4046
  0
ARC
  8
0
  6
CONTINUOUS
 62
     7
 10
-103.97007
 20
-83.823402
 40
7
 50
270
 51
352.0738
  0
ARC
  8
0
  6
CONTINUOUS
 62
     7
 10
-46.524174
 20
-91.821457
 40
51
 50
135
 51
172.0738
  0
ARC
  8
0
  6
CONTINUOUS
 62
     7
 10
-53.329807
 20
-86.323402
 40
4.5
 50
141.61864
 51
270
  0
ARC
  8
0
  6
CONTINUOUS
 62
     7
 10
122.29717
 20
-93.149101
 40
5
 50
150.00038
 51
270
  0
ARC
  8
0
  6
CONTINUOUS
 62
     7
 10
62.68594
 20
-91.149101
 40
7
 50
270
 51
355.58831
  0
ARC
  8
0
  6
CONTINUOUS
 62
     7
 10
127.49335
 20
-96.149063
 40
11
 50
135
 51
150.00038
  0
ARC
  8
0
  6
CENTER
 62
     7
 10
127.49339
 20
-96.149101
 40
35
 50
135
 51
180.00001
  0
ARC
  8
0
  6
CONTINUOUS
 62
     7
 10
127.49335
 20
-96.149063
 40
58
 50
135
 51
175.5883
  0
ARC
  8
0
  6
CENTER
 62
     7
 10
127.49339
 20
-96.149101
 40
35
 50
90.000003
 51
135
  0
ARC
  8
0
  6
CONTINUOUS
 62
     7
 10
129.97668
 20
-98.632401
 40
7
 50
135
 51
183.95899
  0
ARC
  8
0
  6
CONTINUOUS
 62
     7
 10
-68.187675
 20
-294.20166
 40
5
 50
135
 51
180.00001
  0
ARC
  8
0
  6
CENTER
 62
     7
 10
-68.187675
 20
-294.20166
 40
39.5
 50
90.000003
 51
135
  0
ARC
  8
0
  6
CENTER
 62
     7
 10
-68.187675
 20
-294.20166
 40
39.5
 50
135
 51
180.00001
  0
ARC
  8
0
  6
CONTINUOUS
 62
     7
 10
-68.187866
 20
-294.20148
 40
66
 50
135
 51
174.49759
  0
ARC
  8
0
  6
CONTINUOUS
 62
     7
 10
-68.187866
 20
-294.20148
 40
11.5
 50
135
 51
147.77084
  0
ARC
  8
0
  6
CONTINUOUS
 62
     7
 10
-74.53228
 20
-290.20166
 40
4
 50
147.77084
 51
270
  0
ARC
  8
0
  6
CONTINUOUS
 62
     7
 10
-140.8515
 20
-287.20166
 40
7
 50
270
 51
354.49759
  0
ARC
  8
0
  6
CONTINUOUS
 62
     7
 10
111.95646
 20
-299.35306
 40
74.5
 50
135
 51
175.53533
  0
ARC
  8
0
  6
CONTINUOUS
 62
     7
 10
114.92037
 20
-302.31699
 40
3
 50
134.99997
 51
171.1042
  0
ARC
  8
0
  6
CENTER
 62
     7
 10
111.95646
 20
-299.35306
 40
42
 50
90.000003
 51
180.00001
  0
ARC
  8
0
  6
CONTINUOUS
 62
     7
 10
113.94924
 20
-301.34589
 40
11.532344
 50
134.99993
 51
136.54541
  0
ARC
  8
0
  6
CONTINUOUS
 62
     7
 10
109.20728
 20
-296.85306
 40
5
 50
136.54541
 51
270
  0
ARC
  8
0
  6
CONTINUOUS
 62
     7
 10
28.709827
 20
-292.85306
 40
9
 50
270
 51
355.53533
  0
ARC
  8
0
  6
CONTINUOUS
 62
     7
 10
111.67329
 20
17.99684
 40
22.249998
 50
77.830456
 51
102.16955
  0
ARC
  8
0
  6
CONTINUOUS
 62
     7
 10
96.470497
 20
-4.0031524
 40
44.249989
 50
81.378644
 51
89.999996
  0
ARC
  8
0
  6
CONTINUOUS
 62
     7
 10
112.9705
 20
30.746838
 40
5
 50
270
 51
2.5044781E-006
  0
ARC
  8
0
  6
CONTINUOUS
 62
     7
 10
113.35303
 20
-149.87431
 40
45.625206
 50
81.509825
 51
98.49018
  0
ARC
  8
0
  6
CONTINUOUS
 62
     7
 10
92.493385
 20
-195.24951
 40
91.000397
 50
83.991041
 51
89.999996
  0
ARC
  8
0
  6
CONTINUOUS
 62
     7
 10
115.99338
 20
-116.1491
 40
6
 50
270
 51
2.5044781E-006
  0
ARC
  8
0
  6
CONTINUOUS
 62
     7
 10
-129.00453
 20
42.072536
 40
4
 50
270
 51
2.5044781E-006
  0
ARC
  8
0
  6
CONTINUOUS
 62
     7
 10
-129.25121
 20
37.979168
 40
11.59337
 50
73.11152
 51
106.88849
  0
ARC
  8
0
  6
CONTINUOUS
 62
     7
 10
-139.50453
 20
26.631987
 40
22.940548
 50
78.015705
 51
90.000009
  0
ARC
  8
0
  6
CONTINUOUS
 62
     7
 10
-124.50453
 20
59.072544
 40
24.5
 50
93.540902
 51
135
  0
ARC
  8
0
  6
CONTINUOUS
 62
     7
 10
-124.50453
 20
59.072544
 40
5.5
 50
105.03108
 51
135
  0
ARC
  8
0
  6
CENTER
 62
     7
 10
-124.50453
 20
59.072544
 40
15
 50
89.999996
 51
179.99999
  0
ARC
  8
0
  6
CONTINUOUS
 62
     7
 10
-126.38367
 20
58.572544
 40
6
 50
4.7802061
 51
75.944771
  0
ARC
  8
0
  6
CONTINUOUS
 62
     7
 10
-125.41223
 20
62.452793
 40
2
 50
75.944778
 51
105.03108
  0
ARC
  8
0
  6
CONTINUOUS
 62
     7
 10
-126.38824
 20
89.514313
 40
6
 50
273.5409
 51
355.77755
  0
ARC
  8
0
  6
CONTINUOUS
 62
     7
 10
-121.50453
 20
56.072544
 40
3
 50
89.999996
 51
135
  0
ARC
  8
0
  6
CONTINUOUS
 62
     7
 10
-107.50452
 20
63.572544
 40
4
 50
270
 51
0
  0
ARC
  8
0
  6
CONTINUOUS
 62
     7
 10
-103.41116
 20
63.81921
 40
11.59337
 50
163.11152
 51
196.88848
  0
ARC
  8
0
  6
CONTINUOUS
 62
     7
 10
-92.06398
 20
74.07254
 40
22.940548
 50
179.99999
 51
191.9843
  0
ARC
  8
0
  6
CONTINUOUS
 62
     7
 10
-10.821907
 20
30.182613
 40
17.064236
 50
76.095862
 51
103.90414
  0
ARC
  8
0
  6
CONTINUOUS
 62
     7
 10
-22.84272
 20
13.368377
 40
33.878471
 50
80.144121
 51
89.999989
  0
ARC
  8
0
  6
CONTINUOUS
 62
     7
 10
-10.84272
 20
38.746845
 40
5
 50
270
 51
2.5044781E-006
  0
ARC
  8
0
  6
CONTINUOUS
 62
     7
 10
-3.8427241
 20
53.746841
 40
31.5
 50
97.447921
 51
135
  0
ARC
  8
0
  6
CONTINUOUS
 62
     7
 10
-2.3427241
 20
52.246841
 40
3
 50
89.999996
 51
135
  0
ARC
  8
0
  6
CONTINUOUS
 62
     7
 10
-8.7036552
 20
90.93045
 40
6
 50
277.44793
 51
353.45774
  0
ARC
  8
0
  6
CONTINUOUS
 62
     7
 10
19.721506
 20
60.726028
 40
17.064236
 50
166.09586
 51
193.90414
  0
ARC
  8
0
  6
CONTINUOUS
 62
     7
 10
36.53574
 20
72.746841
 40
33.878471
 50
180.00001
 51
189.85588
  0
ARC
  8
0
  6
CONTINUOUS
 62
     7
 10
11.157272
 20
60.746841
 40
5
 50
270
 51
0
  0
ARC
  8
0
  6
CONTINUOUS
 62
     7
 10
-3.8427203
 20
53.746841
 40
6.5
 50
122.87853
 51
147.12155
  0
ARC
  8
0
  6
CONTINUOUS
 62
     7
 10
-5.7427297
 20
56.686226
 40
3
 50
0
 51
122.87853
  0
ARC
  8
0
  6
CONTINUOUS
 62
     7
 10
-6.782105
 20
55.646843
 40
3
 50
147.12155
 51
270
  0
ARC
  8
0
  6
CONTINUOUS
 62
     7
 10
119.4705
 20
49.746841
 40
38.5
 50
93.765916
 51
135
  0
ARC
  8
0
  6
CONTINUOUS
 62
     7
 10
116.48204
 20
95.14859
 40
7
 50
273.76591
 51
356.70982
  0
ARC
  8
0
  6
CONTINUOUS
 62
     7
 10
123.4705
 20
45.746841
 40
5
 50
89.999968
 51
134.99999
  0
ARC
  8
0
  6
CONTINUOUS
 62
     7
 10
116.48838
 20
50.246841
 40
7
 50
4.0960465
 51
73.084698
  0
ARC
  8
0
  6
CONTINUOUS
 62
     7
 10
119.4705
 20
49.746841
 40
7.5
 50
106.12274
 51
135
  0
ARC
  8
0
  6
CONTINUOUS
 62
     7
 10
117.94317
 20
55.030518
 40
2
 50
73.084691
 51
106.12274
  0
ARC
  8
0
  6
CONTINUOUS
 62
     7
 10
151.2205
 20
57.544044
 40
22.249998
 50
167.83045
 51
192.16954
  0
ARC
  8
0
  6
CONTINUOUS
 62
     7
 10
173.22049
 20
72.746841
 40
44.249989
 50
180.00001
 51
188.62136
  0
ARC
  8
0
  6
CONTINUOUS
 62
     7
 10
138.4705
 20
56.246841
 40
5
 50
270
 51
0
  0
ARC
  8
0
  6
CONTINUOUS
 62
     7
 10
-61.198109
 20
-135.04842
 40
38.125019
 50
80.710474
 51
99.289517
  0
ARC
  8
0
  6
CONTINUOUS
 62
     7
 10
-59.022221
 20
-107.8234
 40
5
 50
270
 51
2.504478E-006
  0
ARC
  8
0
  6
CONTINUOUS
 62
     7
 10
-78.522224
 20
-172.92342
 40
76.000023
 50
83.424122
 51
89.999996
  0
ARC
  8
0
  6
CONTINUOUS
 62
     7
 10
-47.041508
 20
-91.304115
 40
12.521858
 50
128.38136
 51
135
  0
ARC
  8
0
  6
CONTINUOUS
 62
     7
 10
-47.041508
 20
-91.304115
 40
6
 50
94.595402
 51
135
  0
ARC
  8
0
  6
CONTINUOUS
 62
     7
 10
-54.522221
 20
-34.375553
 40
7
 50
277.9262
 51
1.7447614E-013
  0
ARC
  8
0
  6
CONTINUOUS
 62
     7
 10
-46.524158
 20
-91.821449
 40
51
 50
97.926205
 51
135
  0
ARC
  8
0
  6
CONTINUOUS
 62
     7
 10
-52.022221
 20
-85.015816
 40
4.5
 50
1.8093822E-013
 51
128.38136
  0
ARC
  8
0
  6
CONTINUOUS
 62
     7
 10
-3.2972
 20
-77.147522
 40
38.125019
 50
170.71048
 51
189.28953
  0
ARC
  8
0
  6
CONTINUOUS
 62
     7
 10
-30.522221
 20
-79.323402
 40
5
 50
270
 51
0
  0
ARC
  8
0
  6
CONTINUOUS
 62
     7
 10
34.577801
 20
-59.823399
 40
76.000023
 50
180.00001
 51
186.57588
  0
ARC
  8
0
  6
CONTINUOUS
 62
     7
 10
124.49338
 20
-90.952896
 40
5
 50
1.628444E-013
 51
119.99961
  0
ARC
  8
0
  6
CONTINUOUS
 62
     7
 10
122.49338
 20
-31.34166
 40
7
 50
274.41169
 51
2.3263486E-013
  0
ARC
  8
0
  6
CONTINUOUS
 62
     7
 10
127.49335
 20
-96.149071
 40
11
 50
119.99961
 51
135
  0
ARC
  8
0
  6
CONTINUOUS
 62
     7
 10
127.49335
 20
-96.149071
 40
58
 50
94.411697
 51
135
  0
ARC
  8
0
  6
CONTINUOUS
 62
     7
 10
129.97668
 20
-98.632401
 40
7
 50
86.04102
 51
135
  0
ARC
  8
0
  6
CONTINUOUS
 62
     7
 10
181.21858
 20
-82.008751
 40
45.625206
 50
171.50982
 51
188.49018
  0
ARC
  8
0
  6
CONTINUOUS
 62
     7
 10
226.59378
 20
-61.149101
 40
91.000397
 50
180.00001
 51
186.00896
  0
ARC
  8
0
  6
CONTINUOUS
 62
     7
 10
147.49338
 20
-84.649101
 40
6
 50
270
 51
0
  0
ARC
  8
0
  6
CONTINUOUS
 62
     7
 10
-81.687675
 20
-313.70166
 40
8
 50
270
 51
2.5044781E-006
  0
ARC
  8
0
  6
CONTINUOUS
 62
     7
 10
-83.646042
 20
-354.07666
 40
52.375008
 50
82.076689
 51
97.923316
  0
ARC
  8
0
  6
CONTINUOUS
 62
     7
 10
-107.68768
 20
-406.20166
 40
104.50002
 50
84.392902
 51
89.999996
  0
ARC
  8
0
  6
CONTINUOUS
 62
     7
 10
-68.187675
 20
-294.20166
 40
5
 50
90.000003
 51
135
  0
ARC
  8
0
  6
CONTINUOUS
 62
     7
 10
-68.187866
 20
-294.20148
 40
66
 50
95.502417
 51
135
  0
ARC
  8
0
  6
CONTINUOUS
 62
     7
 10
-68.187866
 20
-294.20148
 40
11.5
 50
122.22916
 51
135
  0
ARC
  8
0
  6
CONTINUOUS
 62
     7
 10
-72.187668
 20
-287.85706
 40
4
 50
0
 51
122.22916
  0
ARC
  8
0
  6
CONTINUOUS
 62
     7
 10
-75.187668
 20
-221.53784
 40
7
 50
275.50241
 51
0
  0
ARC
  8
0
  6
CONTINUOUS
 62
     7
 10
-48.687675
 20
-280.70166
 40
8
 50
270
 51
0
  0
ARC
  8
0
  6
CONTINUOUS
 62
     7
 10
-8.312665
 20
-278.74329
 40
52.375008
 50
172.07669
 51
187.92331
  0
ARC
  8
0
  6
CONTINUOUS
 62
     7
 10
43.812344
 20
-254.70166
 40
104.50002
 50
180.00001
 51
185.6071
  0
ARC
  8
0
  6
CONTINUOUS
 62
     7
 10
102.95646
 20
-325.35306
 40
8
 50
270
 51
2.5044781E-006
  0
ARC
  8
0
  6
CONTINUOUS
 62
     7
 10
69.956451
 20
-478.10269
 40
168.24962
 50
85.581717
 51
90.000003
  0
ARC
  8
0
  6
CONTINUOUS
 62
     7
 10
98.947838
 20
-394.10287
 40
84.249809
 50
83.754689
 51
96.245302
  0
ARC
  8
0
  6
CONTINUOUS
 62
     7
 10
111.95646
 20
-299.35306
 40
74.5
 50
94.464665
 51
135
  0
ARC
  8
0
  6
CONTINUOUS
 62
     7
 10
114.92037
 20
-302.31699
 40
3
 50
98.895798
 51
135.00003
  0
ARC
  8
0
  6
CONTINUOUS
 62
     7
 10
109.45646
 20
-296.60391
 40
5
 50
0
 51
133.45459
  0
ARC
  8
0
  6
CONTINUOUS
 62
     7
 10
105.45646
 20
-216.10645
 40
9
 50
274.46467
 51
0
  0
ARC
  8
0
  6
CONTINUOUS
 62
     7
 10
137.95645
 20
-290.35306
 40
8
 50
270
 51
0
  0
ARC
  8
0
  6
CONTINUOUS
 62
     7
 10
290.70609
 20
-257.35306
 40
168.24962
 50
179.99999
 51
184.41828
  0
ARC
  8
0
  6
CONTINUOUS
 62
     7
 10
206.70625
 20
-286.34445
 40
84.249809
 50
173.7547
 51
186.24531
  0
ARC
  8
0
  6
CONTINUOUS
 62
     7
 10
-150.00453
 20
42.072536
 40
4
 50
179.99999
 51
270
  0
ARC
  8
0
  6
CONTINUOUS
 62
     7
 10
-149.75786
 20
37.979168
 40
11.59337
 50
73.111513
 51
106.88848
  0
ARC
  8
0
  6
CONTINUOUS
 62
     7
 10
-139.50453
 20
26.631987
 40
22.940548
 50
89.999989
 51
101.98429
  0
ARC
  8
0
  6
CONTINUOUS
 62
     7
 10
-92.06398
 20
74.07254
 40
22.940548
 50
168.0157
 51
180.00001
  0
ARC
  8
0
  6
CONTINUOUS
 62
     7
 10
-107.50452
 20
84.57254
 40
4
 50
0
 51
90.000003
  0
ARC
  8
0
  6
CONTINUOUS
 62
     7
 10
-103.41116
 20
84.325874
 40
11.59337
 50
163.11152
 51
196.88848
  0
ARC
  8
0
  6
CONTINUOUS
 62
     7
 10
-34.863533
 20
30.182613
 40
17.064236
 50
76.095855
 51
103.90414
  0
ARC
  8
0
  6
CONTINUOUS
 62
     7
 10
-22.84272
 20
13.368377
 40
33.878471
 50
90.000009
 51
99.855877
  0
ARC
  8
0
  6
CONTINUOUS
 62
     7
 10
-34.84272
 20
38.746845
 40
5
 50
179.99999
 51
270
  0
ARC
  8
0
  6
CONTINUOUS
 62
     7
 10
19.721506
 20
84.767654
 40
17.064236
 50
166.09586
 51
193.90414
  0
ARC
  8
0
  6
CONTINUOUS
 62
     7
 10
36.53574
 20
72.746841
 40
33.878471
 50
170.14412
 51
179.99999
  0
ARC
  8
0
  6
CONTINUOUS
 62
     7
 10
11.157272
 20
84.746841
 40
5
 50
0
 51
90.000003
  0
ARC
  8
0
  6
CONTINUOUS
 62
     7
 10
81.2677
 20
17.99684
 40
22.249998
 50
77.83045
 51
102.16954
  0
ARC
  8
0
  6
CONTINUOUS
 62
     7
 10
79.970497
 20
30.746838
 40
5
 50
179.99999
 51
270
  0
ARC
  8
0
  6
CONTINUOUS
 62
     7
 10
96.470497
 20
-4.0031524
 40
44.249989
 50
90.000003
 51
98.621354
  0
ARC
  8
0
  6
CONTINUOUS
 62
     7
 10
138.4705
 20
89.246841
 40
5
 50
0
 51
90.000003
  0
ARC
  8
0
  6
CONTINUOUS
 62
     7
 10
151.2205
 20
87.949638
 40
22.249998
 50
167.83045
 51
192.16954
  0
ARC
  8
0
  6
CONTINUOUS
 62
     7
 10
173.22049
 20
72.746841
 40
44.249989
 50
171.37864
 51
179.99999
  0
ARC
  8
0
  6
CONTINUOUS
 62
     7
 10
-95.846336
 20
-135.04842
 40
38.125019
 50
80.710481
 51
99.289524
  0
ARC
  8
0
  6
CONTINUOUS
 62
     7
 10
-98.022224
 20
-107.8234
 40
5
 50
179.99999
 51
270
  0
ARC
  8
0
  6
CONTINUOUS
 62
     7
 10
-78.522224
 20
-172.92342
 40
76.000023
 50
90.000003
 51
96.575876
  0
ARC
  8
0
  6
CONTINUOUS
 62
     7
 10
-3.2972
 20
-42.499279
 40
38.125019
 50
170.71047
 51
189.28951
  0
ARC
  8
0
  6
CONTINUOUS
 62
     7
 10
-30.522221
 20
-40.323399
 40
5
 50
0
 51
90.000003
  0
ARC
  8
0
  6
CONTINUOUS
 62
     7
 10
34.577801
 20
-59.823399
 40
76.000023
 50
173.42412
 51
179.99999
  0
ARC
  8
0
  6
CONTINUOUS
 62
     7
 10
68.993385
 20
-116.1491
 40
6
 50
179.99999
 51
270
  0
ARC
  8
0
  6
CONTINUOUS
 62
     7
 10
71.633736
 20
-149.87431
 40
45.625206
 50
81.509818
 51
98.490174
  0
ARC
  8
0
  6
CONTINUOUS
 62
     7
 10
92.493385
 20
-195.24951
 40
91.000397
 50
90.000003
 51
96.008957
  0
ARC
  8
0
  6
CONTINUOUS
 62
     7
 10
147.49338
 20
-37.649101
 40
6
 50
0
 51
90.000003
  0
ARC
  8
0
  6
CONTINUOUS
 62
     7
 10
181.21858
 20
-40.289452
 40
45.625206
 50
171.50982
 51
188.49018
  0
ARC
  8
0
  6
CONTINUOUS
 62
     7
 10
226.59378
 20
-61.149101
 40
91.000397
 50
173.99104
 51
179.99999
  0
ARC
  8
0
  6
CONTINUOUS
 62
     7
 10
-133.68767
 20
-313.70166
 40
8
 50
179.99999
 51
270
  0
ARC
  8
0
  6
CONTINUOUS
 62
     7
 10
-131.72931
 20
-354.07666
 40
52.375008
 50
82.076683
 51
97.923309
  0
ARC
  8
0
  6
CONTINUOUS
 62
     7
 10
-107.68768
 20
-406.20166
 40
104.50002
 50
90.000003
 51
95.607096
  0
ARC
  8
0
  6
CONTINUOUS
 62
     7
 10
-48.687675
 20
-228.70166
 40
8
 50
0
 51
90.000003
  0
ARC
  8
0
  6
CONTINUOUS
 62
     7
 10
-8.312665
 20
-230.66002
 40
52.375008
 50
172.07669
 51
187.92331
  0
ARC
  8
0
  6
CONTINUOUS
 62
     7
 10
43.812344
 20
-254.70166
 40
104.50002
 50
174.3929
 51
179.99999
  0
ARC
  8
0
  6
CONTINUOUS
 62
     7
 10
36.95644
 20
-325.35306
 40
8
 50
179.99999
 51
270
  0
ARC
  8
0
  6
CONTINUOUS
 62
     7
 10
69.956451
 20
-478.10269
 40
168.24962
 50
89.999996
 51
94.418281
  0
ARC
  8
0
  6
CONTINUOUS
 62
     7
 10
40.965061
 20
-394.10287
 40
84.249809
 50
83.754696
 51
96.245309
  0
ARC
  8
0
  6
CONTINUOUS
 62
     7
 10
137.95645
 20
-224.35306
 40
8
 50
0
 51
90.000003
  0
ARC
  8
0
  6
CONTINUOUS
 62
     7
 10
290.70609
 20
-257.35306
 40
168.24962
 50
175.58172
 51
180.00001
  0
ARC
  8
0
  6
CONTINUOUS
 62
     7
 10
206.70625
 20
-228.36168
 40
84.249809
 50
173.75468
 51
186.2453
  0
CIRCLE
  8
0
  6
CONTINUOUS
 62
     7
 10
-334.99207
 20
115.29343
 40
14.5
  0
CIRCLE
  8
0
  6
CONTINUOUS
 62
     7
 10
-334.99207
 20
115.29343
 40
8.0500002
  0
CIRCLE
  8
0
  6
CONTINUOUS
 62
     7
 10
-334.99207
 20
70.216858
 40
17
  0
CIRCLE
  8
0
  6
CONTINUOUS
 62
     7
 10
-334.99207
 20
70.216858
 40
11.25
  0
CIRCLE
  8
0
  6
CONTINUOUS
 62
     7
 10
-334.99207
 20
19.402674
 40
21.5
  0
CIRCLE
  8
0
  6
CONTINUOUS
 62
     7
 10
-334.99207
 20
19.402674
 40
14.4
  0
CIRCLE
  8
0
  6
CONTINUOUS
 62
     7
 10
-334.99207
 20
-36.668148
 40
24.5
  0
CIRCLE
  8
0
  6
CONTINUOUS
 62
     7
 10
-334.99207
 20
-36.668148
 40
17.25
  0
CIRCLE
  8
0
  6
CONTINUOUS
 62
     7
 10
-334.99207
 20
-123.64684
 40
29.5
  0
CIRCLE
  8
0
  6
CONTINUOUS
 62
     7
 10
-334.99207
 20
-123.64684
 40
21.65
  0
CIRCLE
  8
0
  6
CONTINUOUS
 62
     7
 10
-334.99207
 20
-227.54436
 40
34
  0
CIRCLE
  8
0
  6
CONTINUOUS
 62
     7
 10
-334.99207
 20
-227.54436
 40
24.65
  0
CIRCLE
  8
0
  6
CONTINUOUS
 62
     7
 10
-334.99207
 20
-333.27365
 40
41
  0
CIRCLE
  8
0
  6
CONTINUOUS
 62
     7
 10
-334.99207
 20
-333.27365
 40
30.65
  0
TEXT
  8
0
  6
CONTINUOUS
 62
     7
 10
-118.49939
 20
103.2151
 40
8
 41
1.028625
  1
13
  0
TEXT
  8
0
  6
CONTINUOUS
 62
     7
 10
-0.51187468
 20
103.2151
 40
8
 41
1.028625
  1
20
  0
TEXT
  8
0
  6
CONTINUOUS
 62
     7
 10
126.75555
 20
105.86651
 40
8
 41
1.028625
  1
25
  0
TEXT
  8
0
  6
CONTINUOUS
 62
     7
 10
-42.934351
 20
-21.400923
 40
8
 41
1.028625
  1
30
  0
TEXT
  8
0
  6
CONTINUOUS
 62
     7
 10
137.36117
 20
-20.07522
 40
8
 41
1.028625
  1
40
  0
TEXT
  8
0
  6
CONTINUOUS
 62
     7
 10
-65.471292
 20
-203.02216
 40
8
 41
1.028625
  1
50
  0
TEXT
  8
0
  6
CONTINUOUS
 62
     7
 10
122.77845
 20
-199.04504
 40
8
 41
1.028625
  1
60
  0
TEXT
  8
0
  6
CONTINUOUS
 62
     7
 10
-191.50714
 20
129.7
 40
8
 41
0.84326415
  1
コマサスフィット継手　エルボ
  0
TEXT
  8
0
  6
CONTINUOUS
 62
     7
 10
-381.67713
 20
114.98972
 40
3.2
 41
1.0285716
  1
13
  0
TEXT
  8
0
  6
CONTINUOUS
 62
     7
 10
-383.23603
 20
72.899664
 40
3.2
 41
1.0285716
  1
20
  0
TEXT
  8
0
  6
CONTINUOUS
 62
     7
 10
-386.3538
 20
21.456267
 40
3.2
 41
1.0285716
  1
25
  0
TEXT
  8
0
  6
CONTINUOUS
 62
     7
 10
-384.01548
 20
-42.458261
 40
3.2
 41
1.0285716
  1
30
  0
TEXT
  8
0
  6
CONTINUOUS
 62
     7
 10
-383.67478
 20
-118.58727
 40
3.2
 41
1.0285716
  1
40
  0
TEXT
  8
0
  6
CONTINUOUS
 62
     7
 10
-376.91584
 20
-196.31518
 40
3.2
 41
1.0285716
  1
50
  0
TEXT
  8
0
  6
CONTINUOUS
 62
     7
 10
-384.03159
 20
-296.79525
 40
3.2
 41
1.0285716
  1
60
  0
POINT
  8
1
  6
CONTINUOUS
 62
     7
 10
-208.5
 20
-465.5
  0
POINT
  8
1
  6
CONTINUOUS
 62
     7
 10
208.5
 20
148.5
  0
POINT
  8
1
  6
CONTINUOUS
 62
     7
 10
208.5
 20
-148.5
  0
POINT
  8
1
  6
CONTINUOUS
 62
     7
 10
-208.5
 20
-762.5
  0
POINT
  8
1
  6
CONTINUOUS
 62
     7
 10
-208.5
 20
-772.5
  0
POINT
  8
1
  6
CONTINUOUS
 62
     7
 10
-208.5
 20
148.5
  0
POINT
  8
1
  6
CONTINUOUS
 62
     7
 10
-208.5
 20
-148.5
  0
POINT
  8
1
  6
CONTINUOUS
 62
     7
 10
-208.5
 20
-158.5
  0
POINT
  8
1
  6
CONTINUOUS
 62
     7
 10
-208.5
 20
-158.5
  0
POINT
  8
1
  6
CONTINUOUS
 62
     7
 10
-208.5
 20
-455.5
  0
POINT
  8
1
  6
CONTINUOUS
 62
     7
 10
-208.5
 20
-465.5
  0
LINE
  8
1
  6
CONTINUOUS
 62
     7
 10
-208.5
 20
-465.5
 11
208.5
 21
-465.5
  0
LINE
  8
1
  6
CONTINUOUS
 62
     7
 10
-208.5
 20
-762.5
 11
208.5
 21
-762.5
  0
LINE
  8
1
  6
CONTINUOUS
 62
     7
 10
-208.5
 20
-465.5
 11
-208.5
 21
-762.5
  0
LINE
  8
1
  6
CONTINUOUS
 62
     7
 10
208.5
 20
-465.5
 11
208.5
 21
-762.5
  0
LINE
  8
1
  6
CONTINUOUS
 62
     7
 10
-208.5
 20
-148.5
 11
208.5
 21
-148.5
  0
LINE
  8
1
  6
CONTINUOUS
 62
     7
 10
-208.5
 20
148.5
 11
-208.5
 21
-148.5
  0
LINE
  8
1
  6
CONTINUOUS
 62
     7
 10
-208.5
 20
148.5
 11
208.5
 21
148.5
  0
LINE
  8
1
  6
CONTINUOUS
 62
     7
 10
208.5
 20
148.5
 11
208.5
 21
-148.5
  0
LINE
  8
1
  6
CONTINUOUS
 62
     7
 10
-208.5
 20
-455.5
 11
208.5
 21
-455.5
  0
LINE
  8
1
  6
CONTINUOUS
 62
     7
 10
-208.5
 20
-158.5
 11
-208.5
 21
-455.5
  0
LINE
  8
1
  6
CONTINUOUS
 62
     7
 10
-208.5
 20
-158.5
 11
208.5
 21
-158.5
  0
LINE
  8
1
  6
CONTINUOUS
 62
     7
 10
208.5
 20
-158.5
 11
208.5
 21
-455.5
  0
ENDSEC
  0
EOF
