  0
SECTION
  2
HEADER
  9
$EXTMAX
 10
108.92817
 20
144.14287
  9
$EXTMIN
 10
-311.07183
 20
-153.71428
  0
ENDSEC
  0
SECTION
  2
TABLES
  0
TABLE
  2
LTYPE
 70
    22
  0
LTYPE
  2
CONTINUOUS
 70
    64
  3
Solid line
 72
    65
 73
     0
 40
0.000000
  0
LTYPE
  2
DASHED
 70
    64
  3
__ __ __ __ __ __ __ __ __ __ __ __ __ __ __
 72
    65
 73
     2
 40
3.500000
 49
2.000000
 49
-1.500000
  0
LTYPE
  2
CENTER
 70
    64
  3
____ _ ____ _ ____ _ ____ _ ____ _ ____ _ ____
 72
    65
 73
     4
 40
17.500000
 49
13.000000
 49
-1.500000
 49
1.500000
 49
-1.500000
  0
LTYPE
  2
PHANTOM
 70
    64
  3
_____ _ _ _____ _ _ _____ _ _ _____ _ _ ____  
 72
    65
 73
     6
 40
15.500000
 49
8.000000
 49
-1.500000
 49
1.500000
 49
-1.500000
 49
1.500000
 49
-1.500000
  0
LTYPE
  2
DOT
 70
    64
  3
. . . . . . . . . . . . . . . . . . . . . . . .
 72
    65
 73
     2
 40
0.25
 49
0.0
 49
-0.25
  0
ENDTAB
  0
TABLE
  2
LAYER
 70
     2
  0
LAYER
  2
0
 70
     0
 62
     7
  6
CONTINUOUS
  0
LAYER
  2
1
 70
     0
 62
     7
  6
CONTINUOUS
  0
ENDTAB
  0
TABLE
  2
STYLE
 70
     1
  0
STYLE
  2
STANDARD
 70
     0
 40
0.000000
 41
1.000000
 50
0.000000
 71
     0
 42
0.200000
  3
txt
  4
BIGFONT
  0
ENDTAB
  0
TABLE
  2
VIEW
 70
     0
  0
ENDTAB
  0
ENDSEC
  0
SECTION
  2
BLOCKS
  0
ENDSEC
  0
SECTION
  2
ENTITIES
  0
POINT
  8
0
  6
CONTINUOUS
 62
     7
 10
-248.52991
 20
45.901894
  0
POINT
  8
0
  6
CONTINUOUS
 62
     7
 10
61.470093
 20
45.901894
  0
POINT
  8
0
  6
CONTINUOUS
 62
     7
 10
63.470093
 20
-43.292728
  0
POINT
  8
0
  6
CONTINUOUS
 62
     7
 10
-248.52991
 20
-43.292728
  0
POINT
  8
0
  6
CONTINUOUS
 62
     7
 10
-248.52991
 20
-137.37062
  0
POINT
  8
0
  6
CONTINUOUS
 62
     7
 10
-248.52991
 20
-259.25687
  0
POINT
  8
0
  6
CONTINUOUS
 62
     7
 10
-248.52991
 20
-391.19888
  0
POINT
  8
0
  6
CONTINUOUS
 62
     7
 10
-248.52991
 20
-535.74554
  0
POINT
  8
0
  6
CONTINUOUS
 62
     7
 10
275.47009
 20
-535.74554
  0
POINT
  8
0
  6
CONTINUOUS
 62
     7
 10
271.47009
 20
-391.19888
  0
POINT
  8
0
  6
CONTINUOUS
 62
     7
 10
269.47009
 20
-259.25687
  0
POINT
  8
0
  6
CONTINUOUS
 62
     7
 10
265.47009
 20
-137.37062
  0
LINE
  8
0
  6
CENTER
 62
     7
 10
-401.50162
 20
119.69923
 11
-401.50162
 21
80.453743
  0
LINE
  8
0
  6
CENTER
 62
     7
 10
-419.98352
 20
101.27591
 11
-383.7355
 21
101.27591
  0
LINE
  8
0
  6
CONTINUOUS
 62
     7
 10
-385.80695
 20
101.27591
 11
-390.40381
 21
112.37373
  0
LINE
  8
0
  6
CONTINUOUS
 62
     7
 10
-390.40378
 20
112.37373
 11
-401.50162
 21
116.9706
  0
LINE
  8
0
  6
CONTINUOUS
 62
     7
 10
-412.59943
 20
112.37373
 11
-401.50162
 21
116.97059
  0
LINE
  8
0
  6
CONTINUOUS
 62
     7
 10
-417.19629
 20
101.27592
 11
-412.59943
 21
112.37373
  0
LINE
  8
0
  6
CONTINUOUS
 62
     7
 10
-412.59946
 20
90.178085
 11
-417.19632
 21
101.2759
  0
LINE
  8
0
  6
CONTINUOUS
 62
     7
 10
-401.50162
 20
85.581223
 11
-412.59946
 21
90.178093
  0
LINE
  8
0
  6
CONTINUOUS
 62
     7
 10
-390.40381
 20
90.178085
 11
-401.50162
 21
85.581223
  0
LINE
  8
0
  6
CONTINUOUS
 62
     7
 10
-385.80692
 20
101.27591
 11
-390.40381
 21
90.178093
  0
LINE
  8
0
  6
CENTER
 62
     7
 10
-425.552
 20
56.199329
 11
-377.8042
 21
56.199329
  0
LINE
  8
0
  6
CONTINUOUS
 62
     7
 10
-383.10095
 20
56.199326
 11
-388.49039
 21
69.210556
  0
LINE
  8
0
  6
CONTINUOUS
 62
     7
 10
-388.49039
 20
69.210571
 11
-401.50162
 21
74.599998
  0
LINE
  8
0
  6
CONTINUOUS
 62
     7
 10
-414.51285
 20
69.210564
 11
-401.50165
 21
74.599991
  0
LINE
  8
0
  6
CONTINUOUS
 62
     7
 10
-419.90228
 20
56.199326
 11
-414.51285
 21
69.210564
  0
LINE
  8
0
  6
CONTINUOUS
 62
     7
 10
-414.51288
 20
43.188091
 11
-419.90228
 21
56.199318
  0
LINE
  8
0
  6
CONTINUOUS
 62
     7
 10
-401.50162
 20
37.798664
 11
-414.51285
 21
43.188091
  0
LINE
  8
0
  6
CONTINUOUS
 62
     7
 10
-388.49039
 20
43.188084
 11
-401.50162
 21
37.798656
  0
LINE
  8
0
  6
CONTINUOUS
 62
     7
 10
-383.10095
 20
56.199326
 11
-388.49039
 21
43.188091
  0
LINE
  8
0
  6
CENTER
 62
     7
 10
-401.50162
 20
78.522614
 11
-401.50162
 21
35.072231
  0
LINE
  8
0
  6
CENTER
 62
     7
 10
-430.80862
 20
5.3851457
 11
-372.54755
 21
5.3851457
  0
LINE
  8
0
  6
CONTINUOUS
 62
     7
 10
-378.23019
 20
5.3851414
 11
-385.04623
 21
21.840534
  0
LINE
  8
0
  6
CONTINUOUS
 62
     7
 10
-385.04623
 20
21.840532
 11
-401.50162
 21
28.656578
  0
LINE
  8
0
  6
CONTINUOUS
 62
     7
 10
-417.957
 20
21.840536
 11
-401.50162
 21
28.656582
  0
LINE
  8
0
  6
CONTINUOUS
 62
     7
 10
-424.77307
 20
5.3851485
 11
-417.957
 21
21.84054
  0
LINE
  8
0
  6
CONTINUOUS
 62
     7
 10
-417.957
 20
-11.070247
 11
-424.77307
 21
5.3851457
  0
LINE
  8
0
  6
CONTINUOUS
 62
     7
 10
-401.50162
 20
-17.886288
 11
-417.957
 21
-11.070242
  0
LINE
  8
0
  6
CONTINUOUS
 62
     7
 10
-385.04623
 20
-11.070237
 11
-401.50162
 21
-17.886284
  0
LINE
  8
0
  6
CONTINUOUS
 62
     7
 10
-378.23019
 20
5.3851528
 11
-385.04623
 21
-11.070239
  0
LINE
  8
0
  6
CENTER
 62
     7
 10
-401.50162
 20
31.209974
 11
-401.50162
 21
-20.447704
  0
LINE
  8
0
  6
CENTER
 62
     7
 10
-434.86905
 20
-50.685677
 11
-369.74557
 21
-50.685677
  0
LINE
  8
0
  6
CONTINUOUS
 62
     7
 10
-374.983
 20
-50.685677
 11
-382.75012
 21
-31.934185
  0
LINE
  8
0
  6
CONTINUOUS
 62
     7
 10
-382.75012
 20
-31.934193
 11
-401.50162
 21
-24.167067
  0
LINE
  8
0
  6
CONTINUOUS
 62
     7
 10
-420.25308
 20
-31.934187
 11
-401.50162
 21
-24.167074
  0
LINE
  8
0
  6
CONTINUOUS
 62
     7
 10
-428.02023
 20
-50.685665
 11
-420.25311
 21
-31.934177
  0
LINE
  8
0
  6
CONTINUOUS
 62
     7
 10
-420.25311
 20
-69.437164
 11
-428.02023
 21
-50.685673
  0
LINE
  8
0
  6
CONTINUOUS
 62
     7
 10
-401.50162
 20
-77.204292
 11
-420.25311
 21
-69.437164
  0
LINE
  8
0
  6
CONTINUOUS
 62
     7
 10
-382.75012
 20
-69.437172
 11
-401.50162
 21
-77.204285
  0
LINE
  8
0
  6
CONTINUOUS
 62
     7
 10
-374.98303
 20
-50.685665
 11
-382.75015
 21
-69.437149
  0
LINE
  8
0
  6
CENTER
 62
     7
 10
-401.50162
 20
-21.654659
 11
-401.50162
 21
-81.278244
  0
LINE
  8
0
  6
CENTER
 62
     7
 10
-437.92899
 20
-137.66437
 11
-365.00909
 21
-137.66437
  0
LINE
  8
0
  6
CONTINUOUS
 62
     7
 10
-369.57104
 20
-137.66437
 11
-378.92331
 21
-115.08604
  0
LINE
  8
0
  6
CONTINUOUS
 62
     7
 10
-378.92331
 20
-115.08604
 11
-401.50162
 21
-105.7338
  0
LINE
  8
0
  6
CONTINUOUS
 62
     7
 10
-424.07996
 20
-115.08604
 11
-401.50162
 21
-105.7338
  0
LINE
  8
0
  6
CONTINUOUS
 62
     7
 10
-433.43219
 20
-137.66437
 11
-424.07996
 21
-115.08604
  0
LINE
  8
0
  6
CONTINUOUS
 62
     7
 10
-424.07996
 20
-160.24269
 11
-433.43219
 21
-137.66437
  0
LINE
  8
0
  6
CONTINUOUS
 62
     7
 10
-401.50162
 20
-169.59494
 11
-424.07996
 21
-160.24269
  0
LINE
  8
0
  6
CONTINUOUS
 62
     7
 10
-378.92331
 20
-160.24269
 11
-401.50162
 21
-169.59494
  0
LINE
  8
0
  6
CONTINUOUS
 62
     7
 10
-369.57104
 20
-137.66437
 11
-378.92331
 21
-160.24269
  0
LINE
  8
0
  6
CENTER
 62
     7
 10
-401.50162
 20
-102.03787
 11
-401.50162
 21
-172.52405
  0
LINE
  8
0
  6
CENTER
 62
     7
 10
-448.31732
 20
-241.56189
 11
-358.51984
 21
-241.56189
  0
LINE
  8
0
  6
CONTINUOUS
 62
     7
 10
-364.70029
 20
-241.56189
 11
-375.47916
 21
-215.53941
  0
LINE
  8
0
  6
CONTINUOUS
 62
     7
 10
-375.47913
 20
-215.53943
 11
-401.50162
 21
-204.76056
  0
LINE
  8
0
  6
CONTINUOUS
 62
     7
 10
-427.52408
 20
-215.53941
 11
-401.50162
 21
-204.76056
  0
LINE
  8
0
  6
CONTINUOUS
 62
     7
 10
-438.30298
 20
-241.56189
 11
-427.52411
 21
-215.5394
  0
LINE
  8
0
  6
CONTINUOUS
 62
     7
 10
-427.52408
 20
-267.58435
 11
-438.30295
 21
-241.56189
  0
LINE
  8
0
  6
CONTINUOUS
 62
     7
 10
-401.50162
 20
-278.36322
 11
-427.52411
 21
-267.58438
  0
LINE
  8
0
  6
CONTINUOUS
 62
     7
 10
-375.47916
 20
-267.58435
 11
-401.50162
 21
-278.36322
  0
LINE
  8
0
  6
CONTINUOUS
 62
     7
 10
-364.70029
 20
-241.56187
 11
-375.47916
 21
-267.58435
  0
LINE
  8
0
  6
CENTER
 62
     7
 10
-401.50162
 20
-198.1115
 11
-401.50162
 21
-283.08115
  0
LINE
  8
0
  6
CENTER
 62
     7
 10
-450.48984
 20
-347.29117
 11
-351.5195
 21
-347.29117
  0
LINE
  8
0
  6
CONTINUOUS
 62
     7
 10
-357.12354
 20
-347.29117
 11
-370.12158
 21
-315.9111
  0
LINE
  8
0
  6
CONTINUOUS
 62
     7
 10
-370.12158
 20
-315.9111
 11
-401.50162
 21
-302.91306
  0
LINE
  8
0
  6
CONTINUOUS
 62
     7
 10
-432.88165
 20
-315.9111
 11
-401.50162
 21
-302.91309
  0
LINE
  8
0
  6
CONTINUOUS
 62
     7
 10
-445.8797
 20
-347.29114
 11
-432.88165
 21
-315.9111
  0
LINE
  8
0
  6
CONTINUOUS
 62
     7
 10
-432.88162
 20
-378.67117
 11
-445.87967
 21
-347.29114
  0
LINE
  8
0
  6
CONTINUOUS
 62
     7
 10
-401.50165
 20
-391.66925
 11
-432.88168
 21
-378.6712
  0
LINE
  8
0
  6
CONTINUOUS
 62
     7
 10
-370.12158
 20
-378.6712
 11
-401.50162
 21
-391.66925
  0
LINE
  8
0
  6
CONTINUOUS
 62
     7
 10
-357.12354
 20
-347.29114
 11
-370.12158
 21
-378.6712
  0
LINE
  8
0
  6
CENTER
 62
     7
 10
-401.50162
 20
-297.08182
 11
-401.50162
 21
-397.0177
  0
LINE
  8
0
  6
CENTER
 62
     7
 10
78.192513
 20
45.901894
 11
-267.75259
 21
45.901894
  0
LINE
  8
0
  6
CONTINUOUS
 62
     7
 10
-231.6299
 20
63.401894
 11
-231.05255
 21
64.401894
  0
LINE
  8
0
  6
CONTINUOUS
 62
     7
 10
-243.52992
 20
59.801903
 11
-243.52992
 21
45.901894
  0
LINE
  8
0
  6
CONTINUOUS
 62
     7
 10
-231.05257
 20
58.142128
 11
-231.05257
 21
59.773682
  0
LINE
  8
0
  6
CONTINUOUS
 62
     7
 10
-231.62991
 20
45.901894
 11
-231.62991
 21
63.401894
  0
LINE
  8
0
  6
CONTINUOUS
 62
     7
 10
-223.02991
 20
63.401894
 11
-223.60725
 21
64.401886
  0
LINE
  8
0
  6
CONTINUOUS
 62
     7
 10
-223.02992
 20
63.401894
 11
-223.02992
 21
45.901894
  0
LINE
  8
0
  6
CONTINUOUS
 62
     7
 10
-223.60727
 20
45.901894
 11
-223.60727
 21
47.055573
  0
LINE
  8
0
  6
CONTINUOUS
 62
     7
 10
-231.05257
 20
45.901894
 11
-231.05257
 21
47.055573
  0
LINE
  8
0
  6
CONTINUOUS
 62
     7
 10
-223.60727
 20
64.401894
 11
-231.05257
 21
64.401894
  0
LINE
  8
0
  6
CONTINUOUS
 62
     7
 10
-223.60727
 20
59.773682
 11
-231.05257
 21
59.773682
  0
LINE
  8
0
  6
CONTINUOUS
 62
     7
 10
-223.60727
 20
58.142128
 11
-231.05257
 21
58.142128
  0
LINE
  8
0
  6
CONTINUOUS
 62
     7
 10
-223.60727
 20
47.055573
 11
-231.05257
 21
47.055573
  0
LINE
  8
0
  6
CONTINUOUS
 62
     7
 10
-223.60727
 20
58.142128
 11
-223.60727
 21
59.773682
  0
LINE
  8
0
  6
CONTINUOUS
 62
     7
 10
-248.52991
 20
45.901894
 11
-248.52991
 21
57.901894
  0
LINE
  8
0
  6
CONTINUOUS
 62
     7
 10
-235.52991
 20
53.822205
 11
-243.52992
 21
53.822205
  0
LINE
  8
0
  6
CONTINUOUS
 62
     7
 10
-235.52991
 20
62.023216
 11
-235.52991
 21
62.901894
  0
LINE
  8
0
  6
CONTINUOUS
 62
     7
 10
-235.52991
 20
62.901897
 11
-235.02991
 21
62.401897
  0
LINE
  8
0
  6
CONTINUOUS
 62
     7
 10
-235.52992
 20
62.901894
 11
-243.52992
 21
62.901894
  0
LINE
  8
0
  6
CONTINUOUS
 62
     7
 10
-235.52991
 20
62.023216
 11
-243.52992
 21
62.023216
  0
LINE
  8
0
  6
CONTINUOUS
 62
     7
 10
-235.52991
 20
51.700882
 11
-243.52992
 21
51.700882
  0
LINE
  8
0
  6
CONTINUOUS
 62
     7
 10
-243.52992
 20
45.901894
 11
-243.52992
 21
62.901894
  0
LINE
  8
0
  6
CONTINUOUS
 62
     7
 10
-235.52991
 20
51.700882
 11
-235.52991
 21
53.822205
  0
LINE
  8
0
  6
CONTINUOUS
 62
     7
 10
-235.02992
 20
45.901894
 11
-235.02992
 21
62.401894
  0
LINE
  8
0
  6
CONTINUOUS
 62
     7
 10
-222.60725
 20
-28.676123
 11
-222.60725
 21
-25.534498
  0
LINE
  8
0
  6
CONTINUOUS
 62
     7
 10
-222.02991
 20
-21.292727
 11
-222.60725
 21
-20.292732
  0
LINE
  8
0
  6
CONTINUOUS
 62
     7
 10
-230.52991
 20
-43.292728
 11
-230.52991
 21
-21.292734
  0
LINE
  8
0
  6
CENTER
 62
     7
 10
75.389153
 20
-43.292728
 11
-262.1564
 21
-43.292728
  0
LINE
  8
0
  6
CONTINUOUS
 62
     7
 10
-222.02991
 20
-43.292728
 11
-222.02991
 21
-21.29273
  0
LINE
  8
0
  6
CONTINUOUS
 62
     7
 10
-229.95256
 20
-28.676123
 11
-229.95256
 21
-25.534498
  0
LINE
  8
0
  6
CONTINUOUS
 62
     7
 10
-229.95256
 20
-43.292728
 11
-229.95256
 21
-41.071262
  0
LINE
  8
0
  6
CONTINUOUS
 62
     7
 10
-229.95256
 20
-20.292721
 11
-230.52992
 21
-21.292728
  0
LINE
  8
0
  6
CONTINUOUS
 62
     7
 10
-222.60725
 20
-43.292728
 11
-222.60725
 21
-41.071262
  0
LINE
  8
0
  6
CONTINUOUS
 62
     7
 10
-222.60725
 20
-41.071262
 11
-229.95256
 21
-41.071262
  0
LINE
  8
0
  6
CONTINUOUS
 62
     7
 10
-222.60725
 20
-28.676123
 11
-229.95256
 21
-28.676123
  0
LINE
  8
0
  6
CONTINUOUS
 62
     7
 10
-222.60725
 20
-20.292734
 11
-229.95256
 21
-20.292734
  0
LINE
  8
0
  6
CONTINUOUS
 62
     7
 10
-222.60725
 20
-25.534498
 11
-229.95256
 21
-25.534498
  0
LINE
  8
0
  6
CONTINUOUS
 62
     7
 10
-234.52991
 20
-36.659481
 11
-234.52991
 21
-32.780346
  0
LINE
  8
0
  6
CONTINUOUS
 62
     7
 10
-234.02991
 20
-22.292723
 11
-234.52991
 21
-21.792732
  0
LINE
  8
0
  6
CONTINUOUS
 62
     7
 10
-234.52991
 20
-23.399519
 11
-234.52991
 21
-21.79273
  0
LINE
  8
0
  6
CONTINUOUS
 62
     7
 10
-234.52991
 20
-21.79273
 11
-243.52991
 21
-21.79273
  0
LINE
  8
0
  6
CONTINUOUS
 62
     7
 10
-248.52991
 20
-43.292728
 11
-248.52991
 21
-26.79273
  0
LINE
  8
0
  6
CONTINUOUS
 62
     7
 10
-243.52991
 20
-43.292728
 11
-243.52991
 21
-21.79273
  0
LINE
  8
0
  6
CONTINUOUS
 62
     7
 10
-234.52991
 20
-36.659481
 11
-243.52991
 21
-36.659481
  0
LINE
  8
0
  6
CONTINUOUS
 62
     7
 10
-234.52991
 20
-32.780346
 11
-243.52991
 21
-32.780346
  0
LINE
  8
0
  6
CONTINUOUS
 62
     7
 10
-234.52991
 20
-23.399519
 11
-243.52991
 21
-23.399519
  0
LINE
  8
0
  6
CONTINUOUS
 62
     7
 10
-234.02991
 20
-43.292728
 11
-234.02991
 21
-22.29273
  0
LINE
  8
0
  6
CENTER
 62
     7
 10
279.75354
 20
-137.37062
 11
-258.64526
 21
-137.37062
  0
LINE
  8
0
  6
CONTINUOUS
 62
     7
 10
-228.45256
 20
-120.95
 11
-223.52992
 21
-120.95
  0
LINE
  8
0
  6
CONTINUOUS
 62
     7
 10
-218.02991
 20
-111.87061
 11
-218.60725
 21
-110.87061
  0
LINE
  8
0
  6
CONTINUOUS
 62
     7
 10
-218.60725
 20
-110.87061
 11
-223.52992
 21
-110.87061
  0
LINE
  8
0
  6
CONTINUOUS
 62
     7
 10
-218.60725
 20
-116.57126
 11
-223.52992
 21
-116.57126
  0
LINE
  8
0
  6
CONTINUOUS
 62
     7
 10
-218.60725
 20
-120.95
 11
-223.52992
 21
-120.95
  0
LINE
  8
0
  6
CONTINUOUS
 62
     7
 10
-218.60725
 20
-134.27438
 11
-223.52992
 21
-134.27438
  0
LINE
  8
0
  6
CONTINUOUS
 62
     7
 10
-218.60725
 20
-137.37062
 11
-218.60725
 21
-134.27438
  0
LINE
  8
0
  6
CONTINUOUS
 62
     7
 10
-218.60725
 20
-120.95
 11
-218.60725
 21
-116.57126
  0
LINE
  8
0
  6
CONTINUOUS
 62
     7
 10
-218.02992
 20
-137.37062
 11
-218.02992
 21
-111.87061
  0
LINE
  8
0
  6
CONTINUOUS
 62
     7
 10
-228.45256
 20
-116.57126
 11
-223.52992
 21
-116.57126
  0
LINE
  8
0
  6
CONTINUOUS
 62
     7
 10
-228.45256
 20
-110.87061
 11
-223.52992
 21
-110.87061
  0
LINE
  8
0
  6
CONTINUOUS
 62
     7
 10
-229.02991
 20
-111.87061
 11
-228.45256
 21
-110.87061
  0
LINE
  8
0
  6
CONTINUOUS
 62
     7
 10
-228.45256
 20
-134.27438
 11
-223.52992
 21
-134.27438
  0
LINE
  8
0
  6
CONTINUOUS
 62
     7
 10
-228.45256
 20
-137.37062
 11
-228.45256
 21
-134.27438
  0
LINE
  8
0
  6
CONTINUOUS
 62
     7
 10
-228.45256
 20
-120.95
 11
-228.45256
 21
-116.57126
  0
LINE
  8
0
  6
CONTINUOUS
 62
     7
 10
-229.02991
 20
-137.37062
 11
-229.02991
 21
-111.87061
  0
LINE
  8
0
  6
CONTINUOUS
 62
     7
 10
-233.1299
 20
-113.89223
 11
-243.52991
 21
-113.89223
  0
LINE
  8
0
  6
CONTINUOUS
 62
     7
 10
-233.1299
 20
-112.87061
 11
-243.52991
 21
-112.87061
  0
LINE
  8
0
  6
CONTINUOUS
 62
     7
 10
-233.1299
 20
-128.66718
 11
-243.52991
 21
-128.66718
  0
LINE
  8
0
  6
CONTINUOUS
 62
     7
 10
-232.62991
 20
-113.37062
 11
-233.12991
 21
-112.87062
  0
LINE
  8
0
  6
CONTINUOUS
 62
     7
 10
-248.52991
 20
-137.37062
 11
-248.52991
 21
-117.87061
  0
LINE
  8
0
  6
CONTINUOUS
 62
     7
 10
-233.1299
 20
-128.66718
 11
-233.1299
 21
-126.20077
  0
LINE
  8
0
  6
CONTINUOUS
 62
     7
 10
-233.1299
 20
-113.89223
 11
-233.1299
 21
-112.87061
  0
LINE
  8
0
  6
CONTINUOUS
 62
     7
 10
-233.1299
 20
-126.20077
 11
-243.52991
 21
-126.20077
  0
LINE
  8
0
  6
CONTINUOUS
 62
     7
 10
-243.52991
 20
-137.37062
 11
-243.52991
 21
-112.87061
  0
LINE
  8
0
  6
CONTINUOUS
 62
     7
 10
-232.6299
 20
-137.37062
 11
-232.6299
 21
-113.37061
  0
LINE
  8
0
  6
CONTINUOUS
 62
     7
 10
-216.68462
 20
-238.63959
 11
-221.27991
 21
-238.63959
  0
LINE
  8
0
  6
CONTINUOUS
 62
     7
 10
-216.68462
 20
-256.53043
 11
-221.27991
 21
-256.53043
  0
LINE
  8
0
  6
CONTINUOUS
 62
     7
 10
-216.68462
 20
-259.25687
 11
-216.68462
 21
-256.53043
  0
LINE
  8
0
  6
CENTER
 62
     7
 10
288.39883
 20
-259.25687
 11
-264.93005
 21
-259.25687
  0
LINE
  8
0
  6
CONTINUOUS
 62
     7
 10
-216.68462
 20
-227.25685
 11
-221.27991
 21
-227.25685
  0
LINE
  8
0
  6
CONTINUOUS
 62
     7
 10
-225.8752
 20
-238.63959
 11
-221.27991
 21
-238.63959
  0
LINE
  8
0
  6
CONTINUOUS
 62
     7
 10
-215.52991
 20
-229.25685
 11
-216.68462
 21
-227.25685
  0
LINE
  8
0
  6
CONTINUOUS
 62
     7
 10
-216.68462
 20
-234.78384
 11
-221.27991
 21
-234.78384
  0
LINE
  8
0
  6
CONTINUOUS
 62
     7
 10
-227.02991
 20
-259.25687
 11
-227.02991
 21
-229.25685
  0
LINE
  8
0
  6
CONTINUOUS
 62
     7
 10
-215.52991
 20
-259.25687
 11
-215.52991
 21
-229.25685
  0
LINE
  8
0
  6
CONTINUOUS
 62
     7
 10
-225.8752
 20
-238.63959
 11
-225.8752
 21
-234.78384
  0
LINE
  8
0
  6
CONTINUOUS
 62
     7
 10
-225.8752
 20
-234.78384
 11
-221.27991
 21
-234.78384
  0
LINE
  8
0
  6
CONTINUOUS
 62
     7
 10
-227.02991
 20
-229.25687
 11
-225.8752
 21
-227.25685
  0
LINE
  8
0
  6
CONTINUOUS
 62
     7
 10
-225.8752
 20
-227.25685
 11
-221.27991
 21
-227.25685
  0
LINE
  8
0
  6
CONTINUOUS
 62
     7
 10
-225.8752
 20
-256.53043
 11
-221.27991
 21
-256.53043
  0
LINE
  8
0
  6
CONTINUOUS
 62
     7
 10
-225.8752
 20
-259.25687
 11
-225.8752
 21
-256.53043
  0
LINE
  8
0
  6
CONTINUOUS
 62
     7
 10
-216.68462
 20
-238.63959
 11
-216.68462
 21
-234.78384
  0
LINE
  8
0
  6
CONTINUOUS
 62
     7
 10
-242.52991
 20
-259.25687
 11
-242.52991
 21
-229.75685
  0
LINE
  8
0
  6
CONTINUOUS
 62
     7
 10
-248.52991
 20
-259.25687
 11
-248.52991
 21
-235.75685
  0
LINE
  8
0
  6
CONTINUOUS
 62
     7
 10
-230.62991
 20
-230.25685
 11
-231.12991
 21
-229.75685
  0
LINE
  8
0
  6
CONTINUOUS
 62
     7
 10
-231.1299
 20
-229.75685
 11
-242.52991
 21
-229.75685
  0
LINE
  8
0
  6
CONTINUOUS
 62
     7
 10
-231.1299
 20
-245.1333
 11
-242.52991
 21
-245.1333
  0
LINE
  8
0
  6
CONTINUOUS
 62
     7
 10
-231.1299
 20
-231.6611
 11
-242.52991
 21
-231.6611
  0
LINE
  8
0
  6
CONTINUOUS
 62
     7
 10
-231.1299
 20
-249.73058
 11
-242.52991
 21
-249.73058
  0
LINE
  8
0
  6
CONTINUOUS
 62
     7
 10
-231.1299
 20
-249.73058
 11
-231.1299
 21
-245.1333
  0
LINE
  8
0
  6
CONTINUOUS
 62
     7
 10
-231.1299
 20
-231.6611
 11
-231.1299
 21
-229.75685
  0
LINE
  8
0
  6
CONTINUOUS
 62
     7
 10
-230.6299
 20
-259.25687
 11
-230.6299
 21
-230.25685
  0
LINE
  8
0
  6
CONTINUOUS
 62
     7
 10
-229.02991
 20
-357.19888
 11
-228.52991
 21
-357.69888
  0
LINE
  8
0
  6
CONTINUOUS
 62
     7
 10
-229.02991
 20
-359.93747
 11
-229.02991
 21
-357.19888
  0
LINE
  8
0
  6
CONTINUOUS
 62
     7
 10
-229.02991
 20
-357.19888
 11
-240.52991
 21
-357.19888
  0
LINE
  8
0
  6
CONTINUOUS
 62
     7
 10
-229.02991
 20
-359.93747
 11
-240.52991
 21
-359.93747
  0
LINE
  8
0
  6
CONTINUOUS
 62
     7
 10
-248.52991
 20
-391.19888
 11
-248.52991
 21
-365.19888
  0
LINE
  8
0
  6
CONTINUOUS
 62
     7
 10
-229.02991
 20
-380.98859
 11
-229.02991
 21
-374.37701
  0
LINE
  8
0
  6
CENTER
 62
     7
 10
-224.21284
 20
-391.19888
 11
-254.21286
 21
-391.19888
  0
LINE
  8
0
  6
CONTINUOUS
 62
     7
 10
-229.02991
 20
-374.37701
 11
-240.52991
 21
-374.37701
  0
LINE
  8
0
  6
CONTINUOUS
 62
     7
 10
-240.52991
 20
-391.19888
 11
-240.52991
 21
-357.19888
  0
LINE
  8
0
  6
CONTINUOUS
 62
     7
 10
-229.02991
 20
-380.98859
 11
-240.52991
 21
-380.98859
  0
LINE
  8
0
  6
CONTINUOUS
 62
     7
 10
-224.52991
 20
-357.69888
 11
-224.52991
 21
-391.19888
  0
LINE
  8
0
  6
CENTER
 62
     7
 10
293.44604
 20
-391.19888
 11
-265.1044
 21
-391.19888
  0
LINE
  8
0
  6
CONTINUOUS
 62
     7
 10
-218.02991
 20
-355.69888
 11
-223.3752
 21
-355.69888
  0
LINE
  8
0
  6
CONTINUOUS
 62
     7
 10
-223.3752
 20
-391.19888
 11
-223.3752
 21
-387.62073
  0
LINE
  8
0
  6
CONTINUOUS
 62
     7
 10
-218.02991
 20
-363.69427
 11
-212.6846
 21
-363.69427
  0
LINE
  8
0
  6
CONTINUOUS
 62
     7
 10
-218.02991
 20
-363.69427
 11
-223.3752
 21
-363.69427
  0
LINE
  8
0
  6
CONTINUOUS
 62
     7
 10
-223.3752
 20
-355.69888
 11
-224.52991
 21
-357.69891
  0
LINE
  8
0
  6
CONTINUOUS
 62
     7
 10
-218.02991
 20
-368.75458
 11
-223.3752
 21
-368.75458
  0
LINE
  8
0
  6
CONTINUOUS
 62
     7
 10
-212.6846
 20
-391.19888
 11
-212.6846
 21
-387.62073
  0
LINE
  8
0
  6
CONTINUOUS
 62
     7
 10
-211.52991
 20
-357.69888
 11
-211.52991
 21
-391.19888
  0
LINE
  8
0
  6
CONTINUOUS
 62
     7
 10
-212.68462
 20
-355.69888
 11
-211.52992
 21
-357.69888
  0
LINE
  8
0
  6
CONTINUOUS
 62
     7
 10
-218.02991
 20
-387.62073
 11
-223.3752
 21
-387.62073
  0
LINE
  8
0
  6
CONTINUOUS
 62
     7
 10
-218.02991
 20
-355.69888
 11
-212.6846
 21
-355.69888
  0
LINE
  8
0
  6
CONTINUOUS
 62
     7
 10
-223.3752
 20
-368.75458
 11
-223.3752
 21
-363.69427
  0
LINE
  8
0
  6
CONTINUOUS
 62
     7
 10
-218.02991
 20
-368.75458
 11
-212.6846
 21
-368.75458
  0
LINE
  8
0
  6
CONTINUOUS
 62
     7
 10
-218.02991
 20
-387.62073
 11
-212.6846
 21
-387.62073
  0
LINE
  8
0
  6
CONTINUOUS
 62
     7
 10
-212.6846
 20
-368.75458
 11
-212.6846
 21
-363.69427
  0
LINE
  8
0
  6
CONTINUOUS
 62
     7
 10
-228.52991
 20
-391.19888
 11
-228.52991
 21
-357.69888
  0
LINE
  8
0
  6
CONTINUOUS
 62
     7
 10
-205.52991
 20
-494.74554
 11
-205.52991
 21
-535.74554
  0
LINE
  8
0
  6
CONTINUOUS
 62
     7
 10
-220.37521
 20
-535.74554
 11
-220.37521
 21
-532.03033
  0
LINE
  8
0
  6
CONTINUOUS
 62
     7
 10
-213.52991
 20
-508.08066
 11
-206.68462
 21
-508.08066
  0
LINE
  8
0
  6
CONTINUOUS
 62
     7
 10
-213.52991
 20
-502.8266
 11
-206.68462
 21
-502.8266
  0
LINE
  8
0
  6
CONTINUOUS
 62
     7
 10
-213.52991
 20
-492.74554
 11
-206.68462
 21
-492.74554
  0
LINE
  8
0
  6
CONTINUOUS
 62
     7
 10
-206.68462
 20
-535.74554
 11
-206.68462
 21
-532.03033
  0
LINE
  8
0
  6
CENTER
 62
     7
 10
296.77359
 20
-535.74554
 11
-260.53726
 21
-535.74554
  0
LINE
  8
0
  6
CONTINUOUS
 62
     7
 10
-221.52991
 20
-494.74554
 11
-221.52991
 21
-535.74554
  0
LINE
  8
0
  6
CONTINUOUS
 62
     7
 10
-213.52991
 20
-532.03033
 11
-206.68462
 21
-532.03033
  0
LINE
  8
0
  6
CONTINUOUS
 62
     7
 10
-213.52991
 20
-502.8266
 11
-220.37521
 21
-502.8266
  0
LINE
  8
0
  6
CONTINUOUS
 62
     7
 10
-213.52991
 20
-492.74554
 11
-220.37521
 21
-492.74554
  0
LINE
  8
0
  6
CONTINUOUS
 62
     7
 10
-213.52991
 20
-508.08066
 11
-220.37521
 21
-508.08066
  0
LINE
  8
0
  6
CONTINUOUS
 62
     7
 10
-213.52991
 20
-532.03033
 11
-220.37521
 21
-532.03033
  0
LINE
  8
0
  6
CONTINUOUS
 62
     7
 10
-220.37521
 20
-508.08066
 11
-220.37521
 21
-502.8266
  0
LINE
  8
0
  6
CONTINUOUS
 62
     7
 10
-220.37521
 20
-492.74551
 11
-221.52994
 21
-494.74554
  0
LINE
  8
0
  6
CONTINUOUS
 62
     7
 10
-206.68462
 20
-508.08066
 11
-206.68462
 21
-502.8266
  0
LINE
  8
0
  6
CONTINUOUS
 62
     7
 10
-206.6846
 20
-492.74554
 11
-205.52991
 21
-494.74551
  0
LINE
  8
0
  6
CONTINUOUS
 62
     7
 10
-225.52991
 20
-494.74554
 11
-240.52991
 21
-494.74554
  0
LINE
  8
0
  6
CONTINUOUS
 62
     7
 10
-225.52991
 20
-494.74551
 11
-225.02991
 21
-495.24551
  0
LINE
  8
0
  6
CONTINUOUS
 62
     7
 10
-225.52991
 20
-497.58899
 11
-225.52991
 21
-494.74554
  0
LINE
  8
0
  6
CONTINUOUS
 62
     7
 10
-248.52991
 20
-535.74554
 11
-248.52991
 21
-502.74554
  0
LINE
  8
0
  6
CONTINUOUS
 62
     7
 10
-225.52991
 20
-497.58899
 11
-240.52991
 21
-497.58899
  0
LINE
  8
0
  6
CONTINUOUS
 62
     7
 10
-225.52991
 20
-522.78406
 11
-240.52991
 21
-522.78406
  0
LINE
  8
0
  6
CONTINUOUS
 62
     7
 10
-240.52991
 20
-535.74554
 11
-240.52991
 21
-494.74554
  0
LINE
  8
0
  6
CONTINUOUS
 62
     7
 10
-225.52991
 20
-515.91931
 11
-240.52991
 21
-515.91931
  0
LINE
  8
0
  6
CONTINUOUS
 62
     7
 10
-225.52991
 20
-522.78406
 11
-225.52991
 21
-515.91931
  0
LINE
  8
0
  6
CONTINUOUS
 62
     7
 10
-225.02991
 20
-536.1474
 11
-225.02991
 21
-495.24554
  0
LINE
  8
0
  6
CONTINUOUS
 62
     7
 10
-231.62991
 20
62.22308
 11
-235.02992
 21
62.22308
  0
LINE
  8
0
  6
CONTINUOUS
 62
     7
 10
-231.62991
 20
28.40189
 11
-231.05257
 21
27.401896
  0
LINE
  8
0
  6
CONTINUOUS
 62
     7
 10
-243.52992
 20
32.001884
 11
-243.52992
 21
45.901894
  0
LINE
  8
0
  6
CONTINUOUS
 62
     7
 10
-231.05257
 20
33.661659
 11
-231.05257
 21
32.030106
  0
LINE
  8
0
  6
CONTINUOUS
 62
     7
 10
-231.62991
 20
45.901894
 11
-231.62991
 21
28.401896
  0
LINE
  8
0
  6
CONTINUOUS
 62
     7
 10
-223.02991
 20
28.40189
 11
-223.60725
 21
27.401896
  0
LINE
  8
0
  6
CONTINUOUS
 62
     7
 10
-223.02992
 20
28.401896
 11
-223.02992
 21
45.901894
  0
LINE
  8
0
  6
CONTINUOUS
 62
     7
 10
-223.60727
 20
45.901894
 11
-223.60727
 21
44.748215
  0
LINE
  8
0
  6
CONTINUOUS
 62
     7
 10
-231.05257
 20
45.901894
 11
-231.05257
 21
44.748215
  0
LINE
  8
0
  6
CONTINUOUS
 62
     7
 10
-223.60727
 20
27.401896
 11
-231.05257
 21
27.401896
  0
LINE
  8
0
  6
CONTINUOUS
 62
     7
 10
-223.60727
 20
32.030106
 11
-231.05257
 21
32.030106
  0
LINE
  8
0
  6
CONTINUOUS
 62
     7
 10
-223.60727
 20
33.661659
 11
-231.05257
 21
33.661659
  0
LINE
  8
0
  6
CONTINUOUS
 62
     7
 10
-223.60727
 20
44.748215
 11
-231.05257
 21
44.748215
  0
LINE
  8
0
  6
CONTINUOUS
 62
     7
 10
-223.60727
 20
33.661659
 11
-223.60727
 21
32.030106
  0
LINE
  8
0
  6
CONTINUOUS
 62
     7
 10
-248.52991
 20
45.901894
 11
-248.52991
 21
33.901894
  0
LINE
  8
0
  6
CONTINUOUS
 62
     7
 10
-235.52991
 20
37.981583
 11
-243.52992
 21
37.981583
  0
LINE
  8
0
  6
CONTINUOUS
 62
     7
 10
-235.52991
 20
29.780573
 11
-235.52991
 21
28.901896
  0
LINE
  8
0
  6
CONTINUOUS
 62
     7
 10
-235.52991
 20
28.901911
 11
-235.02991
 21
29.401913
  0
LINE
  8
0
  6
CONTINUOUS
 62
     7
 10
-235.52992
 20
28.901896
 11
-243.52992
 21
28.901896
  0
LINE
  8
0
  6
CONTINUOUS
 62
     7
 10
-235.52991
 20
29.780573
 11
-243.52992
 21
29.780573
  0
LINE
  8
0
  6
CONTINUOUS
 62
     7
 10
-235.52991
 20
40.102905
 11
-243.52992
 21
40.102905
  0
LINE
  8
0
  6
CONTINUOUS
 62
     7
 10
-243.52992
 20
45.901894
 11
-243.52992
 21
28.901896
  0
LINE
  8
0
  6
CONTINUOUS
 62
     7
 10
-235.52991
 20
40.102905
 11
-235.52991
 21
37.981583
  0
LINE
  8
0
  6
CONTINUOUS
 62
     7
 10
-235.02992
 20
45.901894
 11
-235.02992
 21
29.401896
  0
LINE
  8
0
  6
CONTINUOUS
 62
     7
 10
-231.62991
 20
29.580713
 11
-235.02992
 21
29.580713
  0
LINE
  8
0
  6
CONTINUOUS
 62
     7
 10
-230.52991
 20
-22.644274
 11
-234.02991
 21
-22.644274
  0
LINE
  8
0
  6
CONTINUOUS
 62
     7
 10
-222.60725
 20
-57.909336
 11
-222.60725
 21
-61.050961
  0
LINE
  8
0
  6
CONTINUOUS
 62
     7
 10
-222.02991
 20
-65.292732
 11
-222.60725
 21
-66.292725
  0
LINE
  8
0
  6
CONTINUOUS
 62
     7
 10
-230.52991
 20
-43.292728
 11
-230.52991
 21
-65.292725
  0
LINE
  8
0
  6
CONTINUOUS
 62
     7
 10
-222.02991
 20
-43.292728
 11
-222.02991
 21
-65.292732
  0
LINE
  8
0
  6
CONTINUOUS
 62
     7
 10
-229.95256
 20
-57.909336
 11
-229.95256
 21
-61.050961
  0
LINE
  8
0
  6
CONTINUOUS
 62
     7
 10
-229.95256
 20
-43.292728
 11
-229.95256
 21
-45.514194
  0
LINE
  8
0
  6
CONTINUOUS
 62
     7
 10
-229.95256
 20
-66.292732
 11
-230.52991
 21
-65.292732
  0
LINE
  8
0
  6
CONTINUOUS
 62
     7
 10
-222.60725
 20
-43.292728
 11
-222.60725
 21
-45.514194
  0
LINE
  8
0
  6
CONTINUOUS
 62
     7
 10
-222.60725
 20
-45.514194
 11
-229.95256
 21
-45.514194
  0
LINE
  8
0
  6
CONTINUOUS
 62
     7
 10
-222.60725
 20
-57.909336
 11
-229.95256
 21
-57.909336
  0
LINE
  8
0
  6
CONTINUOUS
 62
     7
 10
-222.60725
 20
-66.292725
 11
-229.95256
 21
-66.292725
  0
LINE
  8
0
  6
CONTINUOUS
 62
     7
 10
-222.60725
 20
-61.050961
 11
-229.95256
 21
-61.050961
  0
LINE
  8
0
  6
CONTINUOUS
 62
     7
 10
-234.52991
 20
-49.925976
 11
-234.52991
 21
-53.805111
  0
LINE
  8
0
  6
CONTINUOUS
 62
     7
 10
-234.02991
 20
-64.292732
 11
-234.52991
 21
-64.792725
  0
LINE
  8
0
  6
CONTINUOUS
 62
     7
 10
-234.52991
 20
-63.18594
 11
-234.52991
 21
-64.792732
  0
LINE
  8
0
  6
CONTINUOUS
 62
     7
 10
-234.52991
 20
-64.792732
 11
-243.52991
 21
-64.792732
  0
LINE
  8
0
  6
CONTINUOUS
 62
     7
 10
-248.52991
 20
-43.292728
 11
-248.52991
 21
-59.792728
  0
LINE
  8
0
  6
CONTINUOUS
 62
     7
 10
-243.52991
 20
-43.292728
 11
-243.52991
 21
-64.792732
  0
LINE
  8
0
  6
CONTINUOUS
 62
     7
 10
-234.52991
 20
-49.925976
 11
-243.52991
 21
-49.925976
  0
LINE
  8
0
  6
CONTINUOUS
 62
     7
 10
-234.52991
 20
-53.805111
 11
-243.52991
 21
-53.805111
  0
LINE
  8
0
  6
CONTINUOUS
 62
     7
 10
-234.52991
 20
-63.18594
 11
-243.52991
 21
-63.18594
  0
LINE
  8
0
  6
CONTINUOUS
 62
     7
 10
-234.02991
 20
-43.292728
 11
-234.02991
 21
-64.292732
  0
LINE
  8
0
  6
CONTINUOUS
 62
     7
 10
-230.52991
 20
-63.941181
 11
-234.02991
 21
-63.941181
  0
LINE
  8
0
  6
CONTINUOUS
 62
     7
 10
-229.02991
 20
-113.87084
 11
-232.6299
 21
-113.87084
  0
LINE
  8
0
  6
CONTINUOUS
 62
     7
 10
-228.45256
 20
-153.79123
 11
-223.52992
 21
-153.79123
  0
LINE
  8
0
  6
CONTINUOUS
 62
     7
 10
-218.02992
 20
-162.87061
 11
-218.60727
 21
-163.87061
  0
LINE
  8
0
  6
CONTINUOUS
 62
     7
 10
-218.60725
 20
-163.87062
 11
-223.52992
 21
-163.87062
  0
LINE
  8
0
  6
CONTINUOUS
 62
     7
 10
-218.60725
 20
-158.16997
 11
-223.52992
 21
-158.16997
  0
LINE
  8
0
  6
CONTINUOUS
 62
     7
 10
-218.60725
 20
-153.79123
 11
-223.52992
 21
-153.79123
  0
LINE
  8
0
  6
CONTINUOUS
 62
     7
 10
-218.60725
 20
-140.46686
 11
-223.52992
 21
-140.46686
  0
LINE
  8
0
  6
CONTINUOUS
 62
     7
 10
-218.60725
 20
-137.37062
 11
-218.60725
 21
-140.46686
  0
LINE
  8
0
  6
CONTINUOUS
 62
     7
 10
-218.60725
 20
-153.79123
 11
-218.60725
 21
-158.16997
  0
LINE
  8
0
  6
CONTINUOUS
 62
     7
 10
-218.02992
 20
-137.37062
 11
-218.02992
 21
-162.87062
  0
LINE
  8
0
  6
CONTINUOUS
 62
     7
 10
-228.45256
 20
-158.16997
 11
-223.52992
 21
-158.16997
  0
LINE
  8
0
  6
CONTINUOUS
 62
     7
 10
-228.45256
 20
-163.87062
 11
-223.52992
 21
-163.87062
  0
LINE
  8
0
  6
CONTINUOUS
 62
     7
 10
-229.02992
 20
-162.87061
 11
-228.45256
 21
-163.87062
  0
LINE
  8
0
  6
CONTINUOUS
 62
     7
 10
-228.45256
 20
-140.46686
 11
-223.52992
 21
-140.46686
  0
LINE
  8
0
  6
CONTINUOUS
 62
     7
 10
-228.45256
 20
-137.37062
 11
-228.45256
 21
-140.46686
  0
LINE
  8
0
  6
CONTINUOUS
 62
     7
 10
-228.45256
 20
-153.79123
 11
-228.45256
 21
-158.16997
  0
LINE
  8
0
  6
CONTINUOUS
 62
     7
 10
-229.02991
 20
-137.37062
 11
-229.02991
 21
-162.87062
  0
LINE
  8
0
  6
CONTINUOUS
 62
     7
 10
-233.1299
 20
-160.849
 11
-243.52991
 21
-160.849
  0
LINE
  8
0
  6
CONTINUOUS
 62
     7
 10
-233.1299
 20
-161.87062
 11
-243.52991
 21
-161.87062
  0
LINE
  8
0
  6
CONTINUOUS
 62
     7
 10
-233.1299
 20
-146.07407
 11
-243.52991
 21
-146.07407
  0
LINE
  8
0
  6
CONTINUOUS
 62
     7
 10
-232.62991
 20
-161.37059
 11
-233.12993
 21
-161.87061
  0
LINE
  8
0
  6
CONTINUOUS
 62
     7
 10
-248.52991
 20
-137.37062
 11
-248.52991
 21
-156.87062
  0
LINE
  8
0
  6
CONTINUOUS
 62
     7
 10
-233.1299
 20
-146.07407
 11
-233.1299
 21
-148.54047
  0
LINE
  8
0
  6
CONTINUOUS
 62
     7
 10
-233.1299
 20
-160.849
 11
-233.1299
 21
-161.87062
  0
LINE
  8
0
  6
CONTINUOUS
 62
     7
 10
-233.1299
 20
-148.54047
 11
-243.52991
 21
-148.54047
  0
LINE
  8
0
  6
CONTINUOUS
 62
     7
 10
-243.52991
 20
-137.37062
 11
-243.52991
 21
-161.87062
  0
LINE
  8
0
  6
CONTINUOUS
 62
     7
 10
-232.6299
 20
-137.37062
 11
-232.6299
 21
-161.37062
  0
LINE
  8
0
  6
CONTINUOUS
 62
     7
 10
-229.02991
 20
-160.87039
 11
-232.6299
 21
-160.87039
  0
LINE
  8
0
  6
CONTINUOUS
 62
     7
 10
-227.02991
 20
-230.45386
 11
-230.6299
 21
-230.45386
  0
LINE
  8
0
  6
CONTINUOUS
 62
     7
 10
-216.68462
 20
-279.87411
 11
-221.27991
 21
-279.87411
  0
LINE
  8
0
  6
CONTINUOUS
 62
     7
 10
-216.68462
 20
-261.98328
 11
-221.27991
 21
-261.98328
  0
LINE
  8
0
  6
CONTINUOUS
 62
     7
 10
-216.68462
 20
-259.25687
 11
-216.68462
 21
-261.98328
  0
LINE
  8
0
  6
CONTINUOUS
 62
     7
 10
-216.68462
 20
-291.25687
 11
-221.27991
 21
-291.25687
  0
LINE
  8
0
  6
CONTINUOUS
 62
     7
 10
-225.8752
 20
-279.87411
 11
-221.27991
 21
-279.87411
  0
LINE
  8
0
  6
CONTINUOUS
 62
     7
 10
-215.52991
 20
-289.25684
 11
-216.68462
 21
-291.25687
  0
LINE
  8
0
  6
CONTINUOUS
 62
     7
 10
-216.68462
 20
-283.72986
 11
-221.27991
 21
-283.72986
  0
LINE
  8
0
  6
CONTINUOUS
 62
     7
 10
-227.02991
 20
-259.25687
 11
-227.02991
 21
-289.25687
  0
LINE
  8
0
  6
CONTINUOUS
 62
     7
 10
-215.52991
 20
-259.25687
 11
-215.52991
 21
-289.25687
  0
LINE
  8
0
  6
CONTINUOUS
 62
     7
 10
-225.8752
 20
-279.87411
 11
-225.8752
 21
-283.72986
  0
LINE
  8
0
  6
CONTINUOUS
 62
     7
 10
-225.8752
 20
-283.72986
 11
-221.27991
 21
-283.72986
  0
LINE
  8
0
  6
CONTINUOUS
 62
     7
 10
-227.02991
 20
-289.25687
 11
-225.8752
 21
-291.25687
  0
LINE
  8
0
  6
CONTINUOUS
 62
     7
 10
-225.8752
 20
-291.25687
 11
-221.27991
 21
-291.25687
  0
LINE
  8
0
  6
CONTINUOUS
 62
     7
 10
-225.8752
 20
-261.98328
 11
-221.27991
 21
-261.98328
  0
LINE
  8
0
  6
CONTINUOUS
 62
     7
 10
-225.8752
 20
-259.25687
 11
-225.8752
 21
-261.98328
  0
LINE
  8
0
  6
CONTINUOUS
 62
     7
 10
-216.68462
 20
-279.87411
 11
-216.68462
 21
-283.72986
  0
LINE
  8
0
  6
CONTINUOUS
 62
     7
 10
-242.52991
 20
-259.25687
 11
-242.52991
 21
-288.75684
  0
LINE
  8
0
  6
CONTINUOUS
 62
     7
 10
-248.52991
 20
-259.25687
 11
-248.52991
 21
-282.75684
  0
LINE
  8
0
  6
CONTINUOUS
 62
     7
 10
-230.62991
 20
-288.25687
 11
-231.1299
 21
-288.75684
  0
LINE
  8
0
  6
CONTINUOUS
 62
     7
 10
-231.1299
 20
-288.75684
 11
-242.52991
 21
-288.75684
  0
LINE
  8
0
  6
CONTINUOUS
 62
     7
 10
-231.1299
 20
-273.3804
 11
-242.52991
 21
-273.3804
  0
LINE
  8
0
  6
CONTINUOUS
 62
     7
 10
-231.1299
 20
-286.8526
 11
-242.52991
 21
-286.8526
  0
LINE
  8
0
  6
CONTINUOUS
 62
     7
 10
-231.1299
 20
-268.78314
 11
-242.52991
 21
-268.78314
  0
LINE
  8
0
  6
CONTINUOUS
 62
     7
 10
-231.1299
 20
-268.78314
 11
-231.1299
 21
-273.3804
  0
LINE
  8
0
  6
CONTINUOUS
 62
     7
 10
-231.1299
 20
-286.8526
 11
-231.1299
 21
-288.75684
  0
LINE
  8
0
  6
CONTINUOUS
 62
     7
 10
-230.6299
 20
-259.25687
 11
-230.6299
 21
-288.25687
  0
LINE
  8
0
  6
CONTINUOUS
 62
     7
 10
-227.02991
 20
-288.05984
 11
-230.6299
 21
-288.05984
  0
LINE
  8
0
  6
CONTINUOUS
 62
     7
 10
-224.52991
 20
-358.19138
 11
-228.52991
 21
-358.19138
  0
LINE
  8
0
  6
CONTINUOUS
 62
     7
 10
-229.02991
 20
-425.19888
 11
-228.52991
 21
-424.69891
  0
LINE
  8
0
  6
CONTINUOUS
 62
     7
 10
-229.02991
 20
-422.4603
 11
-229.02991
 21
-425.19888
  0
LINE
  8
0
  6
CONTINUOUS
 62
     7
 10
-229.02991
 20
-425.19888
 11
-240.52991
 21
-425.19888
  0
LINE
  8
0
  6
CONTINUOUS
 62
     7
 10
-229.02991
 20
-422.4603
 11
-240.52991
 21
-422.4603
  0
LINE
  8
0
  6
CONTINUOUS
 62
     7
 10
-248.52991
 20
-391.19888
 11
-248.52991
 21
-417.19888
  0
LINE
  8
0
  6
CONTINUOUS
 62
     7
 10
-229.02991
 20
-401.40918
 11
-229.02991
 21
-408.02075
  0
LINE
  8
0
  6
CONTINUOUS
 62
     7
 10
-229.02991
 20
-408.02075
 11
-240.52991
 21
-408.02075
  0
LINE
  8
0
  6
CONTINUOUS
 62
     7
 10
-240.52991
 20
-391.19888
 11
-240.52991
 21
-425.19888
  0
LINE
  8
0
  6
CONTINUOUS
 62
     7
 10
-229.02991
 20
-401.40918
 11
-240.52991
 21
-401.40918
  0
LINE
  8
0
  6
CONTINUOUS
 62
     7
 10
-224.52991
 20
-424.69888
 11
-224.52991
 21
-391.19888
  0
LINE
  8
0
  6
CONTINUOUS
 62
     7
 10
-218.02991
 20
-426.69888
 11
-223.3752
 21
-426.69888
  0
LINE
  8
0
  6
CONTINUOUS
 62
     7
 10
-223.3752
 20
-391.19888
 11
-223.3752
 21
-394.77704
  0
LINE
  8
0
  6
CONTINUOUS
 62
     7
 10
-218.02991
 20
-418.70349
 11
-212.6846
 21
-418.70349
  0
LINE
  8
0
  6
CONTINUOUS
 62
     7
 10
-218.02991
 20
-418.70349
 11
-223.3752
 21
-418.70349
  0
LINE
  8
0
  6
CONTINUOUS
 62
     7
 10
-223.37523
 20
-426.69888
 11
-224.52992
 21
-424.69888
  0
LINE
  8
0
  6
CONTINUOUS
 62
     7
 10
-218.02991
 20
-413.64319
 11
-223.3752
 21
-413.64319
  0
LINE
  8
0
  6
CONTINUOUS
 62
     7
 10
-212.6846
 20
-391.19888
 11
-212.6846
 21
-394.77704
  0
LINE
  8
0
  6
CONTINUOUS
 62
     7
 10
-211.52991
 20
-424.69888
 11
-211.52991
 21
-391.19888
  0
LINE
  8
0
  6
CONTINUOUS
 62
     7
 10
-212.68462
 20
-426.69888
 11
-211.52991
 21
-424.69888
  0
LINE
  8
0
  6
CONTINUOUS
 62
     7
 10
-218.02991
 20
-394.77704
 11
-223.3752
 21
-394.77704
  0
LINE
  8
0
  6
CONTINUOUS
 62
     7
 10
-218.02991
 20
-426.69888
 11
-212.6846
 21
-426.69888
  0
LINE
  8
0
  6
CONTINUOUS
 62
     7
 10
-223.3752
 20
-413.64319
 11
-223.3752
 21
-418.70349
  0
LINE
  8
0
  6
CONTINUOUS
 62
     7
 10
-218.02991
 20
-413.64319
 11
-212.6846
 21
-413.64319
  0
LINE
  8
0
  6
CONTINUOUS
 62
     7
 10
-218.02991
 20
-394.77704
 11
-212.6846
 21
-394.77704
  0
LINE
  8
0
  6
CONTINUOUS
 62
     7
 10
-212.6846
 20
-413.64319
 11
-212.6846
 21
-418.70349
  0
LINE
  8
0
  6
CONTINUOUS
 62
     7
 10
-228.52991
 20
-391.19888
 11
-228.52991
 21
-424.69888
  0
LINE
  8
0
  6
CONTINUOUS
 62
     7
 10
-224.52991
 20
-424.20639
 11
-228.52991
 21
-424.20639
  0
LINE
  8
0
  6
CONTINUOUS
 62
     7
 10
-205.52991
 20
-576.74554
 11
-205.52991
 21
-535.74554
  0
LINE
  8
0
  6
CONTINUOUS
 62
     7
 10
-220.37521
 20
-535.74554
 11
-220.37521
 21
-539.46069
  0
LINE
  8
0
  6
CONTINUOUS
 62
     7
 10
-213.52991
 20
-563.4104
 11
-206.68462
 21
-563.4104
  0
LINE
  8
0
  6
CONTINUOUS
 62
     7
 10
-213.52991
 20
-568.66443
 11
-206.68462
 21
-568.66443
  0
LINE
  8
0
  6
CONTINUOUS
 62
     7
 10
-213.52991
 20
-578.74554
 11
-206.68462
 21
-578.74554
  0
LINE
  8
0
  6
CONTINUOUS
 62
     7
 10
-206.68462
 20
-535.74554
 11
-206.68462
 21
-539.46069
  0
LINE
  8
0
  6
CONTINUOUS
 62
     7
 10
-221.52991
 20
-576.74554
 11
-221.52991
 21
-535.74554
  0
LINE
  8
0
  6
CONTINUOUS
 62
     7
 10
-213.52991
 20
-539.46069
 11
-206.68462
 21
-539.46069
  0
LINE
  8
0
  6
CONTINUOUS
 62
     7
 10
-213.52991
 20
-568.66443
 11
-220.37521
 21
-568.66443
  0
LINE
  8
0
  6
CONTINUOUS
 62
     7
 10
-213.52991
 20
-578.74554
 11
-220.37521
 21
-578.74554
  0
LINE
  8
0
  6
CONTINUOUS
 62
     7
 10
-213.52991
 20
-563.4104
 11
-220.37521
 21
-563.4104
  0
LINE
  8
0
  6
CONTINUOUS
 62
     7
 10
-213.52991
 20
-539.46069
 11
-220.37521
 21
-539.46069
  0
LINE
  8
0
  6
CONTINUOUS
 62
     7
 10
-220.37521
 20
-563.4104
 11
-220.37521
 21
-568.66443
  0
LINE
  8
0
  6
CONTINUOUS
 62
     7
 10
-220.37521
 20
-578.74554
 11
-221.52991
 21
-576.74554
  0
LINE
  8
0
  6
CONTINUOUS
 62
     7
 10
-206.68462
 20
-563.4104
 11
-206.68462
 21
-568.66443
  0
LINE
  8
0
  6
CONTINUOUS
 62
     7
 10
-206.68463
 20
-578.74554
 11
-205.52991
 21
-576.74548
  0
LINE
  8
0
  6
CONTINUOUS
 62
     7
 10
-225.52991
 20
-576.74554
 11
-240.52991
 21
-576.74554
  0
LINE
  8
0
  6
CONTINUOUS
 62
     7
 10
-225.52992
 20
-576.74554
 11
-225.02989
 21
-576.24548
  0
LINE
  8
0
  6
CONTINUOUS
 62
     7
 10
-225.52991
 20
-573.90204
 11
-225.52991
 21
-576.74554
  0
LINE
  8
0
  6
CONTINUOUS
 62
     7
 10
-248.52991
 20
-535.74554
 11
-248.52991
 21
-568.74554
  0
LINE
  8
0
  6
CONTINUOUS
 62
     7
 10
-225.52991
 20
-573.90204
 11
-240.52991
 21
-573.90204
  0
LINE
  8
0
  6
CONTINUOUS
 62
     7
 10
-225.52991
 20
-548.70703
 11
-240.52991
 21
-548.70703
  0
LINE
  8
0
  6
CONTINUOUS
 62
     7
 10
-240.52991
 20
-535.74554
 11
-240.52991
 21
-576.74554
  0
LINE
  8
0
  6
CONTINUOUS
 62
     7
 10
-225.52991
 20
-555.57172
 11
-240.52991
 21
-555.57172
  0
LINE
  8
0
  6
CONTINUOUS
 62
     7
 10
-225.52991
 20
-548.70703
 11
-225.52991
 21
-555.57172
  0
LINE
  8
0
  6
CONTINUOUS
 62
     7
 10
-225.02991
 20
-535.34363
 11
-225.02991
 21
-576.24554
  0
LINE
  8
0
  6
CONTINUOUS
 62
     7
 10
44.570091
 20
28.401896
 11
43.992741
 21
27.401896
  0
LINE
  8
0
  6
CONTINUOUS
 62
     7
 10
56.470108
 20
32.001884
 11
56.470108
 21
45.901894
  0
LINE
  8
0
  6
CONTINUOUS
 62
     7
 10
43.992752
 20
33.661659
 11
43.992752
 21
32.030106
  0
LINE
  8
0
  6
CONTINUOUS
 62
     7
 10
44.570099
 20
45.901894
 11
44.570099
 21
28.401896
  0
LINE
  8
0
  6
CONTINUOUS
 62
     7
 10
35.970104
 20
28.401896
 11
36.547451
 21
27.401901
  0
LINE
  8
0
  6
CONTINUOUS
 62
     7
 10
35.970108
 20
28.401896
 11
35.970108
 21
45.901894
  0
LINE
  8
0
  6
CONTINUOUS
 62
     7
 10
36.547455
 20
45.901894
 11
36.547455
 21
44.748215
  0
LINE
  8
0
  6
CONTINUOUS
 62
     7
 10
43.992752
 20
45.901894
 11
43.992752
 21
44.748215
  0
LINE
  8
0
  6
CONTINUOUS
 62
     7
 10
36.547455
 20
27.401896
 11
43.992752
 21
27.401896
  0
LINE
  8
0
  6
CONTINUOUS
 62
     7
 10
36.547455
 20
32.030106
 11
43.992752
 21
32.030106
  0
LINE
  8
0
  6
CONTINUOUS
 62
     7
 10
36.547455
 20
33.661659
 11
43.992752
 21
33.661659
  0
LINE
  8
0
  6
CONTINUOUS
 62
     7
 10
36.547455
 20
44.748215
 11
43.992752
 21
44.748215
  0
LINE
  8
0
  6
CONTINUOUS
 62
     7
 10
36.547455
 20
33.661659
 11
36.547455
 21
32.030106
  0
LINE
  8
0
  6
CONTINUOUS
 62
     7
 10
61.470093
 20
45.901894
 11
61.470093
 21
33.901894
  0
LINE
  8
0
  6
CONTINUOUS
 62
     7
 10
48.470093
 20
37.981583
 11
56.470108
 21
37.981583
  0
LINE
  8
0
  6
CONTINUOUS
 62
     7
 10
48.470093
 20
29.780573
 11
48.470093
 21
28.901896
  0
LINE
  8
0
  6
CONTINUOUS
 62
     7
 10
48.470089
 20
28.901899
 11
47.970089
 21
29.401901
  0
LINE
  8
0
  6
CONTINUOUS
 62
     7
 10
48.470108
 20
28.901896
 11
56.470108
 21
28.901896
  0
LINE
  8
0
  6
CONTINUOUS
 62
     7
 10
48.470093
 20
29.780573
 11
56.470108
 21
29.780573
  0
LINE
  8
0
  6
CONTINUOUS
 62
     7
 10
48.470093
 20
40.102905
 11
56.470108
 21
40.102905
  0
LINE
  8
0
  6
CONTINUOUS
 62
     7
 10
56.470108
 20
45.901894
 11
56.470108
 21
28.901896
  0
LINE
  8
0
  6
CONTINUOUS
 62
     7
 10
48.470093
 20
40.102905
 11
48.470093
 21
37.981583
  0
LINE
  8
0
  6
CONTINUOUS
 62
     7
 10
47.970108
 20
45.901894
 11
47.970108
 21
29.401896
  0
LINE
  8
0
  6
CONTINUOUS
 62
     7
 10
44.570099
 20
29.580709
 11
47.970108
 21
29.580709
  0
LINE
  8
0
  6
CONTINUOUS
 62
     7
 10
44.570087
 20
63.40189
 11
43.992741
 21
64.401886
  0
LINE
  8
0
  6
CONTINUOUS
 62
     7
 10
56.470108
 20
59.801903
 11
56.470108
 21
45.901894
  0
LINE
  8
0
  6
CONTINUOUS
 62
     7
 10
43.992752
 20
58.142128
 11
43.992752
 21
59.773682
  0
LINE
  8
0
  6
CONTINUOUS
 62
     7
 10
44.570099
 20
45.901894
 11
44.570099
 21
63.401894
  0
LINE
  8
0
  6
CONTINUOUS
 62
     7
 10
35.970097
 20
63.401897
 11
36.547443
 21
64.401894
  0
LINE
  8
0
  6
CONTINUOUS
 62
     7
 10
35.970108
 20
63.401894
 11
35.970108
 21
45.901894
  0
LINE
  8
0
  6
CONTINUOUS
 62
     7
 10
36.547455
 20
45.901894
 11
36.547455
 21
47.055573
  0
LINE
  8
0
  6
CONTINUOUS
 62
     7
 10
43.992752
 20
45.901894
 11
43.992752
 21
47.055573
  0
LINE
  8
0
  6
CONTINUOUS
 62
     7
 10
36.547455
 20
64.401894
 11
43.992752
 21
64.401894
  0
LINE
  8
0
  6
CONTINUOUS
 62
     7
 10
36.547455
 20
59.773682
 11
43.992752
 21
59.773682
  0
LINE
  8
0
  6
CONTINUOUS
 62
     7
 10
36.547455
 20
58.142128
 11
43.992752
 21
58.142128
  0
LINE
  8
0
  6
CONTINUOUS
 62
     7
 10
36.547455
 20
47.055573
 11
43.992752
 21
47.055573
  0
LINE
  8
0
  6
CONTINUOUS
 62
     7
 10
36.547455
 20
58.142128
 11
36.547455
 21
59.773682
  0
LINE
  8
0
  6
CONTINUOUS
 62
     7
 10
61.470093
 20
45.901894
 11
61.470093
 21
57.901894
  0
LINE
  8
0
  6
CONTINUOUS
 62
     7
 10
48.470093
 20
53.822205
 11
56.470108
 21
53.822205
  0
LINE
  8
0
  6
CONTINUOUS
 62
     7
 10
48.470093
 20
62.023216
 11
48.470093
 21
62.901894
  0
LINE
  8
0
  6
CONTINUOUS
 62
     7
 10
48.470093
 20
62.90189
 11
47.970093
 21
62.40189
  0
LINE
  8
0
  6
CONTINUOUS
 62
     7
 10
48.470108
 20
62.901894
 11
56.470108
 21
62.901894
  0
LINE
  8
0
  6
CONTINUOUS
 62
     7
 10
48.470093
 20
62.023216
 11
56.470108
 21
62.023216
  0
LINE
  8
0
  6
CONTINUOUS
 62
     7
 10
48.470093
 20
51.700882
 11
56.470108
 21
51.700882
  0
LINE
  8
0
  6
CONTINUOUS
 62
     7
 10
56.470108
 20
45.901894
 11
56.470108
 21
62.901894
  0
LINE
  8
0
  6
CONTINUOUS
 62
     7
 10
48.470093
 20
51.700882
 11
48.470093
 21
53.822205
  0
LINE
  8
0
  6
CONTINUOUS
 62
     7
 10
47.970108
 20
45.901894
 11
47.970108
 21
62.401894
  0
LINE
  8
0
  6
CONTINUOUS
 62
     7
 10
44.570099
 20
62.223076
 11
47.970108
 21
62.223076
  0
LINE
  8
0
  6
CONTINUOUS
 62
     7
 10
-208.02992
 20
58.401894
 11
-223.02992
 21
58.401894
  0
LINE
  8
0
  6
CONTINUOUS
 62
     7
 10
-208.02992
 20
60.851894
 11
-208.02992
 21
45.901894
  0
LINE
  8
0
  6
CONTINUOUS
 62
     7
 10
-188.02992
 20
60.851894
 11
-188.02992
 21
30.951895
  0
LINE
  8
0
  6
CONTINUOUS
 62
     7
 10
0.97010732
 20
59.351894
 11
-188.02992
 21
59.351894
  0
LINE
  8
0
  6
CONTINUOUS
 62
     7
 10
-188.02992
 20
60.851894
 11
-208.02992
 21
60.851894
  0
LINE
  8
0
  6
CONTINUOUS
 62
     7
 10
-210.47992
 20
58.401894
 11
-208.02992
 21
60.851898
  0
LINE
  8
0
  6
CONTINUOUS
 62
     7
 10
-208.02992
 20
33.401894
 11
-223.02992
 21
33.401894
  0
LINE
  8
0
  6
CONTINUOUS
 62
     7
 10
-210.47992
 20
33.401894
 11
-208.02992
 21
30.9519
  0
LINE
  8
0
  6
CONTINUOUS
 62
     7
 10
-188.02992
 20
30.951895
 11
-208.02992
 21
30.951895
  0
LINE
  8
0
  6
CONTINUOUS
 62
     7
 10
-208.02992
 20
30.951895
 11
-208.02992
 21
45.901894
  0
LINE
  8
0
  6
CONTINUOUS
 62
     7
 10
0.97010732
 20
32.451897
 11
-188.02992
 21
32.451897
  0
LINE
  8
0
  6
CONTINUOUS
 62
     7
 10
20.970108
 20
33.401894
 11
35.970108
 21
33.401894
  0
LINE
  8
0
  6
CONTINUOUS
 62
     7
 10
20.970108
 20
30.951895
 11
20.970108
 21
45.901894
  0
LINE
  8
0
  6
CONTINUOUS
 62
     7
 10
20.970108
 20
60.851894
 11
20.970108
 21
45.901894
  0
LINE
  8
0
  6
CONTINUOUS
 62
     7
 10
20.970108
 20
58.401894
 11
35.970108
 21
58.401894
  0
LINE
  8
0
  6
CONTINUOUS
 62
     7
 10
23.420107
 20
58.401894
 11
20.970106
 21
60.851894
  0
LINE
  8
0
  6
CONTINUOUS
 62
     7
 10
0.97010732
 20
60.851894
 11
20.970108
 21
60.851894
  0
LINE
  8
0
  6
CONTINUOUS
 62
     7
 10
0.97010732
 20
30.951895
 11
20.970108
 21
30.951895
  0
LINE
  8
0
  6
CONTINUOUS
 62
     7
 10
23.420107
 20
33.401894
 11
20.970108
 21
30.951897
  0
LINE
  8
0
  6
CONTINUOUS
 62
     7
 10
0.97010732
 20
60.851894
 11
0.97010732
 21
30.951895
  0
LINE
  8
0
  6
CONTINUOUS
 62
     7
 10
-207.02991
 20
-27.79273
 11
-222.02991
 21
-27.79273
  0
LINE
  8
0
  6
CONTINUOUS
 62
     7
 10
-207.02991
 20
-43.292728
 11
-207.02991
 21
-25.34273
  0
LINE
  8
0
  6
CONTINUOUS
 62
     7
 10
-187.02991
 20
-61.242729
 11
-187.02991
 21
-25.34273
  0
LINE
  8
0
  6
CONTINUOUS
 62
     7
 10
1.9700863
 20
-26.84273
 11
-187.02991
 21
-26.84273
  0
LINE
  8
0
  6
CONTINUOUS
 62
     7
 10
-187.02991
 20
-25.34273
 11
-207.02991
 21
-25.34273
  0
LINE
  8
0
  6
CONTINUOUS
 62
     7
 10
-207.02991
 20
-58.792728
 11
-222.02991
 21
-58.792728
  0
LINE
  8
0
  6
CONTINUOUS
 62
     7
 10
-207.02991
 20
-43.292728
 11
-207.02991
 21
-61.242729
  0
LINE
  8
0
  6
CONTINUOUS
 62
     7
 10
-187.02991
 20
-61.242729
 11
-207.02991
 21
-61.242729
  0
LINE
  8
0
  6
CONTINUOUS
 62
     7
 10
1.9700863
 20
-59.742729
 11
-187.02991
 21
-59.742729
  0
LINE
  8
0
  6
CONTINUOUS
 62
     7
 10
63.470093
 20
-43.292728
 11
63.470093
 21
-26.79273
  0
LINE
  8
0
  6
CONTINUOUS
 62
     7
 10
37.547432
 20
-28.676123
 11
37.547432
 21
-25.534498
  0
LINE
  8
0
  6
CONTINUOUS
 62
     7
 10
36.970089
 20
-21.29273
 11
37.54744
 21
-20.292732
  0
LINE
  8
0
  6
CONTINUOUS
 62
     7
 10
45.470093
 20
-43.292728
 11
45.470093
 21
-21.292734
  0
LINE
  8
0
  6
CONTINUOUS
 62
     7
 10
36.970085
 20
-43.292728
 11
36.970085
 21
-21.29273
  0
LINE
  8
0
  6
CONTINUOUS
 62
     7
 10
44.892746
 20
-28.676123
 11
44.892746
 21
-25.534498
  0
LINE
  8
0
  6
CONTINUOUS
 62
     7
 10
44.892746
 20
-43.292728
 11
44.892746
 21
-41.071262
  0
LINE
  8
0
  6
CONTINUOUS
 62
     7
 10
44.892742
 20
-20.292728
 11
45.470093
 21
-21.292728
  0
LINE
  8
0
  6
CONTINUOUS
 62
     7
 10
37.547432
 20
-43.292728
 11
37.547432
 21
-41.071262
  0
LINE
  8
0
  6
CONTINUOUS
 62
     7
 10
37.547432
 20
-41.071262
 11
44.892746
 21
-41.071262
  0
LINE
  8
0
  6
CONTINUOUS
 62
     7
 10
37.547432
 20
-28.676123
 11
44.892746
 21
-28.676123
  0
LINE
  8
0
  6
CONTINUOUS
 62
     7
 10
37.547432
 20
-20.292734
 11
44.892746
 21
-20.292734
  0
LINE
  8
0
  6
CONTINUOUS
 62
     7
 10
37.547432
 20
-25.534498
 11
44.892746
 21
-25.534498
  0
LINE
  8
0
  6
CONTINUOUS
 62
     7
 10
49.470093
 20
-36.659481
 11
49.470093
 21
-32.780346
  0
LINE
  8
0
  6
CONTINUOUS
 62
     7
 10
48.970093
 20
-22.292728
 11
49.470089
 21
-21.79273
  0
LINE
  8
0
  6
CONTINUOUS
 62
     7
 10
49.470093
 20
-23.399519
 11
49.470093
 21
-21.79273
  0
LINE
  8
0
  6
CONTINUOUS
 62
     7
 10
49.470093
 20
-21.79273
 11
58.470093
 21
-21.79273
  0
LINE
  8
0
  6
CONTINUOUS
 62
     7
 10
63.470093
 20
-43.292728
 11
63.470093
 21
-26.79273
  0
LINE
  8
0
  6
CONTINUOUS
 62
     7
 10
58.470093
 20
-43.292728
 11
58.470093
 21
-21.79273
  0
LINE
  8
0
  6
CONTINUOUS
 62
     7
 10
49.470093
 20
-36.659481
 11
58.470093
 21
-36.659481
  0
LINE
  8
0
  6
CONTINUOUS
 62
     7
 10
49.470093
 20
-32.780346
 11
58.470093
 21
-32.780346
  0
LINE
  8
0
  6
CONTINUOUS
 62
     7
 10
49.470093
 20
-23.399519
 11
58.470093
 21
-23.399519
  0
LINE
  8
0
  6
CONTINUOUS
 62
     7
 10
48.970093
 20
-43.292728
 11
48.970093
 21
-22.29273
  0
LINE
  8
0
  6
CONTINUOUS
 62
     7
 10
45.470093
 20
-22.644274
 11
48.970093
 21
-22.644274
  0
LINE
  8
0
  6
CONTINUOUS
 62
     7
 10
37.547432
 20
-57.909336
 11
37.547432
 21
-61.050961
  0
LINE
  8
0
  6
CONTINUOUS
 62
     7
 10
36.970093
 20
-65.292732
 11
37.54744
 21
-66.292725
  0
LINE
  8
0
  6
CONTINUOUS
 62
     7
 10
45.470093
 20
-43.292728
 11
45.470093
 21
-65.292725
  0
LINE
  8
0
  6
CONTINUOUS
 62
     7
 10
36.970085
 20
-43.292728
 11
36.970085
 21
-65.292732
  0
LINE
  8
0
  6
CONTINUOUS
 62
     7
 10
44.892746
 20
-57.909336
 11
44.892746
 21
-61.050961
  0
LINE
  8
0
  6
CONTINUOUS
 62
     7
 10
44.892746
 20
-43.292728
 11
44.892746
 21
-45.514194
  0
LINE
  8
0
  6
CONTINUOUS
 62
     7
 10
44.892742
 20
-66.292732
 11
45.470093
 21
-65.292732
  0
LINE
  8
0
  6
CONTINUOUS
 62
     7
 10
37.547432
 20
-43.292728
 11
37.547432
 21
-45.514194
  0
LINE
  8
0
  6
CONTINUOUS
 62
     7
 10
37.547432
 20
-45.514194
 11
44.892746
 21
-45.514194
  0
LINE
  8
0
  6
CONTINUOUS
 62
     7
 10
37.547432
 20
-57.909336
 11
44.892746
 21
-57.909336
  0
LINE
  8
0
  6
CONTINUOUS
 62
     7
 10
37.547432
 20
-66.292725
 11
44.892746
 21
-66.292725
  0
LINE
  8
0
  6
CONTINUOUS
 62
     7
 10
37.547432
 20
-61.050961
 11
44.892746
 21
-61.050961
  0
LINE
  8
0
  6
CONTINUOUS
 62
     7
 10
49.470093
 20
-49.925976
 11
49.470093
 21
-53.805111
  0
LINE
  8
0
  6
CONTINUOUS
 62
     7
 10
48.970097
 20
-64.292732
 11
49.470089
 21
-64.792725
  0
LINE
  8
0
  6
CONTINUOUS
 62
     7
 10
49.470093
 20
-63.18594
 11
49.470093
 21
-64.792732
  0
LINE
  8
0
  6
CONTINUOUS
 62
     7
 10
49.470093
 20
-64.792732
 11
58.470093
 21
-64.792732
  0
LINE
  8
0
  6
CONTINUOUS
 62
     7
 10
63.470093
 20
-43.292728
 11
63.470093
 21
-59.792728
  0
LINE
  8
0
  6
CONTINUOUS
 62
     7
 10
58.470093
 20
-43.292728
 11
58.470093
 21
-64.792732
  0
LINE
  8
0
  6
CONTINUOUS
 62
     7
 10
49.470093
 20
-49.925976
 11
58.470093
 21
-49.925976
  0
LINE
  8
0
  6
CONTINUOUS
 62
     7
 10
49.470093
 20
-53.805111
 11
58.470093
 21
-53.805111
  0
LINE
  8
0
  6
CONTINUOUS
 62
     7
 10
49.470093
 20
-63.18594
 11
58.470093
 21
-63.18594
  0
LINE
  8
0
  6
CONTINUOUS
 62
     7
 10
48.970093
 20
-43.292728
 11
48.970093
 21
-64.292732
  0
LINE
  8
0
  6
CONTINUOUS
 62
     7
 10
45.470093
 20
-63.941181
 11
48.970093
 21
-63.941181
  0
LINE
  8
0
  6
CONTINUOUS
 62
     7
 10
21.970087
 20
-27.79273
 11
36.970085
 21
-27.79273
  0
LINE
  8
0
  6
CONTINUOUS
 62
     7
 10
21.970087
 20
-43.292728
 11
21.970087
 21
-25.34273
  0
LINE
  8
0
  6
CONTINUOUS
 62
     7
 10
1.9700863
 20
-61.242729
 11
1.9700863
 21
-25.34273
  0
LINE
  8
0
  6
CONTINUOUS
 62
     7
 10
1.9700863
 20
-25.34273
 11
21.970087
 21
-25.34273
  0
LINE
  8
0
  6
CONTINUOUS
 62
     7
 10
21.970087
 20
-58.792728
 11
36.970085
 21
-58.792728
  0
LINE
  8
0
  6
CONTINUOUS
 62
     7
 10
21.970087
 20
-43.292728
 11
21.970087
 21
-61.242729
  0
LINE
  8
0
  6
CONTINUOUS
 62
     7
 10
1.9700863
 20
-61.242729
 11
21.970087
 21
-61.242729
  0
LINE
  8
0
  6
CONTINUOUS
 62
     7
 10
-203.02992
 20
-117.87061
 11
-218.02992
 21
-117.87061
  0
LINE
  8
0
  6
CONTINUOUS
 62
     7
 10
-203.02992
 20
-137.37062
 11
-203.02992
 21
-115.17062
  0
LINE
  8
0
  6
CONTINUOUS
 62
     7
 10
-183.02992
 20
-159.57062
 11
-183.02992
 21
-115.17062
  0
LINE
  8
0
  6
CONTINUOUS
 62
     7
 10
199.97011
 20
-116.67062
 11
-183.02992
 21
-116.67062
  0
LINE
  8
0
  6
CONTINUOUS
 62
     7
 10
-183.02992
 20
-115.17062
 11
-203.02992
 21
-115.17062
  0
LINE
  8
0
  6
CONTINUOUS
 62
     7
 10
-205.72992
 20
-117.87061
 11
-203.02992
 21
-115.17062
  0
LINE
  8
0
  6
CONTINUOUS
 62
     7
 10
-209.4799
 20
-27.79273
 11
-207.02991
 21
-25.342737
  0
LINE
  8
0
  6
CONTINUOUS
 62
     7
 10
-209.4799
 20
-58.792736
 11
-207.02991
 21
-61.242733
  0
LINE
  8
0
  6
CONTINUOUS
 62
     7
 10
-203.02992
 20
-156.87062
 11
-218.02992
 21
-156.87062
  0
LINE
  8
0
  6
CONTINUOUS
 62
     7
 10
-205.72993
 20
-156.87062
 11
-203.02992
 21
-159.57062
  0
LINE
  8
0
  6
CONTINUOUS
 62
     7
 10
-183.02992
 20
-159.57062
 11
-203.02992
 21
-159.57062
  0
LINE
  8
0
  6
CONTINUOUS
 62
     7
 10
-203.02992
 20
-137.37062
 11
-203.02992
 21
-159.57062
  0
LINE
  8
0
  6
CONTINUOUS
 62
     7
 10
199.97011
 20
-158.07062
 11
-183.02992
 21
-158.07062
  0
LINE
  8
0
  6
CONTINUOUS
 62
     7
 10
245.39275
 20
-120.95
 11
240.47011
 21
-120.95
  0
LINE
  8
0
  6
CONTINUOUS
 62
     7
 10
234.97008
 20
-111.8706
 11
235.54742
 21
-110.8706
  0
LINE
  8
0
  6
CONTINUOUS
 62
     7
 10
235.54744
 20
-110.87061
 11
240.47011
 21
-110.87061
  0
LINE
  8
0
  6
CONTINUOUS
 62
     7
 10
235.54744
 20
-116.57126
 11
240.47011
 21
-116.57126
  0
LINE
  8
0
  6
CONTINUOUS
 62
     7
 10
235.54744
 20
-120.95
 11
240.47011
 21
-120.95
  0
LINE
  8
0
  6
CONTINUOUS
 62
     7
 10
235.54744
 20
-134.27438
 11
240.47011
 21
-134.27438
  0
LINE
  8
0
  6
CONTINUOUS
 62
     7
 10
235.54744
 20
-137.37062
 11
235.54744
 21
-134.27438
  0
LINE
  8
0
  6
CONTINUOUS
 62
     7
 10
235.54744
 20
-120.95
 11
235.54744
 21
-116.57126
  0
LINE
  8
0
  6
CONTINUOUS
 62
     7
 10
234.97011
 20
-137.37062
 11
234.97011
 21
-111.87061
  0
LINE
  8
0
  6
CONTINUOUS
 62
     7
 10
245.39275
 20
-116.57126
 11
240.47011
 21
-116.57126
  0
LINE
  8
0
  6
CONTINUOUS
 62
     7
 10
245.39275
 20
-110.87061
 11
240.47011
 21
-110.87061
  0
LINE
  8
0
  6
CONTINUOUS
 62
     7
 10
245.97009
 20
-111.87061
 11
245.39275
 21
-110.87061
  0
LINE
  8
0
  6
CONTINUOUS
 62
     7
 10
245.39275
 20
-134.27438
 11
240.47011
 21
-134.27438
  0
LINE
  8
0
  6
CONTINUOUS
 62
     7
 10
245.39275
 20
-137.37062
 11
245.39275
 21
-134.27438
  0
LINE
  8
0
  6
CONTINUOUS
 62
     7
 10
245.39275
 20
-120.95
 11
245.39275
 21
-116.57126
  0
LINE
  8
0
  6
CONTINUOUS
 62
     7
 10
245.97009
 20
-137.37062
 11
245.97009
 21
-111.87061
  0
LINE
  8
0
  6
CONTINUOUS
 62
     7
 10
250.07008
 20
-113.89223
 11
260.47009
 21
-113.89223
  0
LINE
  8
0
  6
CONTINUOUS
 62
     7
 10
250.07008
 20
-112.87061
 11
260.47009
 21
-112.87061
  0
LINE
  8
0
  6
CONTINUOUS
 62
     7
 10
250.07008
 20
-128.66718
 11
260.47009
 21
-128.66718
  0
LINE
  8
0
  6
CONTINUOUS
 62
     7
 10
249.57008
 20
-113.37061
 11
250.07008
 21
-112.87061
  0
LINE
  8
0
  6
CONTINUOUS
 62
     7
 10
265.47009
 20
-137.37062
 11
265.47009
 21
-117.87061
  0
LINE
  8
0
  6
CONTINUOUS
 62
     7
 10
250.07008
 20
-128.66718
 11
250.07008
 21
-126.20077
  0
LINE
  8
0
  6
CONTINUOUS
 62
     7
 10
250.07008
 20
-113.89223
 11
250.07008
 21
-112.87061
  0
LINE
  8
0
  6
CONTINUOUS
 62
     7
 10
250.07008
 20
-126.20077
 11
260.47009
 21
-126.20077
  0
LINE
  8
0
  6
CONTINUOUS
 62
     7
 10
260.47009
 20
-137.37062
 11
260.47009
 21
-112.87061
  0
LINE
  8
0
  6
CONTINUOUS
 62
     7
 10
249.57008
 20
-137.37062
 11
249.57008
 21
-113.37061
  0
LINE
  8
0
  6
CONTINUOUS
 62
     7
 10
245.97009
 20
-113.87084
 11
249.57008
 21
-113.87084
  0
LINE
  8
0
  6
CONTINUOUS
 62
     7
 10
245.39275
 20
-153.79123
 11
240.47011
 21
-153.79123
  0
LINE
  8
0
  6
CONTINUOUS
 62
     7
 10
234.97011
 20
-162.87064
 11
235.54745
 21
-163.87062
  0
LINE
  8
0
  6
CONTINUOUS
 62
     7
 10
235.54744
 20
-163.87062
 11
240.47011
 21
-163.87062
  0
LINE
  8
0
  6
CONTINUOUS
 62
     7
 10
235.54744
 20
-158.16997
 11
240.47011
 21
-158.16997
  0
LINE
  8
0
  6
CONTINUOUS
 62
     7
 10
235.54744
 20
-153.79123
 11
240.47011
 21
-153.79123
  0
LINE
  8
0
  6
CONTINUOUS
 62
     7
 10
235.54744
 20
-140.46686
 11
240.47011
 21
-140.46686
  0
LINE
  8
0
  6
CONTINUOUS
 62
     7
 10
235.54744
 20
-137.37062
 11
235.54744
 21
-140.46686
  0
LINE
  8
0
  6
CONTINUOUS
 62
     7
 10
235.54744
 20
-153.79123
 11
235.54744
 21
-158.16997
  0
LINE
  8
0
  6
CONTINUOUS
 62
     7
 10
234.97011
 20
-137.37062
 11
234.97011
 21
-162.87062
  0
LINE
  8
0
  6
CONTINUOUS
 62
     7
 10
245.39275
 20
-158.16997
 11
240.47011
 21
-158.16997
  0
LINE
  8
0
  6
CONTINUOUS
 62
     7
 10
245.39275
 20
-163.87062
 11
240.47011
 21
-163.87062
  0
LINE
  8
0
  6
CONTINUOUS
 62
     7
 10
245.97009
 20
-162.87061
 11
245.39275
 21
-163.87062
  0
LINE
  8
0
  6
CONTINUOUS
 62
     7
 10
245.39275
 20
-140.46686
 11
240.47011
 21
-140.46686
  0
LINE
  8
0
  6
CONTINUOUS
 62
     7
 10
245.39275
 20
-137.37062
 11
245.39275
 21
-140.46686
  0
LINE
  8
0
  6
CONTINUOUS
 62
     7
 10
245.39275
 20
-153.79123
 11
245.39275
 21
-158.16997
  0
LINE
  8
0
  6
CONTINUOUS
 62
     7
 10
245.97009
 20
-137.37062
 11
245.97009
 21
-162.87062
  0
LINE
  8
0
  6
CONTINUOUS
 62
     7
 10
250.07008
 20
-160.849
 11
260.47009
 21
-160.849
  0
LINE
  8
0
  6
CONTINUOUS
 62
     7
 10
250.07008
 20
-161.87062
 11
260.47009
 21
-161.87062
  0
LINE
  8
0
  6
CONTINUOUS
 62
     7
 10
250.07008
 20
-146.07407
 11
260.47009
 21
-146.07407
  0
LINE
  8
0
  6
CONTINUOUS
 62
     7
 10
249.57011
 20
-161.37062
 11
250.0701
 21
-161.87061
  0
LINE
  8
0
  6
CONTINUOUS
 62
     7
 10
265.47009
 20
-137.37062
 11
265.47009
 21
-156.87062
  0
LINE
  8
0
  6
CONTINUOUS
 62
     7
 10
250.07008
 20
-146.07407
 11
250.07008
 21
-148.54047
  0
LINE
  8
0
  6
CONTINUOUS
 62
     7
 10
250.07008
 20
-160.849
 11
250.07008
 21
-161.87062
  0
LINE
  8
0
  6
CONTINUOUS
 62
     7
 10
250.07008
 20
-148.54047
 11
260.47009
 21
-148.54047
  0
LINE
  8
0
  6
CONTINUOUS
 62
     7
 10
260.47009
 20
-137.37062
 11
260.47009
 21
-161.87062
  0
LINE
  8
0
  6
CONTINUOUS
 62
     7
 10
249.57008
 20
-137.37062
 11
249.57008
 21
-161.37062
  0
LINE
  8
0
  6
CONTINUOUS
 62
     7
 10
245.97009
 20
-160.87039
 11
249.57008
 21
-160.87039
  0
LINE
  8
0
  6
CONTINUOUS
 62
     7
 10
219.97011
 20
-117.87061
 11
234.97011
 21
-117.87061
  0
LINE
  8
0
  6
CONTINUOUS
 62
     7
 10
219.97011
 20
-137.37062
 11
219.97011
 21
-115.17062
  0
LINE
  8
0
  6
CONTINUOUS
 62
     7
 10
199.97011
 20
-159.57062
 11
199.97011
 21
-115.17062
  0
LINE
  8
0
  6
CONTINUOUS
 62
     7
 10
199.97011
 20
-115.17062
 11
219.97011
 21
-115.17062
  0
LINE
  8
0
  6
CONTINUOUS
 62
     7
 10
222.6701
 20
-117.87062
 11
219.97011
 21
-115.17061
  0
LINE
  8
0
  6
CONTINUOUS
 62
     7
 10
219.97011
 20
-156.87062
 11
234.97011
 21
-156.87062
  0
LINE
  8
0
  6
CONTINUOUS
 62
     7
 10
222.6701
 20
-156.87062
 11
219.97011
 21
-159.57062
  0
LINE
  8
0
  6
CONTINUOUS
 62
     7
 10
199.97011
 20
-159.57062
 11
219.97011
 21
-159.57062
  0
LINE
  8
0
  6
CONTINUOUS
 62
     7
 10
219.97011
 20
-137.37062
 11
219.97011
 21
-159.57062
  0
LINE
  8
0
  6
CONTINUOUS
 62
     7
 10
-200.52991
 20
-235.25685
 11
-215.52991
 21
-235.25685
  0
LINE
  8
0
  6
CONTINUOUS
 62
     7
 10
-200.52991
 20
-259.25687
 11
-200.52991
 21
-233.65686
  0
LINE
  8
0
  6
CONTINUOUS
 62
     7
 10
-180.52991
 20
-259.25687
 11
-180.52991
 21
-233.65686
  0
LINE
  8
0
  6
CONTINUOUS
 62
     7
 10
201.47009
 20
-235.15686
 11
-180.52991
 21
-235.15686
  0
LINE
  8
0
  6
CONTINUOUS
 62
     7
 10
-180.52991
 20
-233.65686
 11
-200.52991
 21
-233.65686
  0
LINE
  8
0
  6
CONTINUOUS
 62
     7
 10
-202.12991
 20
-235.25685
 11
-200.52992
 21
-233.65686
  0
LINE
  8
0
  6
CONTINUOUS
 62
     7
 10
-200.52991
 20
-259.25687
 11
-200.52991
 21
-284.85684
  0
LINE
  8
0
  6
CONTINUOUS
 62
     7
 10
-202.12991
 20
-283.25687
 11
-200.52991
 21
-284.85684
  0
LINE
  8
0
  6
CONTINUOUS
 62
     7
 10
-180.52991
 20
-284.85684
 11
-200.52991
 21
-284.85684
  0
LINE
  8
0
  6
CONTINUOUS
 62
     7
 10
-200.52991
 20
-283.25687
 11
-215.52991
 21
-283.25687
  0
LINE
  8
0
  6
CONTINUOUS
 62
     7
 10
-180.52991
 20
-259.25687
 11
-180.52991
 21
-284.85684
  0
LINE
  8
0
  6
CONTINUOUS
 62
     7
 10
201.47009
 20
-283.35684
 11
-180.52991
 21
-283.35684
  0
LINE
  8
0
  6
CONTINUOUS
 62
     7
 10
237.6248
 20
-238.63959
 11
242.22009
 21
-238.63959
  0
LINE
  8
0
  6
CONTINUOUS
 62
     7
 10
237.6248
 20
-256.53043
 11
242.22009
 21
-256.53043
  0
LINE
  8
0
  6
CONTINUOUS
 62
     7
 10
237.6248
 20
-259.25687
 11
237.6248
 21
-256.53043
  0
LINE
  8
0
  6
CONTINUOUS
 62
     7
 10
237.6248
 20
-227.25685
 11
242.22009
 21
-227.25685
  0
LINE
  8
0
  6
CONTINUOUS
 62
     7
 10
246.81538
 20
-238.63959
 11
242.22009
 21
-238.63959
  0
LINE
  8
0
  6
CONTINUOUS
 62
     7
 10
236.47011
 20
-229.25685
 11
237.6248
 21
-227.25685
  0
LINE
  8
0
  6
CONTINUOUS
 62
     7
 10
237.6248
 20
-234.78384
 11
242.22009
 21
-234.78384
  0
LINE
  8
0
  6
CONTINUOUS
 62
     7
 10
247.97009
 20
-259.25687
 11
247.97009
 21
-229.25685
  0
LINE
  8
0
  6
CONTINUOUS
 62
     7
 10
236.47009
 20
-259.25687
 11
236.47009
 21
-229.25685
  0
LINE
  8
0
  6
CONTINUOUS
 62
     7
 10
246.81538
 20
-238.63959
 11
246.81538
 21
-234.78384
  0
LINE
  8
0
  6
CONTINUOUS
 62
     7
 10
246.81538
 20
-234.78384
 11
242.22009
 21
-234.78384
  0
LINE
  8
0
  6
CONTINUOUS
 62
     7
 10
247.97009
 20
-229.25687
 11
246.81538
 21
-227.25685
  0
LINE
  8
0
  6
CONTINUOUS
 62
     7
 10
246.81538
 20
-227.25685
 11
242.22009
 21
-227.25685
  0
LINE
  8
0
  6
CONTINUOUS
 62
     7
 10
246.81538
 20
-256.53043
 11
242.22009
 21
-256.53043
  0
LINE
  8
0
  6
CONTINUOUS
 62
     7
 10
246.81538
 20
-259.25687
 11
246.81538
 21
-256.53043
  0
LINE
  8
0
  6
CONTINUOUS
 62
     7
 10
237.6248
 20
-238.63959
 11
237.6248
 21
-234.78384
  0
LINE
  8
0
  6
CONTINUOUS
 62
     7
 10
263.47009
 20
-259.25687
 11
263.47009
 21
-229.75685
  0
LINE
  8
0
  6
CONTINUOUS
 62
     7
 10
269.47009
 20
-259.25687
 11
269.47009
 21
-235.75685
  0
LINE
  8
0
  6
CONTINUOUS
 62
     7
 10
251.57008
 20
-230.25685
 11
252.07008
 21
-229.75685
  0
LINE
  8
0
  6
CONTINUOUS
 62
     7
 10
252.07008
 20
-229.75685
 11
263.47009
 21
-229.75685
  0
LINE
  8
0
  6
CONTINUOUS
 62
     7
 10
252.07008
 20
-245.1333
 11
263.47009
 21
-245.1333
  0
LINE
  8
0
  6
CONTINUOUS
 62
     7
 10
252.07008
 20
-231.6611
 11
263.47009
 21
-231.6611
  0
LINE
  8
0
  6
CONTINUOUS
 62
     7
 10
252.07008
 20
-249.73058
 11
263.47009
 21
-249.73058
  0
LINE
  8
0
  6
CONTINUOUS
 62
     7
 10
252.07008
 20
-249.73058
 11
252.07008
 21
-245.1333
  0
LINE
  8
0
  6
CONTINUOUS
 62
     7
 10
252.07008
 20
-231.6611
 11
252.07008
 21
-229.75685
  0
LINE
  8
0
  6
CONTINUOUS
 62
     7
 10
251.57008
 20
-259.25687
 11
251.57008
 21
-230.25685
  0
LINE
  8
0
  6
CONTINUOUS
 62
     7
 10
247.97009
 20
-230.45386
 11
251.57008
 21
-230.45386
  0
LINE
  8
0
  6
CONTINUOUS
 62
     7
 10
237.6248
 20
-279.87411
 11
242.22009
 21
-279.87411
  0
LINE
  8
0
  6
CONTINUOUS
 62
     7
 10
237.6248
 20
-261.98328
 11
242.22009
 21
-261.98328
  0
LINE
  8
0
  6
CONTINUOUS
 62
     7
 10
237.6248
 20
-259.25687
 11
237.6248
 21
-261.98328
  0
LINE
  8
0
  6
CONTINUOUS
 62
     7
 10
237.6248
 20
-291.25687
 11
242.22009
 21
-291.25687
  0
LINE
  8
0
  6
CONTINUOUS
 62
     7
 10
246.81538
 20
-279.87411
 11
242.22009
 21
-279.87411
  0
LINE
  8
0
  6
CONTINUOUS
 62
     7
 10
236.47009
 20
-289.25687
 11
237.6248
 21
-291.25687
  0
LINE
  8
0
  6
CONTINUOUS
 62
     7
 10
237.6248
 20
-283.72986
 11
242.22009
 21
-283.72986
  0
LINE
  8
0
  6
CONTINUOUS
 62
     7
 10
247.97009
 20
-259.25687
 11
247.97009
 21
-289.25687
  0
LINE
  8
0
  6
CONTINUOUS
 62
     7
 10
236.47009
 20
-259.25687
 11
236.47009
 21
-289.25687
  0
LINE
  8
0
  6
CONTINUOUS
 62
     7
 10
246.81538
 20
-279.87411
 11
246.81538
 21
-283.72986
  0
LINE
  8
0
  6
CONTINUOUS
 62
     7
 10
246.81538
 20
-283.72986
 11
242.22009
 21
-283.72986
  0
LINE
  8
0
  6
CONTINUOUS
 62
     7
 10
247.97009
 20
-289.25687
 11
246.8154
 21
-291.25687
  0
LINE
  8
0
  6
CONTINUOUS
 62
     7
 10
246.81538
 20
-291.25687
 11
242.22009
 21
-291.25687
  0
LINE
  8
0
  6
CONTINUOUS
 62
     7
 10
246.81538
 20
-261.98328
 11
242.22009
 21
-261.98328
  0
LINE
  8
0
  6
CONTINUOUS
 62
     7
 10
246.81538
 20
-259.25687
 11
246.81538
 21
-261.98328
  0
LINE
  8
0
  6
CONTINUOUS
 62
     7
 10
237.6248
 20
-279.87411
 11
237.6248
 21
-283.72986
  0
LINE
  8
0
  6
CONTINUOUS
 62
     7
 10
263.47009
 20
-259.25687
 11
263.47009
 21
-288.75684
  0
LINE
  8
0
  6
CONTINUOUS
 62
     7
 10
269.47009
 20
-259.25687
 11
269.47009
 21
-282.75684
  0
LINE
  8
0
  6
CONTINUOUS
 62
     7
 10
251.5701
 20
-288.25687
 11
252.07008
 21
-288.75687
  0
LINE
  8
0
  6
CONTINUOUS
 62
     7
 10
252.07008
 20
-288.75684
 11
263.47009
 21
-288.75684
  0
LINE
  8
0
  6
CONTINUOUS
 62
     7
 10
252.07008
 20
-273.3804
 11
263.47009
 21
-273.3804
  0
LINE
  8
0
  6
CONTINUOUS
 62
     7
 10
252.07008
 20
-286.8526
 11
263.47009
 21
-286.8526
  0
LINE
  8
0
  6
CONTINUOUS
 62
     7
 10
252.07008
 20
-268.78314
 11
263.47009
 21
-268.78314
  0
LINE
  8
0
  6
CONTINUOUS
 62
     7
 10
252.07008
 20
-268.78314
 11
252.07008
 21
-273.3804
  0
LINE
  8
0
  6
CONTINUOUS
 62
     7
 10
252.07008
 20
-286.8526
 11
252.07008
 21
-288.75684
  0
LINE
  8
0
  6
CONTINUOUS
 62
     7
 10
251.57008
 20
-259.25687
 11
251.57008
 21
-288.25687
  0
LINE
  8
0
  6
CONTINUOUS
 62
     7
 10
247.97009
 20
-288.05984
 11
251.57008
 21
-288.05984
  0
LINE
  8
0
  6
CONTINUOUS
 62
     7
 10
221.47009
 20
-235.25685
 11
236.47009
 21
-235.25685
  0
LINE
  8
0
  6
CONTINUOUS
 62
     7
 10
221.47009
 20
-259.25687
 11
221.47009
 21
-233.65686
  0
LINE
  8
0
  6
CONTINUOUS
 62
     7
 10
201.47009
 20
-259.25687
 11
201.47009
 21
-233.65686
  0
LINE
  8
0
  6
CONTINUOUS
 62
     7
 10
201.47009
 20
-233.65686
 11
221.47009
 21
-233.65686
  0
LINE
  8
0
  6
CONTINUOUS
 62
     7
 10
223.0701
 20
-235.25685
 11
221.47011
 21
-233.65686
  0
LINE
  8
0
  6
CONTINUOUS
 62
     7
 10
221.47009
 20
-259.25687
 11
221.47009
 21
-284.85684
  0
LINE
  8
0
  6
CONTINUOUS
 62
     7
 10
223.0701
 20
-283.25687
 11
221.47009
 21
-284.85684
  0
LINE
  8
0
  6
CONTINUOUS
 62
     7
 10
201.47009
 20
-284.85684
 11
221.47009
 21
-284.85684
  0
LINE
  8
0
  6
CONTINUOUS
 62
     7
 10
221.47009
 20
-283.25687
 11
236.47009
 21
-283.25687
  0
LINE
  8
0
  6
CONTINUOUS
 62
     7
 10
201.47009
 20
-259.25687
 11
201.47009
 21
-284.85684
  0
LINE
  8
0
  6
CONTINUOUS
 62
     7
 10
-196.52991
 20
-361.3989
 11
-196.52991
 21
-391.19888
  0
LINE
  8
0
  6
CONTINUOUS
 62
     7
 10
-176.52991
 20
-361.3989
 11
-176.52991
 21
-391.19888
  0
LINE
  8
0
  6
CONTINUOUS
 62
     7
 10
-196.52991
 20
-364.19888
 11
-211.52991
 21
-364.19888
  0
LINE
  8
0
  6
CONTINUOUS
 62
     7
 10
199.47009
 20
-362.8989
 11
-176.52991
 21
-362.8989
  0
LINE
  8
0
  6
CONTINUOUS
 62
     7
 10
-176.52991
 20
-361.3989
 11
-196.52991
 21
-361.3989
  0
LINE
  8
0
  6
CONTINUOUS
 62
     7
 10
-199.32991
 20
-364.19888
 11
-196.52989
 21
-361.3989
  0
LINE
  8
0
  6
CONTINUOUS
 62
     7
 10
-196.52991
 20
-420.9989
 11
-196.52991
 21
-391.19888
  0
LINE
  8
0
  6
CONTINUOUS
 62
     7
 10
-176.52991
 20
-420.9989
 11
-176.52991
 21
-391.19888
  0
LINE
  8
0
  6
CONTINUOUS
 62
     7
 10
-196.52991
 20
-418.19888
 11
-211.52991
 21
-418.19888
  0
LINE
  8
0
  6
CONTINUOUS
 62
     7
 10
199.47009
 20
-419.4989
 11
-176.52991
 21
-419.4989
  0
LINE
  8
0
  6
CONTINUOUS
 62
     7
 10
-176.52991
 20
-420.9989
 11
-196.52991
 21
-420.9989
  0
LINE
  8
0
  6
CONTINUOUS
 62
     7
 10
-199.32991
 20
-418.19891
 11
-196.52992
 21
-420.9989
  0
LINE
  8
0
  6
CONTINUOUS
 62
     7
 10
251.97008
 20
-357.19888
 11
251.47008
 21
-357.69888
  0
LINE
  8
0
  6
CONTINUOUS
 62
     7
 10
251.97009
 20
-359.93747
 11
251.97009
 21
-357.19888
  0
LINE
  8
0
  6
CONTINUOUS
 62
     7
 10
251.97009
 20
-357.19888
 11
263.47009
 21
-357.19888
  0
LINE
  8
0
  6
CONTINUOUS
 62
     7
 10
251.97009
 20
-359.93747
 11
263.47009
 21
-359.93747
  0
LINE
  8
0
  6
CONTINUOUS
 62
     7
 10
271.47009
 20
-391.19888
 11
271.47009
 21
-365.19888
  0
LINE
  8
0
  6
CONTINUOUS
 62
     7
 10
251.97009
 20
-380.98859
 11
251.97009
 21
-374.37701
  0
LINE
  8
0
  6
CENTER
 62
     7
 10
247.15303
 20
-391.19888
 11
277.15305
 21
-391.19888
  0
LINE
  8
0
  6
CONTINUOUS
 62
     7
 10
251.97009
 20
-374.37701
 11
263.47009
 21
-374.37701
  0
LINE
  8
0
  6
CONTINUOUS
 62
     7
 10
263.47009
 20
-391.19888
 11
263.47009
 21
-357.19888
  0
LINE
  8
0
  6
CONTINUOUS
 62
     7
 10
251.97009
 20
-380.98859
 11
263.47009
 21
-380.98859
  0
LINE
  8
0
  6
CONTINUOUS
 62
     7
 10
247.47009
 20
-357.69888
 11
247.47009
 21
-391.19888
  0
LINE
  8
0
  6
CONTINUOUS
 62
     7
 10
240.97009
 20
-355.69888
 11
246.31538
 21
-355.69888
  0
LINE
  8
0
  6
CONTINUOUS
 62
     7
 10
246.31538
 20
-391.19888
 11
246.31538
 21
-387.62073
  0
LINE
  8
0
  6
CONTINUOUS
 62
     7
 10
240.97009
 20
-363.69427
 11
235.62479
 21
-363.69427
  0
LINE
  8
0
  6
CONTINUOUS
 62
     7
 10
240.97009
 20
-363.69427
 11
246.31538
 21
-363.69427
  0
LINE
  8
0
  6
CONTINUOUS
 62
     7
 10
246.31538
 20
-355.69888
 11
247.47009
 21
-357.69891
  0
LINE
  8
0
  6
CONTINUOUS
 62
     7
 10
240.97009
 20
-368.75458
 11
246.31538
 21
-368.75458
  0
LINE
  8
0
  6
CONTINUOUS
 62
     7
 10
235.62479
 20
-391.19888
 11
235.62479
 21
-387.62073
  0
LINE
  8
0
  6
CONTINUOUS
 62
     7
 10
234.47009
 20
-357.69888
 11
234.47009
 21
-391.19888
  0
LINE
  8
0
  6
CONTINUOUS
 62
     7
 10
235.62479
 20
-355.69888
 11
234.47009
 21
-357.69888
  0
LINE
  8
0
  6
CONTINUOUS
 62
     7
 10
240.97009
 20
-387.62073
 11
246.31538
 21
-387.62073
  0
LINE
  8
0
  6
CONTINUOUS
 62
     7
 10
240.97009
 20
-355.69888
 11
235.62479
 21
-355.69888
  0
LINE
  8
0
  6
CONTINUOUS
 62
     7
 10
246.31538
 20
-368.75458
 11
246.31538
 21
-363.69427
  0
LINE
  8
0
  6
CONTINUOUS
 62
     7
 10
240.97009
 20
-368.75458
 11
235.62479
 21
-368.75458
  0
LINE
  8
0
  6
CONTINUOUS
 62
     7
 10
240.97009
 20
-387.62073
 11
235.62479
 21
-387.62073
  0
LINE
  8
0
  6
CONTINUOUS
 62
     7
 10
235.62479
 20
-368.75458
 11
235.62479
 21
-363.69427
  0
LINE
  8
0
  6
CONTINUOUS
 62
     7
 10
251.47009
 20
-391.19888
 11
251.47009
 21
-357.69888
  0
LINE
  8
0
  6
CONTINUOUS
 62
     7
 10
247.47009
 20
-358.19138
 11
251.47009
 21
-358.19138
  0
LINE
  8
0
  6
CONTINUOUS
 62
     7
 10
251.97009
 20
-425.19888
 11
251.47011
 21
-424.69888
  0
LINE
  8
0
  6
CONTINUOUS
 62
     7
 10
251.97009
 20
-422.4603
 11
251.97009
 21
-425.19888
  0
LINE
  8
0
  6
CONTINUOUS
 62
     7
 10
251.97009
 20
-425.19888
 11
263.47009
 21
-425.19888
  0
LINE
  8
0
  6
CONTINUOUS
 62
     7
 10
251.97009
 20
-422.4603
 11
263.47009
 21
-422.4603
  0
LINE
  8
0
  6
CONTINUOUS
 62
     7
 10
271.47009
 20
-391.19888
 11
271.47009
 21
-417.19888
  0
LINE
  8
0
  6
CONTINUOUS
 62
     7
 10
251.97009
 20
-401.40918
 11
251.97009
 21
-408.02075
  0
LINE
  8
0
  6
CONTINUOUS
 62
     7
 10
251.97009
 20
-408.02075
 11
263.47009
 21
-408.02075
  0
LINE
  8
0
  6
CONTINUOUS
 62
     7
 10
263.47009
 20
-391.19888
 11
263.47009
 21
-425.19888
  0
LINE
  8
0
  6
CONTINUOUS
 62
     7
 10
251.97009
 20
-401.40918
 11
263.47009
 21
-401.40918
  0
LINE
  8
0
  6
CONTINUOUS
 62
     7
 10
247.47009
 20
-424.69888
 11
247.47009
 21
-391.19888
  0
LINE
  8
0
  6
CONTINUOUS
 62
     7
 10
240.97009
 20
-426.69888
 11
246.31538
 21
-426.69888
  0
LINE
  8
0
  6
CONTINUOUS
 62
     7
 10
246.31538
 20
-391.19888
 11
246.31538
 21
-394.77704
  0
LINE
  8
0
  6
CONTINUOUS
 62
     7
 10
240.97009
 20
-418.70349
 11
235.62479
 21
-418.70349
  0
LINE
  8
0
  6
CONTINUOUS
 62
     7
 10
240.97009
 20
-418.70349
 11
246.31538
 21
-418.70349
  0
LINE
  8
0
  6
CONTINUOUS
 62
     7
 10
246.31538
 20
-426.69888
 11
247.47009
 21
-424.69888
  0
LINE
  8
0
  6
CONTINUOUS
 62
     7
 10
240.97009
 20
-413.64319
 11
246.31538
 21
-413.64319
  0
LINE
  8
0
  6
CONTINUOUS
 62
     7
 10
235.62479
 20
-391.19888
 11
235.62479
 21
-394.77704
  0
LINE
  8
0
  6
CONTINUOUS
 62
     7
 10
234.47009
 20
-424.69888
 11
234.47009
 21
-391.19888
  0
LINE
  8
0
  6
CONTINUOUS
 62
     7
 10
235.6248
 20
-426.69888
 11
234.47009
 21
-424.69888
  0
LINE
  8
0
  6
CONTINUOUS
 62
     7
 10
240.97009
 20
-394.77704
 11
246.31538
 21
-394.77704
  0
LINE
  8
0
  6
CONTINUOUS
 62
     7
 10
240.97009
 20
-426.69888
 11
235.62479
 21
-426.69888
  0
LINE
  8
0
  6
CONTINUOUS
 62
     7
 10
246.31538
 20
-413.64319
 11
246.31538
 21
-418.70349
  0
LINE
  8
0
  6
CONTINUOUS
 62
     7
 10
240.97009
 20
-413.64319
 11
235.62479
 21
-413.64319
  0
LINE
  8
0
  6
CONTINUOUS
 62
     7
 10
240.97009
 20
-394.77704
 11
235.62479
 21
-394.77704
  0
LINE
  8
0
  6
CONTINUOUS
 62
     7
 10
235.62479
 20
-413.64319
 11
235.62479
 21
-418.70349
  0
LINE
  8
0
  6
CONTINUOUS
 62
     7
 10
251.47009
 20
-391.19888
 11
251.47009
 21
-424.69888
  0
LINE
  8
0
  6
CONTINUOUS
 62
     7
 10
247.47009
 20
-424.20639
 11
251.47009
 21
-424.20639
  0
LINE
  8
0
  6
CONTINUOUS
 62
     7
 10
219.47009
 20
-361.3989
 11
219.47009
 21
-391.19888
  0
LINE
  8
0
  6
CONTINUOUS
 62
     7
 10
199.47009
 20
-361.3989
 11
199.47009
 21
-391.19888
  0
LINE
  8
0
  6
CONTINUOUS
 62
     7
 10
219.47009
 20
-364.19888
 11
234.47009
 21
-364.19888
  0
LINE
  8
0
  6
CONTINUOUS
 62
     7
 10
199.47009
 20
-361.3989
 11
219.47009
 21
-361.3989
  0
LINE
  8
0
  6
CONTINUOUS
 62
     7
 10
222.2701
 20
-364.19888
 11
219.47009
 21
-361.3989
  0
LINE
  8
0
  6
CONTINUOUS
 62
     7
 10
219.47009
 20
-420.9989
 11
219.47009
 21
-391.19888
  0
LINE
  8
0
  6
CONTINUOUS
 62
     7
 10
199.47009
 20
-420.9989
 11
199.47009
 21
-391.19888
  0
LINE
  8
0
  6
CONTINUOUS
 62
     7
 10
219.47009
 20
-418.19888
 11
234.47009
 21
-418.19888
  0
LINE
  8
0
  6
CONTINUOUS
 62
     7
 10
199.47009
 20
-420.9989
 11
219.47009
 21
-420.9989
  0
LINE
  8
0
  6
CONTINUOUS
 62
     7
 10
222.2701
 20
-418.19891
 11
219.47011
 21
-420.9989
  0
LINE
  8
0
  6
CONTINUOUS
 62
     7
 10
-190.52991
 20
-502.74554
 11
-205.52991
 21
-502.74554
  0
LINE
  8
0
  6
CONTINUOUS
 62
     7
 10
-190.52991
 20
-499.39554
 11
-190.52991
 21
-535.74554
  0
LINE
  8
0
  6
CONTINUOUS
 62
     7
 10
-170.52991
 20
-499.39554
 11
-170.52991
 21
-535.74554
  0
LINE
  8
0
  6
CONTINUOUS
 62
     7
 10
197.47009
 20
-500.89554
 11
-170.52991
 21
-500.89554
  0
LINE
  8
0
  6
CONTINUOUS
 62
     7
 10
-170.52991
 20
-499.39554
 11
-190.52991
 21
-499.39554
  0
LINE
  8
0
  6
CONTINUOUS
 62
     7
 10
-193.8799
 20
-502.74551
 11
-190.52991
 21
-499.39554
  0
LINE
  8
0
  6
CONTINUOUS
 62
     7
 10
-190.52991
 20
-568.74554
 11
-205.52991
 21
-568.74554
  0
LINE
  8
0
  6
CONTINUOUS
 62
     7
 10
-190.52991
 20
-572.09552
 11
-190.52991
 21
-535.74554
  0
LINE
  8
0
  6
CONTINUOUS
 62
     7
 10
-170.52991
 20
-572.09552
 11
-170.52991
 21
-535.74554
  0
LINE
  8
0
  6
CONTINUOUS
 62
     7
 10
197.47009
 20
-570.59552
 11
-170.52991
 21
-570.59552
  0
LINE
  8
0
  6
CONTINUOUS
 62
     7
 10
-170.52991
 20
-572.09552
 11
-190.52991
 21
-572.09552
  0
LINE
  8
0
  6
CONTINUOUS
 62
     7
 10
-193.87993
 20
-568.74554
 11
-190.52991
 21
-572.09552
  0
LINE
  8
0
  6
CONTINUOUS
 62
     7
 10
232.47009
 20
-494.74554
 11
232.47009
 21
-535.74554
  0
LINE
  8
0
  6
CONTINUOUS
 62
     7
 10
247.3154
 20
-535.74554
 11
247.3154
 21
-532.03033
  0
LINE
  8
0
  6
CONTINUOUS
 62
     7
 10
240.47009
 20
-508.08066
 11
233.6248
 21
-508.08066
  0
LINE
  8
0
  6
CONTINUOUS
 62
     7
 10
240.47009
 20
-502.8266
 11
233.6248
 21
-502.8266
  0
LINE
  8
0
  6
CONTINUOUS
 62
     7
 10
240.47009
 20
-492.74554
 11
233.6248
 21
-492.74554
  0
LINE
  8
0
  6
CONTINUOUS
 62
     7
 10
233.6248
 20
-535.74554
 11
233.6248
 21
-532.03033
  0
LINE
  8
0
  6
CONTINUOUS
 62
     7
 10
248.47009
 20
-494.74554
 11
248.47009
 21
-535.74554
  0
LINE
  8
0
  6
CONTINUOUS
 62
     7
 10
240.47009
 20
-532.03033
 11
233.6248
 21
-532.03033
  0
LINE
  8
0
  6
CONTINUOUS
 62
     7
 10
240.47009
 20
-502.8266
 11
247.3154
 21
-502.8266
  0
LINE
  8
0
  6
CONTINUOUS
 62
     7
 10
240.47009
 20
-492.74554
 11
247.3154
 21
-492.74554
  0
LINE
  8
0
  6
CONTINUOUS
 62
     7
 10
240.47009
 20
-508.08066
 11
247.3154
 21
-508.08066
  0
LINE
  8
0
  6
CONTINUOUS
 62
     7
 10
240.47009
 20
-532.03033
 11
247.3154
 21
-532.03033
  0
LINE
  8
0
  6
CONTINUOUS
 62
     7
 10
247.3154
 20
-508.08066
 11
247.3154
 21
-502.8266
  0
LINE
  8
0
  6
CONTINUOUS
 62
     7
 10
247.3154
 20
-492.74551
 11
248.47012
 21
-494.74554
  0
LINE
  8
0
  6
CONTINUOUS
 62
     7
 10
233.6248
 20
-508.08066
 11
233.6248
 21
-502.8266
  0
LINE
  8
0
  6
CONTINUOUS
 62
     7
 10
233.62477
 20
-492.74551
 11
232.47008
 21
-494.74551
  0
LINE
  8
0
  6
CONTINUOUS
 62
     7
 10
252.47009
 20
-494.74554
 11
267.47009
 21
-494.74554
  0
LINE
  8
0
  6
CONTINUOUS
 62
     7
 10
252.47008
 20
-494.74551
 11
251.97008
 21
-495.24551
  0
LINE
  8
0
  6
CONTINUOUS
 62
     7
 10
252.47009
 20
-497.58899
 11
252.47009
 21
-494.74554
  0
LINE
  8
0
  6
CONTINUOUS
 62
     7
 10
275.47009
 20
-535.74554
 11
275.47009
 21
-502.74554
  0
LINE
  8
0
  6
CONTINUOUS
 62
     7
 10
252.47009
 20
-497.58899
 11
267.47009
 21
-497.58899
  0
LINE
  8
0
  6
CONTINUOUS
 62
     7
 10
252.47009
 20
-522.78406
 11
267.47009
 21
-522.78406
  0
LINE
  8
0
  6
CONTINUOUS
 62
     7
 10
267.47009
 20
-535.74554
 11
267.47009
 21
-494.74554
  0
LINE
  8
0
  6
CONTINUOUS
 62
     7
 10
252.47009
 20
-515.91931
 11
267.47009
 21
-515.91931
  0
LINE
  8
0
  6
CONTINUOUS
 62
     7
 10
252.47009
 20
-522.78406
 11
252.47009
 21
-515.91931
  0
LINE
  8
0
  6
CONTINUOUS
 62
     7
 10
251.97009
 20
-536.1474
 11
251.97009
 21
-495.24554
  0
LINE
  8
0
  6
CONTINUOUS
 62
     7
 10
232.47009
 20
-576.74554
 11
232.47009
 21
-535.74554
  0
LINE
  8
0
  6
CONTINUOUS
 62
     7
 10
247.3154
 20
-535.74554
 11
247.3154
 21
-539.46069
  0
LINE
  8
0
  6
CONTINUOUS
 62
     7
 10
240.47009
 20
-563.4104
 11
233.6248
 21
-563.4104
  0
LINE
  8
0
  6
CONTINUOUS
 62
     7
 10
240.47009
 20
-568.66443
 11
233.6248
 21
-568.66443
  0
LINE
  8
0
  6
CONTINUOUS
 62
     7
 10
240.47009
 20
-578.74554
 11
233.6248
 21
-578.74554
  0
LINE
  8
0
  6
CONTINUOUS
 62
     7
 10
233.6248
 20
-535.74554
 11
233.6248
 21
-539.46069
  0
LINE
  8
0
  6
CONTINUOUS
 62
     7
 10
248.47009
 20
-576.74554
 11
248.47009
 21
-535.74554
  0
LINE
  8
0
  6
CONTINUOUS
 62
     7
 10
240.47009
 20
-539.46069
 11
233.6248
 21
-539.46069
  0
LINE
  8
0
  6
CONTINUOUS
 62
     7
 10
240.47009
 20
-568.66443
 11
247.3154
 21
-568.66443
  0
LINE
  8
0
  6
CONTINUOUS
 62
     7
 10
240.47009
 20
-578.74554
 11
247.3154
 21
-578.74554
  0
LINE
  8
0
  6
CONTINUOUS
 62
     7
 10
240.47009
 20
-563.4104
 11
247.3154
 21
-563.4104
  0
LINE
  8
0
  6
CONTINUOUS
 62
     7
 10
240.47009
 20
-539.46069
 11
247.3154
 21
-539.46069
  0
LINE
  8
0
  6
CONTINUOUS
 62
     7
 10
247.3154
 20
-563.4104
 11
247.3154
 21
-568.66443
  0
LINE
  8
0
  6
CONTINUOUS
 62
     7
 10
247.31538
 20
-578.74554
 11
248.47008
 21
-576.74554
  0
LINE
  8
0
  6
CONTINUOUS
 62
     7
 10
233.6248
 20
-563.4104
 11
233.6248
 21
-568.66443
  0
LINE
  8
0
  6
CONTINUOUS
 62
     7
 10
233.6248
 20
-578.74554
 11
232.47008
 21
-576.74548
  0
LINE
  8
0
  6
CONTINUOUS
 62
     7
 10
252.47009
 20
-576.74554
 11
267.47009
 21
-576.74554
  0
LINE
  8
0
  6
CONTINUOUS
 62
     7
 10
252.47009
 20
-576.74554
 11
251.97011
 21
-576.24554
  0
LINE
  8
0
  6
CONTINUOUS
 62
     7
 10
252.47009
 20
-573.90204
 11
252.47009
 21
-576.74554
  0
LINE
  8
0
  6
CONTINUOUS
 62
     7
 10
275.47009
 20
-535.74554
 11
275.47009
 21
-568.74554
  0
LINE
  8
0
  6
CONTINUOUS
 62
     7
 10
252.47009
 20
-573.90204
 11
267.47009
 21
-573.90204
  0
LINE
  8
0
  6
CONTINUOUS
 62
     7
 10
252.47009
 20
-548.70703
 11
267.47009
 21
-548.70703
  0
LINE
  8
0
  6
CONTINUOUS
 62
     7
 10
267.47009
 20
-535.74554
 11
267.47009
 21
-576.74554
  0
LINE
  8
0
  6
CONTINUOUS
 62
     7
 10
252.47009
 20
-555.57172
 11
267.47009
 21
-555.57172
  0
LINE
  8
0
  6
CONTINUOUS
 62
     7
 10
252.47009
 20
-548.70703
 11
252.47009
 21
-555.57172
  0
LINE
  8
0
  6
CONTINUOUS
 62
     7
 10
251.97009
 20
-535.34363
 11
251.97009
 21
-576.24554
  0
LINE
  8
0
  6
CONTINUOUS
 62
     7
 10
217.47009
 20
-502.74554
 11
232.47009
 21
-502.74554
  0
LINE
  8
0
  6
CONTINUOUS
 62
     7
 10
217.47009
 20
-499.39554
 11
217.47009
 21
-535.74554
  0
LINE
  8
0
  6
CONTINUOUS
 62
     7
 10
197.47009
 20
-499.39554
 11
197.47009
 21
-535.74554
  0
LINE
  8
0
  6
CONTINUOUS
 62
     7
 10
197.47009
 20
-499.39554
 11
217.47009
 21
-499.39554
  0
LINE
  8
0
  6
CONTINUOUS
 62
     7
 10
220.82008
 20
-502.74554
 11
217.47009
 21
-499.39554
  0
LINE
  8
0
  6
CONTINUOUS
 62
     7
 10
217.47009
 20
-568.74554
 11
232.47009
 21
-568.74554
  0
LINE
  8
0
  6
CONTINUOUS
 62
     7
 10
217.47009
 20
-572.09552
 11
217.47009
 21
-535.74554
  0
LINE
  8
0
  6
CONTINUOUS
 62
     7
 10
197.47009
 20
-572.09552
 11
197.47009
 21
-535.74554
  0
LINE
  8
0
  6
CONTINUOUS
 62
     7
 10
197.47009
 20
-572.09552
 11
217.47009
 21
-572.09552
  0
LINE
  8
0
  6
CONTINUOUS
 62
     7
 10
220.82008
 20
-568.74554
 11
217.47008
 21
-572.09552
  0
LINE
  8
0
  6
CONTINUOUS
 62
     7
 10
21.970085
 20
-25.342728
 11
24.420086
 21
-27.792728
  0
LINE
  8
0
  6
CONTINUOUS
 62
     7
 10
21.970089
 20
-61.242729
 11
24.420088
 21
-58.792728
  0
CIRCLE
  8
0
  6
CONTINUOUS
 62
     7
 10
-401.50162
 20
101.27591
 40
14.5
  0
CIRCLE
  8
0
  6
CONTINUOUS
 62
     7
 10
-401.50162
 20
101.27591
 40
8.0500002
  0
CIRCLE
  8
0
  6
CONTINUOUS
 62
     7
 10
-401.50162
 20
56.199329
 40
17
  0
CIRCLE
  8
0
  6
CONTINUOUS
 62
     7
 10
-401.50162
 20
56.199329
 40
11.25
  0
CIRCLE
  8
0
  6
CONTINUOUS
 62
     7
 10
-401.50162
 20
5.3851457
 40
21.5
  0
CIRCLE
  8
0
  6
CONTINUOUS
 62
     7
 10
-401.50162
 20
5.3851457
 40
14.4
  0
CIRCLE
  8
0
  6
CONTINUOUS
 62
     7
 10
-401.50162
 20
-50.685677
 40
24.5
  0
CIRCLE
  8
0
  6
CONTINUOUS
 62
     7
 10
-401.50162
 20
-50.685677
 40
17.25
  0
CIRCLE
  8
0
  6
CONTINUOUS
 62
     7
 10
-401.50162
 20
-137.66437
 40
29.5
  0
CIRCLE
  8
0
  6
CONTINUOUS
 62
     7
 10
-401.50162
 20
-137.66437
 40
21.65
  0
CIRCLE
  8
0
  6
CONTINUOUS
 62
     7
 10
-401.50162
 20
-241.56189
 40
34
  0
CIRCLE
  8
0
  6
CONTINUOUS
 62
     7
 10
-401.50162
 20
-241.56189
 40
24.65
  0
CIRCLE
  8
0
  6
CONTINUOUS
 62
     7
 10
-401.50162
 20
-347.29117
 40
41
  0
CIRCLE
  8
0
  6
CONTINUOUS
 62
     7
 10
-401.50162
 20
-347.29117
 40
30.65
  0
ARC
  8
0
  6
CONTINUOUS
 62
     7
 10
-227.95622
 20
62.087791
 40
4.9263082
 50
331.98231
 51
28.017687
  0
ARC
  8
0
  6
CONTINUOUS
 62
     7
 10
-204.73009
 20
52.598854
 40
26.899828
 50
168.1078
 51
191.89221
  0
ARC
  8
0
  6
CONTINUOUS
 62
     7
 10
-226.70361
 20
62.087791
 40
4.9263082
 50
151.98231
 51
208.01769
  0
ARC
  8
0
  6
CONTINUOUS
 62
     7
 10
-249.92975
 20
52.598854
 40
26.899828
 50
348.1078
 51
11.892211
  0
ARC
  8
0
  6
CONTINUOUS
 62
     7
 10
-243.52992
 20
57.901894
 40
5
 50
89.999996
 51
180.00001
  0
ARC
  8
0
  6
CONTINUOUS
 62
     7
 10
-268.90839
 20
45.901894
 40
33.878471
 50
8.651423E-006
 51
9.8558759
  0
ARC
  8
0
  6
CONTINUOUS
 62
     7
 10
-252.09415
 20
57.922707
 40
17.064236
 50
346.09586
 51
13.904139
  0
ARC
  8
0
  6
CONTINUOUS
 62
     7
 10
-224.29248
 20
-22.913614
 40
6.2374358
 50
155.15368
 51
204.84632
  0
ARC
  8
0
  6
CONTINUOUS
 62
     7
 10
-228.26733
 20
-22.913614
 40
6.2374358
 50
335.15368
 51
24.846321
  0
ARC
  8
0
  6
CONTINUOUS
 62
     7
 10
-255.58257
 20
-34.873692
 40
33.552666
 50
349.35567
 51
10.644322
  0
ARC
  8
0
  6
CONTINUOUS
 62
     7
 10
-196.97725
 20
-34.873692
 40
33.552666
 50
169.35567
 51
190.64432
  0
ARC
  8
0
  6
CONTINUOUS
 62
     7
 10
-243.52991
 20
-26.79273
 40
5
 50
89.999996
 51
180.00001
  0
ARC
  8
0
  6
CONTINUOUS
 62
     7
 10
-278.27991
 20
-43.292728
 40
44.249989
 50
8.651423E-006
 51
8.6213602
  0
ARC
  8
0
  6
CONTINUOUS
 62
     7
 10
-256.27991
 20
-28.089933
 40
22.249998
 50
347.83045
 51
12.169544
  0
ARC
  8
0
  6
CONTINUOUS
 62
     7
 10
-225.34732
 20
-113.72093
 40
7.3179798
 50
337.07688
 51
22.923117
  0
ARC
  8
0
  6
CONTINUOUS
 62
     7
 10
-256.75693
 20
-127.61218
 40
38.72702
 50
350.09415
 51
9.9058421
  0
ARC
  8
0
  6
CONTINUOUS
 62
     7
 10
-221.71251
 20
-113.72093
 40
7.3179798
 50
157.07688
 51
202.92312
  0
ARC
  8
0
  6
CONTINUOUS
 62
     7
 10
-190.30287
 20
-127.61218
 40
38.72702
 50
170.09415
 51
189.90584
  0
ARC
  8
0
  6
CONTINUOUS
 62
     7
 10
-270.75494
 20
-120.0465
 40
38.125019
 50
350.71048
 51
9.2895268
  0
ARC
  8
0
  6
CONTINUOUS
 62
     7
 10
-308.62994
 20
-137.37062
 40
76.000023
 50
8.651423E-006
 51
6.5758824
  0
ARC
  8
0
  6
CONTINUOUS
 62
     7
 10
-243.52991
 20
-117.87061
 40
5
 50
89.999996
 51
180.00001
  0
ARC
  8
0
  6
CONTINUOUS
 62
     7
 10
-250.75722
 20
-247.58501
 40
35.227299
 50
345.28954
 51
14.710457
  0
ARC
  8
0
  6
CONTINUOUS
 62
     7
 10
-191.80261
 20
-247.58501
 40
35.227299
 50
165.28954
 51
194.71046
  0
ARC
  8
0
  6
CONTINUOUS
 62
     7
 10
-220.32086
 20
-231.02034
 40
6.7092843
 50
145.87928
 51
214.12072
  0
ARC
  8
0
  6
CONTINUOUS
 62
     7
 10
-222.23894
 20
-231.02034
 40
6.7092843
 50
325.87927
 51
34.120719
  0
ARC
  8
0
  6
CONTINUOUS
 62
     7
 10
-242.52991
 20
-235.75685
 40
6
 50
89.999996
 51
180.00001
  0
ARC
  8
0
  6
CONTINUOUS
 62
     7
 10
-321.63031
 20
-259.25684
 40
91.000397
 50
8.651423E-006
 51
6.0089631
  0
ARC
  8
0
  6
CONTINUOUS
 62
     7
 10
-276.25513
 20
-238.3972
 40
45.625206
 50
351.50982
 51
8.4901761
  0
ARC
  8
0
  6
CONTINUOUS
 62
     7
 10
-240.52991
 20
-365.19888
 40
8
 50
89.999996
 51
180.00001
  0
ARC
  8
0
  6
CONTINUOUS
 62
     7
 10
-280.90491
 20
-367.15726
 40
52.375008
 50
352.07669
 51
7.9233114
  0
ARC
  8
0
  6
CONTINUOUS
 62
     7
 10
-333.02994
 20
-391.19888
 40
104.50002
 50
8.651423E-006
 51
5.6071021
  0
ARC
  8
0
  6
CONTINUOUS
 62
     7
 10
-185.42181
 20
-378.18765
 40
39.108093
 50
166.04231
 51
193.95769
  0
ARC
  8
0
  6
CONTINUOUS
 62
     7
 10
-250.638
 20
-378.18765
 40
39.108093
 50
346.04231
 51
13.957688
  0
ARC
  8
0
  6
CONTINUOUS
 62
     7
 10
-217.03584
 20
-359.69656
 40
7.4946027
 50
147.76379
 51
212.2362
  0
ARC
  8
0
  6
CONTINUOUS
 62
     7
 10
-219.02396
 20
-359.69656
 40
7.4946027
 50
327.76379
 51
32.236201
  0
ARC
  8
0
  6
CONTINUOUS
 62
     7
 10
-158.85985
 20
-520.05548
 40
62.670059
 50
168.98432
 51
191.01568
  0
ARC
  8
0
  6
CONTINUOUS
 62
     7
 10
-268.19998
 20
-520.05548
 40
62.670059
 50
348.98432
 51
11.01568
  0
ARC
  8
0
  6
CONTINUOUS
 62
     7
 10
-209.95378
 20
-497.78607
 40
11.57641
 50
154.1883
 51
205.8117
  0
ARC
  8
0
  6
CONTINUOUS
 62
     7
 10
-217.10603
 20
-497.78607
 40
11.57641
 50
334.1883
 51
25.8117
  0
ARC
  8
0
  6
CONTINUOUS
 62
     7
 10
-240.52991
 20
-502.74554
 40
8
 50
89.999996
 51
180.00001
  0
ARC
  8
0
  6
CONTINUOUS
 62
     7
 10
-393.27954
 20
-535.74554
 40
168.24962
 50
359.99999
 51
4.4182769
  0
ARC
  8
0
  6
CONTINUOUS
 62
     7
 10
-309.27972
 20
-506.75415
 40
84.249809
 50
353.7547
 51
6.2453115
  0
ARC
  8
0
  6
CONTINUOUS
 62
     7
 10
-227.95622
 20
29.715998
 40
4.9263082
 50
331.98231
 51
28.017687
  0
ARC
  8
0
  6
CONTINUOUS
 62
     7
 10
-204.73009
 20
39.204933
 40
26.899828
 50
168.1078
 51
191.89221
  0
ARC
  8
0
  6
CONTINUOUS
 62
     7
 10
-226.70361
 20
29.715998
 40
4.9263082
 50
151.98231
 51
208.01769
  0
ARC
  8
0
  6
CONTINUOUS
 62
     7
 10
-249.92975
 20
39.204933
 40
26.899828
 50
348.10779
 51
11.892198
  0
ARC
  8
0
  6
CONTINUOUS
 62
     7
 10
-243.52992
 20
33.901894
 40
5
 50
179.99999
 51
270
  0
ARC
  8
0
  6
CONTINUOUS
 62
     7
 10
-268.90839
 20
45.901894
 40
33.878471
 50
350.14412
 51
359.99999
  0
ARC
  8
0
  6
CONTINUOUS
 62
     7
 10
-252.09415
 20
33.881081
 40
17.064236
 50
346.09586
 51
13.904139
  0
ARC
  8
0
  6
CONTINUOUS
 62
     7
 10
-224.29248
 20
-63.671841
 40
6.2374358
 50
155.15368
 51
204.84632
  0
ARC
  8
0
  6
CONTINUOUS
 62
     7
 10
-228.26733
 20
-63.671841
 40
6.2374358
 50
335.15368
 51
24.846321
  0
ARC
  8
0
  6
CONTINUOUS
 62
     7
 10
-255.58257
 20
-51.711765
 40
33.552666
 50
349.35567
 51
10.644322
  0
ARC
  8
0
  6
CONTINUOUS
 62
     7
 10
-196.97725
 20
-51.711765
 40
33.552666
 50
169.35567
 51
190.64432
  0
ARC
  8
0
  6
CONTINUOUS
 62
     7
 10
-243.52991
 20
-59.792728
 40
5
 50
179.99999
 51
270
  0
ARC
  8
0
  6
CONTINUOUS
 62
     7
 10
-278.27991
 20
-43.292728
 40
44.249989
 50
351.37864
 51
359.99999
  0
ARC
  8
0
  6
CONTINUOUS
 62
     7
 10
-256.27991
 20
-58.495525
 40
22.249998
 50
347.83045
 51
12.169544
  0
ARC
  8
0
  6
CONTINUOUS
 62
     7
 10
-225.34732
 20
-161.02029
 40
7.3179798
 50
337.07688
 51
22.923117
  0
ARC
  8
0
  6
CONTINUOUS
 62
     7
 10
-256.75693
 20
-147.12904
 40
38.72702
 50
350.09415
 51
9.9058421
  0
ARC
  8
0
  6
CONTINUOUS
 62
     7
 10
-221.71251
 20
-161.02029
 40
7.3179798
 50
157.07688
 51
202.92312
  0
ARC
  8
0
  6
CONTINUOUS
 62
     7
 10
-190.30287
 20
-147.12904
 40
38.72702
 50
170.09415
 51
189.90584
  0
ARC
  8
0
  6
CONTINUOUS
 62
     7
 10
-270.75494
 20
-154.69473
 40
38.125019
 50
350.71047
 51
9.2895132
  0
ARC
  8
0
  6
CONTINUOUS
 62
     7
 10
-308.62994
 20
-137.37062
 40
76.000023
 50
353.42412
 51
359.99999
  0
ARC
  8
0
  6
CONTINUOUS
 62
     7
 10
-243.52991
 20
-156.87062
 40
5
 50
179.99999
 51
270
  0
ARC
  8
0
  6
CONTINUOUS
 62
     7
 10
-250.75722
 20
-270.92871
 40
35.227299
 50
345.28954
 51
14.710457
  0
ARC
  8
0
  6
CONTINUOUS
 62
     7
 10
-191.80261
 20
-270.92871
 40
35.227299
 50
165.28954
 51
194.71046
  0
ARC
  8
0
  6
CONTINUOUS
 62
     7
 10
-220.32086
 20
-287.49335
 40
6.7092843
 50
145.87928
 51
214.12072
  0
ARC
  8
0
  6
CONTINUOUS
 62
     7
 10
-222.23894
 20
-287.49335
 40
6.7092843
 50
325.87927
 51
34.120719
  0
ARC
  8
0
  6
CONTINUOUS
 62
     7
 10
-242.52991
 20
-282.75684
 40
6
 50
179.99999
 51
270
  0
ARC
  8
0
  6
CONTINUOUS
 62
     7
 10
-321.63031
 20
-259.25687
 40
91.000397
 50
353.99104
 51
359.99999
  0
ARC
  8
0
  6
CONTINUOUS
 62
     7
 10
-276.25513
 20
-280.11652
 40
45.625206
 50
351.50982
 51
8.4901761
  0
ARC
  8
0
  6
CONTINUOUS
 62
     7
 10
-219.02396
 20
-422.7012
 40
7.4946027
 50
327.76379
 51
32.236201
  0
ARC
  8
0
  6
CONTINUOUS
 62
     7
 10
-240.52991
 20
-417.19888
 40
8
 50
179.99999
 51
270
  0
ARC
  8
0
  6
CONTINUOUS
 62
     7
 10
-280.90491
 20
-415.24051
 40
52.375008
 50
352.07669
 51
7.9233114
  0
ARC
  8
0
  6
CONTINUOUS
 62
     7
 10
-333.02994
 20
-391.19888
 40
104.50002
 50
354.3929
 51
359.99999
  0
ARC
  8
0
  6
CONTINUOUS
 62
     7
 10
-185.42181
 20
-404.21011
 40
39.108093
 50
166.04231
 51
193.95769
  0
ARC
  8
0
  6
CONTINUOUS
 62
     7
 10
-250.638
 20
-404.21011
 40
39.108093
 50
346.04231
 51
13.957688
  0
ARC
  8
0
  6
CONTINUOUS
 62
     7
 10
-217.03584
 20
-422.7012
 40
7.4946027
 50
147.76379
 51
212.2362
  0
ARC
  8
0
  6
CONTINUOUS
 62
     7
 10
-309.27972
 20
-564.73688
 40
84.249809
 50
353.75469
 51
6.2452979
  0
ARC
  8
0
  6
CONTINUOUS
 62
     7
 10
-158.85985
 20
-551.43555
 40
62.670059
 50
168.98432
 51
191.01568
  0
ARC
  8
0
  6
CONTINUOUS
 62
     7
 10
-268.19998
 20
-551.43555
 40
62.670059
 50
348.98432
 51
11.01568
  0
ARC
  8
0
  6
CONTINUOUS
 62
     7
 10
-209.95378
 20
-573.70496
 40
11.57641
 50
154.1883
 51
205.8117
  0
ARC
  8
0
  6
CONTINUOUS
 62
     7
 10
-217.10603
 20
-573.70496
 40
11.57641
 50
334.1883
 51
25.8117
  0
ARC
  8
0
  6
CONTINUOUS
 62
     7
 10
-240.52991
 20
-568.74554
 40
8
 50
179.99999
 51
270
  0
ARC
  8
0
  6
CONTINUOUS
 62
     7
 10
-393.27954
 20
-535.74554
 40
168.24962
 50
355.58172
 51
5.0089561E-006
  0
ARC
  8
0
  6
CONTINUOUS
 62
     7
 10
40.896408
 20
29.715998
 40
4.9263082
 50
151.98231
 51
208.01769
  0
ARC
  8
0
  6
CONTINUOUS
 62
     7
 10
17.670273
 20
39.204933
 40
26.899828
 50
348.10779
 51
11.892207
  0
ARC
  8
0
  6
CONTINUOUS
 62
     7
 10
39.643799
 20
29.715998
 40
4.9263082
 50
331.98231
 51
28.017689
  0
ARC
  8
0
  6
CONTINUOUS
 62
     7
 10
62.869934
 20
39.204933
 40
26.899828
 50
168.1078
 51
191.89221
  0
ARC
  8
0
  6
CONTINUOUS
 62
     7
 10
56.470108
 20
33.901894
 40
5
 50
270
 51
0
  0
ARC
  8
0
  6
CONTINUOUS
 62
     7
 10
81.848572
 20
45.901894
 40
33.878471
 50
180.00001
 51
189.85588
  0
ARC
  8
0
  6
CONTINUOUS
 62
     7
 10
65.034332
 20
33.881081
 40
17.064236
 50
166.09586
 51
193.90414
  0
ARC
  8
0
  6
CONTINUOUS
 62
     7
 10
40.896408
 20
62.087791
 40
4.9263082
 50
151.98231
 51
208.01769
  0
ARC
  8
0
  6
CONTINUOUS
 62
     7
 10
17.670273
 20
52.598854
 40
26.899828
 50
348.10779
 51
11.892207
  0
ARC
  8
0
  6
CONTINUOUS
 62
     7
 10
39.643799
 20
62.087791
 40
4.9263082
 50
331.98231
 51
28.017689
  0
ARC
  8
0
  6
CONTINUOUS
 62
     7
 10
62.869934
 20
52.598854
 40
26.899828
 50
168.10779
 51
191.8922
  0
ARC
  8
0
  6
CONTINUOUS
 62
     7
 10
56.470108
 20
57.901894
 40
5
 50
0
 51
90.000003
  0
ARC
  8
0
  6
CONTINUOUS
 62
     7
 10
81.848572
 20
45.901894
 40
33.878471
 50
170.14412
 51
179.99999
  0
ARC
  8
0
  6
CONTINUOUS
 62
     7
 10
65.034332
 20
57.922707
 40
17.064236
 50
166.09586
 51
193.90414
  0
ARC
  8
0
  6
CONTINUOUS
 62
     7
 10
71.220093
 20
-58.495525
 40
22.249998
 50
167.83045
 51
192.16954
  0
ARC
  8
0
  6
CONTINUOUS
 62
     7
 10
39.232658
 20
-22.913614
 40
6.2374358
 50
335.15368
 51
24.846323
  0
ARC
  8
0
  6
CONTINUOUS
 62
     7
 10
43.20752
 20
-22.913614
 40
6.2374358
 50
155.15368
 51
204.84632
  0
ARC
  8
0
  6
CONTINUOUS
 62
     7
 10
70.522751
 20
-34.873692
 40
33.552666
 50
169.35567
 51
190.64432
  0
ARC
  8
0
  6
CONTINUOUS
 62
     7
 10
11.917428
 20
-34.873692
 40
33.552666
 50
349.35568
 51
10.644325
  0
ARC
  8
0
  6
CONTINUOUS
 62
     7
 10
58.470093
 20
-26.79273
 40
5
 50
360
 51
90.000003
  0
ARC
  8
0
  6
CONTINUOUS
 62
     7
 10
93.220078
 20
-43.292728
 40
44.249989
 50
171.37864
 51
179.99999
  0
ARC
  8
0
  6
CONTINUOUS
 62
     7
 10
71.220093
 20
-28.089933
 40
22.249998
 50
167.83045
 51
192.16954
  0
ARC
  8
0
  6
CONTINUOUS
 62
     7
 10
39.232658
 20
-63.671841
 40
6.2374358
 50
335.15368
 51
24.846323
  0
ARC
  8
0
  6
CONTINUOUS
 62
     7
 10
43.20752
 20
-63.671841
 40
6.2374358
 50
155.15368
 51
204.84632
  0
ARC
  8
0
  6
CONTINUOUS
 62
     7
 10
70.522751
 20
-51.711765
 40
33.552666
 50
169.35567
 51
190.64432
  0
ARC
  8
0
  6
CONTINUOUS
 62
     7
 10
11.917428
 20
-51.711765
 40
33.552666
 50
349.35568
 51
10.644325
  0
ARC
  8
0
  6
CONTINUOUS
 62
     7
 10
58.470093
 20
-59.792728
 40
5
 50
270
 51
360
  0
ARC
  8
0
  6
CONTINUOUS
 62
     7
 10
93.220078
 20
-43.292728
 40
44.249989
 50
180.00001
 51
188.62136
  0
ARC
  8
0
  6
CONTINUOUS
 62
     7
 10
287.6951
 20
-154.69473
 40
38.125019
 50
170.71048
 51
189.28953
  0
ARC
  8
0
  6
CONTINUOUS
 62
     7
 10
325.5701
 20
-137.37062
 40
76.000023
 50
180.00001
 51
186.57588
  0
ARC
  8
0
  6
CONTINUOUS
 62
     7
 10
260.47009
 20
-156.87062
 40
5
 50
270
 51
360
  0
ARC
  8
0
  6
CONTINUOUS
 62
     7
 10
242.28751
 20
-113.72093
 40
7.3179798
 50
157.07688
 51
202.92312
  0
ARC
  8
0
  6
CONTINUOUS
 62
     7
 10
273.69711
 20
-127.61218
 40
38.72702
 50
170.09415
 51
189.90584
  0
ARC
  8
0
  6
CONTINUOUS
 62
     7
 10
238.65269
 20
-113.72093
 40
7.3179798
 50
337.07688
 51
22.923115
  0
ARC
  8
0
  6
CONTINUOUS
 62
     7
 10
207.24306
 20
-127.61218
 40
38.72702
 50
350.09416
 51
9.9058404
  0
ARC
  8
0
  6
CONTINUOUS
 62
     7
 10
287.6951
 20
-120.0465
 40
38.125019
 50
170.71047
 51
189.28951
  0
ARC
  8
0
  6
CONTINUOUS
 62
     7
 10
325.5701
 20
-137.37062
 40
76.000023
 50
173.42412
 51
179.99999
  0
ARC
  8
0
  6
CONTINUOUS
 62
     7
 10
260.47009
 20
-117.87061
 40
5
 50
360
 51
90.000003
  0
ARC
  8
0
  6
CONTINUOUS
 62
     7
 10
242.28751
 20
-161.02029
 40
7.3179798
 50
157.07688
 51
202.92312
  0
ARC
  8
0
  6
CONTINUOUS
 62
     7
 10
273.69711
 20
-147.12904
 40
38.72702
 50
170.09415
 51
189.90584
  0
ARC
  8
0
  6
CONTINUOUS
 62
     7
 10
238.65269
 20
-161.02029
 40
7.3179798
 50
337.07688
 51
22.923115
  0
ARC
  8
0
  6
CONTINUOUS
 62
     7
 10
207.24306
 20
-147.12904
 40
38.72702
 50
350.09416
 51
9.9058404
  0
ARC
  8
0
  6
CONTINUOUS
 62
     7
 10
297.19528
 20
-280.11652
 40
45.625206
 50
171.50982
 51
188.49018
  0
ARC
  8
0
  6
CONTINUOUS
 62
     7
 10
342.5705
 20
-259.25687
 40
91.000397
 50
180.00001
 51
186.00896
  0
ARC
  8
0
  6
CONTINUOUS
 62
     7
 10
263.47009
 20
-282.75684
 40
6
 50
270
 51
360
  0
ARC
  8
0
  6
CONTINUOUS
 62
     7
 10
271.69739
 20
-247.58501
 40
35.227299
 50
165.28954
 51
194.71046
  0
ARC
  8
0
  6
CONTINUOUS
 62
     7
 10
212.7428
 20
-247.58501
 40
35.227299
 50
345.28954
 51
14.710455
  0
ARC
  8
0
  6
CONTINUOUS
 62
     7
 10
241.26105
 20
-231.02034
 40
6.7092843
 50
325.87928
 51
34.120722
  0
ARC
  8
0
  6
CONTINUOUS
 62
     7
 10
243.17912
 20
-231.02034
 40
6.7092843
 50
145.87928
 51
214.12072
  0
ARC
  8
0
  6
CONTINUOUS
 62
     7
 10
263.47009
 20
-235.75685
 40
6
 50
360
 51
90.000003
  0
ARC
  8
0
  6
CONTINUOUS
 62
     7
 10
342.5705
 20
-259.25684
 40
91.000397
 50
173.99104
 51
179.99999
  0
ARC
  8
0
  6
CONTINUOUS
 62
     7
 10
297.19528
 20
-238.3972
 40
45.625206
 50
171.50982
 51
188.49018
  0
ARC
  8
0
  6
CONTINUOUS
 62
     7
 10
271.69739
 20
-270.92871
 40
35.227299
 50
165.28954
 51
194.71046
  0
ARC
  8
0
  6
CONTINUOUS
 62
     7
 10
212.7428
 20
-270.92871
 40
35.227299
 50
345.28954
 51
14.710455
  0
ARC
  8
0
  6
CONTINUOUS
 62
     7
 10
241.26105
 20
-287.49335
 40
6.7092843
 50
325.87928
 51
34.120722
  0
ARC
  8
0
  6
CONTINUOUS
 62
     7
 10
243.17912
 20
-287.49335
 40
6.7092843
 50
145.87928
 51
214.12072
  0
ARC
  8
0
  6
CONTINUOUS
 62
     7
 10
239.97603
 20
-422.7012
 40
7.4946027
 50
327.7638
 51
32.236201
  0
ARC
  8
0
  6
CONTINUOUS
 62
     7
 10
208.362
 20
-404.21011
 40
39.108093
 50
346.04231
 51
13.957685
  0
ARC
  8
0
  6
CONTINUOUS
 62
     7
 10
273.57819
 20
-404.21011
 40
39.108093
 50
166.04231
 51
193.95769
  0
ARC
  8
0
  6
CONTINUOUS
 62
     7
 10
263.47009
 20
-365.19888
 40
8
 50
360
 51
90.000003
  0
ARC
  8
0
  6
CONTINUOUS
 62
     7
 10
303.84509
 20
-367.15726
 40
52.375008
 50
172.07669
 51
187.92331
  0
ARC
  8
0
  6
CONTINUOUS
 62
     7
 10
355.97012
 20
-391.19888
 40
104.50002
 50
174.3929
 51
179.99999
  0
ARC
  8
0
  6
CONTINUOUS
 62
     7
 10
208.362
 20
-378.18765
 40
39.108093
 50
346.04231
 51
13.957685
  0
ARC
  8
0
  6
CONTINUOUS
 62
     7
 10
273.57819
 20
-378.18765
 40
39.108093
 50
166.04231
 51
193.95769
  0
ARC
  8
0
  6
CONTINUOUS
 62
     7
 10
239.97603
 20
-359.69656
 40
7.4946027
 50
327.7638
 51
32.236201
  0
ARC
  8
0
  6
CONTINUOUS
 62
     7
 10
241.96414
 20
-359.69656
 40
7.4946027
 50
147.76379
 51
212.2362
  0
ARC
  8
0
  6
CONTINUOUS
 62
     7
 10
241.96414
 20
-422.7012
 40
7.4946027
 50
147.76379
 51
212.2362
  0
ARC
  8
0
  6
CONTINUOUS
 62
     7
 10
263.47009
 20
-417.19888
 40
8
 50
270
 51
360
  0
ARC
  8
0
  6
CONTINUOUS
 62
     7
 10
303.84509
 20
-415.24051
 40
52.375008
 50
172.07669
 51
187.92331
  0
ARC
  8
0
  6
CONTINUOUS
 62
     7
 10
355.97012
 20
-391.19888
 40
104.50002
 50
180.00001
 51
185.6071
  0
ARC
  8
0
  6
CONTINUOUS
 62
     7
 10
244.04622
 20
-573.70496
 40
11.57641
 50
154.1883
 51
205.8117
  0
ARC
  8
0
  6
CONTINUOUS
 62
     7
 10
267.47009
 20
-568.74554
 40
8
 50
270
 51
360
  0
ARC
  8
0
  6
CONTINUOUS
 62
     7
 10
420.21973
 20
-535.74554
 40
168.24962
 50
179.99999
 51
184.41828
  0
ARC
  8
0
  6
CONTINUOUS
 62
     7
 10
185.80003
 20
-520.05548
 40
62.670059
 50
348.98432
 51
11.015681
  0
ARC
  8
0
  6
CONTINUOUS
 62
     7
 10
295.14017
 20
-520.05548
 40
62.670059
 50
168.98432
 51
191.01568
  0
ARC
  8
0
  6
CONTINUOUS
 62
     7
 10
236.89397
 20
-497.78607
 40
11.57641
 50
334.1883
 51
25.811698
  0
ARC
  8
0
  6
CONTINUOUS
 62
     7
 10
244.04622
 20
-497.78607
 40
11.57641
 50
154.1883
 51
205.8117
  0
ARC
  8
0
  6
CONTINUOUS
 62
     7
 10
267.47009
 20
-502.74554
 40
8
 50
360
 51
90.000003
  0
ARC
  8
0
  6
CONTINUOUS
 62
     7
 10
420.21973
 20
-535.74554
 40
168.24962
 50
175.58172
 51
180.00001
  0
ARC
  8
0
  6
CONTINUOUS
 62
     7
 10
336.21991
 20
-506.75415
 40
84.249809
 50
173.75468
 51
186.2453
  0
ARC
  8
0
  6
CONTINUOUS
 62
     7
 10
336.21991
 20
-564.73688
 40
84.249809
 50
173.7547
 51
186.24531
  0
ARC
  8
0
  6
CONTINUOUS
 62
     7
 10
185.80003
 20
-551.43555
 40
62.670059
 50
348.98432
 51
11.015681
  0
ARC
  8
0
  6
CONTINUOUS
 62
     7
 10
295.14017
 20
-551.43555
 40
62.670059
 50
168.98432
 51
191.01568
  0
ARC
  8
0
  6
CONTINUOUS
 62
     7
 10
236.89397
 20
-573.70496
 40
11.57641
 50
334.1883
 51
25.811698
  0
TEXT
  8
0
  6
CONTINUOUS
 62
     7
 10
-448.18668
 20
100.9722
 40
3.2
 41
1.0285716
  1
13
  0
TEXT
  8
0
  6
CONTINUOUS
 62
     7
 10
-449.74558
 20
58.88214
 40
3.2
 41
1.0285716
  1
20
  0
TEXT
  8
0
  6
CONTINUOUS
 62
     7
 10
-452.86335
 20
7.4387392
 40
3.2
 41
1.0285716
  1
25
  0
TEXT
  8
0
  6
CONTINUOUS
 62
     7
 10
-450.52503
 20
-56.47579
 40
3.2
 41
1.0285716
  1
30
  0
TEXT
  8
0
  6
CONTINUOUS
 62
     7
 10
-450.18433
 20
-132.60479
 40
3.2
 41
1.0285716
  1
40
  0
TEXT
  8
0
  6
CONTINUOUS
 62
     7
 10
-443.42539
 20
-210.33271
 40
3.2
 41
1.0285716
  1
50
  0
TEXT
  8
0
  6
CONTINUOUS
 62
     7
 10
-450.54114
 20
-310.81277
 40
3.2
 41
1.0285716
  1
60
  0
TEXT
  8
0
  6
CONTINUOUS
 62
     7
 10
-282.77682
 20
118.76988
 40
8
 41
0.84227241
  1
コマサスフィット継手　フレキ（継手Ｘ継手）
  0
TEXT
  8
0
  6
CONTINUOUS
 62
     7
 10
-186.96854
 20
68.227859
 40
10
 41
1.0285716
  1
20
  0
TEXT
  8
0
  6
CONTINUOUS
 62
     7
 10
-189.55254
 20
-14.821922
 40
10
 41
1.0285716
  1
25
  0
TEXT
  8
0
  6
CONTINUOUS
 62
     7
 10
-187.91243
 20
-99.266907
 40
10
 41
1.0285716
  1
30
  0
TEXT
  8
0
  6
CONTINUOUS
 62
     7
 10
-189.84214
 20
-209.26021
 40
10
 41
1.0285716
  1
40
  0
TEXT
  8
0
  6
CONTINUOUS
 62
     7
 10
-188.88291
 20
-341.26321
 40
10
 41
1.0285716
  1
50
  0
TEXT
  8
0
  6
CONTINUOUS
 62
     7
 10
-188.03901
 20
-473.24893
 40
10
 41
1.0285716
  1
60
  0
LINE
  8
0
  6
CONTINUOUS
 62
     7
 10
-6.6173839
 20
32.451897
 11
0.97010732
 21
40.039403
  0
LINE
  8
0
  6
CONTINUOUS
 62
     7
 10
-17.39368
 20
32.451897
 11
0.97010732
 21
50.815721
  0
LINE
  8
0
  6
CONTINUOUS
 62
     7
 10
-28.169977
 20
32.451897
 11
-1.2700328
 21
59.351894
  0
LINE
  8
0
  6
CONTINUOUS
 62
     7
 10
-38.946273
 20
32.451897
 11
-12.046329
 21
59.351894
  0
LINE
  8
0
  6
CONTINUOUS
 62
     7
 10
-49.72257
 20
32.451897
 11
-22.822626
 21
59.351894
  0
LINE
  8
0
  6
CONTINUOUS
 62
     7
 10
-60.498866
 20
32.451897
 11
-33.598922
 21
59.351894
  0
LINE
  8
0
  6
CONTINUOUS
 62
     7
 10
-71.275162
 20
32.451897
 11
-44.375218
 21
59.351894
  0
LINE
  8
0
  6
CONTINUOUS
 62
     7
 10
-82.051459
 20
32.451897
 11
-55.151515
 21
59.351894
  0
LINE
  8
0
  6
CONTINUOUS
 62
     7
 10
-92.827755
 20
32.451897
 11
-65.927811
 21
59.351894
  0
LINE
  8
0
  6
CONTINUOUS
 62
     7
 10
-103.60405
 20
32.451897
 11
-76.704108
 21
59.351894
  0
LINE
  8
0
  6
CONTINUOUS
 62
     7
 10
-114.38035
 20
32.451897
 11
-87.480404
 21
59.351894
  0
LINE
  8
0
  6
CONTINUOUS
 62
     7
 10
-125.15664
 20
32.451897
 11
-98.2567
 21
59.351894
  0
LINE
  8
0
  6
CONTINUOUS
 62
     7
 10
-135.93294
 20
32.451897
 11
-109.033
 21
59.351894
  0
LINE
  8
0
  6
CONTINUOUS
 62
     7
 10
-146.70924
 20
32.451897
 11
-119.80929
 21
59.351894
  0
LINE
  8
0
  6
CONTINUOUS
 62
     7
 10
-157.48553
 20
32.451897
 11
-130.58559
 21
59.351894
  0
LINE
  8
0
  6
CONTINUOUS
 62
     7
 10
-168.26183
 20
32.451897
 11
-141.36189
 21
59.351894
  0
LINE
  8
0
  6
CONTINUOUS
 62
     7
 10
-179.03813
 20
32.451897
 11
-152.13818
 21
59.351894
  0
LINE
  8
0
  6
CONTINUOUS
 62
     7
 10
-188.02992
 20
34.236401
 11
-162.91448
 21
59.351894
  0
LINE
  8
0
  6
CONTINUOUS
 62
     7
 10
-188.02992
 20
45.012719
 11
-173.69078
 21
59.351894
  0
LINE
  8
0
  6
CONTINUOUS
 62
     7
 10
-188.02992
 20
55.789037
 11
-184.46707
 21
59.351894
  0
LINE
  8
0
  6
CONTINUOUS
 62
     7
 10
-9.3114582
 20
32.451897
 11
0.97010732
 21
42.733483
  0
LINE
  8
0
  6
CONTINUOUS
 62
     7
 10
-20.087755
 20
32.451897
 11
0.97010732
 21
53.509801
  0
LINE
  8
0
  6
CONTINUOUS
 62
     7
 10
-30.864051
 20
32.451897
 11
-3.9641071
 21
59.351894
  0
LINE
  8
0
  6
CONTINUOUS
 62
     7
 10
-41.640347
 20
32.451897
 11
-14.740404
 21
59.351894
  0
LINE
  8
0
  6
CONTINUOUS
 62
     7
 10
-52.416644
 20
32.451897
 11
-25.5167
 21
59.351894
  0
LINE
  8
0
  6
CONTINUOUS
 62
     7
 10
-63.19294
 20
32.451897
 11
-36.292996
 21
59.351894
  0
LINE
  8
0
  6
CONTINUOUS
 62
     7
 10
-73.969237
 20
32.451897
 11
-47.069293
 21
59.351894
  0
LINE
  8
0
  6
CONTINUOUS
 62
     7
 10
-84.745533
 20
32.451897
 11
-57.845589
 21
59.351894
  0
LINE
  8
0
  6
CONTINUOUS
 62
     7
 10
-95.521829
 20
32.451897
 11
-68.621886
 21
59.351894
  0
LINE
  8
0
  6
CONTINUOUS
 62
     7
 10
-106.29813
 20
32.451897
 11
-79.398182
 21
59.351894
  0
LINE
  8
0
  6
CONTINUOUS
 62
     7
 10
-117.07442
 20
32.451897
 11
-90.174478
 21
59.351894
  0
LINE
  8
0
  6
CONTINUOUS
 62
     7
 10
-127.85072
 20
32.451897
 11
-100.95077
 21
59.351894
  0
LINE
  8
0
  6
CONTINUOUS
 62
     7
 10
-138.62702
 20
32.451897
 11
-111.72707
 21
59.351894
  0
LINE
  8
0
  6
CONTINUOUS
 62
     7
 10
-149.40331
 20
32.451897
 11
-122.50337
 21
59.351894
  0
LINE
  8
0
  6
CONTINUOUS
 62
     7
 10
-160.17961
 20
32.451897
 11
-133.27966
 21
59.351894
  0
LINE
  8
0
  6
CONTINUOUS
 62
     7
 10
-170.9559
 20
32.451897
 11
-144.05596
 21
59.351894
  0
LINE
  8
0
  6
CONTINUOUS
 62
     7
 10
-181.7322
 20
32.451897
 11
-154.83226
 21
59.351894
  0
LINE
  8
0
  6
CONTINUOUS
 62
     7
 10
-188.02992
 20
36.93048
 11
-165.60855
 21
59.351894
  0
LINE
  8
0
  6
CONTINUOUS
 62
     7
 10
-188.02992
 20
47.706798
 11
-176.38485
 21
59.351894
  0
LINE
  8
0
  6
CONTINUOUS
 62
     7
 10
-188.02992
 20
58.483116
 11
-187.16115
 21
59.351894
  0
LINE
  8
0
  6
CONTINUOUS
 62
     7
 10
-1.2292359
 20
32.451897
 11
0.97010732
 21
34.651244
  0
LINE
  8
0
  6
CONTINUOUS
 62
     7
 10
-12.005532
 20
32.451897
 11
0.97010732
 21
45.427562
  0
LINE
  8
0
  6
CONTINUOUS
 62
     7
 10
-22.781829
 20
32.451897
 11
0.97010732
 21
56.20388
  0
LINE
  8
0
  6
CONTINUOUS
 62
     7
 10
-33.558125
 20
32.451897
 11
-6.6581812
 21
59.351894
  0
LINE
  8
0
  6
CONTINUOUS
 62
     7
 10
-44.334422
 20
32.451897
 11
-17.434478
 21
59.351894
  0
LINE
  8
0
  6
CONTINUOUS
 62
     7
 10
-55.110718
 20
32.451897
 11
-28.210774
 21
59.351894
  0
LINE
  8
0
  6
CONTINUOUS
 62
     7
 10
-65.887014
 20
32.451897
 11
-38.98707
 21
59.351894
  0
LINE
  8
0
  6
CONTINUOUS
 62
     7
 10
-76.663311
 20
32.451897
 11
-49.763367
 21
59.351894
  0
LINE
  8
0
  6
CONTINUOUS
 62
     7
 10
-87.439607
 20
32.451897
 11
-60.539663
 21
59.351894
  0
LINE
  8
0
  6
CONTINUOUS
 62
     7
 10
-98.215904
 20
32.451897
 11
-71.31596
 21
59.351894
  0
LINE
  8
0
  6
CONTINUOUS
 62
     7
 10
-108.9922
 20
32.451897
 11
-82.092256
 21
59.351894
  0
LINE
  8
0
  6
CONTINUOUS
 62
     7
 10
-119.7685
 20
32.451897
 11
-92.868552
 21
59.351894
  0
LINE
  8
0
  6
CONTINUOUS
 62
     7
 10
-130.54479
 20
32.451897
 11
-103.64485
 21
59.351894
  0
LINE
  8
0
  6
CONTINUOUS
 62
     7
 10
-141.32109
 20
32.451897
 11
-114.42115
 21
59.351894
  0
LINE
  8
0
  6
CONTINUOUS
 62
     7
 10
-152.09739
 20
32.451897
 11
-125.19744
 21
59.351894
  0
LINE
  8
0
  6
CONTINUOUS
 62
     7
 10
-162.87368
 20
32.451897
 11
-135.97374
 21
59.351894
  0
LINE
  8
0
  6
CONTINUOUS
 62
     7
 10
-173.64998
 20
32.451897
 11
-146.75003
 21
59.351894
  0
LINE
  8
0
  6
CONTINUOUS
 62
     7
 10
-184.42627
 20
32.451897
 11
-157.52633
 21
59.351894
  0
LINE
  8
0
  6
CONTINUOUS
 62
     7
 10
-188.02992
 20
39.62456
 11
-168.30263
 21
59.351894
  0
LINE
  8
0
  6
CONTINUOUS
 62
     7
 10
-188.02992
 20
50.400878
 11
-179.07892
 21
59.351894
  0
LINE
  8
0
  6
CONTINUOUS
 62
     7
 10
-3.9233102
 20
32.451897
 11
0.97010732
 21
37.345324
  0
LINE
  8
0
  6
CONTINUOUS
 62
     7
 10
-14.699607
 20
32.451897
 11
0.97010732
 21
48.121642
  0
LINE
  8
0
  6
CONTINUOUS
 62
     7
 10
-25.475903
 20
32.451897
 11
0.97010732
 21
58.89796
  0
LINE
  8
0
  6
CONTINUOUS
 62
     7
 10
-36.252199
 20
32.451897
 11
-9.3522555
 21
59.351894
  0
LINE
  8
0
  6
CONTINUOUS
 62
     7
 10
-47.028496
 20
32.451897
 11
-20.128552
 21
59.351894
  0
LINE
  8
0
  6
CONTINUOUS
 62
     7
 10
-57.804792
 20
32.451897
 11
-30.904848
 21
59.351894
  0
LINE
  8
0
  6
CONTINUOUS
 62
     7
 10
-68.581089
 20
32.451897
 11
-41.681145
 21
59.351894
  0
LINE
  8
0
  6
CONTINUOUS
 62
     7
 10
-79.357385
 20
32.451897
 11
-52.457441
 21
59.351894
  0
LINE
  8
0
  6
CONTINUOUS
 62
     7
 10
-90.133681
 20
32.451897
 11
-63.233738
 21
59.351894
  0
LINE
  8
0
  6
CONTINUOUS
 62
     7
 10
-100.90998
 20
32.451897
 11
-74.010034
 21
59.351894
  0
LINE
  8
0
  6
CONTINUOUS
 62
     7
 10
-111.68627
 20
32.451897
 11
-84.78633
 21
59.351894
  0
LINE
  8
0
  6
CONTINUOUS
 62
     7
 10
-122.46257
 20
32.451897
 11
-95.562627
 21
59.351894
  0
LINE
  8
0
  6
CONTINUOUS
 62
     7
 10
-133.23887
 20
32.451897
 11
-106.33892
 21
59.351894
  0
LINE
  8
0
  6
CONTINUOUS
 62
     7
 10
-144.01516
 20
32.451897
 11
-117.11522
 21
59.351894
  0
LINE
  8
0
  6
CONTINUOUS
 62
     7
 10
-154.79146
 20
32.451897
 11
-127.89152
 21
59.351894
  0
LINE
  8
0
  6
CONTINUOUS
 62
     7
 10
-165.56776
 20
32.451897
 11
-138.66781
 21
59.351894
  0
LINE
  8
0
  6
CONTINUOUS
 62
     7
 10
-176.34405
 20
32.451897
 11
-149.44411
 21
59.351894
  0
LINE
  8
0
  6
CONTINUOUS
 62
     7
 10
-187.12035
 20
32.451897
 11
-160.22041
 21
59.351894
  0
LINE
  8
0
  6
CONTINUOUS
 62
     7
 10
-188.02992
 20
42.318639
 11
-170.9967
 21
59.351894
  0
LINE
  8
0
  6
CONTINUOUS
 62
     7
 10
-188.02992
 20
53.094957
 11
-181.773
 21
59.351894
  0
LINE
  8
0
  6
CONTINUOUS
 62
     7
 10
-188.02992
 20
33.155427
 11
-187.32639
 21
32.451897
  0
LINE
  8
0
  6
CONTINUOUS
 62
     7
 10
-188.02992
 20
43.931723
 11
-176.55007
 21
32.451897
  0
LINE
  8
0
  6
CONTINUOUS
 62
     7
 10
-188.02992
 20
54.70802
 11
-165.77376
 21
32.451897
  0
LINE
  8
0
  6
CONTINUOUS
 62
     7
 10
-181.89749
 20
59.351894
 11
-154.99744
 21
32.451897
  0
LINE
  8
0
  6
CONTINUOUS
 62
     7
 10
-171.12117
 20
59.351894
 11
-144.22112
 21
32.451897
  0
LINE
  8
0
  6
CONTINUOUS
 62
     7
 10
-160.34485
 20
59.351894
 11
-133.4448
 21
32.451897
  0
LINE
  8
0
  6
CONTINUOUS
 62
     7
 10
-149.56853
 20
59.351894
 11
-122.66848
 21
32.451897
  0
LINE
  8
0
  6
CONTINUOUS
 62
     7
 10
-138.79222
 20
59.351894
 11
-111.89217
 21
32.451897
  0
LINE
  8
0
  6
CONTINUOUS
 62
     7
 10
-128.0159
 20
59.351894
 11
-101.11585
 21
32.451897
  0
LINE
  8
0
  6
CONTINUOUS
 62
     7
 10
-117.23958
 20
59.351894
 11
-90.339529
 21
32.451897
  0
LINE
  8
0
  6
CONTINUOUS
 62
     7
 10
-106.46326
 20
59.351894
 11
-79.563211
 21
32.451897
  0
LINE
  8
0
  6
CONTINUOUS
 62
     7
 10
-95.686945
 20
59.351894
 11
-68.786893
 21
32.451897
  0
LINE
  8
0
  6
CONTINUOUS
 62
     7
 10
-84.910627
 20
59.351894
 11
-58.010575
 21
32.451897
  0
LINE
  8
0
  6
CONTINUOUS
 62
     7
 10
-74.134309
 20
59.351894
 11
-47.234257
 21
32.451897
  0
LINE
  8
0
  6
CONTINUOUS
 62
     7
 10
-63.357991
 20
59.351894
 11
-36.45794
 21
32.451897
  0
LINE
  8
0
  6
CONTINUOUS
 62
     7
 10
-52.581673
 20
59.351894
 11
-25.681622
 21
32.451897
  0
LINE
  8
0
  6
CONTINUOUS
 62
     7
 10
-41.805355
 20
59.351894
 11
-14.905304
 21
32.451897
  0
LINE
  8
0
  6
CONTINUOUS
 62
     7
 10
-31.029037
 20
59.351894
 11
-4.1289856
 21
32.451897
  0
LINE
  8
0
  6
CONTINUOUS
 62
     7
 10
-20.252719
 20
59.351894
 11
0.97010732
 21
38.12911
  0
LINE
  8
0
  6
CONTINUOUS
 62
     7
 10
-9.4764012
 20
59.351894
 11
0.97010732
 21
48.905407
  0
LINE
  8
0
  6
CONTINUOUS
 62
     7
 10
-188.02992
 20
35.849501
 11
-184.63231
 21
32.451897
  0
LINE
  8
0
  6
CONTINUOUS
 62
     7
 10
-188.02992
 20
46.625797
 11
-173.85599
 21
32.451897
  0
LINE
  8
0
  6
CONTINUOUS
 62
     7
 10
-188.02992
 20
57.402094
 11
-163.07968
 21
32.451897
  0
LINE
  8
0
  6
CONTINUOUS
 62
     7
 10
-179.20341
 20
59.351894
 11
-152.30336
 21
32.451897
  0
LINE
  8
0
  6
CONTINUOUS
 62
     7
 10
-168.42709
 20
59.351894
 11
-141.52704
 21
32.451897
  0
LINE
  8
0
  6
CONTINUOUS
 62
     7
 10
-157.65077
 20
59.351894
 11
-130.75072
 21
32.451897
  0
LINE
  8
0
  6
CONTINUOUS
 62
     7
 10
-146.87446
 20
59.351894
 11
-119.9744
 21
32.451897
  0
LINE
  8
0
  6
CONTINUOUS
 62
     7
 10
-136.09814
 20
59.351894
 11
-109.19809
 21
32.451897
  0
LINE
  8
0
  6
CONTINUOUS
 62
     7
 10
-125.32182
 20
59.351894
 11
-98.421768
 21
32.451897
  0
LINE
  8
0
  6
CONTINUOUS
 62
     7
 10
-114.5455
 20
59.351894
 11
-87.64545
 21
32.451897
  0
LINE
  8
0
  6
CONTINUOUS
 62
     7
 10
-103.76918
 20
59.351894
 11
-76.869132
 21
32.451897
  0
LINE
  8
0
  6
CONTINUOUS
 62
     7
 10
-92.992865
 20
59.351894
 11
-66.092814
 21
32.451897
  0
LINE
  8
0
  6
CONTINUOUS
 62
     7
 10
-82.216547
 20
59.351894
 11
-55.316496
 21
32.451897
  0
LINE
  8
0
  6
CONTINUOUS
 62
     7
 10
-71.440229
 20
59.351894
 11
-44.540178
 21
32.451897
  0
LINE
  8
0
  6
CONTINUOUS
 62
     7
 10
-60.663911
 20
59.351894
 11
-33.76386
 21
32.451897
  0
LINE
  8
0
  6
CONTINUOUS
 62
     7
 10
-49.887593
 20
59.351894
 11
-22.987542
 21
32.451897
  0
LINE
  8
0
  6
CONTINUOUS
 62
     7
 10
-39.111275
 20
59.351894
 11
-12.211224
 21
32.451897
  0
LINE
  8
0
  6
CONTINUOUS
 62
     7
 10
-28.334957
 20
59.351894
 11
-1.434906
 21
32.451897
  0
LINE
  8
0
  6
CONTINUOUS
 62
     7
 10
-17.55864
 20
59.351894
 11
0.97010732
 21
40.823185
  0
LINE
  8
0
  6
CONTINUOUS
 62
     7
 10
-6.7823216
 20
59.351894
 11
0.97010732
 21
51.599481
  0
LINE
  8
0
  6
CONTINUOUS
 62
     7
 10
-188.02992
 20
38.543575
 11
-181.93823
 21
32.451897
  0
LINE
  8
0
  6
CONTINUOUS
 62
     7
 10
-188.02992
 20
49.319872
 11
-171.16191
 21
32.451897
  0
LINE
  8
0
  6
CONTINUOUS
 62
     7
 10
-187.28565
 20
59.351894
 11
-160.3856
 21
32.451897
  0
LINE
  8
0
  6
CONTINUOUS
 62
     7
 10
-176.50933
 20
59.351894
 11
-149.60928
 21
32.451897
  0
LINE
  8
0
  6
CONTINUOUS
 62
     7
 10
-165.73301
 20
59.351894
 11
-138.83296
 21
32.451897
  0
LINE
  8
0
  6
CONTINUOUS
 62
     7
 10
-154.95669
 20
59.351894
 11
-128.05664
 21
32.451897
  0
LINE
  8
0
  6
CONTINUOUS
 62
     7
 10
-144.18038
 20
59.351894
 11
-117.28032
 21
32.451897
  0
LINE
  8
0
  6
CONTINUOUS
 62
     7
 10
-133.40406
 20
59.351894
 11
-106.50401
 21
32.451897
  0
LINE
  8
0
  6
CONTINUOUS
 62
     7
 10
-122.62774
 20
59.351894
 11
-95.727688
 21
32.451897
  0
LINE
  8
0
  6
CONTINUOUS
 62
     7
 10
-111.85142
 20
59.351894
 11
-84.95137
 21
32.451897
  0
LINE
  8
0
  6
CONTINUOUS
 62
     7
 10
-101.0751
 20
59.351894
 11
-74.175052
 21
32.451897
  0
LINE
  8
0
  6
CONTINUOUS
 62
     7
 10
-90.298786
 20
59.351894
 11
-63.398734
 21
32.451897
  0
LINE
  8
0
  6
CONTINUOUS
 62
     7
 10
-79.522468
 20
59.351894
 11
-52.622416
 21
32.451897
  0
LINE
  8
0
  6
CONTINUOUS
 62
     7
 10
-68.74615
 20
59.351894
 11
-41.846098
 21
32.451897
  0
LINE
  8
0
  6
CONTINUOUS
 62
     7
 10
-57.969832
 20
59.351894
 11
-31.06978
 21
32.451897
  0
LINE
  8
0
  6
CONTINUOUS
 62
     7
 10
-47.193514
 20
59.351894
 11
-20.293462
 21
32.451897
  0
LINE
  8
0
  6
CONTINUOUS
 62
     7
 10
-36.417196
 20
59.351894
 11
-9.5171444
 21
32.451897
  0
LINE
  8
0
  6
CONTINUOUS
 62
     7
 10
-25.640878
 20
59.351894
 11
0.97010732
 21
32.740962
  0
LINE
  8
0
  6
CONTINUOUS
 62
     7
 10
-14.86456
 20
59.351894
 11
0.97010732
 21
43.517259
  0
LINE
  8
0
  6
CONTINUOUS
 62
     7
 10
-4.0882421
 20
59.351894
 11
0.97010732
 21
54.293555
  0
LINE
  8
0
  6
CONTINUOUS
 62
     7
 10
-188.02992
 20
41.237649
 11
-179.24415
 21
32.451897
  0
LINE
  8
0
  6
CONTINUOUS
 62
     7
 10
-188.02992
 20
52.013946
 11
-168.46783
 21
32.451897
  0
LINE
  8
0
  6
CONTINUOUS
 62
     7
 10
-184.59157
 20
59.351894
 11
-157.69152
 21
32.451897
  0
LINE
  8
0
  6
CONTINUOUS
 62
     7
 10
-173.81525
 20
59.351894
 11
-146.9152
 21
32.451897
  0
LINE
  8
0
  6
CONTINUOUS
 62
     7
 10
-163.03893
 20
59.351894
 11
-136.13888
 21
32.451897
  0
LINE
  8
0
  6
CONTINUOUS
 62
     7
 10
-152.26261
 20
59.351894
 11
-125.36256
 21
32.451897
  0
LINE
  8
0
  6
CONTINUOUS
 62
     7
 10
-141.4863
 20
59.351894
 11
-114.58624
 21
32.451897
  0
LINE
  8
0
  6
CONTINUOUS
 62
     7
 10
-130.70998
 20
59.351894
 11
-103.80993
 21
32.451897
  0
LINE
  8
0
  6
CONTINUOUS
 62
     7
 10
-119.93366
 20
59.351894
 11
-93.033608
 21
32.451897
  0
LINE
  8
0
  6
CONTINUOUS
 62
     7
 10
-109.15734
 20
59.351894
 11
-82.257291
 21
32.451897
  0
LINE
  8
0
  6
CONTINUOUS
 62
     7
 10
-98.381024
 20
59.351894
 11
-71.480973
 21
32.451897
  0
LINE
  8
0
  6
CONTINUOUS
 62
     7
 10
-87.604706
 20
59.351894
 11
-60.704655
 21
32.451897
  0
LINE
  8
0
  6
CONTINUOUS
 62
     7
 10
-76.828388
 20
59.351894
 11
-49.928337
 21
32.451897
  0
LINE
  8
0
  6
CONTINUOUS
 62
     7
 10
-66.05207
 20
59.351894
 11
-39.152019
 21
32.451897
  0
LINE
  8
0
  6
CONTINUOUS
 62
     7
 10
-55.275752
 20
59.351894
 11
-28.375701
 21
32.451897
  0
LINE
  8
0
  6
CONTINUOUS
 62
     7
 10
-44.499434
 20
59.351894
 11
-17.599383
 21
32.451897
  0
LINE
  8
0
  6
CONTINUOUS
 62
     7
 10
-33.723116
 20
59.351894
 11
-6.8230648
 21
32.451897
  0
LINE
  8
0
  6
CONTINUOUS
 62
     7
 10
-22.946798
 20
59.351894
 11
0.97010732
 21
35.435037
  0
LINE
  8
0
  6
CONTINUOUS
 62
     7
 10
-12.17048
 20
59.351894
 11
0.97010732
 21
46.211333
  0
LINE
  8
0
  6
CONTINUOUS
 62
     7
 10
-1.3941624
 20
59.351894
 11
0.97010732
 21
56.987629
  0
LINE
  8
0
  6
CONTINUOUS
 62
     7
 10
-1.8251577
 20
-59.742729
 11
1.9700863
 21
-55.947478
  0
LINE
  8
0
  6
CONTINUOUS
 62
     7
 10
-12.601454
 20
-59.742729
 11
1.9700863
 21
-45.17116
  0
LINE
  8
0
  6
CONTINUOUS
 62
     7
 10
-23.377751
 20
-59.742729
 11
1.9700863
 21
-34.394842
  0
LINE
  8
0
  6
CONTINUOUS
 62
     7
 10
-34.154047
 20
-59.742729
 11
-1.2541131
 21
-26.84273
  0
LINE
  8
0
  6
CONTINUOUS
 62
     7
 10
-44.930343
 20
-59.742729
 11
-12.03041
 21
-26.84273
  0
LINE
  8
0
  6
CONTINUOUS
 62
     7
 10
-55.70664
 20
-59.742729
 11
-22.806706
 21
-26.84273
  0
LINE
  8
0
  6
CONTINUOUS
 62
     7
 10
-66.482936
 20
-59.742729
 11
-33.583002
 21
-26.84273
  0
LINE
  8
0
  6
CONTINUOUS
 62
     7
 10
-77.259233
 20
-59.742729
 11
-44.359299
 21
-26.84273
  0
LINE
  8
0
  6
CONTINUOUS
 62
     7
 10
-88.035529
 20
-59.742729
 11
-55.135595
 21
-26.84273
  0
LINE
  8
0
  6
CONTINUOUS
 62
     7
 10
-98.811825
 20
-59.742729
 11
-65.911892
 21
-26.84273
  0
LINE
  8
0
  6
CONTINUOUS
 62
     7
 10
-109.58812
 20
-59.742729
 11
-76.688188
 21
-26.84273
  0
LINE
  8
0
  6
CONTINUOUS
 62
     7
 10
-120.36442
 20
-59.742729
 11
-87.464484
 21
-26.84273
  0
LINE
  8
0
  6
CONTINUOUS
 62
     7
 10
-131.14071
 20
-59.742729
 11
-98.240781
 21
-26.84273
  0
LINE
  8
0
  6
CONTINUOUS
 62
     7
 10
-141.91701
 20
-59.742729
 11
-109.01708
 21
-26.84273
  0
LINE
  8
0
  6
CONTINUOUS
 62
     7
 10
-152.69331
 20
-59.742729
 11
-119.79337
 21
-26.84273
  0
LINE
  8
0
  6
CONTINUOUS
 62
     7
 10
-163.4696
 20
-59.742729
 11
-130.56967
 21
-26.84273
  0
LINE
  8
0
  6
CONTINUOUS
 62
     7
 10
-174.2459
 20
-59.742729
 11
-141.34597
 21
-26.84273
  0
LINE
  8
0
  6
CONTINUOUS
 62
     7
 10
-185.0222
 20
-59.742729
 11
-152.12226
 21
-26.84273
  0
LINE
  8
0
  6
CONTINUOUS
 62
     7
 10
-187.02991
 20
-50.974126
 11
-162.89856
 21
-26.84273
  0
LINE
  8
0
  6
CONTINUOUS
 62
     7
 10
-187.02991
 20
-40.197808
 11
-173.67486
 21
-26.84273
  0
LINE
  8
0
  6
CONTINUOUS
 62
     7
 10
-187.02991
 20
-29.42149
 11
-184.45115
 21
-26.84273
  0
LINE
  8
0
  6
CONTINUOUS
 62
     7
 10
-4.519232
 20
-59.742729
 11
1.9700863
 21
-53.253398
  0
LINE
  8
0
  6
CONTINUOUS
 62
     7
 10
-15.295528
 20
-59.742729
 11
1.9700863
 21
-42.47708
  0
LINE
  8
0
  6
CONTINUOUS
 62
     7
 10
-26.071825
 20
-59.742729
 11
1.9700863
 21
-31.700762
  0
LINE
  8
0
  6
CONTINUOUS
 62
     7
 10
-36.848121
 20
-59.742729
 11
-3.9481874
 21
-26.84273
  0
LINE
  8
0
  6
CONTINUOUS
 62
     7
 10
-47.624418
 20
-59.742729
 11
-14.724484
 21
-26.84273
  0
LINE
  8
0
  6
CONTINUOUS
 62
     7
 10
-58.400714
 20
-59.742729
 11
-25.50078
 21
-26.84273
  0
LINE
  8
0
  6
CONTINUOUS
 62
     7
 10
-69.17701
 20
-59.742729
 11
-36.277077
 21
-26.84273
  0
LINE
  8
0
  6
CONTINUOUS
 62
     7
 10
-79.953307
 20
-59.742729
 11
-47.053373
 21
-26.84273
  0
LINE
  8
0
  6
CONTINUOUS
 62
     7
 10
-90.729603
 20
-59.742729
 11
-57.829669
 21
-26.84273
  0
LINE
  8
0
  6
CONTINUOUS
 62
     7
 10
-101.5059
 20
-59.742729
 11
-68.605966
 21
-26.84273
  0
LINE
  8
0
  6
CONTINUOUS
 62
     7
 10
-112.2822
 20
-59.742729
 11
-79.382262
 21
-26.84273
  0
LINE
  8
0
  6
CONTINUOUS
 62
     7
 10
-123.05849
 20
-59.742729
 11
-90.158559
 21
-26.84273
  0
LINE
  8
0
  6
CONTINUOUS
 62
     7
 10
-133.83479
 20
-59.742729
 11
-100.93486
 21
-26.84273
  0
LINE
  8
0
  6
CONTINUOUS
 62
     7
 10
-144.61109
 20
-59.742729
 11
-111.71115
 21
-26.84273
  0
LINE
  8
0
  6
CONTINUOUS
 62
     7
 10
-155.38738
 20
-59.742729
 11
-122.48745
 21
-26.84273
  0
LINE
  8
0
  6
CONTINUOUS
 62
     7
 10
-166.16368
 20
-59.742729
 11
-133.26374
 21
-26.84273
  0
LINE
  8
0
  6
CONTINUOUS
 62
     7
 10
-176.93997
 20
-59.742729
 11
-144.04004
 21
-26.84273
  0
LINE
  8
0
  6
CONTINUOUS
 62
     7
 10
-187.02991
 20
-59.056364
 11
-154.81634
 21
-26.84273
  0
LINE
  8
0
  6
CONTINUOUS
 62
     7
 10
-187.02991
 20
-48.280046
 11
-165.59263
 21
-26.84273
  0
LINE
  8
0
  6
CONTINUOUS
 62
     7
 10
-187.02991
 20
-37.503728
 11
-176.36893
 21
-26.84273
  0
LINE
  8
0
  6
CONTINUOUS
 62
     7
 10
-7.2133061
 20
-59.742729
 11
1.9700863
 21
-50.559318
  0
LINE
  8
0
  6
CONTINUOUS
 62
     7
 10
-17.989603
 20
-59.742729
 11
1.9700863
 21
-39.783
  0
LINE
  8
0
  6
CONTINUOUS
 62
     7
 10
-28.765899
 20
-59.742729
 11
1.9700863
 21
-29.006682
  0
LINE
  8
0
  6
CONTINUOUS
 62
     7
 10
-39.542195
 20
-59.742729
 11
-6.6422615
 21
-26.84273
  0
LINE
  8
0
  6
CONTINUOUS
 62
     7
 10
-50.318492
 20
-59.742729
 11
-17.418558
 21
-26.84273
  0
LINE
  8
0
  6
CONTINUOUS
 62
     7
 10
-61.094788
 20
-59.742729
 11
-28.194854
 21
-26.84273
  0
LINE
  8
0
  6
CONTINUOUS
 62
     7
 10
-71.871085
 20
-59.742729
 11
-38.971151
 21
-26.84273
  0
LINE
  8
0
  6
CONTINUOUS
 62
     7
 10
-82.647381
 20
-59.742729
 11
-49.747447
 21
-26.84273
  0
LINE
  8
0
  6
CONTINUOUS
 62
     7
 10
-93.423677
 20
-59.742729
 11
-60.523744
 21
-26.84273
  0
LINE
  8
0
  6
CONTINUOUS
 62
     7
 10
-104.19997
 20
-59.742729
 11
-71.30004
 21
-26.84273
  0
LINE
  8
0
  6
CONTINUOUS
 62
     7
 10
-114.97627
 20
-59.742729
 11
-82.076336
 21
-26.84273
  0
LINE
  8
0
  6
CONTINUOUS
 62
     7
 10
-125.75257
 20
-59.742729
 11
-92.852633
 21
-26.84273
  0
LINE
  8
0
  6
CONTINUOUS
 62
     7
 10
-136.52886
 20
-59.742729
 11
-103.62893
 21
-26.84273
  0
LINE
  8
0
  6
CONTINUOUS
 62
     7
 10
-147.30516
 20
-59.742729
 11
-114.40523
 21
-26.84273
  0
LINE
  8
0
  6
CONTINUOUS
 62
     7
 10
-158.08146
 20
-59.742729
 11
-125.18152
 21
-26.84273
  0
LINE
  8
0
  6
CONTINUOUS
 62
     7
 10
-168.85775
 20
-59.742729
 11
-135.95782
 21
-26.84273
  0
LINE
  8
0
  6
CONTINUOUS
 62
     7
 10
-179.63405
 20
-59.742729
 11
-146.73411
 21
-26.84273
  0
LINE
  8
0
  6
CONTINUOUS
 62
     7
 10
-187.02991
 20
-56.362285
 11
-157.51041
 21
-26.84273
  0
LINE
  8
0
  6
CONTINUOUS
 62
     7
 10
-187.02991
 20
-45.585967
 11
-168.28671
 21
-26.84273
  0
LINE
  8
0
  6
CONTINUOUS
 62
     7
 10
-187.02991
 20
-34.809649
 11
-179.063
 21
-26.84273
  0
LINE
  8
0
  6
CONTINUOUS
 62
     7
 10
0.86891604
 20
-59.742729
 11
1.9700863
 21
-58.641557
  0
LINE
  8
0
  6
CONTINUOUS
 62
     7
 10
-9.9073804
 20
-59.742729
 11
1.9700863
 21
-47.865239
  0
LINE
  8
0
  6
CONTINUOUS
 62
     7
 10
-20.683677
 20
-59.742729
 11
1.9700863
 21
-37.088921
  0
LINE
  8
0
  6
CONTINUOUS
 62
     7
 10
-31.459973
 20
-59.742729
 11
1.4399606
 21
-26.84273
  0
LINE
  8
0
  6
CONTINUOUS
 62
     7
 10
-42.23627
 20
-59.742729
 11
-9.3363358
 21
-26.84273
  0
LINE
  8
0
  6
CONTINUOUS
 62
     7
 10
-53.012566
 20
-59.742729
 11
-20.112632
 21
-26.84273
  0
LINE
  8
0
  6
CONTINUOUS
 62
     7
 10
-63.788862
 20
-59.742729
 11
-30.888929
 21
-26.84273
  0
LINE
  8
0
  6
CONTINUOUS
 62
     7
 10
-74.565159
 20
-59.742729
 11
-41.665225
 21
-26.84273
  0
LINE
  8
0
  6
CONTINUOUS
 62
     7
 10
-85.341455
 20
-59.742729
 11
-52.441521
 21
-26.84273
  0
LINE
  8
0
  6
CONTINUOUS
 62
     7
 10
-96.117752
 20
-59.742729
 11
-63.217818
 21
-26.84273
  0
LINE
  8
0
  6
CONTINUOUS
 62
     7
 10
-106.89405
 20
-59.742729
 11
-73.994114
 21
-26.84273
  0
LINE
  8
0
  6
CONTINUOUS
 62
     7
 10
-117.67034
 20
-59.742729
 11
-84.770411
 21
-26.84273
  0
LINE
  8
0
  6
CONTINUOUS
 62
     7
 10
-128.44664
 20
-59.742729
 11
-95.546707
 21
-26.84273
  0
LINE
  8
0
  6
CONTINUOUS
 62
     7
 10
-139.22294
 20
-59.742729
 11
-106.323
 21
-26.84273
  0
LINE
  8
0
  6
CONTINUOUS
 62
     7
 10
-149.99923
 20
-59.742729
 11
-117.0993
 21
-26.84273
  0
LINE
  8
0
  6
CONTINUOUS
 62
     7
 10
-160.77553
 20
-59.742729
 11
-127.8756
 21
-26.84273
  0
LINE
  8
0
  6
CONTINUOUS
 62
     7
 10
-171.55183
 20
-59.742729
 11
-138.65189
 21
-26.84273
  0
LINE
  8
0
  6
CONTINUOUS
 62
     7
 10
-182.32812
 20
-59.742729
 11
-149.42819
 21
-26.84273
  0
LINE
  8
0
  6
CONTINUOUS
 62
     7
 10
-187.02991
 20
-53.668205
 11
-160.20449
 21
-26.84273
  0
LINE
  8
0
  6
CONTINUOUS
 62
     7
 10
-187.02991
 20
-42.891887
 11
-170.98078
 21
-26.84273
  0
LINE
  8
0
  6
CONTINUOUS
 62
     7
 10
-187.02991
 20
-32.115569
 11
-181.75708
 21
-26.84273
  0
LINE
  8
0
  6
CONTINUOUS
 62
     7
 10
-187.02991
 20
-54.054958
 11
-181.34212
 21
-59.742729
  0
LINE
  8
0
  6
CONTINUOUS
 62
     7
 10
-187.02991
 20
-43.278661
 11
-170.56581
 21
-59.742729
  0
LINE
  8
0
  6
CONTINUOUS
 62
     7
 10
-187.02991
 20
-32.502365
 11
-159.78949
 21
-59.742729
  0
LINE
  8
0
  6
CONTINUOUS
 62
     7
 10
-181.91324
 20
-26.84273
 11
-149.01317
 21
-59.742729
  0
LINE
  8
0
  6
CONTINUOUS
 62
     7
 10
-171.13692
 20
-26.84273
 11
-138.23685
 21
-59.742729
  0
LINE
  8
0
  6
CONTINUOUS
 62
     7
 10
-160.3606
 20
-26.84273
 11
-127.46053
 21
-59.742729
  0
LINE
  8
0
  6
CONTINUOUS
 62
     7
 10
-149.58428
 20
-26.84273
 11
-116.68422
 21
-59.742729
  0
LINE
  8
0
  6
CONTINUOUS
 62
     7
 10
-138.80796
 20
-26.84273
 11
-105.9079
 21
-59.742729
  0
LINE
  8
0
  6
CONTINUOUS
 62
     7
 10
-128.03165
 20
-26.84273
 11
-95.131581
 21
-59.742729
  0
LINE
  8
0
  6
CONTINUOUS
 62
     7
 10
-117.25533
 20
-26.84273
 11
-84.355263
 21
-59.742729
  0
LINE
  8
0
  6
CONTINUOUS
 62
     7
 10
-106.47901
 20
-26.84273
 11
-73.578945
 21
-59.742729
  0
LINE
  8
0
  6
CONTINUOUS
 62
     7
 10
-95.702692
 20
-26.84273
 11
-62.802627
 21
-59.742729
  0
LINE
  8
0
  6
CONTINUOUS
 62
     7
 10
-84.926374
 20
-26.84273
 11
-52.026309
 21
-59.742729
  0
LINE
  8
0
  6
CONTINUOUS
 62
     7
 10
-74.150056
 20
-26.84273
 11
-41.249991
 21
-59.742729
  0
LINE
  8
0
  6
CONTINUOUS
 62
     7
 10
-63.373738
 20
-26.84273
 11
-30.473673
 21
-59.742729
  0
LINE
  8
0
  6
CONTINUOUS
 62
     7
 10
-52.59742
 20
-26.84273
 11
-19.697355
 21
-59.742729
  0
LINE
  8
0
  6
CONTINUOUS
 62
     7
 10
-41.821102
 20
-26.84273
 11
-8.921037
 21
-59.742729
  0
LINE
  8
0
  6
CONTINUOUS
 62
     7
 10
-31.044784
 20
-26.84273
 11
1.8552809
 21
-59.742729
  0
LINE
  8
0
  6
CONTINUOUS
 62
     7
 10
-20.268467
 20
-26.84273
 11
1.9700863
 21
-49.081238
  0
LINE
  8
0
  6
CONTINUOUS
 62
     7
 10
-9.4921486
 20
-26.84273
 11
1.9700863
 21
-38.304942
  0
LINE
  8
0
  6
CONTINUOUS
 62
     7
 10
1.2841694
 20
-26.84273
 11
1.9700863
 21
-27.528645
  0
LINE
  8
0
  6
CONTINUOUS
 62
     7
 10
-187.02991
 20
-51.360883
 11
-178.64804
 21
-59.742729
  0
LINE
  8
0
  6
CONTINUOUS
 62
     7
 10
-187.02991
 20
-40.584587
 11
-167.87173
 21
-59.742729
  0
LINE
  8
0
  6
CONTINUOUS
 62
     7
 10
-187.02991
 20
-29.808291
 11
-157.09541
 21
-59.742729
  0
LINE
  8
0
  6
CONTINUOUS
 62
     7
 10
-179.21916
 20
-26.84273
 11
-146.31909
 21
-59.742729
  0
LINE
  8
0
  6
CONTINUOUS
 62
     7
 10
-168.44284
 20
-26.84273
 11
-135.54277
 21
-59.742729
  0
LINE
  8
0
  6
CONTINUOUS
 62
     7
 10
-157.66652
 20
-26.84273
 11
-124.76645
 21
-59.742729
  0
LINE
  8
0
  6
CONTINUOUS
 62
     7
 10
-146.8902
 20
-26.84273
 11
-113.99014
 21
-59.742729
  0
LINE
  8
0
  6
CONTINUOUS
 62
     7
 10
-136.11388
 20
-26.84273
 11
-103.21382
 21
-59.742729
  0
LINE
  8
0
  6
CONTINUOUS
 62
     7
 10
-125.33757
 20
-26.84273
 11
-92.437501
 21
-59.742729
  0
LINE
  8
0
  6
CONTINUOUS
 62
     7
 10
-114.56125
 20
-26.84273
 11
-81.661183
 21
-59.742729
  0
LINE
  8
0
  6
CONTINUOUS
 62
     7
 10
-103.78493
 20
-26.84273
 11
-70.884865
 21
-59.742729
  0
LINE
  8
0
  6
CONTINUOUS
 62
     7
 10
-93.008613
 20
-26.84273
 11
-60.108547
 21
-59.742729
  0
LINE
  8
0
  6
CONTINUOUS
 62
     7
 10
-82.232295
 20
-26.84273
 11
-49.332229
 21
-59.742729
  0
LINE
  8
0
  6
CONTINUOUS
 62
     7
 10
-71.455977
 20
-26.84273
 11
-38.555911
 21
-59.742729
  0
LINE
  8
0
  6
CONTINUOUS
 62
     7
 10
-60.679659
 20
-26.84273
 11
-27.779593
 21
-59.742729
  0
LINE
  8
0
  6
CONTINUOUS
 62
     7
 10
-49.903341
 20
-26.84273
 11
-17.003275
 21
-59.742729
  0
LINE
  8
0
  6
CONTINUOUS
 62
     7
 10
-39.127023
 20
-26.84273
 11
-6.2269574
 21
-59.742729
  0
LINE
  8
0
  6
CONTINUOUS
 62
     7
 10
-28.350705
 20
-26.84273
 11
1.9700863
 21
-57.16346
  0
LINE
  8
0
  6
CONTINUOUS
 62
     7
 10
-17.574387
 20
-26.84273
 11
1.9700863
 21
-46.387164
  0
LINE
  8
0
  6
CONTINUOUS
 62
     7
 10
-6.7980689
 20
-26.84273
 11
1.9700863
 21
-35.610867
  0
LINE
  8
0
  6
CONTINUOUS
 62
     7
 10
-187.02991
 20
-59.443106
 11
-186.73028
 21
-59.742729
  0
LINE
  8
0
  6
CONTINUOUS
 62
     7
 10
-187.02991
 20
-48.666809
 11
-175.95397
 21
-59.742729
  0
LINE
  8
0
  6
CONTINUOUS
 62
     7
 10
-187.02991
 20
-37.890513
 11
-165.17765
 21
-59.742729
  0
LINE
  8
0
  6
CONTINUOUS
 62
     7
 10
-187.02991
 20
-27.114217
 11
-154.40133
 21
-59.742729
  0
LINE
  8
0
  6
CONTINUOUS
 62
     7
 10
-176.52508
 20
-26.84273
 11
-143.62501
 21
-59.742729
  0
LINE
  8
0
  6
CONTINUOUS
 62
     7
 10
-165.74876
 20
-26.84273
 11
-132.84869
 21
-59.742729
  0
LINE
  8
0
  6
CONTINUOUS
 62
     7
 10
-154.97244
 20
-26.84273
 11
-122.07238
 21
-59.742729
  0
LINE
  8
0
  6
CONTINUOUS
 62
     7
 10
-144.19612
 20
-26.84273
 11
-111.29606
 21
-59.742729
  0
LINE
  8
0
  6
CONTINUOUS
 62
     7
 10
-133.4198
 20
-26.84273
 11
-100.51974
 21
-59.742729
  0
LINE
  8
0
  6
CONTINUOUS
 62
     7
 10
-122.64349
 20
-26.84273
 11
-89.743422
 21
-59.742729
  0
LINE
  8
0
  6
CONTINUOUS
 62
     7
 10
-111.86717
 20
-26.84273
 11
-78.967104
 21
-59.742729
  0
LINE
  8
0
  6
CONTINUOUS
 62
     7
 10
-101.09085
 20
-26.84273
 11
-68.190786
 21
-59.742729
  0
LINE
  8
0
  6
CONTINUOUS
 62
     7
 10
-90.314533
 20
-26.84273
 11
-57.414468
 21
-59.742729
  0
LINE
  8
0
  6
CONTINUOUS
 62
     7
 10
-79.538215
 20
-26.84273
 11
-46.63815
 21
-59.742729
  0
LINE
  8
0
  6
CONTINUOUS
 62
     7
 10
-68.761897
 20
-26.84273
 11
-35.861832
 21
-59.742729
  0
LINE
  8
0
  6
CONTINUOUS
 62
     7
 10
-57.985579
 20
-26.84273
 11
-25.085514
 21
-59.742729
  0
LINE
  8
0
  6
CONTINUOUS
 62
     7
 10
-47.209261
 20
-26.84273
 11
-14.309196
 21
-59.742729
  0
LINE
  8
0
  6
CONTINUOUS
 62
     7
 10
-36.432943
 20
-26.84273
 11
-3.5328779
 21
-59.742729
  0
LINE
  8
0
  6
CONTINUOUS
 62
     7
 10
-25.656625
 20
-26.84273
 11
1.9700863
 21
-54.469386
  0
LINE
  8
0
  6
CONTINUOUS
 62
     7
 10
-14.880307
 20
-26.84273
 11
1.9700863
 21
-43.69309
  0
LINE
  8
0
  6
CONTINUOUS
 62
     7
 10
-4.1039894
 20
-26.84273
 11
1.9700863
 21
-32.916793
  0
LINE
  8
0
  6
CONTINUOUS
 62
     7
 10
-187.02991
 20
-56.749031
 11
-184.0362
 21
-59.742729
  0
LINE
  8
0
  6
CONTINUOUS
 62
     7
 10
-187.02991
 20
-45.972735
 11
-173.25989
 21
-59.742729
  0
LINE
  8
0
  6
CONTINUOUS
 62
     7
 10
-187.02991
 20
-35.196439
 11
-162.48357
 21
-59.742729
  0
LINE
  8
0
  6
CONTINUOUS
 62
     7
 10
-184.60732
 20
-26.84273
 11
-151.70725
 21
-59.742729
  0
LINE
  8
0
  6
CONTINUOUS
 62
     7
 10
-173.831
 20
-26.84273
 11
-140.93093
 21
-59.742729
  0
LINE
  8
0
  6
CONTINUOUS
 62
     7
 10
-163.05468
 20
-26.84273
 11
-130.15461
 21
-59.742729
  0
LINE
  8
0
  6
CONTINUOUS
 62
     7
 10
-152.27836
 20
-26.84273
 11
-119.3783
 21
-59.742729
  0
LINE
  8
0
  6
CONTINUOUS
 62
     7
 10
-141.50204
 20
-26.84273
 11
-108.60198
 21
-59.742729
  0
LINE
  8
0
  6
CONTINUOUS
 62
     7
 10
-130.72573
 20
-26.84273
 11
-97.82566
 21
-59.742729
  0
LINE
  8
0
  6
CONTINUOUS
 62
     7
 10
-119.94941
 20
-26.84273
 11
-87.049342
 21
-59.742729
  0
LINE
  8
0
  6
CONTINUOUS
 62
     7
 10
-109.17309
 20
-26.84273
 11
-76.273024
 21
-59.742729
  0
LINE
  8
0
  6
CONTINUOUS
 62
     7
 10
-98.396771
 20
-26.84273
 11
-65.496706
 21
-59.742729
  0
LINE
  8
0
  6
CONTINUOUS
 62
     7
 10
-87.620453
 20
-26.84273
 11
-54.720388
 21
-59.742729
  0
LINE
  8
0
  6
CONTINUOUS
 62
     7
 10
-76.844135
 20
-26.84273
 11
-43.94407
 21
-59.742729
  0
LINE
  8
0
  6
CONTINUOUS
 62
     7
 10
-66.067818
 20
-26.84273
 11
-33.167752
 21
-59.742729
  0
LINE
  8
0
  6
CONTINUOUS
 62
     7
 10
-55.2915
 20
-26.84273
 11
-22.391434
 21
-59.742729
  0
LINE
  8
0
  6
CONTINUOUS
 62
     7
 10
-44.515182
 20
-26.84273
 11
-11.615116
 21
-59.742729
  0
LINE
  8
0
  6
CONTINUOUS
 62
     7
 10
-33.738864
 20
-26.84273
 11
-0.83879822
 21
-59.742729
  0
LINE
  8
0
  6
CONTINUOUS
 62
     7
 10
-22.962546
 20
-26.84273
 11
1.9700863
 21
-51.775312
  0
LINE
  8
0
  6
CONTINUOUS
 62
     7
 10
-12.186228
 20
-26.84273
 11
1.9700863
 21
-40.999015
  0
LINE
  8
0
  6
CONTINUOUS
 62
     7
 10
-1.4099098
 20
-26.84273
 11
1.9700863
 21
-30.222719
  0
LINE
  8
0
  6
CONTINUOUS
 62
     7
 10
190.80715
 20
-158.07062
 11
199.97011
 21
-148.90764
  0
LINE
  8
0
  6
CONTINUOUS
 62
     7
 10
180.03086
 20
-158.07062
 11
199.97011
 21
-138.13133
  0
LINE
  8
0
  6
CONTINUOUS
 62
     7
 10
169.25456
 20
-158.07062
 11
199.97011
 21
-127.35501
  0
LINE
  8
0
  6
CONTINUOUS
 62
     7
 10
158.47826
 20
-158.07062
 11
199.87818
 21
-116.67062
  0
LINE
  8
0
  6
CONTINUOUS
 62
     7
 10
147.70197
 20
-158.07062
 11
189.10189
 21
-116.67062
  0
LINE
  8
0
  6
CONTINUOUS
 62
     7
 10
136.92567
 20
-158.07062
 11
178.32559
 21
-116.67062
  0
LINE
  8
0
  6
CONTINUOUS
 62
     7
 10
126.14937
 20
-158.07062
 11
167.54929
 21
-116.67062
  0
LINE
  8
0
  6
CONTINUOUS
 62
     7
 10
115.37308
 20
-158.07062
 11
156.773
 21
-116.67062
  0
LINE
  8
0
  6
CONTINUOUS
 62
     7
 10
104.59678
 20
-158.07062
 11
145.9967
 21
-116.67062
  0
LINE
  8
0
  6
CONTINUOUS
 62
     7
 10
93.820486
 20
-158.07062
 11
135.2204
 21
-116.67062
  0
LINE
  8
0
  6
CONTINUOUS
 62
     7
 10
83.044189
 20
-158.07062
 11
124.44411
 21
-116.67062
  0
LINE
  8
0
  6
CONTINUOUS
 62
     7
 10
72.267893
 20
-158.07062
 11
113.66781
 21
-116.67062
  0
LINE
  8
0
  6
CONTINUOUS
 62
     7
 10
61.491597
 20
-158.07062
 11
102.89152
 21
-116.67062
  0
LINE
  8
0
  6
CONTINUOUS
 62
     7
 10
50.7153
 20
-158.07062
 11
92.115219
 21
-116.67062
  0
LINE
  8
0
  6
CONTINUOUS
 62
     7
 10
39.939004
 20
-158.07062
 11
81.338922
 21
-116.67062
  0
LINE
  8
0
  6
CONTINUOUS
 62
     7
 10
29.162707
 20
-158.07062
 11
70.562626
 21
-116.67062
  0
LINE
  8
0
  6
CONTINUOUS
 62
     7
 10
18.386411
 20
-158.07062
 11
59.78633
 21
-116.67062
  0
LINE
  8
0
  6
CONTINUOUS
 62
     7
 10
7.6101145
 20
-158.07062
 11
49.010033
 21
-116.67062
  0
LINE
  8
0
  6
CONTINUOUS
 62
     7
 10
-3.1661819
 20
-158.07062
 11
38.233737
 21
-116.67062
  0
LINE
  8
0
  6
CONTINUOUS
 62
     7
 10
-13.942478
 20
-158.07062
 11
27.45744
 21
-116.67062
  0
LINE
  8
0
  6
CONTINUOUS
 62
     7
 10
-24.718775
 20
-158.07062
 11
16.681144
 21
-116.67062
  0
LINE
  8
0
  6
CONTINUOUS
 62
     7
 10
-35.495071
 20
-158.07062
 11
5.9048476
 21
-116.67062
  0
LINE
  8
0
  6
CONTINUOUS
 62
     7
 10
-46.271368
 20
-158.07062
 11
-4.8714488
 21
-116.67062
  0
LINE
  8
0
  6
CONTINUOUS
 62
     7
 10
-57.047664
 20
-158.07062
 11
-15.647745
 21
-116.67062
  0
LINE
  8
0
  6
CONTINUOUS
 62
     7
 10
-67.82396
 20
-158.07062
 11
-26.424042
 21
-116.67062
  0
LINE
  8
0
  6
CONTINUOUS
 62
     7
 10
-78.600257
 20
-158.07062
 11
-37.200338
 21
-116.67062
  0
LINE
  8
0
  6
CONTINUOUS
 62
     7
 10
-89.376553
 20
-158.07062
 11
-47.976634
 21
-116.67062
  0
LINE
  8
0
  6
CONTINUOUS
 62
     7
 10
-100.15285
 20
-158.07062
 11
-58.752931
 21
-116.67062
  0
LINE
  8
0
  6
CONTINUOUS
 62
     7
 10
-110.92915
 20
-158.07062
 11
-69.529227
 21
-116.67062
  0
LINE
  8
0
  6
CONTINUOUS
 62
     7
 10
-121.70544
 20
-158.07062
 11
-80.305524
 21
-116.67062
  0
LINE
  8
0
  6
CONTINUOUS
 62
     7
 10
-132.48174
 20
-158.07062
 11
-91.08182
 21
-116.67062
  0
LINE
  8
0
  6
CONTINUOUS
 62
     7
 10
-143.25804
 20
-158.07062
 11
-101.85812
 21
-116.67062
  0
LINE
  8
0
  6
CONTINUOUS
 62
     7
 10
-154.03433
 20
-158.07062
 11
-112.63441
 21
-116.67062
  0
LINE
  8
0
  6
CONTINUOUS
 62
     7
 10
-164.81063
 20
-158.07062
 11
-123.41071
 21
-116.67062
  0
LINE
  8
0
  6
CONTINUOUS
 62
     7
 10
-175.58692
 20
-158.07062
 11
-134.18701
 21
-116.67062
  0
LINE
  8
0
  6
CONTINUOUS
 62
     7
 10
-183.02992
 20
-154.73731
 11
-144.9633
 21
-116.67062
  0
LINE
  8
0
  6
CONTINUOUS
 62
     7
 10
-183.02992
 20
-143.96099
 11
-155.7396
 21
-116.67062
  0
LINE
  8
0
  6
CONTINUOUS
 62
     7
 10
-183.02992
 20
-133.18468
 11
-166.51589
 21
-116.67062
  0
LINE
  8
0
  6
CONTINUOUS
 62
     7
 10
-183.02992
 20
-122.40836
 11
-177.29219
 21
-116.67062
  0
LINE
  8
0
  6
CONTINUOUS
 62
     7
 10
198.88938
 20
-158.07062
 11
199.97011
 21
-156.98988
  0
LINE
  8
0
  6
CONTINUOUS
 62
     7
 10
188.11308
 20
-158.07062
 11
199.97011
 21
-146.21357
  0
LINE
  8
0
  6
CONTINUOUS
 62
     7
 10
177.33678
 20
-158.07062
 11
199.97011
 21
-135.43725
  0
LINE
  8
0
  6
CONTINUOUS
 62
     7
 10
166.56049
 20
-158.07062
 11
199.97011
 21
-124.66093
  0
LINE
  8
0
  6
CONTINUOUS
 62
     7
 10
155.78419
 20
-158.07062
 11
197.18411
 21
-116.67062
  0
LINE
  8
0
  6
CONTINUOUS
 62
     7
 10
145.00789
 20
-158.07062
 11
186.40781
 21
-116.67062
  0
LINE
  8
0
  6
CONTINUOUS
 62
     7
 10
134.2316
 20
-158.07062
 11
175.63152
 21
-116.67062
  0
LINE
  8
0
  6
CONTINUOUS
 62
     7
 10
123.4553
 20
-158.07062
 11
164.85522
 21
-116.67062
  0
LINE
  8
0
  6
CONTINUOUS
 62
     7
 10
112.679
 20
-158.07062
 11
154.07892
 21
-116.67062
  0
LINE
  8
0
  6
CONTINUOUS
 62
     7
 10
101.90271
 20
-158.07062
 11
143.30263
 21
-116.67062
  0
LINE
  8
0
  6
CONTINUOUS
 62
     7
 10
91.126411
 20
-158.07062
 11
132.52633
 21
-116.67062
  0
LINE
  8
0
  6
CONTINUOUS
 62
     7
 10
80.350115
 20
-158.07062
 11
121.75003
 21
-116.67062
  0
LINE
  8
0
  6
CONTINUOUS
 62
     7
 10
69.573819
 20
-158.07062
 11
110.97374
 21
-116.67062
  0
LINE
  8
0
  6
CONTINUOUS
 62
     7
 10
58.797522
 20
-158.07062
 11
100.19744
 21
-116.67062
  0
LINE
  8
0
  6
CONTINUOUS
 62
     7
 10
48.021226
 20
-158.07062
 11
89.421145
 21
-116.67062
  0
LINE
  8
0
  6
CONTINUOUS
 62
     7
 10
37.244929
 20
-158.07062
 11
78.644848
 21
-116.67062
  0
LINE
  8
0
  6
CONTINUOUS
 62
     7
 10
26.468633
 20
-158.07062
 11
67.868552
 21
-116.67062
  0
LINE
  8
0
  6
CONTINUOUS
 62
     7
 10
15.692337
 20
-158.07062
 11
57.092255
 21
-116.67062
  0
LINE
  8
0
  6
CONTINUOUS
 62
     7
 10
4.9160402
 20
-158.07062
 11
46.315959
 21
-116.67062
  0
LINE
  8
0
  6
CONTINUOUS
 62
     7
 10
-5.8602562
 20
-158.07062
 11
35.539663
 21
-116.67062
  0
LINE
  8
0
  6
CONTINUOUS
 62
     7
 10
-16.636553
 20
-158.07062
 11
24.763366
 21
-116.67062
  0
LINE
  8
0
  6
CONTINUOUS
 62
     7
 10
-27.412849
 20
-158.07062
 11
13.98707
 21
-116.67062
  0
LINE
  8
0
  6
CONTINUOUS
 62
     7
 10
-38.189145
 20
-158.07062
 11
3.2107733
 21
-116.67062
  0
LINE
  8
0
  6
CONTINUOUS
 62
     7
 10
-48.965442
 20
-158.07062
 11
-7.5655231
 21
-116.67062
  0
LINE
  8
0
  6
CONTINUOUS
 62
     7
 10
-59.741738
 20
-158.07062
 11
-18.341819
 21
-116.67062
  0
LINE
  8
0
  6
CONTINUOUS
 62
     7
 10
-70.518035
 20
-158.07062
 11
-29.118116
 21
-116.67062
  0
LINE
  8
0
  6
CONTINUOUS
 62
     7
 10
-81.294331
 20
-158.07062
 11
-39.894412
 21
-116.67062
  0
LINE
  8
0
  6
CONTINUOUS
 62
     7
 10
-92.070627
 20
-158.07062
 11
-50.670709
 21
-116.67062
  0
LINE
  8
0
  6
CONTINUOUS
 62
     7
 10
-102.84692
 20
-158.07062
 11
-61.447005
 21
-116.67062
  0
LINE
  8
0
  6
CONTINUOUS
 62
     7
 10
-113.62322
 20
-158.07062
 11
-72.223302
 21
-116.67062
  0
LINE
  8
0
  6
CONTINUOUS
 62
     7
 10
-124.39952
 20
-158.07062
 11
-82.999598
 21
-116.67062
  0
LINE
  8
0
  6
CONTINUOUS
 62
     7
 10
-135.17581
 20
-158.07062
 11
-93.775894
 21
-116.67062
  0
LINE
  8
0
  6
CONTINUOUS
 62
     7
 10
-145.95211
 20
-158.07062
 11
-104.55219
 21
-116.67062
  0
LINE
  8
0
  6
CONTINUOUS
 62
     7
 10
-156.72841
 20
-158.07062
 11
-115.32849
 21
-116.67062
  0
LINE
  8
0
  6
CONTINUOUS
 62
     7
 10
-167.5047
 20
-158.07062
 11
-126.10478
 21
-116.67062
  0
LINE
  8
0
  6
CONTINUOUS
 62
     7
 10
-178.281
 20
-158.07062
 11
-136.88108
 21
-116.67062
  0
LINE
  8
0
  6
CONTINUOUS
 62
     7
 10
-183.02992
 20
-152.04323
 11
-147.65738
 21
-116.67062
  0
LINE
  8
0
  6
CONTINUOUS
 62
     7
 10
-183.02992
 20
-141.26692
 11
-158.43367
 21
-116.67062
  0
LINE
  8
0
  6
CONTINUOUS
 62
     7
 10
-183.02992
 20
-130.4906
 11
-169.20997
 21
-116.67062
  0
LINE
  8
0
  6
CONTINUOUS
 62
     7
 10
-183.02992
 20
-119.71428
 11
-179.98627
 21
-116.67062
  0
LINE
  8
0
  6
CONTINUOUS
 62
     7
 10
196.1953
 20
-158.07062
 11
199.97011
 21
-154.2958
  0
LINE
  8
0
  6
CONTINUOUS
 62
     7
 10
185.41901
 20
-158.07062
 11
199.97011
 21
-143.51949
  0
LINE
  8
0
  6
CONTINUOUS
 62
     7
 10
174.64271
 20
-158.07062
 11
199.97011
 21
-132.74317
  0
LINE
  8
0
  6
CONTINUOUS
 62
     7
 10
163.86641
 20
-158.07062
 11
199.97011
 21
-121.96685
  0
LINE
  8
0
  6
CONTINUOUS
 62
     7
 10
153.09012
 20
-158.07062
 11
194.49003
 21
-116.67062
  0
LINE
  8
0
  6
CONTINUOUS
 62
     7
 10
142.31382
 20
-158.07062
 11
183.71374
 21
-116.67062
  0
LINE
  8
0
  6
CONTINUOUS
 62
     7
 10
131.53752
 20
-158.07062
 11
172.93744
 21
-116.67062
  0
LINE
  8
0
  6
CONTINUOUS
 62
     7
 10
120.76123
 20
-158.07062
 11
162.16115
 21
-116.67062
  0
LINE
  8
0
  6
CONTINUOUS
 62
     7
 10
109.98493
 20
-158.07062
 11
151.38485
 21
-116.67062
  0
LINE
  8
0
  6
CONTINUOUS
 62
     7
 10
99.208634
 20
-158.07062
 11
140.60855
 21
-116.67062
  0
LINE
  8
0
  6
CONTINUOUS
 62
     7
 10
88.432337
 20
-158.07062
 11
129.83226
 21
-116.67062
  0
LINE
  8
0
  6
CONTINUOUS
 62
     7
 10
77.656041
 20
-158.07062
 11
119.05596
 21
-116.67062
  0
LINE
  8
0
  6
CONTINUOUS
 62
     7
 10
66.879745
 20
-158.07062
 11
108.27966
 21
-116.67062
  0
LINE
  8
0
  6
CONTINUOUS
 62
     7
 10
56.103448
 20
-158.07062
 11
97.503367
 21
-116.67062
  0
LINE
  8
0
  6
CONTINUOUS
 62
     7
 10
45.327152
 20
-158.07062
 11
86.72707
 21
-116.67062
  0
LINE
  8
0
  6
CONTINUOUS
 62
     7
 10
34.550855
 20
-158.07062
 11
75.950774
 21
-116.67062
  0
LINE
  8
0
  6
CONTINUOUS
 62
     7
 10
23.774559
 20
-158.07062
 11
65.174478
 21
-116.67062
  0
LINE
  8
0
  6
CONTINUOUS
 62
     7
 10
12.998263
 20
-158.07062
 11
54.398181
 21
-116.67062
  0
LINE
  8
0
  6
CONTINUOUS
 62
     7
 10
2.2219661
 20
-158.07062
 11
43.621885
 21
-116.67062
  0
LINE
  8
0
  6
CONTINUOUS
 62
     7
 10
-8.5543303
 20
-158.07062
 11
32.845588
 21
-116.67062
  0
LINE
  8
0
  6
CONTINUOUS
 62
     7
 10
-19.330627
 20
-158.07062
 11
22.069292
 21
-116.67062
  0
LINE
  8
0
  6
CONTINUOUS
 62
     7
 10
-30.106923
 20
-158.07062
 11
11.292996
 21
-116.67062
  0
LINE
  8
0
  6
CONTINUOUS
 62
     7
 10
-40.883219
 20
-158.07062
 11
0.51669924
 21
-116.67062
  0
LINE
  8
0
  6
CONTINUOUS
 62
     7
 10
-51.659516
 20
-158.07062
 11
-10.259597
 21
-116.67062
  0
LINE
  8
0
  6
CONTINUOUS
 62
     7
 10
-62.435812
 20
-158.07062
 11
-21.035894
 21
-116.67062
  0
LINE
  8
0
  6
CONTINUOUS
 62
     7
 10
-73.212109
 20
-158.07062
 11
-31.81219
 21
-116.67062
  0
LINE
  8
0
  6
CONTINUOUS
 62
     7
 10
-83.988405
 20
-158.07062
 11
-42.588486
 21
-116.67062
  0
LINE
  8
0
  6
CONTINUOUS
 62
     7
 10
-94.764702
 20
-158.07062
 11
-53.364783
 21
-116.67062
  0
LINE
  8
0
  6
CONTINUOUS
 62
     7
 10
-105.541
 20
-158.07062
 11
-64.141079
 21
-116.67062
  0
LINE
  8
0
  6
CONTINUOUS
 62
     7
 10
-116.31729
 20
-158.07062
 11
-74.917376
 21
-116.67062
  0
LINE
  8
0
  6
CONTINUOUS
 62
     7
 10
-127.09359
 20
-158.07062
 11
-85.693672
 21
-116.67062
  0
LINE
  8
0
  6
CONTINUOUS
 62
     7
 10
-137.86989
 20
-158.07062
 11
-96.469968
 21
-116.67062
  0
LINE
  8
0
  6
CONTINUOUS
 62
     7
 10
-148.64618
 20
-158.07062
 11
-107.24626
 21
-116.67062
  0
LINE
  8
0
  6
CONTINUOUS
 62
     7
 10
-159.42248
 20
-158.07062
 11
-118.02256
 21
-116.67062
  0
LINE
  8
0
  6
CONTINUOUS
 62
     7
 10
-170.19878
 20
-158.07062
 11
-128.79886
 21
-116.67062
  0
LINE
  8
0
  6
CONTINUOUS
 62
     7
 10
-180.97507
 20
-158.07062
 11
-139.57515
 21
-116.67062
  0
LINE
  8
0
  6
CONTINUOUS
 62
     7
 10
-183.02992
 20
-149.34915
 11
-150.35145
 21
-116.67062
  0
LINE
  8
0
  6
CONTINUOUS
 62
     7
 10
-183.02992
 20
-138.57284
 11
-161.12775
 21
-116.67062
  0
LINE
  8
0
  6
CONTINUOUS
 62
     7
 10
-183.02992
 20
-127.79652
 11
-171.90404
 21
-116.67062
  0
LINE
  8
0
  6
CONTINUOUS
 62
     7
 10
-183.02992
 20
-117.0202
 11
-182.68034
 21
-116.67062
  0
LINE
  8
0
  6
CONTINUOUS
 62
     7
 10
193.50123
 20
-158.07062
 11
199.97011
 21
-151.60172
  0
LINE
  8
0
  6
CONTINUOUS
 62
     7
 10
182.72493
 20
-158.07062
 11
199.97011
 21
-140.82541
  0
LINE
  8
0
  6
CONTINUOUS
 62
     7
 10
171.94863
 20
-158.07062
 11
199.97011
 21
-130.04909
  0
LINE
  8
0
  6
CONTINUOUS
 62
     7
 10
161.17234
 20
-158.07062
 11
199.97011
 21
-119.27277
  0
LINE
  8
0
  6
CONTINUOUS
 62
     7
 10
150.39604
 20
-158.07062
 11
191.79596
 21
-116.67062
  0
LINE
  8
0
  6
CONTINUOUS
 62
     7
 10
139.61975
 20
-158.07062
 11
181.01966
 21
-116.67062
  0
LINE
  8
0
  6
CONTINUOUS
 62
     7
 10
128.84345
 20
-158.07062
 11
170.24337
 21
-116.67062
  0
LINE
  8
0
  6
CONTINUOUS
 62
     7
 10
118.06715
 20
-158.07062
 11
159.46707
 21
-116.67062
  0
LINE
  8
0
  6
CONTINUOUS
 62
     7
 10
107.29086
 20
-158.07062
 11
148.69077
 21
-116.67062
  0
LINE
  8
0
  6
CONTINUOUS
 62
     7
 10
96.51456
 20
-158.07062
 11
137.91448
 21
-116.67062
  0
LINE
  8
0
  6
CONTINUOUS
 62
     7
 10
85.738263
 20
-158.07062
 11
127.13818
 21
-116.67062
  0
LINE
  8
0
  6
CONTINUOUS
 62
     7
 10
74.961967
 20
-158.07062
 11
116.36189
 21
-116.67062
  0
LINE
  8
0
  6
CONTINUOUS
 62
     7
 10
64.18567
 20
-158.07062
 11
105.58559
 21
-116.67062
  0
LINE
  8
0
  6
CONTINUOUS
 62
     7
 10
53.409374
 20
-158.07062
 11
94.809293
 21
-116.67062
  0
LINE
  8
0
  6
CONTINUOUS
 62
     7
 10
42.633077
 20
-158.07062
 11
84.032996
 21
-116.67062
  0
LINE
  8
0
  6
CONTINUOUS
 62
     7
 10
31.856781
 20
-158.07062
 11
73.2567
 21
-116.67062
  0
LINE
  8
0
  6
CONTINUOUS
 62
     7
 10
21.080485
 20
-158.07062
 11
62.480403
 21
-116.67062
  0
LINE
  8
0
  6
CONTINUOUS
 62
     7
 10
10.304188
 20
-158.07062
 11
51.704107
 21
-116.67062
  0
LINE
  8
0
  6
CONTINUOUS
 62
     7
 10
-0.47210813
 20
-158.07062
 11
40.927811
 21
-116.67062
  0
LINE
  8
0
  6
CONTINUOUS
 62
     7
 10
-11.248405
 20
-158.07062
 11
30.151514
 21
-116.67062
  0
LINE
  8
0
  6
CONTINUOUS
 62
     7
 10
-22.024701
 20
-158.07062
 11
19.375218
 21
-116.67062
  0
LINE
  8
0
  6
CONTINUOUS
 62
     7
 10
-32.800997
 20
-158.07062
 11
8.5989214
 21
-116.67062
  0
LINE
  8
0
  6
CONTINUOUS
 62
     7
 10
-43.577294
 20
-158.07062
 11
-2.177375
 21
-116.67062
  0
LINE
  8
0
  6
CONTINUOUS
 62
     7
 10
-54.35359
 20
-158.07062
 11
-12.953671
 21
-116.67062
  0
LINE
  8
0
  6
CONTINUOUS
 62
     7
 10
-65.129887
 20
-158.07062
 11
-23.729968
 21
-116.67062
  0
LINE
  8
0
  6
CONTINUOUS
 62
     7
 10
-75.906183
 20
-158.07062
 11
-34.506264
 21
-116.67062
  0
LINE
  8
0
  6
CONTINUOUS
 62
     7
 10
-86.682479
 20
-158.07062
 11
-45.282561
 21
-116.67062
  0
LINE
  8
0
  6
CONTINUOUS
 62
     7
 10
-97.458776
 20
-158.07062
 11
-56.058857
 21
-116.67062
  0
LINE
  8
0
  6
CONTINUOUS
 62
     7
 10
-108.23507
 20
-158.07062
 11
-66.835153
 21
-116.67062
  0
LINE
  8
0
  6
CONTINUOUS
 62
     7
 10
-119.01137
 20
-158.07062
 11
-77.61145
 21
-116.67062
  0
LINE
  8
0
  6
CONTINUOUS
 62
     7
 10
-129.78767
 20
-158.07062
 11
-88.387746
 21
-116.67062
  0
LINE
  8
0
  6
CONTINUOUS
 62
     7
 10
-140.56396
 20
-158.07062
 11
-99.164043
 21
-116.67062
  0
LINE
  8
0
  6
CONTINUOUS
 62
     7
 10
-151.34026
 20
-158.07062
 11
-109.94034
 21
-116.67062
  0
LINE
  8
0
  6
CONTINUOUS
 62
     7
 10
-162.11655
 20
-158.07062
 11
-120.71664
 21
-116.67062
  0
LINE
  8
0
  6
CONTINUOUS
 62
     7
 10
-172.89285
 20
-158.07062
 11
-131.49293
 21
-116.67062
  0
LINE
  8
0
  6
CONTINUOUS
 62
     7
 10
-183.02992
 20
-157.43139
 11
-142.26923
 21
-116.67062
  0
LINE
  8
0
  6
CONTINUOUS
 62
     7
 10
-183.02992
 20
-146.65507
 11
-153.04552
 21
-116.67062
  0
LINE
  8
0
  6
CONTINUOUS
 62
     7
 10
-183.02992
 20
-135.87876
 11
-163.82182
 21
-116.67062
  0
LINE
  8
0
  6
CONTINUOUS
 62
     7
 10
-183.02992
 20
-125.10244
 11
-174.59812
 21
-116.67062
  0
LINE
  8
0
  6
CONTINUOUS
 62
     7
 10
-183.02992
 20
-155.0416
 11
-180.0009
 21
-158.07062
  0
LINE
  8
0
  6
CONTINUOUS
 62
     7
 10
-183.02992
 20
-144.26531
 11
-169.22458
 21
-158.07062
  0
LINE
  8
0
  6
CONTINUOUS
 62
     7
 10
-183.02992
 20
-133.48901
 11
-158.44826
 21
-158.07062
  0
LINE
  8
0
  6
CONTINUOUS
 62
     7
 10
-183.02992
 20
-122.71271
 11
-147.67195
 21
-158.07062
  0
LINE
  8
0
  6
CONTINUOUS
 62
     7
 10
-178.29571
 20
-116.67062
 11
-136.89563
 21
-158.07062
  0
LINE
  8
0
  6
CONTINUOUS
 62
     7
 10
-167.5194
 20
-116.67062
 11
-126.11931
 21
-158.07062
  0
LINE
  8
0
  6
CONTINUOUS
 62
     7
 10
-156.74308
 20
-116.67062
 11
-115.34299
 21
-158.07062
  0
LINE
  8
0
  6
CONTINUOUS
 62
     7
 10
-145.96676
 20
-116.67062
 11
-104.56668
 21
-158.07062
  0
LINE
  8
0
  6
CONTINUOUS
 62
     7
 10
-135.19044
 20
-116.67062
 11
-93.790357
 21
-158.07062
  0
LINE
  8
0
  6
CONTINUOUS
 62
     7
 10
-124.41412
 20
-116.67062
 11
-83.014039
 21
-158.07062
  0
LINE
  8
0
  6
CONTINUOUS
 62
     7
 10
-113.63781
 20
-116.67062
 11
-72.237721
 21
-158.07062
  0
LINE
  8
0
  6
CONTINUOUS
 62
     7
 10
-102.86149
 20
-116.67062
 11
-61.461403
 21
-158.07062
  0
LINE
  8
0
  6
CONTINUOUS
 62
     7
 10
-92.08517
 20
-116.67062
 11
-50.685085
 21
-158.07062
  0
LINE
  8
0
  6
CONTINUOUS
 62
     7
 10
-81.308852
 20
-116.67062
 11
-39.908767
 21
-158.07062
  0
LINE
  8
0
  6
CONTINUOUS
 62
     7
 10
-70.532534
 20
-116.67062
 11
-29.132449
 21
-158.07062
  0
LINE
  8
0
  6
CONTINUOUS
 62
     7
 10
-59.756216
 20
-116.67062
 11
-18.356131
 21
-158.07062
  0
LINE
  8
0
  6
CONTINUOUS
 62
     7
 10
-48.979898
 20
-116.67062
 11
-7.5798135
 21
-158.07062
  0
LINE
  8
0
  6
CONTINUOUS
 62
     7
 10
-38.20358
 20
-116.67062
 11
3.1965044
 21
-158.07062
  0
LINE
  8
0
  6
CONTINUOUS
 62
     7
 10
-27.427262
 20
-116.67062
 11
13.972822
 21
-158.07062
  0
LINE
  8
0
  6
CONTINUOUS
 62
     7
 10
-16.650944
 20
-116.67062
 11
24.74914
 21
-158.07062
  0
LINE
  8
0
  6
CONTINUOUS
 62
     7
 10
-5.874626
 20
-116.67062
 11
35.525458
 21
-158.07062
  0
LINE
  8
0
  6
CONTINUOUS
 62
     7
 10
4.901692
 20
-116.67062
 11
46.301776
 21
-158.07062
  0
LINE
  8
0
  6
CONTINUOUS
 62
     7
 10
15.67801
 20
-116.67062
 11
57.078094
 21
-158.07062
  0
LINE
  8
0
  6
CONTINUOUS
 62
     7
 10
26.454328
 20
-116.67062
 11
67.854412
 21
-158.07062
  0
LINE
  8
0
  6
CONTINUOUS
 62
     7
 10
37.230646
 20
-116.67062
 11
78.63073
 21
-158.07062
  0
LINE
  8
0
  6
CONTINUOUS
 62
     7
 10
48.006964
 20
-116.67062
 11
89.407048
 21
-158.07062
  0
LINE
  8
0
  6
CONTINUOUS
 62
     7
 10
58.783282
 20
-116.67062
 11
100.18337
 21
-158.07062
  0
LINE
  8
0
  6
CONTINUOUS
 62
     7
 10
69.5596
 20
-116.67062
 11
110.95968
 21
-158.07062
  0
LINE
  8
0
  6
CONTINUOUS
 62
     7
 10
80.335918
 20
-116.67062
 11
121.736
 21
-158.07062
  0
LINE
  8
0
  6
CONTINUOUS
 62
     7
 10
91.112236
 20
-116.67062
 11
132.51232
 21
-158.07062
  0
LINE
  8
0
  6
CONTINUOUS
 62
     7
 10
101.88855
 20
-116.67062
 11
143.28864
 21
-158.07062
  0
LINE
  8
0
  6
CONTINUOUS
 62
     7
 10
112.66487
 20
-116.67062
 11
154.06496
 21
-158.07062
  0
LINE
  8
0
  6
CONTINUOUS
 62
     7
 10
123.44119
 20
-116.67062
 11
164.84127
 21
-158.07062
  0
LINE
  8
0
  6
CONTINUOUS
 62
     7
 10
134.21751
 20
-116.67062
 11
175.61759
 21
-158.07062
  0
LINE
  8
0
  6
CONTINUOUS
 62
     7
 10
144.99383
 20
-116.67062
 11
186.39391
 21
-158.07062
  0
LINE
  8
0
  6
CONTINUOUS
 62
     7
 10
155.77014
 20
-116.67062
 11
197.17023
 21
-158.07062
  0
LINE
  8
0
  6
CONTINUOUS
 62
     7
 10
166.54646
 20
-116.67062
 11
199.97011
 21
-150.0942
  0
LINE
  8
0
  6
CONTINUOUS
 62
     7
 10
177.32278
 20
-116.67062
 11
199.97011
 21
-139.3179
  0
LINE
  8
0
  6
CONTINUOUS
 62
     7
 10
188.0991
 20
-116.67062
 11
199.97011
 21
-128.5416
  0
LINE
  8
0
  6
CONTINUOUS
 62
     7
 10
198.87542
 20
-116.67062
 11
199.97011
 21
-117.76531
  0
LINE
  8
0
  6
CONTINUOUS
 62
     7
 10
-183.02992
 20
-152.34753
 11
-177.30682
 21
-158.07062
  0
LINE
  8
0
  6
CONTINUOUS
 62
     7
 10
-183.02992
 20
-141.57123
 11
-166.5305
 21
-158.07062
  0
LINE
  8
0
  6
CONTINUOUS
 62
     7
 10
-183.02992
 20
-130.79494
 11
-155.75419
 21
-158.07062
  0
LINE
  8
0
  6
CONTINUOUS
 62
     7
 10
-183.02992
 20
-120.01864
 11
-144.97787
 21
-158.07062
  0
LINE
  8
0
  6
CONTINUOUS
 62
     7
 10
-175.60163
 20
-116.67062
 11
-134.20155
 21
-158.07062
  0
LINE
  8
0
  6
CONTINUOUS
 62
     7
 10
-164.82532
 20
-116.67062
 11
-123.42523
 21
-158.07062
  0
LINE
  8
0
  6
CONTINUOUS
 62
     7
 10
-154.049
 20
-116.67062
 11
-112.64891
 21
-158.07062
  0
LINE
  8
0
  6
CONTINUOUS
 62
     7
 10
-143.27268
 20
-116.67062
 11
-101.8726
 21
-158.07062
  0
LINE
  8
0
  6
CONTINUOUS
 62
     7
 10
-132.49636
 20
-116.67062
 11
-91.096278
 21
-158.07062
  0
LINE
  8
0
  6
CONTINUOUS
 62
     7
 10
-121.72004
 20
-116.67062
 11
-80.31996
 21
-158.07062
  0
LINE
  8
0
  6
CONTINUOUS
 62
     7
 10
-110.94373
 20
-116.67062
 11
-69.543642
 21
-158.07062
  0
LINE
  8
0
  6
CONTINUOUS
 62
     7
 10
-100.16741
 20
-116.67062
 11
-58.767324
 21
-158.07062
  0
LINE
  8
0
  6
CONTINUOUS
 62
     7
 10
-89.39109
 20
-116.67062
 11
-47.991006
 21
-158.07062
  0
LINE
  8
0
  6
CONTINUOUS
 62
     7
 10
-78.614772
 20
-116.67062
 11
-37.214688
 21
-158.07062
  0
LINE
  8
0
  6
CONTINUOUS
 62
     7
 10
-67.838454
 20
-116.67062
 11
-26.43837
 21
-158.07062
  0
LINE
  8
0
  6
CONTINUOUS
 62
     7
 10
-57.062136
 20
-116.67062
 11
-15.662052
 21
-158.07062
  0
LINE
  8
0
  6
CONTINUOUS
 62
     7
 10
-46.285818
 20
-116.67062
 11
-4.8857339
 21
-158.07062
  0
LINE
  8
0
  6
CONTINUOUS
 62
     7
 10
-35.5095
 20
-116.67062
 11
5.8905841
 21
-158.07062
  0
LINE
  8
0
  6
CONTINUOUS
 62
     7
 10
-24.733182
 20
-116.67062
 11
16.666902
 21
-158.07062
  0
LINE
  8
0
  6
CONTINUOUS
 62
     7
 10
-13.956864
 20
-116.67062
 11
27.44322
 21
-158.07062
  0
LINE
  8
0
  6
CONTINUOUS
 62
     7
 10
-3.1805463
 20
-116.67062
 11
38.219538
 21
-158.07062
  0
LINE
  8
0
  6
CONTINUOUS
 62
     7
 10
7.5957716
 20
-116.67062
 11
48.995856
 21
-158.07062
  0
LINE
  8
0
  6
CONTINUOUS
 62
     7
 10
18.37209
 20
-116.67062
 11
59.772174
 21
-158.07062
  0
LINE
  8
0
  6
CONTINUOUS
 62
     7
 10
29.148408
 20
-116.67062
 11
70.548492
 21
-158.07062
  0
LINE
  8
0
  6
CONTINUOUS
 62
     7
 10
39.924725
 20
-116.67062
 11
81.32481
 21
-158.07062
  0
LINE
  8
0
  6
CONTINUOUS
 62
     7
 10
50.701043
 20
-116.67062
 11
92.101128
 21
-158.07062
  0
LINE
  8
0
  6
CONTINUOUS
 62
     7
 10
61.477361
 20
-116.67062
 11
102.87745
 21
-158.07062
  0
LINE
  8
0
  6
CONTINUOUS
 62
     7
 10
72.253679
 20
-116.67062
 11
113.65376
 21
-158.07062
  0
LINE
  8
0
  6
CONTINUOUS
 62
     7
 10
83.029997
 20
-116.67062
 11
124.43008
 21
-158.07062
  0
LINE
  8
0
  6
CONTINUOUS
 62
     7
 10
93.806315
 20
-116.67062
 11
135.2064
 21
-158.07062
  0
LINE
  8
0
  6
CONTINUOUS
 62
     7
 10
104.58263
 20
-116.67062
 11
145.98272
 21
-158.07062
  0
LINE
  8
0
  6
CONTINUOUS
 62
     7
 10
115.35895
 20
-116.67062
 11
156.75904
 21
-158.07062
  0
LINE
  8
0
  6
CONTINUOUS
 62
     7
 10
126.13527
 20
-116.67062
 11
167.53535
 21
-158.07062
  0
LINE
  8
0
  6
CONTINUOUS
 62
     7
 10
136.91159
 20
-116.67062
 11
178.31167
 21
-158.07062
  0
LINE
  8
0
  6
CONTINUOUS
 62
     7
 10
147.68791
 20
-116.67062
 11
189.08799
 21
-158.07062
  0
LINE
  8
0
  6
CONTINUOUS
 62
     7
 10
158.46422
 20
-116.67062
 11
199.86431
 21
-158.07062
  0
LINE
  8
0
  6
CONTINUOUS
 62
     7
 10
169.24054
 20
-116.67062
 11
199.97011
 21
-147.40012
  0
LINE
  8
0
  6
CONTINUOUS
 62
     7
 10
180.01686
 20
-116.67062
 11
199.97011
 21
-136.62383
  0
LINE
  8
0
  6
CONTINUOUS
 62
     7
 10
190.79318
 20
-116.67062
 11
199.97011
 21
-125.84753
  0
LINE
  8
0
  6
CONTINUOUS
 62
     7
 10
-183.02992
 20
-149.65345
 11
-174.61274
 21
-158.07062
  0
LINE
  8
0
  6
CONTINUOUS
 62
     7
 10
-183.02992
 20
-138.87716
 11
-163.83642
 21
-158.07062
  0
LINE
  8
0
  6
CONTINUOUS
 62
     7
 10
-183.02992
 20
-128.10086
 11
-153.06011
 21
-158.07062
  0
LINE
  8
0
  6
CONTINUOUS
 62
     7
 10
-183.02992
 20
-117.32456
 11
-142.28379
 21
-158.07062
  0
LINE
  8
0
  6
CONTINUOUS
 62
     7
 10
-172.90755
 20
-116.67062
 11
-131.50747
 21
-158.07062
  0
LINE
  8
0
  6
CONTINUOUS
 62
     7
 10
-162.13124
 20
-116.67062
 11
-120.73115
 21
-158.07062
  0
LINE
  8
0
  6
CONTINUOUS
 62
     7
 10
-151.35492
 20
-116.67062
 11
-109.95483
 21
-158.07062
  0
LINE
  8
0
  6
CONTINUOUS
 62
     7
 10
-140.5786
 20
-116.67062
 11
-99.178516
 21
-158.07062
  0
LINE
  8
0
  6
CONTINUOUS
 62
     7
 10
-129.80228
 20
-116.67062
 11
-88.402198
 21
-158.07062
  0
LINE
  8
0
  6
CONTINUOUS
 62
     7
 10
-119.02596
 20
-116.67062
 11
-77.62588
 21
-158.07062
  0
LINE
  8
0
  6
CONTINUOUS
 62
     7
 10
-108.24965
 20
-116.67062
 11
-66.849562
 21
-158.07062
  0
LINE
  8
0
  6
CONTINUOUS
 62
     7
 10
-97.473328
 20
-116.67062
 11
-56.073244
 21
-158.07062
  0
LINE
  8
0
  6
CONTINUOUS
 62
     7
 10
-86.697011
 20
-116.67062
 11
-45.296926
 21
-158.07062
  0
LINE
  8
0
  6
CONTINUOUS
 62
     7
 10
-75.920693
 20
-116.67062
 11
-34.520608
 21
-158.07062
  0
LINE
  8
0
  6
CONTINUOUS
 62
     7
 10
-65.144375
 20
-116.67062
 11
-23.74429
 21
-158.07062
  0
LINE
  8
0
  6
CONTINUOUS
 62
     7
 10
-54.368057
 20
-116.67062
 11
-12.967972
 21
-158.07062
  0
LINE
  8
0
  6
CONTINUOUS
 62
     7
 10
-43.591739
 20
-116.67062
 11
-2.1916544
 21
-158.07062
  0
LINE
  8
0
  6
CONTINUOUS
 62
     7
 10
-32.815421
 20
-116.67062
 11
8.5846636
 21
-158.07062
  0
LINE
  8
0
  6
CONTINUOUS
 62
     7
 10
-22.039103
 20
-116.67062
 11
19.360982
 21
-158.07062
  0
LINE
  8
0
  6
CONTINUOUS
 62
     7
 10
-11.262785
 20
-116.67062
 11
30.1373
 21
-158.07062
  0
LINE
  8
0
  6
CONTINUOUS
 62
     7
 10
-0.48646686
 20
-116.67062
 11
40.913617
 21
-158.07062
  0
LINE
  8
0
  6
CONTINUOUS
 62
     7
 10
10.289851
 20
-116.67062
 11
51.689935
 21
-158.07062
  0
LINE
  8
0
  6
CONTINUOUS
 62
     7
 10
21.066169
 20
-116.67062
 11
62.466253
 21
-158.07062
  0
LINE
  8
0
  6
CONTINUOUS
 62
     7
 10
31.842487
 20
-116.67062
 11
73.242571
 21
-158.07062
  0
LINE
  8
0
  6
CONTINUOUS
 62
     7
 10
42.618805
 20
-116.67062
 11
84.018889
 21
-158.07062
  0
LINE
  8
0
  6
CONTINUOUS
 62
     7
 10
53.395123
 20
-116.67062
 11
94.795207
 21
-158.07062
  0
LINE
  8
0
  6
CONTINUOUS
 62
     7
 10
64.171441
 20
-116.67062
 11
105.57153
 21
-158.07062
  0
LINE
  8
0
  6
CONTINUOUS
 62
     7
 10
74.947759
 20
-116.67062
 11
116.34784
 21
-158.07062
  0
LINE
  8
0
  6
CONTINUOUS
 62
     7
 10
85.724077
 20
-116.67062
 11
127.12416
 21
-158.07062
  0
LINE
  8
0
  6
CONTINUOUS
 62
     7
 10
96.500395
 20
-116.67062
 11
137.90048
 21
-158.07062
  0
LINE
  8
0
  6
CONTINUOUS
 62
     7
 10
107.27671
 20
-116.67062
 11
148.6768
 21
-158.07062
  0
LINE
  8
0
  6
CONTINUOUS
 62
     7
 10
118.05303
 20
-116.67062
 11
159.45312
 21
-158.07062
  0
LINE
  8
0
  6
CONTINUOUS
 62
     7
 10
128.82935
 20
-116.67062
 11
170.22943
 21
-158.07062
  0
LINE
  8
0
  6
CONTINUOUS
 62
     7
 10
139.60567
 20
-116.67062
 11
181.00575
 21
-158.07062
  0
LINE
  8
0
  6
CONTINUOUS
 62
     7
 10
150.38198
 20
-116.67062
 11
191.78207
 21
-158.07062
  0
LINE
  8
0
  6
CONTINUOUS
 62
     7
 10
161.1583
 20
-116.67062
 11
199.97011
 21
-155.48234
  0
LINE
  8
0
  6
CONTINUOUS
 62
     7
 10
171.93462
 20
-116.67062
 11
199.97011
 21
-144.70605
  0
LINE
  8
0
  6
CONTINUOUS
 62
     7
 10
182.71094
 20
-116.67062
 11
199.97011
 21
-133.92975
  0
LINE
  8
0
  6
CONTINUOUS
 62
     7
 10
193.48726
 20
-116.67062
 11
199.97011
 21
-123.15345
  0
LINE
  8
0
  6
CONTINUOUS
 62
     7
 10
-183.02992
 20
-157.73568
 11
-182.69498
 21
-158.07062
  0
LINE
  8
0
  6
CONTINUOUS
 62
     7
 10
-183.02992
 20
-146.95938
 11
-171.91866
 21
-158.07062
  0
LINE
  8
0
  6
CONTINUOUS
 62
     7
 10
-183.02992
 20
-136.18308
 11
-161.14234
 21
-158.07062
  0
LINE
  8
0
  6
CONTINUOUS
 62
     7
 10
-183.02992
 20
-125.40679
 11
-150.36603
 21
-158.07062
  0
LINE
  8
0
  6
CONTINUOUS
 62
     7
 10
-180.98979
 20
-116.67062
 11
-139.58971
 21
-158.07062
  0
LINE
  8
0
  6
CONTINUOUS
 62
     7
 10
-170.21347
 20
-116.67062
 11
-128.81339
 21
-158.07062
  0
LINE
  8
0
  6
CONTINUOUS
 62
     7
 10
-159.43716
 20
-116.67062
 11
-118.03707
 21
-158.07062
  0
LINE
  8
0
  6
CONTINUOUS
 62
     7
 10
-148.66084
 20
-116.67062
 11
-107.26075
 21
-158.07062
  0
LINE
  8
0
  6
CONTINUOUS
 62
     7
 10
-137.88452
 20
-116.67062
 11
-96.484436
 21
-158.07062
  0
LINE
  8
0
  6
CONTINUOUS
 62
     7
 10
-127.1082
 20
-116.67062
 11
-85.708118
 21
-158.07062
  0
LINE
  8
0
  6
CONTINUOUS
 62
     7
 10
-116.33188
 20
-116.67062
 11
-74.9318
 21
-158.07062
  0
LINE
  8
0
  6
CONTINUOUS
 62
     7
 10
-105.55557
 20
-116.67062
 11
-64.155482
 21
-158.07062
  0
LINE
  8
0
  6
CONTINUOUS
 62
     7
 10
-94.779249
 20
-116.67062
 11
-53.379165
 21
-158.07062
  0
LINE
  8
0
  6
CONTINUOUS
 62
     7
 10
-84.002931
 20
-116.67062
 11
-42.602847
 21
-158.07062
  0
LINE
  8
0
  6
CONTINUOUS
 62
     7
 10
-73.226613
 20
-116.67062
 11
-31.826529
 21
-158.07062
  0
LINE
  8
0
  6
CONTINUOUS
 62
     7
 10
-62.450295
 20
-116.67062
 11
-21.050211
 21
-158.07062
  0
LINE
  8
0
  6
CONTINUOUS
 62
     7
 10
-51.673977
 20
-116.67062
 11
-10.273893
 21
-158.07062
  0
LINE
  8
0
  6
CONTINUOUS
 62
     7
 10
-40.897659
 20
-116.67062
 11
0.50242529
 21
-158.07062
  0
LINE
  8
0
  6
CONTINUOUS
 62
     7
 10
-30.121341
 20
-116.67062
 11
11.278743
 21
-158.07062
  0
LINE
  8
0
  6
CONTINUOUS
 62
     7
 10
-19.345023
 20
-116.67062
 11
22.055061
 21
-158.07062
  0
LINE
  8
0
  6
CONTINUOUS
 62
     7
 10
-8.5687052
 20
-116.67062
 11
32.831379
 21
-158.07062
  0
LINE
  8
0
  6
CONTINUOUS
 62
     7
 10
2.2076128
 20
-116.67062
 11
43.607697
 21
-158.07062
  0
LINE
  8
0
  6
CONTINUOUS
 62
     7
 10
12.983931
 20
-116.67062
 11
54.384015
 21
-158.07062
  0
LINE
  8
0
  6
CONTINUOUS
 62
     7
 10
23.760249
 20
-116.67062
 11
65.160333
 21
-158.07062
  0
LINE
  8
0
  6
CONTINUOUS
 62
     7
 10
34.536567
 20
-116.67062
 11
75.936651
 21
-158.07062
  0
LINE
  8
0
  6
CONTINUOUS
 62
     7
 10
45.312885
 20
-116.67062
 11
86.712969
 21
-158.07062
  0
LINE
  8
0
  6
CONTINUOUS
 62
     7
 10
56.089203
 20
-116.67062
 11
97.489287
 21
-158.07062
  0
LINE
  8
0
  6
CONTINUOUS
 62
     7
 10
66.865521
 20
-116.67062
 11
108.2656
 21
-158.07062
  0
LINE
  8
0
  6
CONTINUOUS
 62
     7
 10
77.641839
 20
-116.67062
 11
119.04192
 21
-158.07062
  0
LINE
  8
0
  6
CONTINUOUS
 62
     7
 10
88.418156
 20
-116.67062
 11
129.81824
 21
-158.07062
  0
LINE
  8
0
  6
CONTINUOUS
 62
     7
 10
99.194474
 20
-116.67062
 11
140.59456
 21
-158.07062
  0
LINE
  8
0
  6
CONTINUOUS
 62
     7
 10
109.97079
 20
-116.67062
 11
151.37088
 21
-158.07062
  0
LINE
  8
0
  6
CONTINUOUS
 62
     7
 10
120.74711
 20
-116.67062
 11
162.14719
 21
-158.07062
  0
LINE
  8
0
  6
CONTINUOUS
 62
     7
 10
131.52343
 20
-116.67062
 11
172.92351
 21
-158.07062
  0
LINE
  8
0
  6
CONTINUOUS
 62
     7
 10
142.29975
 20
-116.67062
 11
183.69983
 21
-158.07062
  0
LINE
  8
0
  6
CONTINUOUS
 62
     7
 10
153.07606
 20
-116.67062
 11
194.47615
 21
-158.07062
  0
LINE
  8
0
  6
CONTINUOUS
 62
     7
 10
163.85238
 20
-116.67062
 11
199.97011
 21
-152.78827
  0
LINE
  8
0
  6
CONTINUOUS
 62
     7
 10
174.6287
 20
-116.67062
 11
199.97011
 21
-142.01197
  0
LINE
  8
0
  6
CONTINUOUS
 62
     7
 10
185.40502
 20
-116.67062
 11
199.97011
 21
-131.23568
  0
LINE
  8
0
  6
CONTINUOUS
 62
     7
 10
196.18134
 20
-116.67062
 11
199.97011
 21
-120.45938
  0
LINE
  8
0
  6
CONTINUOUS
 62
     7
 10
194.83674
 20
-283.35684
 11
201.47009
 21
-276.72347
  0
LINE
  8
0
  6
CONTINUOUS
 62
     7
 10
184.06044
 20
-283.35684
 11
201.47009
 21
-265.94715
  0
LINE
  8
0
  6
CONTINUOUS
 62
     7
 10
173.28414
 20
-283.35684
 11
201.47009
 21
-255.17084
  0
LINE
  8
0
  6
CONTINUOUS
 62
     7
 10
162.50785
 20
-283.35684
 11
201.47009
 21
-244.39452
  0
LINE
  8
0
  6
CONTINUOUS
 62
     7
 10
151.73155
 20
-283.35684
 11
199.93144
 21
-235.15686
  0
LINE
  8
0
  6
CONTINUOUS
 62
     7
 10
140.95525
 20
-283.35684
 11
189.15514
 21
-235.15686
  0
LINE
  8
0
  6
CONTINUOUS
 62
     7
 10
130.17896
 20
-283.35684
 11
178.37884
 21
-235.15686
  0
LINE
  8
0
  6
CONTINUOUS
 62
     7
 10
119.40266
 20
-283.35684
 11
167.60255
 21
-235.15686
  0
LINE
  8
0
  6
CONTINUOUS
 62
     7
 10
108.62637
 20
-283.35684
 11
156.82625
 21
-235.15686
  0
LINE
  8
0
  6
CONTINUOUS
 62
     7
 10
97.850069
 20
-283.35684
 11
146.04995
 21
-235.15686
  0
LINE
  8
0
  6
CONTINUOUS
 62
     7
 10
87.073772
 20
-283.35684
 11
135.27366
 21
-235.15686
  0
LINE
  8
0
  6
CONTINUOUS
 62
     7
 10
76.297476
 20
-283.35684
 11
124.49736
 21
-235.15686
  0
LINE
  8
0
  6
CONTINUOUS
 62
     7
 10
65.52118
 20
-283.35684
 11
113.72106
 21
-235.15686
  0
LINE
  8
0
  6
CONTINUOUS
 62
     7
 10
54.744883
 20
-283.35684
 11
102.94477
 21
-235.15686
  0
LINE
  8
0
  6
CONTINUOUS
 62
     7
 10
43.968587
 20
-283.35684
 11
92.168472
 21
-235.15686
  0
LINE
  8
0
  6
CONTINUOUS
 62
     7
 10
33.19229
 20
-283.35684
 11
81.392176
 21
-235.15686
  0
LINE
  8
0
  6
CONTINUOUS
 62
     7
 10
22.415994
 20
-283.35684
 11
70.615879
 21
-235.15686
  0
LINE
  8
0
  6
CONTINUOUS
 62
     7
 10
11.639698
 20
-283.35684
 11
59.839583
 21
-235.15686
  0
LINE
  8
0
  6
CONTINUOUS
 62
     7
 10
0.8634012
 20
-283.35684
 11
49.063286
 21
-235.15686
  0
LINE
  8
0
  6
CONTINUOUS
 62
     7
 10
-9.9128952
 20
-283.35684
 11
38.28699
 21
-235.15686
  0
LINE
  8
0
  6
CONTINUOUS
 62
     7
 10
-20.689192
 20
-283.35684
 11
27.510694
 21
-235.15686
  0
LINE
  8
0
  6
CONTINUOUS
 62
     7
 10
-31.465488
 20
-283.35684
 11
16.734397
 21
-235.15686
  0
LINE
  8
0
  6
CONTINUOUS
 62
     7
 10
-42.241784
 20
-283.35684
 11
5.9581009
 21
-235.15686
  0
LINE
  8
0
  6
CONTINUOUS
 62
     7
 10
-53.018081
 20
-283.35684
 11
-4.8181955
 21
-235.15686
  0
LINE
  8
0
  6
CONTINUOUS
 62
     7
 10
-63.794377
 20
-283.35684
 11
-15.594492
 21
-235.15686
  0
LINE
  8
0
  6
CONTINUOUS
 62
     7
 10
-74.570674
 20
-283.35684
 11
-26.370788
 21
-235.15686
  0
LINE
  8
0
  6
CONTINUOUS
 62
     7
 10
-85.34697
 20
-283.35684
 11
-37.147085
 21
-235.15686
  0
LINE
  8
0
  6
CONTINUOUS
 62
     7
 10
-96.123266
 20
-283.35684
 11
-47.923381
 21
-235.15686
  0
LINE
  8
0
  6
CONTINUOUS
 62
     7
 10
-106.89956
 20
-283.35684
 11
-58.699678
 21
-235.15686
  0
LINE
  8
0
  6
CONTINUOUS
 62
     7
 10
-117.67586
 20
-283.35684
 11
-69.475974
 21
-235.15686
  0
LINE
  8
0
  6
CONTINUOUS
 62
     7
 10
-128.45216
 20
-283.35684
 11
-80.25227
 21
-235.15686
  0
LINE
  8
0
  6
CONTINUOUS
 62
     7
 10
-139.22845
 20
-283.35684
 11
-91.028567
 21
-235.15686
  0
LINE
  8
0
  6
CONTINUOUS
 62
     7
 10
-150.00475
 20
-283.35684
 11
-101.80486
 21
-235.15686
  0
LINE
  8
0
  6
CONTINUOUS
 62
     7
 10
-160.78104
 20
-283.35684
 11
-112.58116
 21
-235.15686
  0
LINE
  8
0
  6
CONTINUOUS
 62
     7
 10
-171.55734
 20
-283.35684
 11
-123.35746
 21
-235.15686
  0
LINE
  8
0
  6
CONTINUOUS
 62
     7
 10
-180.52991
 20
-281.55311
 11
-134.13375
 21
-235.15686
  0
LINE
  8
0
  6
CONTINUOUS
 62
     7
 10
-180.52991
 20
-270.77679
 11
-144.91005
 21
-235.15686
  0
LINE
  8
0
  6
CONTINUOUS
 62
     7
 10
-180.52991
 20
-260.00047
 11
-155.68635
 21
-235.15686
  0
LINE
  8
0
  6
CONTINUOUS
 62
     7
 10
-180.52991
 20
-249.22415
 11
-166.46264
 21
-235.15686
  0
LINE
  8
0
  6
CONTINUOUS
 62
     7
 10
-180.52991
 20
-238.44784
 11
-177.23894
 21
-235.15686
  0
LINE
  8
0
  6
CONTINUOUS
 62
     7
 10
192.14266
 20
-283.35684
 11
201.47009
 21
-274.02939
  0
LINE
  8
0
  6
CONTINUOUS
 62
     7
 10
181.36637
 20
-283.35684
 11
201.47009
 21
-263.25307
  0
LINE
  8
0
  6
CONTINUOUS
 62
     7
 10
170.59007
 20
-283.35684
 11
201.47009
 21
-252.47676
  0
LINE
  8
0
  6
CONTINUOUS
 62
     7
 10
159.81377
 20
-283.35684
 11
201.47009
 21
-241.70044
  0
LINE
  8
0
  6
CONTINUOUS
 62
     7
 10
149.03748
 20
-283.35684
 11
197.23736
 21
-235.15686
  0
LINE
  8
0
  6
CONTINUOUS
 62
     7
 10
138.26118
 20
-283.35684
 11
186.46107
 21
-235.15686
  0
LINE
  8
0
  6
CONTINUOUS
 62
     7
 10
127.48488
 20
-283.35684
 11
175.68477
 21
-235.15686
  0
LINE
  8
0
  6
CONTINUOUS
 62
     7
 10
116.70859
 20
-283.35684
 11
164.90847
 21
-235.15686
  0
LINE
  8
0
  6
CONTINUOUS
 62
     7
 10
105.93229
 20
-283.35684
 11
154.13218
 21
-235.15686
  0
LINE
  8
0
  6
CONTINUOUS
 62
     7
 10
95.155995
 20
-283.35684
 11
143.35588
 21
-235.15686
  0
LINE
  8
0
  6
CONTINUOUS
 62
     7
 10
84.379698
 20
-283.35684
 11
132.57958
 21
-235.15686
  0
LINE
  8
0
  6
CONTINUOUS
 62
     7
 10
73.603402
 20
-283.35684
 11
121.80329
 21
-235.15686
  0
LINE
  8
0
  6
CONTINUOUS
 62
     7
 10
62.827105
 20
-283.35684
 11
111.02699
 21
-235.15686
  0
LINE
  8
0
  6
CONTINUOUS
 62
     7
 10
52.050809
 20
-283.35684
 11
100.25069
 21
-235.15686
  0
LINE
  8
0
  6
CONTINUOUS
 62
     7
 10
41.274513
 20
-283.35684
 11
89.474398
 21
-235.15686
  0
LINE
  8
0
  6
CONTINUOUS
 62
     7
 10
30.498216
 20
-283.35684
 11
78.698101
 21
-235.15686
  0
LINE
  8
0
  6
CONTINUOUS
 62
     7
 10
19.72192
 20
-283.35684
 11
67.921805
 21
-235.15686
  0
LINE
  8
0
  6
CONTINUOUS
 62
     7
 10
8.9456233
 20
-283.35684
 11
57.145509
 21
-235.15686
  0
LINE
  8
0
  6
CONTINUOUS
 62
     7
 10
-1.8306731
 20
-283.35684
 11
46.369212
 21
-235.15686
  0
LINE
  8
0
  6
CONTINUOUS
 62
     7
 10
-12.606969
 20
-283.35684
 11
35.592916
 21
-235.15686
  0
LINE
  8
0
  6
CONTINUOUS
 62
     7
 10
-23.383266
 20
-283.35684
 11
24.816619
 21
-235.15686
  0
LINE
  8
0
  6
CONTINUOUS
 62
     7
 10
-34.159562
 20
-283.35684
 11
14.040323
 21
-235.15686
  0
LINE
  8
0
  6
CONTINUOUS
 62
     7
 10
-44.935859
 20
-283.35684
 11
3.2640266
 21
-235.15686
  0
LINE
  8
0
  6
CONTINUOUS
 62
     7
 10
-55.712155
 20
-283.35684
 11
-7.5122698
 21
-235.15686
  0
LINE
  8
0
  6
CONTINUOUS
 62
     7
 10
-66.488452
 20
-283.35684
 11
-18.288566
 21
-235.15686
  0
LINE
  8
0
  6
CONTINUOUS
 62
     7
 10
-77.264748
 20
-283.35684
 11
-29.064863
 21
-235.15686
  0
LINE
  8
0
  6
CONTINUOUS
 62
     7
 10
-88.041044
 20
-283.35684
 11
-39.841159
 21
-235.15686
  0
LINE
  8
0
  6
CONTINUOUS
 62
     7
 10
-98.817341
 20
-283.35684
 11
-50.617455
 21
-235.15686
  0
LINE
  8
0
  6
CONTINUOUS
 62
     7
 10
-109.59364
 20
-283.35684
 11
-61.393752
 21
-235.15686
  0
LINE
  8
0
  6
CONTINUOUS
 62
     7
 10
-120.36993
 20
-283.35684
 11
-72.170048
 21
-235.15686
  0
LINE
  8
0
  6
CONTINUOUS
 62
     7
 10
-131.14623
 20
-283.35684
 11
-82.946345
 21
-235.15686
  0
LINE
  8
0
  6
CONTINUOUS
 62
     7
 10
-141.92253
 20
-283.35684
 11
-93.722641
 21
-235.15686
  0
LINE
  8
0
  6
CONTINUOUS
 62
     7
 10
-152.69882
 20
-283.35684
 11
-104.49894
 21
-235.15686
  0
LINE
  8
0
  6
CONTINUOUS
 62
     7
 10
-163.47512
 20
-283.35684
 11
-115.27523
 21
-235.15686
  0
LINE
  8
0
  6
CONTINUOUS
 62
     7
 10
-174.25142
 20
-283.35684
 11
-126.05153
 21
-235.15686
  0
LINE
  8
0
  6
CONTINUOUS
 62
     7
 10
-180.52991
 20
-278.85903
 11
-136.82783
 21
-235.15686
  0
LINE
  8
0
  6
CONTINUOUS
 62
     7
 10
-180.52991
 20
-268.08271
 11
-147.60412
 21
-235.15686
  0
LINE
  8
0
  6
CONTINUOUS
 62
     7
 10
-180.52991
 20
-257.30639
 11
-158.38042
 21
-235.15686
  0
LINE
  8
0
  6
CONTINUOUS
 62
     7
 10
-180.52991
 20
-246.53007
 11
-169.15672
 21
-235.15686
  0
LINE
  8
0
  6
CONTINUOUS
 62
     7
 10
-180.52991
 20
-235.75376
 11
-179.93301
 21
-235.15686
  0
LINE
  8
0
  6
CONTINUOUS
 62
     7
 10
200.22488
 20
-283.35684
 11
201.47009
 21
-282.11163
  0
LINE
  8
0
  6
CONTINUOUS
 62
     7
 10
189.44859
 20
-283.35684
 11
201.47009
 21
-271.33531
  0
LINE
  8
0
  6
CONTINUOUS
 62
     7
 10
178.67229
 20
-283.35684
 11
201.47009
 21
-260.559
  0
LINE
  8
0
  6
CONTINUOUS
 62
     7
 10
167.896
 20
-283.35684
 11
201.47009
 21
-249.78268
  0
LINE
  8
0
  6
CONTINUOUS
 62
     7
 10
157.1197
 20
-283.35684
 11
201.47009
 21
-239.00636
  0
LINE
  8
0
  6
CONTINUOUS
 62
     7
 10
146.3434
 20
-283.35684
 11
194.54329
 21
-235.15686
  0
LINE
  8
0
  6
CONTINUOUS
 62
     7
 10
135.56711
 20
-283.35684
 11
183.76699
 21
-235.15686
  0
LINE
  8
0
  6
CONTINUOUS
 62
     7
 10
124.79081
 20
-283.35684
 11
172.9907
 21
-235.15686
  0
LINE
  8
0
  6
CONTINUOUS
 62
     7
 10
114.01451
 20
-283.35684
 11
162.2144
 21
-235.15686
  0
LINE
  8
0
  6
CONTINUOUS
 62
     7
 10
103.23822
 20
-283.35684
 11
151.4381
 21
-235.15686
  0
LINE
  8
0
  6
CONTINUOUS
 62
     7
 10
92.46192
 20
-283.35684
 11
140.66181
 21
-235.15686
  0
LINE
  8
0
  6
CONTINUOUS
 62
     7
 10
81.685624
 20
-283.35684
 11
129.88551
 21
-235.15686
  0
LINE
  8
0
  6
CONTINUOUS
 62
     7
 10
70.909328
 20
-283.35684
 11
119.10921
 21
-235.15686
  0
LINE
  8
0
  6
CONTINUOUS
 62
     7
 10
60.133031
 20
-283.35684
 11
108.33292
 21
-235.15686
  0
LINE
  8
0
  6
CONTINUOUS
 62
     7
 10
49.356735
 20
-283.35684
 11
97.55662
 21
-235.15686
  0
LINE
  8
0
  6
CONTINUOUS
 62
     7
 10
38.580438
 20
-283.35684
 11
86.780324
 21
-235.15686
  0
LINE
  8
0
  6
CONTINUOUS
 62
     7
 10
27.804142
 20
-283.35684
 11
76.004027
 21
-235.15686
  0
LINE
  8
0
  6
CONTINUOUS
 62
     7
 10
17.027846
 20
-283.35684
 11
65.227731
 21
-235.15686
  0
LINE
  8
0
  6
CONTINUOUS
 62
     7
 10
6.2515492
 20
-283.35684
 11
54.451435
 21
-235.15686
  0
LINE
  8
0
  6
CONTINUOUS
 62
     7
 10
-4.5247472
 20
-283.35684
 11
43.675138
 21
-235.15686
  0
LINE
  8
0
  6
CONTINUOUS
 62
     7
 10
-15.301044
 20
-283.35684
 11
32.898842
 21
-235.15686
  0
LINE
  8
0
  6
CONTINUOUS
 62
     7
 10
-26.07734
 20
-283.35684
 11
22.122545
 21
-235.15686
  0
LINE
  8
0
  6
CONTINUOUS
 62
     7
 10
-36.853636
 20
-283.35684
 11
11.346249
 21
-235.15686
  0
LINE
  8
0
  6
CONTINUOUS
 62
     7
 10
-47.629933
 20
-283.35684
 11
0.56995249
 21
-235.15686
  0
LINE
  8
0
  6
CONTINUOUS
 62
     7
 10
-58.406229
 20
-283.35684
 11
-10.206344
 21
-235.15686
  0
LINE
  8
0
  6
CONTINUOUS
 62
     7
 10
-69.182526
 20
-283.35684
 11
-20.98264
 21
-235.15686
  0
LINE
  8
0
  6
CONTINUOUS
 62
     7
 10
-79.958822
 20
-283.35684
 11
-31.758937
 21
-235.15686
  0
LINE
  8
0
  6
CONTINUOUS
 62
     7
 10
-90.735118
 20
-283.35684
 11
-42.535233
 21
-235.15686
  0
LINE
  8
0
  6
CONTINUOUS
 62
     7
 10
-101.51141
 20
-283.35684
 11
-53.31153
 21
-235.15686
  0
LINE
  8
0
  6
CONTINUOUS
 62
     7
 10
-112.28771
 20
-283.35684
 11
-64.087826
 21
-235.15686
  0
LINE
  8
0
  6
CONTINUOUS
 62
     7
 10
-123.06401
 20
-283.35684
 11
-74.864122
 21
-235.15686
  0
LINE
  8
0
  6
CONTINUOUS
 62
     7
 10
-133.8403
 20
-283.35684
 11
-85.640419
 21
-235.15686
  0
LINE
  8
0
  6
CONTINUOUS
 62
     7
 10
-144.6166
 20
-283.35684
 11
-96.416715
 21
-235.15686
  0
LINE
  8
0
  6
CONTINUOUS
 62
     7
 10
-155.3929
 20
-283.35684
 11
-107.19301
 21
-235.15686
  0
LINE
  8
0
  6
CONTINUOUS
 62
     7
 10
-166.16919
 20
-283.35684
 11
-117.96931
 21
-235.15686
  0
LINE
  8
0
  6
CONTINUOUS
 62
     7
 10
-176.94549
 20
-283.35684
 11
-128.7456
 21
-235.15686
  0
LINE
  8
0
  6
CONTINUOUS
 62
     7
 10
-180.52991
 20
-276.16495
 11
-139.5219
 21
-235.15686
  0
LINE
  8
0
  6
CONTINUOUS
 62
     7
 10
-180.52991
 20
-265.38863
 11
-150.2982
 21
-235.15686
  0
LINE
  8
0
  6
CONTINUOUS
 62
     7
 10
-180.52991
 20
-254.61231
 11
-161.07449
 21
-235.15686
  0
LINE
  8
0
  6
CONTINUOUS
 62
     7
 10
-180.52991
 20
-243.83599
 11
-171.85079
 21
-235.15686
  0
LINE
  8
0
  6
CONTINUOUS
 62
     7
 10
197.53081
 20
-283.35684
 11
201.47009
 21
-279.41755
  0
LINE
  8
0
  6
CONTINUOUS
 62
     7
 10
186.75451
 20
-283.35684
 11
201.47009
 21
-268.64123
  0
LINE
  8
0
  6
CONTINUOUS
 62
     7
 10
175.97822
 20
-283.35684
 11
201.47009
 21
-257.86492
  0
LINE
  8
0
  6
CONTINUOUS
 62
     7
 10
165.20192
 20
-283.35684
 11
201.47009
 21
-247.0886
  0
LINE
  8
0
  6
CONTINUOUS
 62
     7
 10
154.42562
 20
-283.35684
 11
201.47009
 21
-236.31228
  0
LINE
  8
0
  6
CONTINUOUS
 62
     7
 10
143.64933
 20
-283.35684
 11
191.84921
 21
-235.15686
  0
LINE
  8
0
  6
CONTINUOUS
 62
     7
 10
132.87303
 20
-283.35684
 11
181.07292
 21
-235.15686
  0
LINE
  8
0
  6
CONTINUOUS
 62
     7
 10
122.09674
 20
-283.35684
 11
170.29662
 21
-235.15686
  0
LINE
  8
0
  6
CONTINUOUS
 62
     7
 10
111.32044
 20
-283.35684
 11
159.52032
 21
-235.15686
  0
LINE
  8
0
  6
CONTINUOUS
 62
     7
 10
100.54414
 20
-283.35684
 11
148.74403
 21
-235.15686
  0
LINE
  8
0
  6
CONTINUOUS
 62
     7
 10
89.767846
 20
-283.35684
 11
137.96773
 21
-235.15686
  0
LINE
  8
0
  6
CONTINUOUS
 62
     7
 10
78.99155
 20
-283.35684
 11
127.19144
 21
-235.15686
  0
LINE
  8
0
  6
CONTINUOUS
 62
     7
 10
68.215253
 20
-283.35684
 11
116.41514
 21
-235.15686
  0
LINE
  8
0
  6
CONTINUOUS
 62
     7
 10
57.438957
 20
-283.35684
 11
105.63884
 21
-235.15686
  0
LINE
  8
0
  6
CONTINUOUS
 62
     7
 10
46.662661
 20
-283.35684
 11
94.862546
 21
-235.15686
  0
LINE
  8
0
  6
CONTINUOUS
 62
     7
 10
35.886364
 20
-283.35684
 11
84.086249
 21
-235.15686
  0
LINE
  8
0
  6
CONTINUOUS
 62
     7
 10
25.110068
 20
-283.35684
 11
73.309953
 21
-235.15686
  0
LINE
  8
0
  6
CONTINUOUS
 62
     7
 10
14.333771
 20
-283.35684
 11
62.533657
 21
-235.15686
  0
LINE
  8
0
  6
CONTINUOUS
 62
     7
 10
3.557475
 20
-283.35684
 11
51.75736
 21
-235.15686
  0
LINE
  8
0
  6
CONTINUOUS
 62
     7
 10
-7.2188214
 20
-283.35684
 11
40.981064
 21
-235.15686
  0
LINE
  8
0
  6
CONTINUOUS
 62
     7
 10
-17.995118
 20
-283.35684
 11
30.204767
 21
-235.15686
  0
LINE
  8
0
  6
CONTINUOUS
 62
     7
 10
-28.771414
 20
-283.35684
 11
19.428471
 21
-235.15686
  0
LINE
  8
0
  6
CONTINUOUS
 62
     7
 10
-39.547711
 20
-283.35684
 11
8.6521746
 21
-235.15686
  0
LINE
  8
0
  6
CONTINUOUS
 62
     7
 10
-50.324007
 20
-283.35684
 11
-2.1241218
 21
-235.15686
  0
LINE
  8
0
  6
CONTINUOUS
 62
     7
 10
-61.100303
 20
-283.35684
 11
-12.900418
 21
-235.15686
  0
LINE
  8
0
  6
CONTINUOUS
 62
     7
 10
-71.8766
 20
-283.35684
 11
-23.676715
 21
-235.15686
  0
LINE
  8
0
  6
CONTINUOUS
 62
     7
 10
-82.652896
 20
-283.35684
 11
-34.453011
 21
-235.15686
  0
LINE
  8
0
  6
CONTINUOUS
 62
     7
 10
-93.429193
 20
-283.35684
 11
-45.229307
 21
-235.15686
  0
LINE
  8
0
  6
CONTINUOUS
 62
     7
 10
-104.20549
 20
-283.35684
 11
-56.005604
 21
-235.15686
  0
LINE
  8
0
  6
CONTINUOUS
 62
     7
 10
-114.98179
 20
-283.35684
 11
-66.7819
 21
-235.15686
  0
LINE
  8
0
  6
CONTINUOUS
 62
     7
 10
-125.75808
 20
-283.35684
 11
-77.558197
 21
-235.15686
  0
LINE
  8
0
  6
CONTINUOUS
 62
     7
 10
-136.53438
 20
-283.35684
 11
-88.334493
 21
-235.15686
  0
LINE
  8
0
  6
CONTINUOUS
 62
     7
 10
-147.31067
 20
-283.35684
 11
-99.110789
 21
-235.15686
  0
LINE
  8
0
  6
CONTINUOUS
 62
     7
 10
-158.08697
 20
-283.35684
 11
-109.88709
 21
-235.15686
  0
LINE
  8
0
  6
CONTINUOUS
 62
     7
 10
-168.86327
 20
-283.35684
 11
-120.66338
 21
-235.15686
  0
LINE
  8
0
  6
CONTINUOUS
 62
     7
 10
-179.63956
 20
-283.35684
 11
-131.43968
 21
-235.15686
  0
LINE
  8
0
  6
CONTINUOUS
 62
     7
 10
-180.52991
 20
-273.47087
 11
-142.21598
 21
-235.15686
  0
LINE
  8
0
  6
CONTINUOUS
 62
     7
 10
-180.52991
 20
-262.69455
 11
-152.99227
 21
-235.15686
  0
LINE
  8
0
  6
CONTINUOUS
 62
     7
 10
-180.52991
 20
-251.91823
 11
-163.76857
 21
-235.15686
  0
LINE
  8
0
  6
CONTINUOUS
 62
     7
 10
-180.52991
 20
-241.14192
 11
-174.54486
 21
-235.15686
  0
LINE
  8
0
  6
CONTINUOUS
 62
     7
 10
-180.52991
 20
-276.08087
 11
-173.25392
 21
-283.35684
  0
LINE
  8
0
  6
CONTINUOUS
 62
     7
 10
-180.52991
 20
-265.30458
 11
-162.47761
 21
-283.35684
  0
LINE
  8
0
  6
CONTINUOUS
 62
     7
 10
-180.52991
 20
-254.52828
 11
-151.70129
 21
-283.35684
  0
LINE
  8
0
  6
CONTINUOUS
 62
     7
 10
-180.52991
 20
-243.75198
 11
-140.92497
 21
-283.35684
  0
LINE
  8
0
  6
CONTINUOUS
 62
     7
 10
-178.34873
 20
-235.15686
 11
-130.14865
 21
-283.35684
  0
LINE
  8
0
  6
CONTINUOUS
 62
     7
 10
-167.57241
 20
-235.15686
 11
-119.37233
 21
-283.35684
  0
LINE
  8
0
  6
CONTINUOUS
 62
     7
 10
-156.79609
 20
-235.15686
 11
-108.59602
 21
-283.35684
  0
LINE
  8
0
  6
CONTINUOUS
 62
     7
 10
-146.01978
 20
-235.15686
 11
-97.819698
 21
-283.35684
  0
LINE
  8
0
  6
CONTINUOUS
 62
     7
 10
-135.24346
 20
-235.15686
 11
-87.04338
 21
-283.35684
  0
LINE
  8
0
  6
CONTINUOUS
 62
     7
 10
-124.46714
 20
-235.15686
 11
-76.267062
 21
-283.35684
  0
LINE
  8
0
  6
CONTINUOUS
 62
     7
 10
-113.69082
 20
-235.15686
 11
-65.490744
 21
-283.35684
  0
LINE
  8
0
  6
CONTINUOUS
 62
     7
 10
-102.9145
 20
-235.15686
 11
-54.714426
 21
-283.35684
  0
LINE
  8
0
  6
CONTINUOUS
 62
     7
 10
-92.138186
 20
-235.15686
 11
-43.938108
 21
-283.35684
  0
LINE
  8
0
  6
CONTINUOUS
 62
     7
 10
-81.361868
 20
-235.15686
 11
-33.16179
 21
-283.35684
  0
LINE
  8
0
  6
CONTINUOUS
 62
     7
 10
-70.58555
 20
-235.15686
 11
-22.385472
 21
-283.35684
  0
LINE
  8
0
  6
CONTINUOUS
 62
     7
 10
-59.809232
 20
-235.15686
 11
-11.609154
 21
-283.35684
  0
LINE
  8
0
  6
CONTINUOUS
 62
     7
 10
-49.032914
 20
-235.15686
 11
-0.83283614
 21
-283.35684
  0
LINE
  8
0
  6
CONTINUOUS
 62
     7
 10
-38.256596
 20
-235.15686
 11
9.9434818
 21
-283.35684
  0
LINE
  8
0
  6
CONTINUOUS
 62
     7
 10
-27.480278
 20
-235.15686
 11
20.7198
 21
-283.35684
  0
LINE
  8
0
  6
CONTINUOUS
 62
     7
 10
-16.70396
 20
-235.15686
 11
31.496118
 21
-283.35684
  0
LINE
  8
0
  6
CONTINUOUS
 62
     7
 10
-5.9276424
 20
-235.15686
 11
42.272436
 21
-283.35684
  0
LINE
  8
0
  6
CONTINUOUS
 62
     7
 10
4.8486756
 20
-235.15686
 11
53.048754
 21
-283.35684
  0
LINE
  8
0
  6
CONTINUOUS
 62
     7
 10
15.624994
 20
-235.15686
 11
63.825072
 21
-283.35684
  0
LINE
  8
0
  6
CONTINUOUS
 62
     7
 10
26.401311
 20
-235.15686
 11
74.60139
 21
-283.35684
  0
LINE
  8
0
  6
CONTINUOUS
 62
     7
 10
37.177629
 20
-235.15686
 11
85.377708
 21
-283.35684
  0
LINE
  8
0
  6
CONTINUOUS
 62
     7
 10
47.953947
 20
-235.15686
 11
96.154025
 21
-283.35684
  0
LINE
  8
0
  6
CONTINUOUS
 62
     7
 10
58.730265
 20
-235.15686
 11
106.93034
 21
-283.35684
  0
LINE
  8
0
  6
CONTINUOUS
 62
     7
 10
69.506583
 20
-235.15686
 11
117.70666
 21
-283.35684
  0
LINE
  8
0
  6
CONTINUOUS
 62
     7
 10
80.282901
 20
-235.15686
 11
128.48298
 21
-283.35684
  0
LINE
  8
0
  6
CONTINUOUS
 62
     7
 10
91.059219
 20
-235.15686
 11
139.2593
 21
-283.35684
  0
LINE
  8
0
  6
CONTINUOUS
 62
     7
 10
101.83554
 20
-235.15686
 11
150.03562
 21
-283.35684
  0
LINE
  8
0
  6
CONTINUOUS
 62
     7
 10
112.61186
 20
-235.15686
 11
160.81193
 21
-283.35684
  0
LINE
  8
0
  6
CONTINUOUS
 62
     7
 10
123.38817
 20
-235.15686
 11
171.58825
 21
-283.35684
  0
LINE
  8
0
  6
CONTINUOUS
 62
     7
 10
134.16449
 20
-235.15686
 11
182.36457
 21
-283.35684
  0
LINE
  8
0
  6
CONTINUOUS
 62
     7
 10
144.94081
 20
-235.15686
 11
193.14089
 21
-283.35684
  0
LINE
  8
0
  6
CONTINUOUS
 62
     7
 10
155.71713
 20
-235.15686
 11
201.47009
 21
-280.90973
  0
LINE
  8
0
  6
CONTINUOUS
 62
     7
 10
166.49344
 20
-235.15686
 11
201.47009
 21
-270.13344
  0
LINE
  8
0
  6
CONTINUOUS
 62
     7
 10
177.26976
 20
-235.15686
 11
201.47009
 21
-259.35714
  0
LINE
  8
0
  6
CONTINUOUS
 62
     7
 10
188.04608
 20
-235.15686
 11
201.47009
 21
-248.58085
  0
LINE
  8
0
  6
CONTINUOUS
 62
     7
 10
198.8224
 20
-235.15686
 11
201.47009
 21
-237.80455
  0
LINE
  8
0
  6
CONTINUOUS
 62
     7
 10
-180.52991
 20
-273.3868
 11
-170.55984
 21
-283.35684
  0
LINE
  8
0
  6
CONTINUOUS
 62
     7
 10
-180.52991
 20
-262.6105
 11
-159.78353
 21
-283.35684
  0
LINE
  8
0
  6
CONTINUOUS
 62
     7
 10
-180.52991
 20
-251.83421
 11
-149.00721
 21
-283.35684
  0
LINE
  8
0
  6
CONTINUOUS
 62
     7
 10
-180.52991
 20
-241.05791
 11
-138.23089
 21
-283.35684
  0
LINE
  8
0
  6
CONTINUOUS
 62
     7
 10
-175.65465
 20
-235.15686
 11
-127.45457
 21
-283.35684
  0
LINE
  8
0
  6
CONTINUOUS
 62
     7
 10
-164.87833
 20
-235.15686
 11
-116.67825
 21
-283.35684
  0
LINE
  8
0
  6
CONTINUOUS
 62
     7
 10
-154.10201
 20
-235.15686
 11
-105.90194
 21
-283.35684
  0
LINE
  8
0
  6
CONTINUOUS
 62
     7
 10
-143.3257
 20
-235.15686
 11
-95.125618
 21
-283.35684
  0
LINE
  8
0
  6
CONTINUOUS
 62
     7
 10
-132.54938
 20
-235.15686
 11
-84.3493
 21
-283.35684
  0
LINE
  8
0
  6
CONTINUOUS
 62
     7
 10
-121.77306
 20
-235.15686
 11
-73.572982
 21
-283.35684
  0
LINE
  8
0
  6
CONTINUOUS
 62
     7
 10
-110.99674
 20
-235.15686
 11
-62.796664
 21
-283.35684
  0
LINE
  8
0
  6
CONTINUOUS
 62
     7
 10
-100.22042
 20
-235.15686
 11
-52.020346
 21
-283.35684
  0
LINE
  8
0
  6
CONTINUOUS
 62
     7
 10
-89.444106
 20
-235.15686
 11
-41.244028
 21
-283.35684
  0
LINE
  8
0
  6
CONTINUOUS
 62
     7
 10
-78.667788
 20
-235.15686
 11
-30.46771
 21
-283.35684
  0
LINE
  8
0
  6
CONTINUOUS
 62
     7
 10
-67.89147
 20
-235.15686
 11
-19.691392
 21
-283.35684
  0
LINE
  8
0
  6
CONTINUOUS
 62
     7
 10
-57.115153
 20
-235.15686
 11
-8.9150744
 21
-283.35684
  0
LINE
  8
0
  6
CONTINUOUS
 62
     7
 10
-46.338835
 20
-235.15686
 11
1.8612435
 21
-283.35684
  0
LINE
  8
0
  6
CONTINUOUS
 62
     7
 10
-35.562517
 20
-235.15686
 11
12.637561
 21
-283.35684
  0
LINE
  8
0
  6
CONTINUOUS
 62
     7
 10
-24.786199
 20
-235.15686
 11
23.413879
 21
-283.35684
  0
LINE
  8
0
  6
CONTINUOUS
 62
     7
 10
-14.009881
 20
-235.15686
 11
34.190197
 21
-283.35684
  0
LINE
  8
0
  6
CONTINUOUS
 62
     7
 10
-3.2335627
 20
-235.15686
 11
44.966515
 21
-283.35684
  0
LINE
  8
0
  6
CONTINUOUS
 62
     7
 10
7.5427552
 20
-235.15686
 11
55.742833
 21
-283.35684
  0
LINE
  8
0
  6
CONTINUOUS
 62
     7
 10
18.319073
 20
-235.15686
 11
66.519151
 21
-283.35684
  0
LINE
  8
0
  6
CONTINUOUS
 62
     7
 10
29.095391
 20
-235.15686
 11
77.295469
 21
-283.35684
  0
LINE
  8
0
  6
CONTINUOUS
 62
     7
 10
39.871709
 20
-235.15686
 11
88.071787
 21
-283.35684
  0
LINE
  8
0
  6
CONTINUOUS
 62
     7
 10
50.648027
 20
-235.15686
 11
98.848105
 21
-283.35684
  0
LINE
  8
0
  6
CONTINUOUS
 62
     7
 10
61.424345
 20
-235.15686
 11
109.62442
 21
-283.35684
  0
LINE
  8
0
  6
CONTINUOUS
 62
     7
 10
72.200663
 20
-235.15686
 11
120.40074
 21
-283.35684
  0
LINE
  8
0
  6
CONTINUOUS
 62
     7
 10
82.976981
 20
-235.15686
 11
131.17706
 21
-283.35684
  0
LINE
  8
0
  6
CONTINUOUS
 62
     7
 10
93.753299
 20
-235.15686
 11
141.95338
 21
-283.35684
  0
LINE
  8
0
  6
CONTINUOUS
 62
     7
 10
104.52962
 20
-235.15686
 11
152.72969
 21
-283.35684
  0
LINE
  8
0
  6
CONTINUOUS
 62
     7
 10
115.30593
 20
-235.15686
 11
163.50601
 21
-283.35684
  0
LINE
  8
0
  6
CONTINUOUS
 62
     7
 10
126.08225
 20
-235.15686
 11
174.28233
 21
-283.35684
  0
LINE
  8
0
  6
CONTINUOUS
 62
     7
 10
136.85857
 20
-235.15686
 11
185.05865
 21
-283.35684
  0
LINE
  8
0
  6
CONTINUOUS
 62
     7
 10
147.63489
 20
-235.15686
 11
195.83497
 21
-283.35684
  0
LINE
  8
0
  6
CONTINUOUS
 62
     7
 10
158.41121
 20
-235.15686
 11
201.47009
 21
-278.21566
  0
LINE
  8
0
  6
CONTINUOUS
 62
     7
 10
169.18752
 20
-235.15686
 11
201.47009
 21
-267.43936
  0
LINE
  8
0
  6
CONTINUOUS
 62
     7
 10
179.96384
 20
-235.15686
 11
201.47009
 21
-256.66307
  0
LINE
  8
0
  6
CONTINUOUS
 62
     7
 10
190.74016
 20
-235.15686
 11
201.47009
 21
-245.88677
  0
LINE
  8
0
  6
CONTINUOUS
 62
     7
 10
-180.52991
 20
-281.46902
 11
-178.64208
 21
-283.35684
  0
LINE
  8
0
  6
CONTINUOUS
 62
     7
 10
-180.52991
 20
-270.69272
 11
-167.86576
 21
-283.35684
  0
LINE
  8
0
  6
CONTINUOUS
 62
     7
 10
-180.52991
 20
-259.91643
 11
-157.08945
 21
-283.35684
  0
LINE
  8
0
  6
CONTINUOUS
 62
     7
 10
-180.52991
 20
-249.14013
 11
-146.31313
 21
-283.35684
  0
LINE
  8
0
  6
CONTINUOUS
 62
     7
 10
-180.52991
 20
-238.36384
 11
-135.53681
 21
-283.35684
  0
LINE
  8
0
  6
CONTINUOUS
 62
     7
 10
-172.96057
 20
-235.15686
 11
-124.76049
 21
-283.35684
  0
LINE
  8
0
  6
CONTINUOUS
 62
     7
 10
-162.18425
 20
-235.15686
 11
-113.98417
 21
-283.35684
  0
LINE
  8
0
  6
CONTINUOUS
 62
     7
 10
-151.40793
 20
-235.15686
 11
-103.20786
 21
-283.35684
  0
LINE
  8
0
  6
CONTINUOUS
 62
     7
 10
-140.63162
 20
-235.15686
 11
-92.431539
 21
-283.35684
  0
LINE
  8
0
  6
CONTINUOUS
 62
     7
 10
-129.8553
 20
-235.15686
 11
-81.655221
 21
-283.35684
  0
LINE
  8
0
  6
CONTINUOUS
 62
     7
 10
-119.07898
 20
-235.15686
 11
-70.878903
 21
-283.35684
  0
LINE
  8
0
  6
CONTINUOUS
 62
     7
 10
-108.30266
 20
-235.15686
 11
-60.102585
 21
-283.35684
  0
LINE
  8
0
  6
CONTINUOUS
 62
     7
 10
-97.526345
 20
-235.15686
 11
-49.326267
 21
-283.35684
  0
LINE
  8
0
  6
CONTINUOUS
 62
     7
 10
-86.750027
 20
-235.15686
 11
-38.549949
 21
-283.35684
  0
LINE
  8
0
  6
CONTINUOUS
 62
     7
 10
-75.973709
 20
-235.15686
 11
-27.773631
 21
-283.35684
  0
LINE
  8
0
  6
CONTINUOUS
 62
     7
 10
-65.197391
 20
-235.15686
 11
-16.997313
 21
-283.35684
  0
LINE
  8
0
  6
CONTINUOUS
 62
     7
 10
-54.421073
 20
-235.15686
 11
-6.220995
 21
-283.35684
  0
LINE
  8
0
  6
CONTINUOUS
 62
     7
 10
-43.644755
 20
-235.15686
 11
4.555323
 21
-283.35684
  0
LINE
  8
0
  6
CONTINUOUS
 62
     7
 10
-32.868437
 20
-235.15686
 11
15.331641
 21
-283.35684
  0
LINE
  8
0
  6
CONTINUOUS
 62
     7
 10
-22.092119
 20
-235.15686
 11
26.107959
 21
-283.35684
  0
LINE
  8
0
  6
CONTINUOUS
 62
     7
 10
-11.315801
 20
-235.15686
 11
36.884277
 21
-283.35684
  0
LINE
  8
0
  6
CONTINUOUS
 62
     7
 10
-0.53948324
 20
-235.15686
 11
47.660595
 21
-283.35684
  0
LINE
  8
0
  6
CONTINUOUS
 62
     7
 10
10.236835
 20
-235.15686
 11
58.436913
 21
-283.35684
  0
LINE
  8
0
  6
CONTINUOUS
 62
     7
 10
21.013153
 20
-235.15686
 11
69.213231
 21
-283.35684
  0
LINE
  8
0
  6
CONTINUOUS
 62
     7
 10
31.789471
 20
-235.15686
 11
79.989549
 21
-283.35684
  0
LINE
  8
0
  6
CONTINUOUS
 62
     7
 10
42.565789
 20
-235.15686
 11
90.765867
 21
-283.35684
  0
LINE
  8
0
  6
CONTINUOUS
 62
     7
 10
53.342107
 20
-235.15686
 11
101.54218
 21
-283.35684
  0
LINE
  8
0
  6
CONTINUOUS
 62
     7
 10
64.118425
 20
-235.15686
 11
112.3185
 21
-283.35684
  0
LINE
  8
0
  6
CONTINUOUS
 62
     7
 10
74.894742
 20
-235.15686
 11
123.09482
 21
-283.35684
  0
LINE
  8
0
  6
CONTINUOUS
 62
     7
 10
85.67106
 20
-235.15686
 11
133.87114
 21
-283.35684
  0
LINE
  8
0
  6
CONTINUOUS
 62
     7
 10
96.447378
 20
-235.15686
 11
144.64746
 21
-283.35684
  0
LINE
  8
0
  6
CONTINUOUS
 62
     7
 10
107.2237
 20
-235.15686
 11
155.42377
 21
-283.35684
  0
LINE
  8
0
  6
CONTINUOUS
 62
     7
 10
118.00001
 20
-235.15686
 11
166.20009
 21
-283.35684
  0
LINE
  8
0
  6
CONTINUOUS
 62
     7
 10
128.77633
 20
-235.15686
 11
176.97641
 21
-283.35684
  0
LINE
  8
0
  6
CONTINUOUS
 62
     7
 10
139.55265
 20
-235.15686
 11
187.75273
 21
-283.35684
  0
LINE
  8
0
  6
CONTINUOUS
 62
     7
 10
150.32897
 20
-235.15686
 11
198.52905
 21
-283.35684
  0
LINE
  8
0
  6
CONTINUOUS
 62
     7
 10
161.10529
 20
-235.15686
 11
201.47009
 21
-275.52159
  0
LINE
  8
0
  6
CONTINUOUS
 62
     7
 10
171.8816
 20
-235.15686
 11
201.47009
 21
-264.74529
  0
LINE
  8
0
  6
CONTINUOUS
 62
     7
 10
182.65792
 20
-235.15686
 11
201.47009
 21
-253.96899
  0
LINE
  8
0
  6
CONTINUOUS
 62
     7
 10
193.43424
 20
-235.15686
 11
201.47009
 21
-243.1927
  0
LINE
  8
0
  6
CONTINUOUS
 62
     7
 10
-180.52991
 20
-278.77495
 11
-175.948
 21
-283.35684
  0
LINE
  8
0
  6
CONTINUOUS
 62
     7
 10
-180.52991
 20
-267.99865
 11
-165.17168
 21
-283.35684
  0
LINE
  8
0
  6
CONTINUOUS
 62
     7
 10
-180.52991
 20
-257.22235
 11
-154.39537
 21
-283.35684
  0
LINE
  8
0
  6
CONTINUOUS
 62
     7
 10
-180.52991
 20
-246.44606
 11
-143.61905
 21
-283.35684
  0
LINE
  8
0
  6
CONTINUOUS
 62
     7
 10
-180.52991
 20
-235.66976
 11
-132.84273
 21
-283.35684
  0
LINE
  8
0
  6
CONTINUOUS
 62
     7
 10
-170.26649
 20
-235.15686
 11
-122.06641
 21
-283.35684
  0
LINE
  8
0
  6
CONTINUOUS
 62
     7
 10
-159.49017
 20
-235.15686
 11
-111.29009
 21
-283.35684
  0
LINE
  8
0
  6
CONTINUOUS
 62
     7
 10
-148.71386
 20
-235.15686
 11
-100.51378
 21
-283.35684
  0
LINE
  8
0
  6
CONTINUOUS
 62
     7
 10
-137.93754
 20
-235.15686
 11
-89.737459
 21
-283.35684
  0
LINE
  8
0
  6
CONTINUOUS
 62
     7
 10
-127.16122
 20
-235.15686
 11
-78.961141
 21
-283.35684
  0
LINE
  8
0
  6
CONTINUOUS
 62
     7
 10
-116.3849
 20
-235.15686
 11
-68.184823
 21
-283.35684
  0
LINE
  8
0
  6
CONTINUOUS
 62
     7
 10
-105.60858
 20
-235.15686
 11
-57.408505
 21
-283.35684
  0
LINE
  8
0
  6
CONTINUOUS
 62
     7
 10
-94.832265
 20
-235.15686
 11
-46.632187
 21
-283.35684
  0
LINE
  8
0
  6
CONTINUOUS
 62
     7
 10
-84.055947
 20
-235.15686
 11
-35.855869
 21
-283.35684
  0
LINE
  8
0
  6
CONTINUOUS
 62
     7
 10
-73.279629
 20
-235.15686
 11
-25.079551
 21
-283.35684
  0
LINE
  8
0
  6
CONTINUOUS
 62
     7
 10
-62.503311
 20
-235.15686
 11
-14.303233
 21
-283.35684
  0
LINE
  8
0
  6
CONTINUOUS
 62
     7
 10
-51.726993
 20
-235.15686
 11
-3.5269153
 21
-283.35684
  0
LINE
  8
0
  6
CONTINUOUS
 62
     7
 10
-40.950675
 20
-235.15686
 11
7.2494027
 21
-283.35684
  0
LINE
  8
0
  6
CONTINUOUS
 62
     7
 10
-30.174357
 20
-235.15686
 11
18.025721
 21
-283.35684
  0
LINE
  8
0
  6
CONTINUOUS
 62
     7
 10
-19.39804
 20
-235.15686
 11
28.802039
 21
-283.35684
  0
LINE
  8
0
  6
CONTINUOUS
 62
     7
 10
-8.6217215
 20
-235.15686
 11
39.578357
 21
-283.35684
  0
LINE
  8
0
  6
CONTINUOUS
 62
     7
 10
2.1545964
 20
-235.15686
 11
50.354675
 21
-283.35684
  0
LINE
  8
0
  6
CONTINUOUS
 62
     7
 10
12.930914
 20
-235.15686
 11
61.130992
 21
-283.35684
  0
LINE
  8
0
  6
CONTINUOUS
 62
     7
 10
23.707232
 20
-235.15686
 11
71.90731
 21
-283.35684
  0
LINE
  8
0
  6
CONTINUOUS
 62
     7
 10
34.48355
 20
-235.15686
 11
82.683628
 21
-283.35684
  0
LINE
  8
0
  6
CONTINUOUS
 62
     7
 10
45.259868
 20
-235.15686
 11
93.459946
 21
-283.35684
  0
LINE
  8
0
  6
CONTINUOUS
 62
     7
 10
56.036186
 20
-235.15686
 11
104.23626
 21
-283.35684
  0
LINE
  8
0
  6
CONTINUOUS
 62
     7
 10
66.812504
 20
-235.15686
 11
115.01258
 21
-283.35684
  0
LINE
  8
0
  6
CONTINUOUS
 62
     7
 10
77.588822
 20
-235.15686
 11
125.7889
 21
-283.35684
  0
LINE
  8
0
  6
CONTINUOUS
 62
     7
 10
88.36514
 20
-235.15686
 11
136.56522
 21
-283.35684
  0
LINE
  8
0
  6
CONTINUOUS
 62
     7
 10
99.141458
 20
-235.15686
 11
147.34154
 21
-283.35684
  0
LINE
  8
0
  6
CONTINUOUS
 62
     7
 10
109.91778
 20
-235.15686
 11
158.11785
 21
-283.35684
  0
LINE
  8
0
  6
CONTINUOUS
 62
     7
 10
120.69409
 20
-235.15686
 11
168.89417
 21
-283.35684
  0
LINE
  8
0
  6
CONTINUOUS
 62
     7
 10
131.47041
 20
-235.15686
 11
179.67049
 21
-283.35684
  0
LINE
  8
0
  6
CONTINUOUS
 62
     7
 10
142.24673
 20
-235.15686
 11
190.44681
 21
-283.35684
  0
LINE
  8
0
  6
CONTINUOUS
 62
     7
 10
153.02305
 20
-235.15686
 11
201.22313
 21
-283.35684
  0
LINE
  8
0
  6
CONTINUOUS
 62
     7
 10
163.79937
 20
-235.15686
 11
201.47009
 21
-272.82751
  0
LINE
  8
0
  6
CONTINUOUS
 62
     7
 10
174.57568
 20
-235.15686
 11
201.47009
 21
-262.05122
  0
LINE
  8
0
  6
CONTINUOUS
 62
     7
 10
185.352
 20
-235.15686
 11
201.47009
 21
-251.27492
  0
LINE
  8
0
  6
CONTINUOUS
 62
     7
 10
196.12832
 20
-235.15686
 11
201.47009
 21
-240.49862
  0
LINE
  8
0
  6
CONTINUOUS
 62
     7
 10
198.7868
 20
-419.4989
 11
199.47009
 21
-418.81561
  0
LINE
  8
0
  6
CONTINUOUS
 62
     7
 10
188.01051
 20
-419.4989
 11
199.47009
 21
-408.03929
  0
LINE
  8
0
  6
CONTINUOUS
 62
     7
 10
177.23421
 20
-419.4989
 11
199.47009
 21
-397.26297
  0
LINE
  8
0
  6
CONTINUOUS
 62
     7
 10
166.45791
 20
-419.4989
 11
199.47009
 21
-386.48666
  0
LINE
  8
0
  6
CONTINUOUS
 62
     7
 10
155.68162
 20
-419.4989
 11
199.47009
 21
-375.71034
  0
LINE
  8
0
  6
CONTINUOUS
 62
     7
 10
144.90532
 20
-419.4989
 11
199.47009
 21
-364.93402
  0
LINE
  8
0
  6
CONTINUOUS
 62
     7
 10
134.12902
 20
-419.4989
 11
190.72892
 21
-362.8989
  0
LINE
  8
0
  6
CONTINUOUS
 62
     7
 10
123.35273
 20
-419.4989
 11
179.95262
 21
-362.8989
  0
LINE
  8
0
  6
CONTINUOUS
 62
     7
 10
112.57643
 20
-419.4989
 11
169.17632
 21
-362.8989
  0
LINE
  8
0
  6
CONTINUOUS
 62
     7
 10
101.80014
 20
-419.4989
 11
158.40003
 21
-362.8989
  0
LINE
  8
0
  6
CONTINUOUS
 62
     7
 10
91.023839
 20
-419.4989
 11
147.62373
 21
-362.8989
  0
LINE
  8
0
  6
CONTINUOUS
 62
     7
 10
80.247542
 20
-419.4989
 11
136.84744
 21
-362.8989
  0
LINE
  8
0
  6
CONTINUOUS
 62
     7
 10
69.471246
 20
-419.4989
 11
126.07114
 21
-362.8989
  0
LINE
  8
0
  6
CONTINUOUS
 62
     7
 10
58.694949
 20
-419.4989
 11
115.29484
 21
-362.8989
  0
LINE
  8
0
  6
CONTINUOUS
 62
     7
 10
47.918653
 20
-419.4989
 11
104.51855
 21
-362.8989
  0
LINE
  8
0
  6
CONTINUOUS
 62
     7
 10
37.142357
 20
-419.4989
 11
93.74225
 21
-362.8989
  0
LINE
  8
0
  6
CONTINUOUS
 62
     7
 10
26.36606
 20
-419.4989
 11
82.965953
 21
-362.8989
  0
LINE
  8
0
  6
CONTINUOUS
 62
     7
 10
15.589764
 20
-419.4989
 11
72.189657
 21
-362.8989
  0
LINE
  8
0
  6
CONTINUOUS
 62
     7
 10
4.8134674
 20
-419.4989
 11
61.41336
 21
-362.8989
  0
LINE
  8
0
  6
CONTINUOUS
 62
     7
 10
-5.962829
 20
-419.4989
 11
50.637064
 21
-362.8989
  0
LINE
  8
0
  6
CONTINUOUS
 62
     7
 10
-16.739125
 20
-419.4989
 11
39.860768
 21
-362.8989
  0
LINE
  8
0
  6
CONTINUOUS
 62
     7
 10
-27.515422
 20
-419.4989
 11
29.084471
 21
-362.8989
  0
LINE
  8
0
  6
CONTINUOUS
 62
     7
 10
-38.291718
 20
-419.4989
 11
18.308175
 21
-362.8989
  0
LINE
  8
0
  6
CONTINUOUS
 62
     7
 10
-49.068015
 20
-419.4989
 11
7.5318783
 21
-362.8989
  0
LINE
  8
0
  6
CONTINUOUS
 62
     7
 10
-59.844311
 20
-419.4989
 11
-3.2444181
 21
-362.8989
  0
LINE
  8
0
  6
CONTINUOUS
 62
     7
 10
-70.620607
 20
-419.4989
 11
-14.020714
 21
-362.8989
  0
LINE
  8
0
  6
CONTINUOUS
 62
     7
 10
-81.396904
 20
-419.4989
 11
-24.797011
 21
-362.8989
  0
LINE
  8
0
  6
CONTINUOUS
 62
     7
 10
-92.1732
 20
-419.4989
 11
-35.573307
 21
-362.8989
  0
LINE
  8
0
  6
CONTINUOUS
 62
     7
 10
-102.9495
 20
-419.4989
 11
-46.349604
 21
-362.8989
  0
LINE
  8
0
  6
CONTINUOUS
 62
     7
 10
-113.72579
 20
-419.4989
 11
-57.1259
 21
-362.8989
  0
LINE
  8
0
  6
CONTINUOUS
 62
     7
 10
-124.50209
 20
-419.4989
 11
-67.902197
 21
-362.8989
  0
LINE
  8
0
  6
CONTINUOUS
 62
     7
 10
-135.27839
 20
-419.4989
 11
-78.678493
 21
-362.8989
  0
LINE
  8
0
  6
CONTINUOUS
 62
     7
 10
-146.05468
 20
-419.4989
 11
-89.454789
 21
-362.8989
  0
LINE
  8
0
  6
CONTINUOUS
 62
     7
 10
-156.83098
 20
-419.4989
 11
-100.23109
 21
-362.8989
  0
LINE
  8
0
  6
CONTINUOUS
 62
     7
 10
-167.60728
 20
-419.4989
 11
-111.00738
 21
-362.8989
  0
LINE
  8
0
  6
CONTINUOUS
 62
     7
 10
-176.52991
 20
-417.64523
 11
-121.78368
 21
-362.8989
  0
LINE
  8
0
  6
CONTINUOUS
 62
     7
 10
-176.52991
 20
-406.86892
 11
-132.55997
 21
-362.8989
  0
LINE
  8
0
  6
CONTINUOUS
 62
     7
 10
-176.52991
 20
-396.0926
 11
-143.33627
 21
-362.8989
  0
LINE
  8
0
  6
CONTINUOUS
 62
     7
 10
-176.52991
 20
-385.31628
 11
-154.11257
 21
-362.8989
  0
LINE
  8
0
  6
CONTINUOUS
 62
     7
 10
-176.52991
 20
-374.53996
 11
-164.88886
 21
-362.8989
  0
LINE
  8
0
  6
CONTINUOUS
 62
     7
 10
-176.52991
 20
-363.76364
 11
-175.66516
 21
-362.8989
  0
LINE
  8
0
  6
CONTINUOUS
 62
     7
 10
196.09273
 20
-419.4989
 11
199.47009
 21
-416.12153
  0
LINE
  8
0
  6
CONTINUOUS
 62
     7
 10
185.31643
 20
-419.4989
 11
199.47009
 21
-405.34521
  0
LINE
  8
0
  6
CONTINUOUS
 62
     7
 10
174.54014
 20
-419.4989
 11
199.47009
 21
-394.56889
  0
LINE
  8
0
  6
CONTINUOUS
 62
     7
 10
163.76384
 20
-419.4989
 11
199.47009
 21
-383.79258
  0
LINE
  8
0
  6
CONTINUOUS
 62
     7
 10
152.98754
 20
-419.4989
 11
199.47009
 21
-373.01626
  0
LINE
  8
0
  6
CONTINUOUS
 62
     7
 10
142.21125
 20
-419.4989
 11
198.81114
 21
-362.8989
  0
LINE
  8
0
  6
CONTINUOUS
 62
     7
 10
131.43495
 20
-419.4989
 11
188.03484
 21
-362.8989
  0
LINE
  8
0
  6
CONTINUOUS
 62
     7
 10
120.65865
 20
-419.4989
 11
177.25855
 21
-362.8989
  0
LINE
  8
0
  6
CONTINUOUS
 62
     7
 10
109.88236
 20
-419.4989
 11
166.48225
 21
-362.8989
  0
LINE
  8
0
  6
CONTINUOUS
 62
     7
 10
99.106061
 20
-419.4989
 11
155.70595
 21
-362.8989
  0
LINE
  8
0
  6
CONTINUOUS
 62
     7
 10
88.329764
 20
-419.4989
 11
144.92966
 21
-362.8989
  0
LINE
  8
0
  6
CONTINUOUS
 62
     7
 10
77.553468
 20
-419.4989
 11
134.15336
 21
-362.8989
  0
LINE
  8
0
  6
CONTINUOUS
 62
     7
 10
66.777172
 20
-419.4989
 11
123.37706
 21
-362.8989
  0
LINE
  8
0
  6
CONTINUOUS
 62
     7
 10
56.000875
 20
-419.4989
 11
112.60077
 21
-362.8989
  0
LINE
  8
0
  6
CONTINUOUS
 62
     7
 10
45.224579
 20
-419.4989
 11
101.82447
 21
-362.8989
  0
LINE
  8
0
  6
CONTINUOUS
 62
     7
 10
34.448282
 20
-419.4989
 11
91.048175
 21
-362.8989
  0
LINE
  8
0
  6
CONTINUOUS
 62
     7
 10
23.671986
 20
-419.4989
 11
80.271879
 21
-362.8989
  0
LINE
  8
0
  6
CONTINUOUS
 62
     7
 10
12.89569
 20
-419.4989
 11
69.495582
 21
-362.8989
  0
LINE
  8
0
  6
CONTINUOUS
 62
     7
 10
2.1193932
 20
-419.4989
 11
58.719286
 21
-362.8989
  0
LINE
  8
0
  6
CONTINUOUS
 62
     7
 10
-8.6569032
 20
-419.4989
 11
47.94299
 21
-362.8989
  0
LINE
  8
0
  6
CONTINUOUS
 62
     7
 10
-19.4332
 20
-419.4989
 11
37.166693
 21
-362.8989
  0
LINE
  8
0
  6
CONTINUOUS
 62
     7
 10
-30.209496
 20
-419.4989
 11
26.390397
 21
-362.8989
  0
LINE
  8
0
  6
CONTINUOUS
 62
     7
 10
-40.985792
 20
-419.4989
 11
15.6141
 21
-362.8989
  0
LINE
  8
0
  6
CONTINUOUS
 62
     7
 10
-51.762089
 20
-419.4989
 11
4.837804
 21
-362.8989
  0
LINE
  8
0
  6
CONTINUOUS
 62
     7
 10
-62.538385
 20
-419.4989
 11
-5.9384924
 21
-362.8989
  0
LINE
  8
0
  6
CONTINUOUS
 62
     7
 10
-73.314682
 20
-419.4989
 11
-16.714789
 21
-362.8989
  0
LINE
  8
0
  6
CONTINUOUS
 62
     7
 10
-84.090978
 20
-419.4989
 11
-27.491085
 21
-362.8989
  0
LINE
  8
0
  6
CONTINUOUS
 62
     7
 10
-94.867274
 20
-419.4989
 11
-38.267382
 21
-362.8989
  0
LINE
  8
0
  6
CONTINUOUS
 62
     7
 10
-105.64357
 20
-419.4989
 11
-49.043678
 21
-362.8989
  0
LINE
  8
0
  6
CONTINUOUS
 62
     7
 10
-116.41987
 20
-419.4989
 11
-59.819974
 21
-362.8989
  0
LINE
  8
0
  6
CONTINUOUS
 62
     7
 10
-127.19616
 20
-419.4989
 11
-70.596271
 21
-362.8989
  0
LINE
  8
0
  6
CONTINUOUS
 62
     7
 10
-137.97246
 20
-419.4989
 11
-81.372567
 21
-362.8989
  0
LINE
  8
0
  6
CONTINUOUS
 62
     7
 10
-148.74876
 20
-419.4989
 11
-92.148864
 21
-362.8989
  0
LINE
  8
0
  6
CONTINUOUS
 62
     7
 10
-159.52505
 20
-419.4989
 11
-102.92516
 21
-362.8989
  0
LINE
  8
0
  6
CONTINUOUS
 62
     7
 10
-170.30135
 20
-419.4989
 11
-113.70146
 21
-362.8989
  0
LINE
  8
0
  6
CONTINUOUS
 62
     7
 10
-176.52991
 20
-414.95115
 11
-124.47775
 21
-362.8989
  0
LINE
  8
0
  6
CONTINUOUS
 62
     7
 10
-176.52991
 20
-404.17484
 11
-135.25405
 21
-362.8989
  0
LINE
  8
0
  6
CONTINUOUS
 62
     7
 10
-176.52991
 20
-393.39852
 11
-146.03035
 21
-362.8989
  0
LINE
  8
0
  6
CONTINUOUS
 62
     7
 10
-176.52991
 20
-382.6222
 11
-156.80664
 21
-362.8989
  0
LINE
  8
0
  6
CONTINUOUS
 62
     7
 10
-176.52991
 20
-371.84588
 11
-167.58294
 21
-362.8989
  0
LINE
  8
0
  6
CONTINUOUS
 62
     7
 10
193.39865
 20
-419.4989
 11
199.47009
 21
-413.42745
  0
LINE
  8
0
  6
CONTINUOUS
 62
     7
 10
182.62236
 20
-419.4989
 11
199.47009
 21
-402.65113
  0
LINE
  8
0
  6
CONTINUOUS
 62
     7
 10
171.84606
 20
-419.4989
 11
199.47009
 21
-391.87481
  0
LINE
  8
0
  6
CONTINUOUS
 62
     7
 10
161.06977
 20
-419.4989
 11
199.47009
 21
-381.0985
  0
LINE
  8
0
  6
CONTINUOUS
 62
     7
 10
150.29347
 20
-419.4989
 11
199.47009
 21
-370.32218
  0
LINE
  8
0
  6
CONTINUOUS
 62
     7
 10
139.51717
 20
-419.4989
 11
196.11707
 21
-362.8989
  0
LINE
  8
0
  6
CONTINUOUS
 62
     7
 10
128.74088
 20
-419.4989
 11
185.34077
 21
-362.8989
  0
LINE
  8
0
  6
CONTINUOUS
 62
     7
 10
117.96458
 20
-419.4989
 11
174.56447
 21
-362.8989
  0
LINE
  8
0
  6
CONTINUOUS
 62
     7
 10
107.18828
 20
-419.4989
 11
163.78818
 21
-362.8989
  0
LINE
  8
0
  6
CONTINUOUS
 62
     7
 10
96.411987
 20
-419.4989
 11
153.01188
 21
-362.8989
  0
LINE
  8
0
  6
CONTINUOUS
 62
     7
 10
85.63569
 20
-419.4989
 11
142.23558
 21
-362.8989
  0
LINE
  8
0
  6
CONTINUOUS
 62
     7
 10
74.859394
 20
-419.4989
 11
131.45929
 21
-362.8989
  0
LINE
  8
0
  6
CONTINUOUS
 62
     7
 10
64.083098
 20
-419.4989
 11
120.68299
 21
-362.8989
  0
LINE
  8
0
  6
CONTINUOUS
 62
     7
 10
53.306801
 20
-419.4989
 11
109.90669
 21
-362.8989
  0
LINE
  8
0
  6
CONTINUOUS
 62
     7
 10
42.530505
 20
-419.4989
 11
99.130398
 21
-362.8989
  0
LINE
  8
0
  6
CONTINUOUS
 62
     7
 10
31.754208
 20
-419.4989
 11
88.354101
 21
-362.8989
  0
LINE
  8
0
  6
CONTINUOUS
 62
     7
 10
20.977912
 20
-419.4989
 11
77.577805
 21
-362.8989
  0
LINE
  8
0
  6
CONTINUOUS
 62
     7
 10
10.201615
 20
-419.4989
 11
66.801508
 21
-362.8989
  0
LINE
  8
0
  6
CONTINUOUS
 62
     7
 10
-0.57468092
 20
-419.4989
 11
56.025212
 21
-362.8989
  0
LINE
  8
0
  6
CONTINUOUS
 62
     7
 10
-11.350977
 20
-419.4989
 11
45.248916
 21
-362.8989
  0
LINE
  8
0
  6
CONTINUOUS
 62
     7
 10
-22.127274
 20
-419.4989
 11
34.472619
 21
-362.8989
  0
LINE
  8
0
  6
CONTINUOUS
 62
     7
 10
-32.90357
 20
-419.4989
 11
23.696323
 21
-362.8989
  0
LINE
  8
0
  6
CONTINUOUS
 62
     7
 10
-43.679867
 20
-419.4989
 11
12.920026
 21
-362.8989
  0
LINE
  8
0
  6
CONTINUOUS
 62
     7
 10
-54.456163
 20
-419.4989
 11
2.1437299
 21
-362.8989
  0
LINE
  8
0
  6
CONTINUOUS
 62
     7
 10
-65.232459
 20
-419.4989
 11
-8.6325665
 21
-362.8989
  0
LINE
  8
0
  6
CONTINUOUS
 62
     7
 10
-76.008756
 20
-419.4989
 11
-19.408863
 21
-362.8989
  0
LINE
  8
0
  6
CONTINUOUS
 62
     7
 10
-86.785052
 20
-419.4989
 11
-30.185159
 21
-362.8989
  0
LINE
  8
0
  6
CONTINUOUS
 62
     7
 10
-97.561349
 20
-419.4989
 11
-40.961456
 21
-362.8989
  0
LINE
  8
0
  6
CONTINUOUS
 62
     7
 10
-108.33764
 20
-419.4989
 11
-51.737752
 21
-362.8989
  0
LINE
  8
0
  6
CONTINUOUS
 62
     7
 10
-119.11394
 20
-419.4989
 11
-62.514048
 21
-362.8989
  0
LINE
  8
0
  6
CONTINUOUS
 62
     7
 10
-129.89024
 20
-419.4989
 11
-73.290345
 21
-362.8989
  0
LINE
  8
0
  6
CONTINUOUS
 62
     7
 10
-140.66653
 20
-419.4989
 11
-84.066641
 21
-362.8989
  0
LINE
  8
0
  6
CONTINUOUS
 62
     7
 10
-151.44283
 20
-419.4989
 11
-94.842938
 21
-362.8989
  0
LINE
  8
0
  6
CONTINUOUS
 62
     7
 10
-162.21913
 20
-419.4989
 11
-105.61923
 21
-362.8989
  0
LINE
  8
0
  6
CONTINUOUS
 62
     7
 10
-172.99542
 20
-419.4989
 11
-116.39553
 21
-362.8989
  0
LINE
  8
0
  6
CONTINUOUS
 62
     7
 10
-176.52991
 20
-412.25707
 11
-127.17183
 21
-362.8989
  0
LINE
  8
0
  6
CONTINUOUS
 62
     7
 10
-176.52991
 20
-401.48076
 11
-137.94812
 21
-362.8989
  0
LINE
  8
0
  6
CONTINUOUS
 62
     7
 10
-176.52991
 20
-390.70444
 11
-148.72442
 21
-362.8989
  0
LINE
  8
0
  6
CONTINUOUS
 62
     7
 10
-176.52991
 20
-379.92812
 11
-159.50072
 21
-362.8989
  0
LINE
  8
0
  6
CONTINUOUS
 62
     7
 10
-176.52991
 20
-369.1518
 11
-170.27701
 21
-362.8989
  0
LINE
  8
0
  6
CONTINUOUS
 62
     7
 10
190.70458
 20
-419.4989
 11
199.47009
 21
-410.73337
  0
LINE
  8
0
  6
CONTINUOUS
 62
     7
 10
179.92828
 20
-419.4989
 11
199.47009
 21
-399.95705
  0
LINE
  8
0
  6
CONTINUOUS
 62
     7
 10
169.15199
 20
-419.4989
 11
199.47009
 21
-389.18074
  0
LINE
  8
0
  6
CONTINUOUS
 62
     7
 10
158.37569
 20
-419.4989
 11
199.47009
 21
-378.40442
  0
LINE
  8
0
  6
CONTINUOUS
 62
     7
 10
147.59939
 20
-419.4989
 11
199.47009
 21
-367.6281
  0
LINE
  8
0
  6
CONTINUOUS
 62
     7
 10
136.8231
 20
-419.4989
 11
193.42299
 21
-362.8989
  0
LINE
  8
0
  6
CONTINUOUS
 62
     7
 10
126.0468
 20
-419.4989
 11
182.64669
 21
-362.8989
  0
LINE
  8
0
  6
CONTINUOUS
 62
     7
 10
115.27051
 20
-419.4989
 11
171.8704
 21
-362.8989
  0
LINE
  8
0
  6
CONTINUOUS
 62
     7
 10
104.49421
 20
-419.4989
 11
161.0941
 21
-362.8989
  0
LINE
  8
0
  6
CONTINUOUS
 62
     7
 10
93.717912
 20
-419.4989
 11
150.31781
 21
-362.8989
  0
LINE
  8
0
  6
CONTINUOUS
 62
     7
 10
82.941616
 20
-419.4989
 11
139.54151
 21
-362.8989
  0
LINE
  8
0
  6
CONTINUOUS
 62
     7
 10
72.16532
 20
-419.4989
 11
128.76521
 21
-362.8989
  0
LINE
  8
0
  6
CONTINUOUS
 62
     7
 10
61.389023
 20
-419.4989
 11
117.98892
 21
-362.8989
  0
LINE
  8
0
  6
CONTINUOUS
 62
     7
 10
50.612727
 20
-419.4989
 11
107.21262
 21
-362.8989
  0
LINE
  8
0
  6
CONTINUOUS
 62
     7
 10
39.83643
 20
-419.4989
 11
96.436323
 21
-362.8989
  0
LINE
  8
0
  6
CONTINUOUS
 62
     7
 10
29.060134
 20
-419.4989
 11
85.660027
 21
-362.8989
  0
LINE
  8
0
  6
CONTINUOUS
 62
     7
 10
18.283838
 20
-419.4989
 11
74.883731
 21
-362.8989
  0
LINE
  8
0
  6
CONTINUOUS
 62
     7
 10
7.5075412
 20
-419.4989
 11
64.107434
 21
-362.8989
  0
LINE
  8
0
  6
CONTINUOUS
 62
     7
 10
-3.2687552
 20
-419.4989
 11
53.331138
 21
-362.8989
  0
LINE
  8
0
  6
CONTINUOUS
 62
     7
 10
-14.045052
 20
-419.4989
 11
42.554841
 21
-362.8989
  0
LINE
  8
0
  6
CONTINUOUS
 62
     7
 10
-24.821348
 20
-419.4989
 11
31.778545
 21
-362.8989
  0
LINE
  8
0
  6
CONTINUOUS
 62
     7
 10
-35.597644
 20
-419.4989
 11
21.002248
 21
-362.8989
  0
LINE
  8
0
  6
CONTINUOUS
 62
     7
 10
-46.373941
 20
-419.4989
 11
10.225952
 21
-362.8989
  0
LINE
  8
0
  6
CONTINUOUS
 62
     7
 10
-57.150237
 20
-419.4989
 11
-0.55034433
 21
-362.8989
  0
LINE
  8
0
  6
CONTINUOUS
 62
     7
 10
-67.926534
 20
-419.4989
 11
-11.326641
 21
-362.8989
  0
LINE
  8
0
  6
CONTINUOUS
 62
     7
 10
-78.70283
 20
-419.4989
 11
-22.102937
 21
-362.8989
  0
LINE
  8
0
  6
CONTINUOUS
 62
     7
 10
-89.479126
 20
-419.4989
 11
-32.879234
 21
-362.8989
  0
LINE
  8
0
  6
CONTINUOUS
 62
     7
 10
-100.25542
 20
-419.4989
 11
-43.65553
 21
-362.8989
  0
LINE
  8
0
  6
CONTINUOUS
 62
     7
 10
-111.03172
 20
-419.4989
 11
-54.431826
 21
-362.8989
  0
LINE
  8
0
  6
CONTINUOUS
 62
     7
 10
-121.80802
 20
-419.4989
 11
-65.208123
 21
-362.8989
  0
LINE
  8
0
  6
CONTINUOUS
 62
     7
 10
-132.58431
 20
-419.4989
 11
-75.984419
 21
-362.8989
  0
LINE
  8
0
  6
CONTINUOUS
 62
     7
 10
-143.36061
 20
-419.4989
 11
-86.760716
 21
-362.8989
  0
LINE
  8
0
  6
CONTINUOUS
 62
     7
 10
-154.1369
 20
-419.4989
 11
-97.537012
 21
-362.8989
  0
LINE
  8
0
  6
CONTINUOUS
 62
     7
 10
-164.9132
 20
-419.4989
 11
-108.31331
 21
-362.8989
  0
LINE
  8
0
  6
CONTINUOUS
 62
     7
 10
-175.6895
 20
-419.4989
 11
-119.0896
 21
-362.8989
  0
LINE
  8
0
  6
CONTINUOUS
 62
     7
 10
-176.52991
 20
-409.56299
 11
-129.8659
 21
-362.8989
  0
LINE
  8
0
  6
CONTINUOUS
 62
     7
 10
-176.52991
 20
-398.78668
 11
-140.6422
 21
-362.8989
  0
LINE
  8
0
  6
CONTINUOUS
 62
     7
 10
-176.52991
 20
-388.01036
 11
-151.41849
 21
-362.8989
  0
LINE
  8
0
  6
CONTINUOUS
 62
     7
 10
-176.52991
 20
-377.23404
 11
-162.19479
 21
-362.8989
  0
LINE
  8
0
  6
CONTINUOUS
 62
     7
 10
-176.52991
 20
-366.45772
 11
-172.97109
 21
-362.8989
  0
LINE
  8
0
  6
CONTINUOUS
 62
     7
 10
-176.52991
 20
-409.39642
 11
-166.42741
 21
-419.4989
  0
LINE
  8
0
  6
CONTINUOUS
 62
     7
 10
-176.52991
 20
-398.62013
 11
-155.65109
 21
-419.4989
  0
LINE
  8
0
  6
CONTINUOUS
 62
     7
 10
-176.52991
 20
-387.84383
 11
-144.87477
 21
-419.4989
  0
LINE
  8
0
  6
CONTINUOUS
 62
     7
 10
-176.52991
 20
-377.06753
 11
-134.09845
 21
-419.4989
  0
LINE
  8
0
  6
CONTINUOUS
 62
     7
 10
-176.52991
 20
-366.29124
 11
-123.32214
 21
-419.4989
  0
LINE
  8
0
  6
CONTINUOUS
 62
     7
 10
-169.14594
 20
-362.8989
 11
-112.54582
 21
-419.4989
  0
LINE
  8
0
  6
CONTINUOUS
 62
     7
 10
-158.36962
 20
-362.8989
 11
-101.7695
 21
-419.4989
  0
LINE
  8
0
  6
CONTINUOUS
 62
     7
 10
-147.5933
 20
-362.8989
 11
-90.993182
 21
-419.4989
  0
LINE
  8
0
  6
CONTINUOUS
 62
     7
 10
-136.81698
 20
-362.8989
 11
-80.216864
 21
-419.4989
  0
LINE
  8
0
  6
CONTINUOUS
 62
     7
 10
-126.04067
 20
-362.8989
 11
-69.440546
 21
-419.4989
  0
LINE
  8
0
  6
CONTINUOUS
 62
     7
 10
-115.26435
 20
-362.8989
 11
-58.664228
 21
-419.4989
  0
LINE
  8
0
  6
CONTINUOUS
 62
     7
 10
-104.48803
 20
-362.8989
 11
-47.88791
 21
-419.4989
  0
LINE
  8
0
  6
CONTINUOUS
 62
     7
 10
-93.711711
 20
-362.8989
 11
-37.111592
 21
-419.4989
  0
LINE
  8
0
  6
CONTINUOUS
 62
     7
 10
-82.935393
 20
-362.8989
 11
-26.335274
 21
-419.4989
  0
LINE
  8
0
  6
CONTINUOUS
 62
     7
 10
-72.159075
 20
-362.8989
 11
-15.558956
 21
-419.4989
  0
LINE
  8
0
  6
CONTINUOUS
 62
     7
 10
-61.382757
 20
-362.8989
 11
-4.782638
 21
-419.4989
  0
LINE
  8
0
  6
CONTINUOUS
 62
     7
 10
-50.606439
 20
-362.8989
 11
5.99368
 21
-419.4989
  0
LINE
  8
0
  6
CONTINUOUS
 62
     7
 10
-39.830121
 20
-362.8989
 11
16.769998
 21
-419.4989
  0
LINE
  8
0
  6
CONTINUOUS
 62
     7
 10
-29.053803
 20
-362.8989
 11
27.546316
 21
-419.4989
  0
LINE
  8
0
  6
CONTINUOUS
 62
     7
 10
-18.277485
 20
-362.8989
 11
38.322634
 21
-419.4989
  0
LINE
  8
0
  6
CONTINUOUS
 62
     7
 10
-7.5011675
 20
-362.8989
 11
49.098952
 21
-419.4989
  0
LINE
  8
0
  6
CONTINUOUS
 62
     7
 10
3.2751504
 20
-362.8989
 11
59.87527
 21
-419.4989
  0
LINE
  8
0
  6
CONTINUOUS
 62
     7
 10
14.051468
 20
-362.8989
 11
70.651588
 21
-419.4989
  0
LINE
  8
0
  6
CONTINUOUS
 62
     7
 10
24.827786
 20
-362.8989
 11
81.427906
 21
-419.4989
  0
LINE
  8
0
  6
CONTINUOUS
 62
     7
 10
35.604104
 20
-362.8989
 11
92.204224
 21
-419.4989
  0
LINE
  8
0
  6
CONTINUOUS
 62
     7
 10
46.380422
 20
-362.8989
 11
102.98054
 21
-419.4989
  0
LINE
  8
0
  6
CONTINUOUS
 62
     7
 10
57.15674
 20
-362.8989
 11
113.75686
 21
-419.4989
  0
LINE
  8
0
  6
CONTINUOUS
 62
     7
 10
67.933058
 20
-362.8989
 11
124.53318
 21
-419.4989
  0
LINE
  8
0
  6
CONTINUOUS
 62
     7
 10
78.709376
 20
-362.8989
 11
135.3095
 21
-419.4989
  0
LINE
  8
0
  6
CONTINUOUS
 62
     7
 10
89.485694
 20
-362.8989
 11
146.08581
 21
-419.4989
  0
LINE
  8
0
  6
CONTINUOUS
 62
     7
 10
100.26201
 20
-362.8989
 11
156.86213
 21
-419.4989
  0
LINE
  8
0
  6
CONTINUOUS
 62
     7
 10
111.03833
 20
-362.8989
 11
167.63845
 21
-419.4989
  0
LINE
  8
0
  6
CONTINUOUS
 62
     7
 10
121.81465
 20
-362.8989
 11
178.41477
 21
-419.4989
  0
LINE
  8
0
  6
CONTINUOUS
 62
     7
 10
132.59097
 20
-362.8989
 11
189.19109
 21
-419.4989
  0
LINE
  8
0
  6
CONTINUOUS
 62
     7
 10
143.36728
 20
-362.8989
 11
199.47009
 21
-419.00159
  0
LINE
  8
0
  6
CONTINUOUS
 62
     7
 10
154.1436
 20
-362.8989
 11
199.47009
 21
-408.2253
  0
LINE
  8
0
  6
CONTINUOUS
 62
     7
 10
164.91992
 20
-362.8989
 11
199.47009
 21
-397.449
  0
LINE
  8
0
  6
CONTINUOUS
 62
     7
 10
175.69624
 20
-362.8989
 11
199.47009
 21
-386.6727
  0
LINE
  8
0
  6
CONTINUOUS
 62
     7
 10
186.47256
 20
-362.8989
 11
199.47009
 21
-375.89641
  0
LINE
  8
0
  6
CONTINUOUS
 62
     7
 10
197.24887
 20
-362.8989
 11
199.47009
 21
-365.12011
  0
LINE
  8
0
  6
CONTINUOUS
 62
     7
 10
-176.52991
 20
-417.47864
 11
-174.50965
 21
-419.4989
  0
LINE
  8
0
  6
CONTINUOUS
 62
     7
 10
-176.52991
 20
-406.70235
 11
-163.73333
 21
-419.4989
  0
LINE
  8
0
  6
CONTINUOUS
 62
     7
 10
-176.52991
 20
-395.92605
 11
-152.95701
 21
-419.4989
  0
LINE
  8
0
  6
CONTINUOUS
 62
     7
 10
-176.52991
 20
-385.14975
 11
-142.18069
 21
-419.4989
  0
LINE
  8
0
  6
CONTINUOUS
 62
     7
 10
-176.52991
 20
-374.37346
 11
-131.40437
 21
-419.4989
  0
LINE
  8
0
  6
CONTINUOUS
 62
     7
 10
-176.52991
 20
-363.59716
 11
-120.62806
 21
-419.4989
  0
LINE
  8
0
  6
CONTINUOUS
 62
     7
 10
-166.45186
 20
-362.8989
 11
-109.85174
 21
-419.4989
  0
LINE
  8
0
  6
CONTINUOUS
 62
     7
 10
-155.67554
 20
-362.8989
 11
-99.07542
 21
-419.4989
  0
LINE
  8
0
  6
CONTINUOUS
 62
     7
 10
-144.89922
 20
-362.8989
 11
-88.299102
 21
-419.4989
  0
LINE
  8
0
  6
CONTINUOUS
 62
     7
 10
-134.1229
 20
-362.8989
 11
-77.522784
 21
-419.4989
  0
LINE
  8
0
  6
CONTINUOUS
 62
     7
 10
-123.34659
 20
-362.8989
 11
-66.746466
 21
-419.4989
  0
LINE
  8
0
  6
CONTINUOUS
 62
     7
 10
-112.57027
 20
-362.8989
 11
-55.970148
 21
-419.4989
  0
LINE
  8
0
  6
CONTINUOUS
 62
     7
 10
-101.79395
 20
-362.8989
 11
-45.19383
 21
-419.4989
  0
LINE
  8
0
  6
CONTINUOUS
 62
     7
 10
-91.017632
 20
-362.8989
 11
-34.417512
 21
-419.4989
  0
LINE
  8
0
  6
CONTINUOUS
 62
     7
 10
-80.241314
 20
-362.8989
 11
-23.641194
 21
-419.4989
  0
LINE
  8
0
  6
CONTINUOUS
 62
     7
 10
-69.464996
 20
-362.8989
 11
-12.864876
 21
-419.4989
  0
LINE
  8
0
  6
CONTINUOUS
 62
     7
 10
-58.688678
 20
-362.8989
 11
-2.0885583
 21
-419.4989
  0
LINE
  8
0
  6
CONTINUOUS
 62
     7
 10
-47.91236
 20
-362.8989
 11
8.6877596
 21
-419.4989
  0
LINE
  8
0
  6
CONTINUOUS
 62
     7
 10
-37.136042
 20
-362.8989
 11
19.464078
 21
-419.4989
  0
LINE
  8
0
  6
CONTINUOUS
 62
     7
 10
-26.359724
 20
-362.8989
 11
30.240396
 21
-419.4989
  0
LINE
  8
0
  6
CONTINUOUS
 62
     7
 10
-15.583406
 20
-362.8989
 11
41.016713
 21
-419.4989
  0
LINE
  8
0
  6
CONTINUOUS
 62
     7
 10
-4.8070879
 20
-362.8989
 11
51.793031
 21
-419.4989
  0
LINE
  8
0
  6
CONTINUOUS
 62
     7
 10
5.9692301
 20
-362.8989
 11
62.569349
 21
-419.4989
  0
LINE
  8
0
  6
CONTINUOUS
 62
     7
 10
16.745548
 20
-362.8989
 11
73.345667
 21
-419.4989
  0
LINE
  8
0
  6
CONTINUOUS
 62
     7
 10
27.521866
 20
-362.8989
 11
84.121985
 21
-419.4989
  0
LINE
  8
0
  6
CONTINUOUS
 62
     7
 10
38.298184
 20
-362.8989
 11
94.898303
 21
-419.4989
  0
LINE
  8
0
  6
CONTINUOUS
 62
     7
 10
49.074502
 20
-362.8989
 11
105.67462
 21
-419.4989
  0
LINE
  8
0
  6
CONTINUOUS
 62
     7
 10
59.85082
 20
-362.8989
 11
116.45094
 21
-419.4989
  0
LINE
  8
0
  6
CONTINUOUS
 62
     7
 10
70.627138
 20
-362.8989
 11
127.22726
 21
-419.4989
  0
LINE
  8
0
  6
CONTINUOUS
 62
     7
 10
81.403456
 20
-362.8989
 11
138.00358
 21
-419.4989
  0
LINE
  8
0
  6
CONTINUOUS
 62
     7
 10
92.179774
 20
-362.8989
 11
148.77989
 21
-419.4989
  0
LINE
  8
0
  6
CONTINUOUS
 62
     7
 10
102.95609
 20
-362.8989
 11
159.55621
 21
-419.4989
  0
LINE
  8
0
  6
CONTINUOUS
 62
     7
 10
113.73241
 20
-362.8989
 11
170.33253
 21
-419.4989
  0
LINE
  8
0
  6
CONTINUOUS
 62
     7
 10
124.50873
 20
-362.8989
 11
181.10885
 21
-419.4989
  0
LINE
  8
0
  6
CONTINUOUS
 62
     7
 10
135.28505
 20
-362.8989
 11
191.88516
 21
-419.4989
  0
LINE
  8
0
  6
CONTINUOUS
 62
     7
 10
146.06136
 20
-362.8989
 11
199.47009
 21
-416.30752
  0
LINE
  8
0
  6
CONTINUOUS
 62
     7
 10
156.83768
 20
-362.8989
 11
199.47009
 21
-405.53122
  0
LINE
  8
0
  6
CONTINUOUS
 62
     7
 10
167.614
 20
-362.8989
 11
199.47009
 21
-394.75492
  0
LINE
  8
0
  6
CONTINUOUS
 62
     7
 10
178.39032
 20
-362.8989
 11
199.47009
 21
-383.97863
  0
LINE
  8
0
  6
CONTINUOUS
 62
     7
 10
189.16664
 20
-362.8989
 11
199.47009
 21
-373.20233
  0
LINE
  8
0
  6
CONTINUOUS
 62
     7
 10
-176.52991
 20
-414.78457
 11
-171.81557
 21
-419.4989
  0
LINE
  8
0
  6
CONTINUOUS
 62
     7
 10
-176.52991
 20
-404.00827
 11
-161.03925
 21
-419.4989
  0
LINE
  8
0
  6
CONTINUOUS
 62
     7
 10
-176.52991
 20
-393.23198
 11
-150.26293
 21
-419.4989
  0
LINE
  8
0
  6
CONTINUOUS
 62
     7
 10
-176.52991
 20
-382.45568
 11
-139.48661
 21
-419.4989
  0
LINE
  8
0
  6
CONTINUOUS
 62
     7
 10
-176.52991
 20
-371.67938
 11
-128.71029
 21
-419.4989
  0
LINE
  8
0
  6
CONTINUOUS
 62
     7
 10
-174.5341
 20
-362.8989
 11
-117.93398
 21
-419.4989
  0
LINE
  8
0
  6
CONTINUOUS
 62
     7
 10
-163.75778
 20
-362.8989
 11
-107.15766
 21
-419.4989
  0
LINE
  8
0
  6
CONTINUOUS
 62
     7
 10
-152.98146
 20
-362.8989
 11
-96.38134
 21
-419.4989
  0
LINE
  8
0
  6
CONTINUOUS
 62
     7
 10
-142.20514
 20
-362.8989
 11
-85.605023
 21
-419.4989
  0
LINE
  8
0
  6
CONTINUOUS
 62
     7
 10
-131.42882
 20
-362.8989
 11
-74.828705
 21
-419.4989
  0
LINE
  8
0
  6
CONTINUOUS
 62
     7
 10
-120.65251
 20
-362.8989
 11
-64.052387
 21
-419.4989
  0
LINE
  8
0
  6
CONTINUOUS
 62
     7
 10
-109.87619
 20
-362.8989
 11
-53.276069
 21
-419.4989
  0
LINE
  8
0
  6
CONTINUOUS
 62
     7
 10
-99.09987
 20
-362.8989
 11
-42.499751
 21
-419.4989
  0
LINE
  8
0
  6
CONTINUOUS
 62
     7
 10
-88.323552
 20
-362.8989
 11
-31.723433
 21
-419.4989
  0
LINE
  8
0
  6
CONTINUOUS
 62
     7
 10
-77.547234
 20
-362.8989
 11
-20.947115
 21
-419.4989
  0
LINE
  8
0
  6
CONTINUOUS
 62
     7
 10
-66.770916
 20
-362.8989
 11
-10.170797
 21
-419.4989
  0
LINE
  8
0
  6
CONTINUOUS
 62
     7
 10
-55.994598
 20
-362.8989
 11
0.60552114
 21
-419.4989
  0
LINE
  8
0
  6
CONTINUOUS
 62
     7
 10
-45.21828
 20
-362.8989
 11
11.381839
 21
-419.4989
  0
LINE
  8
0
  6
CONTINUOUS
 62
     7
 10
-34.441962
 20
-362.8989
 11
22.158157
 21
-419.4989
  0
LINE
  8
0
  6
CONTINUOUS
 62
     7
 10
-23.665644
 20
-362.8989
 11
32.934475
 21
-419.4989
  0
LINE
  8
0
  6
CONTINUOUS
 62
     7
 10
-12.889326
 20
-362.8989
 11
43.710793
 21
-419.4989
  0
LINE
  8
0
  6
CONTINUOUS
 62
     7
 10
-2.1130084
 20
-362.8989
 11
54.487111
 21
-419.4989
  0
LINE
  8
0
  6
CONTINUOUS
 62
     7
 10
8.6633096
 20
-362.8989
 11
65.263429
 21
-419.4989
  0
LINE
  8
0
  6
CONTINUOUS
 62
     7
 10
19.439628
 20
-362.8989
 11
76.039747
 21
-419.4989
  0
LINE
  8
0
  6
CONTINUOUS
 62
     7
 10
30.215946
 20
-362.8989
 11
86.816065
 21
-419.4989
  0
LINE
  8
0
  6
CONTINUOUS
 62
     7
 10
40.992263
 20
-362.8989
 11
97.592383
 21
-419.4989
  0
LINE
  8
0
  6
CONTINUOUS
 62
     7
 10
51.768581
 20
-362.8989
 11
108.3687
 21
-419.4989
  0
LINE
  8
0
  6
CONTINUOUS
 62
     7
 10
62.544899
 20
-362.8989
 11
119.14502
 21
-419.4989
  0
LINE
  8
0
  6
CONTINUOUS
 62
     7
 10
73.321217
 20
-362.8989
 11
129.92134
 21
-419.4989
  0
LINE
  8
0
  6
CONTINUOUS
 62
     7
 10
84.097535
 20
-362.8989
 11
140.69765
 21
-419.4989
  0
LINE
  8
0
  6
CONTINUOUS
 62
     7
 10
94.873853
 20
-362.8989
 11
151.47397
 21
-419.4989
  0
LINE
  8
0
  6
CONTINUOUS
 62
     7
 10
105.65017
 20
-362.8989
 11
162.25029
 21
-419.4989
  0
LINE
  8
0
  6
CONTINUOUS
 62
     7
 10
116.42649
 20
-362.8989
 11
173.02661
 21
-419.4989
  0
LINE
  8
0
  6
CONTINUOUS
 62
     7
 10
127.20281
 20
-362.8989
 11
183.80293
 21
-419.4989
  0
LINE
  8
0
  6
CONTINUOUS
 62
     7
 10
137.97913
 20
-362.8989
 11
194.57924
 21
-419.4989
  0
LINE
  8
0
  6
CONTINUOUS
 62
     7
 10
148.75544
 20
-362.8989
 11
199.47009
 21
-413.61344
  0
LINE
  8
0
  6
CONTINUOUS
 62
     7
 10
159.53176
 20
-362.8989
 11
199.47009
 21
-402.83715
  0
LINE
  8
0
  6
CONTINUOUS
 62
     7
 10
170.30808
 20
-362.8989
 11
199.47009
 21
-392.06085
  0
LINE
  8
0
  6
CONTINUOUS
 62
     7
 10
181.0844
 20
-362.8989
 11
199.47009
 21
-381.28455
  0
LINE
  8
0
  6
CONTINUOUS
 62
     7
 10
191.86071
 20
-362.8989
 11
199.47009
 21
-370.50826
  0
LINE
  8
0
  6
CONTINUOUS
 62
     7
 10
-176.52991
 20
-412.0905
 11
-169.12149
 21
-419.4989
  0
LINE
  8
0
  6
CONTINUOUS
 62
     7
 10
-176.52991
 20
-401.3142
 11
-158.34517
 21
-419.4989
  0
LINE
  8
0
  6
CONTINUOUS
 62
     7
 10
-176.52991
 20
-390.5379
 11
-147.56885
 21
-419.4989
  0
LINE
  8
0
  6
CONTINUOUS
 62
     7
 10
-176.52991
 20
-379.76161
 11
-136.79253
 21
-419.4989
  0
LINE
  8
0
  6
CONTINUOUS
 62
     7
 10
-176.52991
 20
-368.98531
 11
-126.01621
 21
-419.4989
  0
LINE
  8
0
  6
CONTINUOUS
 62
     7
 10
-171.84002
 20
-362.8989
 11
-115.2399
 21
-419.4989
  0
LINE
  8
0
  6
CONTINUOUS
 62
     7
 10
-161.0637
 20
-362.8989
 11
-104.46358
 21
-419.4989
  0
LINE
  8
0
  6
CONTINUOUS
 62
     7
 10
-150.28738
 20
-362.8989
 11
-93.687261
 21
-419.4989
  0
LINE
  8
0
  6
CONTINUOUS
 62
     7
 10
-139.51106
 20
-362.8989
 11
-82.910943
 21
-419.4989
  0
LINE
  8
0
  6
CONTINUOUS
 62
     7
 10
-128.73474
 20
-362.8989
 11
-72.134625
 21
-419.4989
  0
LINE
  8
0
  6
CONTINUOUS
 62
     7
 10
-117.95843
 20
-362.8989
 11
-61.358307
 21
-419.4989
  0
LINE
  8
0
  6
CONTINUOUS
 62
     7
 10
-107.18211
 20
-362.8989
 11
-50.581989
 21
-419.4989
  0
LINE
  8
0
  6
CONTINUOUS
 62
     7
 10
-96.40579
 20
-362.8989
 11
-39.805671
 21
-419.4989
  0
LINE
  8
0
  6
CONTINUOUS
 62
     7
 10
-85.629472
 20
-362.8989
 11
-29.029353
 21
-419.4989
  0
LINE
  8
0
  6
CONTINUOUS
 62
     7
 10
-74.853154
 20
-362.8989
 11
-18.253035
 21
-419.4989
  0
LINE
  8
0
  6
CONTINUOUS
 62
     7
 10
-64.076836
 20
-362.8989
 11
-7.4767172
 21
-419.4989
  0
LINE
  8
0
  6
CONTINUOUS
 62
     7
 10
-53.300519
 20
-362.8989
 11
3.2996008
 21
-419.4989
  0
LINE
  8
0
  6
CONTINUOUS
 62
     7
 10
-42.524201
 20
-362.8989
 11
14.075919
 21
-419.4989
  0
LINE
  8
0
  6
CONTINUOUS
 62
     7
 10
-31.747883
 20
-362.8989
 11
24.852237
 21
-419.4989
  0
LINE
  8
0
  6
CONTINUOUS
 62
     7
 10
-20.971565
 20
-362.8989
 11
35.628555
 21
-419.4989
  0
LINE
  8
0
  6
CONTINUOUS
 62
     7
 10
-10.195247
 20
-362.8989
 11
46.404873
 21
-419.4989
  0
LINE
  8
0
  6
CONTINUOUS
 62
     7
 10
0.5810713
 20
-362.8989
 11
57.181191
 21
-419.4989
  0
LINE
  8
0
  6
CONTINUOUS
 62
     7
 10
11.357389
 20
-362.8989
 11
67.957509
 21
-419.4989
  0
LINE
  8
0
  6
CONTINUOUS
 62
     7
 10
22.133707
 20
-362.8989
 11
78.733827
 21
-419.4989
  0
LINE
  8
0
  6
CONTINUOUS
 62
     7
 10
32.910025
 20
-362.8989
 11
89.510144
 21
-419.4989
  0
LINE
  8
0
  6
CONTINUOUS
 62
     7
 10
43.686343
 20
-362.8989
 11
100.28646
 21
-419.4989
  0
LINE
  8
0
  6
CONTINUOUS
 62
     7
 10
54.462661
 20
-362.8989
 11
111.06278
 21
-419.4989
  0
LINE
  8
0
  6
CONTINUOUS
 62
     7
 10
65.238979
 20
-362.8989
 11
121.8391
 21
-419.4989
  0
LINE
  8
0
  6
CONTINUOUS
 62
     7
 10
76.015297
 20
-362.8989
 11
132.61542
 21
-419.4989
  0
LINE
  8
0
  6
CONTINUOUS
 62
     7
 10
86.791615
 20
-362.8989
 11
143.39173
 21
-419.4989
  0
LINE
  8
0
  6
CONTINUOUS
 62
     7
 10
97.567933
 20
-362.8989
 11
154.16805
 21
-419.4989
  0
LINE
  8
0
  6
CONTINUOUS
 62
     7
 10
108.34425
 20
-362.8989
 11
164.94437
 21
-419.4989
  0
LINE
  8
0
  6
CONTINUOUS
 62
     7
 10
119.12057
 20
-362.8989
 11
175.72069
 21
-419.4989
  0
LINE
  8
0
  6
CONTINUOUS
 62
     7
 10
129.89689
 20
-362.8989
 11
186.49701
 21
-419.4989
  0
LINE
  8
0
  6
CONTINUOUS
 62
     7
 10
140.6732
 20
-362.8989
 11
197.27332
 21
-419.4989
  0
LINE
  8
0
  6
CONTINUOUS
 62
     7
 10
151.44952
 20
-362.8989
 11
199.47009
 21
-410.91937
  0
LINE
  8
0
  6
CONTINUOUS
 62
     7
 10
162.22584
 20
-362.8989
 11
199.47009
 21
-400.14307
  0
LINE
  8
0
  6
CONTINUOUS
 62
     7
 10
173.00216
 20
-362.8989
 11
199.47009
 21
-389.36678
  0
LINE
  8
0
  6
CONTINUOUS
 62
     7
 10
183.77848
 20
-362.8989
 11
199.47009
 21
-378.59048
  0
LINE
  8
0
  6
CONTINUOUS
 62
     7
 10
194.55479
 20
-362.8989
 11
199.47009
 21
-367.81418
  0
LINE
  8
0
  6
CONTINUOUS
 62
     7
 10
187.78234
 20
-570.59552
 11
197.47009
 21
-560.90775
  0
LINE
  8
0
  6
CONTINUOUS
 62
     7
 10
177.00604
 20
-570.59552
 11
197.47009
 21
-550.13143
  0
LINE
  8
0
  6
CONTINUOUS
 62
     7
 10
166.22975
 20
-570.59552
 11
197.47009
 21
-539.35511
  0
LINE
  8
0
  6
CONTINUOUS
 62
     7
 10
155.45345
 20
-570.59552
 11
197.47009
 21
-528.57879
  0
LINE
  8
0
  6
CONTINUOUS
 62
     7
 10
144.67715
 20
-570.59552
 11
197.47009
 21
-517.80248
  0
LINE
  8
0
  6
CONTINUOUS
 62
     7
 10
133.90086
 20
-570.59552
 11
197.47009
 21
-507.02616
  0
LINE
  8
0
  6
CONTINUOUS
 62
     7
 10
123.12456
 20
-570.59552
 11
192.8244
 21
-500.89554
  0
LINE
  8
0
  6
CONTINUOUS
 62
     7
 10
112.34826
 20
-570.59552
 11
182.04811
 21
-500.89554
  0
LINE
  8
0
  6
CONTINUOUS
 62
     7
 10
101.57197
 20
-570.59552
 11
171.27181
 21
-500.89554
  0
LINE
  8
0
  6
CONTINUOUS
 62
     7
 10
90.795672
 20
-570.59552
 11
160.49551
 21
-500.89554
  0
LINE
  8
0
  6
CONTINUOUS
 62
     7
 10
80.019376
 20
-570.59552
 11
149.71922
 21
-500.89554
  0
LINE
  8
0
  6
CONTINUOUS
 62
     7
 10
69.243079
 20
-570.59552
 11
138.94292
 21
-500.89554
  0
LINE
  8
0
  6
CONTINUOUS
 62
     7
 10
58.466783
 20
-570.59552
 11
128.16663
 21
-500.89554
  0
LINE
  8
0
  6
CONTINUOUS
 62
     7
 10
47.690486
 20
-570.59552
 11
117.39033
 21
-500.89554
  0
LINE
  8
0
  6
CONTINUOUS
 62
     7
 10
36.91419
 20
-570.59552
 11
106.61403
 21
-500.89554
  0
LINE
  8
0
  6
CONTINUOUS
 62
     7
 10
26.137894
 20
-570.59552
 11
95.837736
 21
-500.89554
  0
LINE
  8
0
  6
CONTINUOUS
 62
     7
 10
15.361597
 20
-570.59552
 11
85.061439
 21
-500.89554
  0
LINE
  8
0
  6
CONTINUOUS
 62
     7
 10
4.5853007
 20
-570.59552
 11
74.285143
 21
-500.89554
  0
LINE
  8
0
  6
CONTINUOUS
 62
     7
 10
-6.1909957
 20
-570.59552
 11
63.508847
 21
-500.89554
  0
LINE
  8
0
  6
CONTINUOUS
 62
     7
 10
-16.967292
 20
-570.59552
 11
52.73255
 21
-500.89554
  0
LINE
  8
0
  6
CONTINUOUS
 62
     7
 10
-27.743589
 20
-570.59552
 11
41.956254
 21
-500.89554
  0
LINE
  8
0
  6
CONTINUOUS
 62
     7
 10
-38.519885
 20
-570.59552
 11
31.179957
 21
-500.89554
  0
LINE
  8
0
  6
CONTINUOUS
 62
     7
 10
-49.296181
 20
-570.59552
 11
20.403661
 21
-500.89554
  0
LINE
  8
0
  6
CONTINUOUS
 62
     7
 10
-60.072478
 20
-570.59552
 11
9.6273645
 21
-500.89554
  0
LINE
  8
0
  6
CONTINUOUS
 62
     7
 10
-70.848774
 20
-570.59552
 11
-1.1489319
 21
-500.89554
  0
LINE
  8
0
  6
CONTINUOUS
 62
     7
 10
-81.625071
 20
-570.59552
 11
-11.925228
 21
-500.89554
  0
LINE
  8
0
  6
CONTINUOUS
 62
     7
 10
-92.401367
 20
-570.59552
 11
-22.701525
 21
-500.89554
  0
LINE
  8
0
  6
CONTINUOUS
 62
     7
 10
-103.17766
 20
-570.59552
 11
-33.477821
 21
-500.89554
  0
LINE
  8
0
  6
CONTINUOUS
 62
     7
 10
-113.95396
 20
-570.59552
 11
-44.254117
 21
-500.89554
  0
LINE
  8
0
  6
CONTINUOUS
 62
     7
 10
-124.73026
 20
-570.59552
 11
-55.030414
 21
-500.89554
  0
LINE
  8
0
  6
CONTINUOUS
 62
     7
 10
-135.50655
 20
-570.59552
 11
-65.80671
 21
-500.89554
  0
LINE
  8
0
  6
CONTINUOUS
 62
     7
 10
-146.28285
 20
-570.59552
 11
-76.583007
 21
-500.89554
  0
LINE
  8
0
  6
CONTINUOUS
 62
     7
 10
-157.05915
 20
-570.59552
 11
-87.359303
 21
-500.89554
  0
LINE
  8
0
  6
CONTINUOUS
 62
     7
 10
-167.83544
 20
-570.59552
 11
-98.1356
 21
-500.89554
  0
LINE
  8
0
  6
CONTINUOUS
 62
     7
 10
-170.52991
 20
-562.51367
 11
-108.9119
 21
-500.89554
  0
LINE
  8
0
  6
CONTINUOUS
 62
     7
 10
-170.52991
 20
-551.73735
 11
-119.68819
 21
-500.89554
  0
LINE
  8
0
  6
CONTINUOUS
 62
     7
 10
-170.52991
 20
-540.96104
 11
-130.46449
 21
-500.89554
  0
LINE
  8
0
  6
CONTINUOUS
 62
     7
 10
-170.52991
 20
-530.18472
 11
-141.24079
 21
-500.89554
  0
LINE
  8
0
  6
CONTINUOUS
 62
     7
 10
-170.52991
 20
-519.4084
 11
-152.01708
 21
-500.89554
  0
LINE
  8
0
  6
CONTINUOUS
 62
     7
 10
-170.52991
 20
-508.63208
 11
-162.79338
 21
-500.89554
  0
LINE
  8
0
  6
CONTINUOUS
 62
     7
 10
195.86456
 20
-570.59552
 11
197.47009
 21
-568.98999
  0
LINE
  8
0
  6
CONTINUOUS
 62
     7
 10
185.08827
 20
-570.59552
 11
197.47009
 21
-558.21367
  0
LINE
  8
0
  6
CONTINUOUS
 62
     7
 10
174.31197
 20
-570.59552
 11
197.47009
 21
-547.43735
  0
LINE
  8
0
  6
CONTINUOUS
 62
     7
 10
163.53567
 20
-570.59552
 11
197.47009
 21
-536.66103
  0
LINE
  8
0
  6
CONTINUOUS
 62
     7
 10
152.75938
 20
-570.59552
 11
197.47009
 21
-525.88471
  0
LINE
  8
0
  6
CONTINUOUS
 62
     7
 10
141.98308
 20
-570.59552
 11
197.47009
 21
-515.1084
  0
LINE
  8
0
  6
CONTINUOUS
 62
     7
 10
131.20678
 20
-570.59552
 11
197.47009
 21
-504.33208
  0
LINE
  8
0
  6
CONTINUOUS
 62
     7
 10
120.43049
 20
-570.59552
 11
190.13033
 21
-500.89554
  0
LINE
  8
0
  6
CONTINUOUS
 62
     7
 10
109.65419
 20
-570.59552
 11
179.35403
 21
-500.89554
  0
LINE
  8
0
  6
CONTINUOUS
 62
     7
 10
98.877894
 20
-570.59552
 11
168.57774
 21
-500.89554
  0
LINE
  8
0
  6
CONTINUOUS
 62
     7
 10
88.101598
 20
-570.59552
 11
157.80144
 21
-500.89554
  0
LINE
  8
0
  6
CONTINUOUS
 62
     7
 10
77.325301
 20
-570.59552
 11
147.02514
 21
-500.89554
  0
LINE
  8
0
  6
CONTINUOUS
 62
     7
 10
66.549005
 20
-570.59552
 11
136.24885
 21
-500.89554
  0
LINE
  8
0
  6
CONTINUOUS
 62
     7
 10
55.772708
 20
-570.59552
 11
125.47255
 21
-500.89554
  0
LINE
  8
0
  6
CONTINUOUS
 62
     7
 10
44.996412
 20
-570.59552
 11
114.69625
 21
-500.89554
  0
LINE
  8
0
  6
CONTINUOUS
 62
     7
 10
34.220116
 20
-570.59552
 11
103.91996
 21
-500.89554
  0
LINE
  8
0
  6
CONTINUOUS
 62
     7
 10
23.443819
 20
-570.59552
 11
93.143662
 21
-500.89554
  0
LINE
  8
0
  6
CONTINUOUS
 62
     7
 10
12.667523
 20
-570.59552
 11
82.367365
 21
-500.89554
  0
LINE
  8
0
  6
CONTINUOUS
 62
     7
 10
1.8912264
 20
-570.59552
 11
71.591069
 21
-500.89554
  0
LINE
  8
0
  6
CONTINUOUS
 62
     7
 10
-8.88507
 20
-570.59552
 11
60.814772
 21
-500.89554
  0
LINE
  8
0
  6
CONTINUOUS
 62
     7
 10
-19.661366
 20
-570.59552
 11
50.038476
 21
-500.89554
  0
LINE
  8
0
  6
CONTINUOUS
 62
     7
 10
-30.437663
 20
-570.59552
 11
39.262179
 21
-500.89554
  0
LINE
  8
0
  6
CONTINUOUS
 62
     7
 10
-41.213959
 20
-570.59552
 11
28.485883
 21
-500.89554
  0
LINE
  8
0
  6
CONTINUOUS
 62
     7
 10
-51.990256
 20
-570.59552
 11
17.709587
 21
-500.89554
  0
LINE
  8
0
  6
CONTINUOUS
 62
     7
 10
-62.766552
 20
-570.59552
 11
6.9332903
 21
-500.89554
  0
LINE
  8
0
  6
CONTINUOUS
 62
     7
 10
-73.542848
 20
-570.59552
 11
-3.8430061
 21
-500.89554
  0
LINE
  8
0
  6
CONTINUOUS
 62
     7
 10
-84.319145
 20
-570.59552
 11
-14.619303
 21
-500.89554
  0
LINE
  8
0
  6
CONTINUOUS
 62
     7
 10
-95.095441
 20
-570.59552
 11
-25.395599
 21
-500.89554
  0
LINE
  8
0
  6
CONTINUOUS
 62
     7
 10
-105.87174
 20
-570.59552
 11
-36.171895
 21
-500.89554
  0
LINE
  8
0
  6
CONTINUOUS
 62
     7
 10
-116.64803
 20
-570.59552
 11
-46.948192
 21
-500.89554
  0
LINE
  8
0
  6
CONTINUOUS
 62
     7
 10
-127.42433
 20
-570.59552
 11
-57.724488
 21
-500.89554
  0
LINE
  8
0
  6
CONTINUOUS
 62
     7
 10
-138.20063
 20
-570.59552
 11
-68.500785
 21
-500.89554
  0
LINE
  8
0
  6
CONTINUOUS
 62
     7
 10
-148.97692
 20
-570.59552
 11
-79.277081
 21
-500.89554
  0
LINE
  8
0
  6
CONTINUOUS
 62
     7
 10
-159.75322
 20
-570.59552
 11
-90.053377
 21
-500.89554
  0
LINE
  8
0
  6
CONTINUOUS
 62
     7
 10
-170.52952
 20
-570.59552
 11
-100.82967
 21
-500.89554
  0
LINE
  8
0
  6
CONTINUOUS
 62
     7
 10
-170.52991
 20
-559.81959
 11
-111.60597
 21
-500.89554
  0
LINE
  8
0
  6
CONTINUOUS
 62
     7
 10
-170.52991
 20
-549.04328
 11
-122.38227
 21
-500.89554
  0
LINE
  8
0
  6
CONTINUOUS
 62
     7
 10
-170.52991
 20
-538.26696
 11
-133.15856
 21
-500.89554
  0
LINE
  8
0
  6
CONTINUOUS
 62
     7
 10
-170.52991
 20
-527.49064
 11
-143.93486
 21
-500.89554
  0
LINE
  8
0
  6
CONTINUOUS
 62
     7
 10
-170.52991
 20
-516.71432
 11
-154.71116
 21
-500.89554
  0
LINE
  8
0
  6
CONTINUOUS
 62
     7
 10
-170.52991
 20
-505.938
 11
-165.48745
 21
-500.89554
  0
LINE
  8
0
  6
CONTINUOUS
 62
     7
 10
193.17049
 20
-570.59552
 11
197.47009
 21
-566.29591
  0
LINE
  8
0
  6
CONTINUOUS
 62
     7
 10
182.39419
 20
-570.59552
 11
197.47009
 21
-555.51959
  0
LINE
  8
0
  6
CONTINUOUS
 62
     7
 10
171.61789
 20
-570.59552
 11
197.47009
 21
-544.74327
  0
LINE
  8
0
  6
CONTINUOUS
 62
     7
 10
160.8416
 20
-570.59552
 11
197.47009
 21
-533.96695
  0
LINE
  8
0
  6
CONTINUOUS
 62
     7
 10
150.0653
 20
-570.59552
 11
197.47009
 21
-523.19063
  0
LINE
  8
0
  6
CONTINUOUS
 62
     7
 10
139.28901
 20
-570.59552
 11
197.47009
 21
-512.41432
  0
LINE
  8
0
  6
CONTINUOUS
 62
     7
 10
128.51271
 20
-570.59552
 11
197.47009
 21
-501.638
  0
LINE
  8
0
  6
CONTINUOUS
 62
     7
 10
117.73641
 20
-570.59552
 11
187.43626
 21
-500.89554
  0
LINE
  8
0
  6
CONTINUOUS
 62
     7
 10
106.96012
 20
-570.59552
 11
176.65996
 21
-500.89554
  0
LINE
  8
0
  6
CONTINUOUS
 62
     7
 10
96.18382
 20
-570.59552
 11
165.88366
 21
-500.89554
  0
LINE
  8
0
  6
CONTINUOUS
 62
     7
 10
85.407524
 20
-570.59552
 11
155.10737
 21
-500.89554
  0
LINE
  8
0
  6
CONTINUOUS
 62
     7
 10
74.631227
 20
-570.59552
 11
144.33107
 21
-500.89554
  0
LINE
  8
0
  6
CONTINUOUS
 62
     7
 10
63.854931
 20
-570.59552
 11
133.55477
 21
-500.89554
  0
LINE
  8
0
  6
CONTINUOUS
 62
     7
 10
53.078634
 20
-570.59552
 11
122.77848
 21
-500.89554
  0
LINE
  8
0
  6
CONTINUOUS
 62
     7
 10
42.302338
 20
-570.59552
 11
112.00218
 21
-500.89554
  0
LINE
  8
0
  6
CONTINUOUS
 62
     7
 10
31.526042
 20
-570.59552
 11
101.22588
 21
-500.89554
  0
LINE
  8
0
  6
CONTINUOUS
 62
     7
 10
20.749745
 20
-570.59552
 11
90.449587
 21
-500.89554
  0
LINE
  8
0
  6
CONTINUOUS
 62
     7
 10
9.9734487
 20
-570.59552
 11
79.673291
 21
-500.89554
  0
LINE
  8
0
  6
CONTINUOUS
 62
     7
 10
-0.80284768
 20
-570.59552
 11
68.896995
 21
-500.89554
  0
LINE
  8
0
  6
CONTINUOUS
 62
     7
 10
-11.579144
 20
-570.59552
 11
58.120698
 21
-500.89554
  0
LINE
  8
0
  6
CONTINUOUS
 62
     7
 10
-22.35544
 20
-570.59552
 11
47.344402
 21
-500.89554
  0
LINE
  8
0
  6
CONTINUOUS
 62
     7
 10
-33.131737
 20
-570.59552
 11
36.568105
 21
-500.89554
  0
LINE
  8
0
  6
CONTINUOUS
 62
     7
 10
-43.908033
 20
-570.59552
 11
25.791809
 21
-500.89554
  0
LINE
  8
0
  6
CONTINUOUS
 62
     7
 10
-54.68433
 20
-570.59552
 11
15.015513
 21
-500.89554
  0
LINE
  8
0
  6
CONTINUOUS
 62
     7
 10
-65.460626
 20
-570.59552
 11
4.2392162
 21
-500.89554
  0
LINE
  8
0
  6
CONTINUOUS
 62
     7
 10
-76.236923
 20
-570.59552
 11
-6.5370802
 21
-500.89554
  0
LINE
  8
0
  6
CONTINUOUS
 62
     7
 10
-87.013219
 20
-570.59552
 11
-17.313377
 21
-500.89554
  0
LINE
  8
0
  6
CONTINUOUS
 62
     7
 10
-97.789515
 20
-570.59552
 11
-28.089673
 21
-500.89554
  0
LINE
  8
0
  6
CONTINUOUS
 62
     7
 10
-108.56581
 20
-570.59552
 11
-38.865969
 21
-500.89554
  0
LINE
  8
0
  6
CONTINUOUS
 62
     7
 10
-119.34211
 20
-570.59552
 11
-49.642266
 21
-500.89554
  0
LINE
  8
0
  6
CONTINUOUS
 62
     7
 10
-130.1184
 20
-570.59552
 11
-60.418562
 21
-500.89554
  0
LINE
  8
0
  6
CONTINUOUS
 62
     7
 10
-140.8947
 20
-570.59552
 11
-71.194859
 21
-500.89554
  0
LINE
  8
0
  6
CONTINUOUS
 62
     7
 10
-151.671
 20
-570.59552
 11
-81.971155
 21
-500.89554
  0
LINE
  8
0
  6
CONTINUOUS
 62
     7
 10
-162.44729
 20
-570.59552
 11
-92.747452
 21
-500.89554
  0
LINE
  8
0
  6
CONTINUOUS
 62
     7
 10
-170.52991
 20
-567.90183
 11
-103.52375
 21
-500.89554
  0
LINE
  8
0
  6
CONTINUOUS
 62
     7
 10
-170.52991
 20
-557.12551
 11
-114.30004
 21
-500.89554
  0
LINE
  8
0
  6
CONTINUOUS
 62
     7
 10
-170.52991
 20
-546.3492
 11
-125.07634
 21
-500.89554
  0
LINE
  8
0
  6
CONTINUOUS
 62
     7
 10
-170.52991
 20
-535.57288
 11
-135.85264
 21
-500.89554
  0
LINE
  8
0
  6
CONTINUOUS
 62
     7
 10
-170.52991
 20
-524.79656
 11
-146.62893
 21
-500.89554
  0
LINE
  8
0
  6
CONTINUOUS
 62
     7
 10
-170.52991
 20
-514.02024
 11
-157.40523
 21
-500.89554
  0
LINE
  8
0
  6
CONTINUOUS
 62
     7
 10
-170.52991
 20
-503.24392
 11
-168.18153
 21
-500.89554
  0
LINE
  8
0
  6
CONTINUOUS
 62
     7
 10
190.47641
 20
-570.59552
 11
197.47009
 21
-563.60183
  0
LINE
  8
0
  6
CONTINUOUS
 62
     7
 10
179.70012
 20
-570.59552
 11
197.47009
 21
-552.82551
  0
LINE
  8
0
  6
CONTINUOUS
 62
     7
 10
168.92382
 20
-570.59552
 11
197.47009
 21
-542.04919
  0
LINE
  8
0
  6
CONTINUOUS
 62
     7
 10
158.14752
 20
-570.59552
 11
197.47009
 21
-531.27287
  0
LINE
  8
0
  6
CONTINUOUS
 62
     7
 10
147.37123
 20
-570.59552
 11
197.47009
 21
-520.49655
  0
LINE
  8
0
  6
CONTINUOUS
 62
     7
 10
136.59493
 20
-570.59552
 11
197.47009
 21
-509.72024
  0
LINE
  8
0
  6
CONTINUOUS
 62
     7
 10
125.81863
 20
-570.59552
 11
195.51848
 21
-500.89554
  0
LINE
  8
0
  6
CONTINUOUS
 62
     7
 10
115.04234
 20
-570.59552
 11
184.74218
 21
-500.89554
  0
LINE
  8
0
  6
CONTINUOUS
 62
     7
 10
104.26604
 20
-570.59552
 11
173.96588
 21
-500.89554
  0
LINE
  8
0
  6
CONTINUOUS
 62
     7
 10
93.489746
 20
-570.59552
 11
163.18959
 21
-500.89554
  0
LINE
  8
0
  6
CONTINUOUS
 62
     7
 10
82.713449
 20
-570.59552
 11
152.41329
 21
-500.89554
  0
LINE
  8
0
  6
CONTINUOUS
 62
     7
 10
71.937153
 20
-570.59552
 11
141.637
 21
-500.89554
  0
LINE
  8
0
  6
CONTINUOUS
 62
     7
 10
61.160856
 20
-570.59552
 11
130.8607
 21
-500.89554
  0
LINE
  8
0
  6
CONTINUOUS
 62
     7
 10
50.38456
 20
-570.59552
 11
120.0844
 21
-500.89554
  0
LINE
  8
0
  6
CONTINUOUS
 62
     7
 10
39.608264
 20
-570.59552
 11
109.30811
 21
-500.89554
  0
LINE
  8
0
  6
CONTINUOUS
 62
     7
 10
28.831967
 20
-570.59552
 11
98.53181
 21
-500.89554
  0
LINE
  8
0
  6
CONTINUOUS
 62
     7
 10
18.055671
 20
-570.59552
 11
87.755513
 21
-500.89554
  0
LINE
  8
0
  6
CONTINUOUS
 62
     7
 10
7.2793745
 20
-570.59552
 11
76.979217
 21
-500.89554
  0
LINE
  8
0
  6
CONTINUOUS
 62
     7
 10
-3.496922
 20
-570.59552
 11
66.20292
 21
-500.89554
  0
LINE
  8
0
  6
CONTINUOUS
 62
     7
 10
-14.273218
 20
-570.59552
 11
55.426624
 21
-500.89554
  0
LINE
  8
0
  6
CONTINUOUS
 62
     7
 10
-25.049515
 20
-570.59552
 11
44.650328
 21
-500.89554
  0
LINE
  8
0
  6
CONTINUOUS
 62
     7
 10
-35.825811
 20
-570.59552
 11
33.874031
 21
-500.89554
  0
LINE
  8
0
  6
CONTINUOUS
 62
     7
 10
-46.602108
 20
-570.59552
 11
23.097735
 21
-500.89554
  0
LINE
  8
0
  6
CONTINUOUS
 62
     7
 10
-57.378404
 20
-570.59552
 11
12.321438
 21
-500.89554
  0
LINE
  8
0
  6
CONTINUOUS
 62
     7
 10
-68.1547
 20
-570.59552
 11
1.5451419
 21
-500.89554
  0
LINE
  8
0
  6
CONTINUOUS
 62
     7
 10
-78.930997
 20
-570.59552
 11
-9.2311545
 21
-500.89554
  0
LINE
  8
0
  6
CONTINUOUS
 62
     7
 10
-89.707293
 20
-570.59552
 11
-20.007451
 21
-500.89554
  0
LINE
  8
0
  6
CONTINUOUS
 62
     7
 10
-100.48359
 20
-570.59552
 11
-30.783747
 21
-500.89554
  0
LINE
  8
0
  6
CONTINUOUS
 62
     7
 10
-111.25989
 20
-570.59552
 11
-41.560044
 21
-500.89554
  0
LINE
  8
0
  6
CONTINUOUS
 62
     7
 10
-122.03618
 20
-570.59552
 11
-52.33634
 21
-500.89554
  0
LINE
  8
0
  6
CONTINUOUS
 62
     7
 10
-132.81248
 20
-570.59552
 11
-63.112637
 21
-500.89554
  0
LINE
  8
0
  6
CONTINUOUS
 62
     7
 10
-143.58878
 20
-570.59552
 11
-73.888933
 21
-500.89554
  0
LINE
  8
0
  6
CONTINUOUS
 62
     7
 10
-154.36507
 20
-570.59552
 11
-84.665229
 21
-500.89554
  0
LINE
  8
0
  6
CONTINUOUS
 62
     7
 10
-165.14137
 20
-570.59552
 11
-95.441526
 21
-500.89554
  0
LINE
  8
0
  6
CONTINUOUS
 62
     7
 10
-170.52991
 20
-565.20775
 11
-106.21782
 21
-500.89554
  0
LINE
  8
0
  6
CONTINUOUS
 62
     7
 10
-170.52991
 20
-554.43143
 11
-116.99412
 21
-500.89554
  0
LINE
  8
0
  6
CONTINUOUS
 62
     7
 10
-170.52991
 20
-543.65512
 11
-127.77041
 21
-500.89554
  0
LINE
  8
0
  6
CONTINUOUS
 62
     7
 10
-170.52991
 20
-532.8788
 11
-138.54671
 21
-500.89554
  0
LINE
  8
0
  6
CONTINUOUS
 62
     7
 10
-170.52991
 20
-522.10248
 11
-149.32301
 21
-500.89554
  0
LINE
  8
0
  6
CONTINUOUS
 62
     7
 10
-170.52991
 20
-511.32616
 11
-160.0993
 21
-500.89554
  0
LINE
  8
0
  6
CONTINUOUS
 62
     7
 10
-170.52991
 20
-566.26456
 11
-166.19894
 21
-570.59552
  0
LINE
  8
0
  6
CONTINUOUS
 62
     7
 10
-170.52991
 20
-555.48826
 11
-155.42262
 21
-570.59552
  0
LINE
  8
0
  6
CONTINUOUS
 62
     7
 10
-170.52991
 20
-544.71197
 11
-144.6463
 21
-570.59552
  0
LINE
  8
0
  6
CONTINUOUS
 62
     7
 10
-170.52991
 20
-533.93567
 11
-133.86998
 21
-570.59552
  0
LINE
  8
0
  6
CONTINUOUS
 62
     7
 10
-170.52991
 20
-523.15937
 11
-123.09367
 21
-570.59552
  0
LINE
  8
0
  6
CONTINUOUS
 62
     7
 10
-170.52991
 20
-512.38308
 11
-112.31735
 21
-570.59552
  0
LINE
  8
0
  6
CONTINUOUS
 62
     7
 10
-170.52991
 20
-501.60678
 11
-101.54103
 21
-570.59552
  0
LINE
  8
0
  6
CONTINUOUS
 62
     7
 10
-160.46483
 20
-500.89554
 11
-90.764712
 21
-570.59552
  0
LINE
  8
0
  6
CONTINUOUS
 62
     7
 10
-149.68852
 20
-500.89554
 11
-79.988394
 21
-570.59552
  0
LINE
  8
0
  6
CONTINUOUS
 62
     7
 10
-138.9122
 20
-500.89554
 11
-69.212076
 21
-570.59552
  0
LINE
  8
0
  6
CONTINUOUS
 62
     7
 10
-128.13588
 20
-500.89554
 11
-58.435758
 21
-570.59552
  0
LINE
  8
0
  6
CONTINUOUS
 62
     7
 10
-117.35956
 20
-500.89554
 11
-47.65944
 21
-570.59552
  0
LINE
  8
0
  6
CONTINUOUS
 62
     7
 10
-106.58324
 20
-500.89554
 11
-36.883122
 21
-570.59552
  0
LINE
  8
0
  6
CONTINUOUS
 62
     7
 10
-95.806926
 20
-500.89554
 11
-26.106805
 21
-570.59552
  0
LINE
  8
0
  6
CONTINUOUS
 62
     7
 10
-85.030608
 20
-500.89554
 11
-15.330487
 21
-570.59552
  0
LINE
  8
0
  6
CONTINUOUS
 62
     7
 10
-74.25429
 20
-500.89554
 11
-4.5541686
 21
-570.59552
  0
LINE
  8
0
  6
CONTINUOUS
 62
     7
 10
-63.477972
 20
-500.89554
 11
6.2221494
 21
-570.59552
  0
LINE
  8
0
  6
CONTINUOUS
 62
     7
 10
-52.701654
 20
-500.89554
 11
16.998467
 21
-570.59552
  0
LINE
  8
0
  6
CONTINUOUS
 62
     7
 10
-41.925336
 20
-500.89554
 11
27.774785
 21
-570.59552
  0
LINE
  8
0
  6
CONTINUOUS
 62
     7
 10
-31.149018
 20
-500.89554
 11
38.551103
 21
-570.59552
  0
LINE
  8
0
  6
CONTINUOUS
 62
     7
 10
-20.3727
 20
-500.89554
 11
49.327421
 21
-570.59552
  0
LINE
  8
0
  6
CONTINUOUS
 62
     7
 10
-9.5963819
 20
-500.89554
 11
60.103739
 21
-570.59552
  0
LINE
  8
0
  6
CONTINUOUS
 62
     7
 10
1.179936
 20
-500.89554
 11
70.880057
 21
-570.59552
  0
LINE
  8
0
  6
CONTINUOUS
 62
     7
 10
11.956254
 20
-500.89554
 11
81.656375
 21
-570.59552
  0
LINE
  8
0
  6
CONTINUOUS
 62
     7
 10
22.732572
 20
-500.89554
 11
92.432693
 21
-570.59552
  0
LINE
  8
0
  6
CONTINUOUS
 62
     7
 10
33.50889
 20
-500.89554
 11
103.20901
 21
-570.59552
  0
LINE
  8
0
  6
CONTINUOUS
 62
     7
 10
44.285208
 20
-500.89554
 11
113.98533
 21
-570.59552
  0
LINE
  8
0
  6
CONTINUOUS
 62
     7
 10
55.061526
 20
-500.89554
 11
124.76165
 21
-570.59552
  0
LINE
  8
0
  6
CONTINUOUS
 62
     7
 10
65.837844
 20
-500.89554
 11
135.53796
 21
-570.59552
  0
LINE
  8
0
  6
CONTINUOUS
 62
     7
 10
76.614162
 20
-500.89554
 11
146.31428
 21
-570.59552
  0
LINE
  8
0
  6
CONTINUOUS
 62
     7
 10
87.39048
 20
-500.89554
 11
157.0906
 21
-570.59552
  0
LINE
  8
0
  6
CONTINUOUS
 62
     7
 10
98.166798
 20
-500.89554
 11
167.86692
 21
-570.59552
  0
LINE
  8
0
  6
CONTINUOUS
 62
     7
 10
108.94312
 20
-500.89554
 11
178.64324
 21
-570.59552
  0
LINE
  8
0
  6
CONTINUOUS
 62
     7
 10
119.71943
 20
-500.89554
 11
189.41955
 21
-570.59552
  0
LINE
  8
0
  6
CONTINUOUS
 62
     7
 10
130.49575
 20
-500.89554
 11
197.47009
 21
-567.86975
  0
LINE
  8
0
  6
CONTINUOUS
 62
     7
 10
141.27207
 20
-500.89554
 11
197.47009
 21
-557.09345
  0
LINE
  8
0
  6
CONTINUOUS
 62
     7
 10
152.04839
 20
-500.89554
 11
197.47009
 21
-546.31715
  0
LINE
  8
0
  6
CONTINUOUS
 62
     7
 10
162.82471
 20
-500.89554
 11
197.47009
 21
-535.54086
  0
LINE
  8
0
  6
CONTINUOUS
 62
     7
 10
173.60102
 20
-500.89554
 11
197.47009
 21
-524.76456
  0
LINE
  8
0
  6
CONTINUOUS
 62
     7
 10
184.37734
 20
-500.89554
 11
197.47009
 21
-513.98826
  0
LINE
  8
0
  6
CONTINUOUS
 62
     7
 10
195.15366
 20
-500.89554
 11
197.47009
 21
-503.21197
  0
LINE
  8
0
  6
CONTINUOUS
 62
     7
 10
-170.52991
 20
-563.57049
 11
-163.50486
 21
-570.59552
  0
LINE
  8
0
  6
CONTINUOUS
 62
     7
 10
-170.52991
 20
-552.79419
 11
-152.72854
 21
-570.59552
  0
LINE
  8
0
  6
CONTINUOUS
 62
     7
 10
-170.52991
 20
-542.01789
 11
-141.95222
 21
-570.59552
  0
LINE
  8
0
  6
CONTINUOUS
 62
     7
 10
-170.52991
 20
-531.2416
 11
-131.1759
 21
-570.59552
  0
LINE
  8
0
  6
CONTINUOUS
 62
     7
 10
-170.52991
 20
-520.4653
 11
-120.39959
 21
-570.59552
  0
LINE
  8
0
  6
CONTINUOUS
 62
     7
 10
-170.52991
 20
-509.689
 11
-109.62327
 21
-570.59552
  0
LINE
  8
0
  6
CONTINUOUS
 62
     7
 10
-168.54707
 20
-500.89554
 11
-98.846951
 21
-570.59552
  0
LINE
  8
0
  6
CONTINUOUS
 62
     7
 10
-157.77075
 20
-500.89554
 11
-88.070633
 21
-570.59552
  0
LINE
  8
0
  6
CONTINUOUS
 62
     7
 10
-146.99444
 20
-500.89554
 11
-77.294315
 21
-570.59552
  0
LINE
  8
0
  6
CONTINUOUS
 62
     7
 10
-136.21812
 20
-500.89554
 11
-66.517997
 21
-570.59552
  0
LINE
  8
0
  6
CONTINUOUS
 62
     7
 10
-125.4418
 20
-500.89554
 11
-55.741679
 21
-570.59552
  0
LINE
  8
0
  6
CONTINUOUS
 62
     7
 10
-114.66548
 20
-500.89554
 11
-44.965361
 21
-570.59552
  0
LINE
  8
0
  6
CONTINUOUS
 62
     7
 10
-103.88916
 20
-500.89554
 11
-34.189043
 21
-570.59552
  0
LINE
  8
0
  6
CONTINUOUS
 62
     7
 10
-93.112846
 20
-500.89554
 11
-23.412725
 21
-570.59552
  0
LINE
  8
0
  6
CONTINUOUS
 62
     7
 10
-82.336528
 20
-500.89554
 11
-12.636407
 21
-570.59552
  0
LINE
  8
0
  6
CONTINUOUS
 62
     7
 10
-71.56021
 20
-500.89554
 11
-1.8600889
 21
-570.59552
  0
LINE
  8
0
  6
CONTINUOUS
 62
     7
 10
-60.783892
 20
-500.89554
 11
8.916229
 21
-570.59552
  0
LINE
  8
0
  6
CONTINUOUS
 62
     7
 10
-50.007574
 20
-500.89554
 11
19.692547
 21
-570.59552
  0
LINE
  8
0
  6
CONTINUOUS
 62
     7
 10
-39.231256
 20
-500.89554
 11
30.468865
 21
-570.59552
  0
LINE
  8
0
  6
CONTINUOUS
 62
     7
 10
-28.454938
 20
-500.89554
 11
41.245183
 21
-570.59552
  0
LINE
  8
0
  6
CONTINUOUS
 62
     7
 10
-17.67862
 20
-500.89554
 11
52.021501
 21
-570.59552
  0
LINE
  8
0
  6
CONTINUOUS
 62
     7
 10
-6.9023023
 20
-500.89554
 11
62.797819
 21
-570.59552
  0
LINE
  8
0
  6
CONTINUOUS
 62
     7
 10
3.8740157
 20
-500.89554
 11
73.574137
 21
-570.59552
  0
LINE
  8
0
  6
CONTINUOUS
 62
     7
 10
14.650334
 20
-500.89554
 11
84.350455
 21
-570.59552
  0
LINE
  8
0
  6
CONTINUOUS
 62
     7
 10
25.426652
 20
-500.89554
 11
95.126773
 21
-570.59552
  0
LINE
  8
0
  6
CONTINUOUS
 62
     7
 10
36.20297
 20
-500.89554
 11
105.90309
 21
-570.59552
  0
LINE
  8
0
  6
CONTINUOUS
 62
     7
 10
46.979288
 20
-500.89554
 11
116.67941
 21
-570.59552
  0
LINE
  8
0
  6
CONTINUOUS
 62
     7
 10
57.755605
 20
-500.89554
 11
127.45573
 21
-570.59552
  0
LINE
  8
0
  6
CONTINUOUS
 62
     7
 10
68.531923
 20
-500.89554
 11
138.23204
 21
-570.59552
  0
LINE
  8
0
  6
CONTINUOUS
 62
     7
 10
79.308241
 20
-500.89554
 11
149.00836
 21
-570.59552
  0
LINE
  8
0
  6
CONTINUOUS
 62
     7
 10
90.084559
 20
-500.89554
 11
159.78468
 21
-570.59552
  0
LINE
  8
0
  6
CONTINUOUS
 62
     7
 10
100.86088
 20
-500.89554
 11
170.561
 21
-570.59552
  0
LINE
  8
0
  6
CONTINUOUS
 62
     7
 10
111.6372
 20
-500.89554
 11
181.33732
 21
-570.59552
  0
LINE
  8
0
  6
CONTINUOUS
 62
     7
 10
122.41351
 20
-500.89554
 11
192.11363
 21
-570.59552
  0
LINE
  8
0
  6
CONTINUOUS
 62
     7
 10
133.18983
 20
-500.89554
 11
197.47009
 21
-565.17567
  0
LINE
  8
0
  6
CONTINUOUS
 62
     7
 10
143.96615
 20
-500.89554
 11
197.47009
 21
-554.39937
  0
LINE
  8
0
  6
CONTINUOUS
 62
     7
 10
154.74247
 20
-500.89554
 11
197.47009
 21
-543.62308
  0
LINE
  8
0
  6
CONTINUOUS
 62
     7
 10
165.51879
 20
-500.89554
 11
197.47009
 21
-532.84678
  0
LINE
  8
0
  6
CONTINUOUS
 62
     7
 10
176.2951
 20
-500.89554
 11
197.47009
 21
-522.07049
  0
LINE
  8
0
  6
CONTINUOUS
 62
     7
 10
187.07142
 20
-500.89554
 11
197.47009
 21
-511.29419
  0
LINE
  8
0
  6
CONTINUOUS
 62
     7
 10
-170.52991
 20
-560.87641
 11
-160.81078
 21
-570.59552
  0
LINE
  8
0
  6
CONTINUOUS
 62
     7
 10
-170.52991
 20
-550.10011
 11
-150.03446
 21
-570.59552
  0
LINE
  8
0
  6
CONTINUOUS
 62
     7
 10
-170.52991
 20
-539.32382
 11
-139.25814
 21
-570.59552
  0
LINE
  8
0
  6
CONTINUOUS
 62
     7
 10
-170.52991
 20
-528.54752
 11
-128.48182
 21
-570.59552
  0
LINE
  8
0
  6
CONTINUOUS
 62
     7
 10
-170.52991
 20
-517.77123
 11
-117.70551
 21
-570.59552
  0
LINE
  8
0
  6
CONTINUOUS
 62
     7
 10
-170.52991
 20
-506.99493
 11
-106.92919
 21
-570.59552
  0
LINE
  8
0
  6
CONTINUOUS
 62
     7
 10
-165.85299
 20
-500.89554
 11
-96.152871
 21
-570.59552
  0
LINE
  8
0
  6
CONTINUOUS
 62
     7
 10
-155.07667
 20
-500.89554
 11
-85.376553
 21
-570.59552
  0
LINE
  8
0
  6
CONTINUOUS
 62
     7
 10
-144.30036
 20
-500.89554
 11
-74.600235
 21
-570.59552
  0
LINE
  8
0
  6
CONTINUOUS
 62
     7
 10
-133.52404
 20
-500.89554
 11
-63.823917
 21
-570.59552
  0
LINE
  8
0
  6
CONTINUOUS
 62
     7
 10
-122.74772
 20
-500.89554
 11
-53.047599
 21
-570.59552
  0
LINE
  8
0
  6
CONTINUOUS
 62
     7
 10
-111.9714
 20
-500.89554
 11
-42.271281
 21
-570.59552
  0
LINE
  8
0
  6
CONTINUOUS
 62
     7
 10
-101.19508
 20
-500.89554
 11
-31.494963
 21
-570.59552
  0
LINE
  8
0
  6
CONTINUOUS
 62
     7
 10
-90.418766
 20
-500.89554
 11
-20.718645
 21
-570.59552
  0
LINE
  8
0
  6
CONTINUOUS
 62
     7
 10
-79.642448
 20
-500.89554
 11
-9.9423274
 21
-570.59552
  0
LINE
  8
0
  6
CONTINUOUS
 62
     7
 10
-68.866131
 20
-500.89554
 11
0.83399055
 21
-570.59552
  0
LINE
  8
0
  6
CONTINUOUS
 62
     7
 10
-58.089813
 20
-500.89554
 11
11.610309
 21
-570.59552
  0
LINE
  8
0
  6
CONTINUOUS
 62
     7
 10
-47.313495
 20
-500.89554
 11
22.386626
 21
-570.59552
  0
LINE
  8
0
  6
CONTINUOUS
 62
     7
 10
-36.537177
 20
-500.89554
 11
33.162944
 21
-570.59552
  0
LINE
  8
0
  6
CONTINUOUS
 62
     7
 10
-25.760859
 20
-500.89554
 11
43.939262
 21
-570.59552
  0
LINE
  8
0
  6
CONTINUOUS
 62
     7
 10
-14.984541
 20
-500.89554
 11
54.71558
 21
-570.59552
  0
LINE
  8
0
  6
CONTINUOUS
 62
     7
 10
-4.2082228
 20
-500.89554
 11
65.491898
 21
-570.59552
  0
LINE
  8
0
  6
CONTINUOUS
 62
     7
 10
6.5680952
 20
-500.89554
 11
76.268216
 21
-570.59552
  0
LINE
  8
0
  6
CONTINUOUS
 62
     7
 10
17.344413
 20
-500.89554
 11
87.044534
 21
-570.59552
  0
LINE
  8
0
  6
CONTINUOUS
 62
     7
 10
28.120731
 20
-500.89554
 11
97.820852
 21
-570.59552
  0
LINE
  8
0
  6
CONTINUOUS
 62
     7
 10
38.897049
 20
-500.89554
 11
108.59717
 21
-570.59552
  0
LINE
  8
0
  6
CONTINUOUS
 62
     7
 10
49.673367
 20
-500.89554
 11
119.37349
 21
-570.59552
  0
LINE
  8
0
  6
CONTINUOUS
 62
     7
 10
60.449685
 20
-500.89554
 11
130.14981
 21
-570.59552
  0
LINE
  8
0
  6
CONTINUOUS
 62
     7
 10
71.226003
 20
-500.89554
 11
140.92612
 21
-570.59552
  0
LINE
  8
0
  6
CONTINUOUS
 62
     7
 10
82.002321
 20
-500.89554
 11
151.70244
 21
-570.59552
  0
LINE
  8
0
  6
CONTINUOUS
 62
     7
 10
92.778639
 20
-500.89554
 11
162.47876
 21
-570.59552
  0
LINE
  8
0
  6
CONTINUOUS
 62
     7
 10
103.55496
 20
-500.89554
 11
173.25508
 21
-570.59552
  0
LINE
  8
0
  6
CONTINUOUS
 62
     7
 10
114.33127
 20
-500.89554
 11
184.0314
 21
-570.59552
  0
LINE
  8
0
  6
CONTINUOUS
 62
     7
 10
125.10759
 20
-500.89554
 11
194.80771
 21
-570.59552
  0
LINE
  8
0
  6
CONTINUOUS
 62
     7
 10
135.88391
 20
-500.89554
 11
197.47009
 21
-562.4816
  0
LINE
  8
0
  6
CONTINUOUS
 62
     7
 10
146.66023
 20
-500.89554
 11
197.47009
 21
-551.7053
  0
LINE
  8
0
  6
CONTINUOUS
 62
     7
 10
157.43655
 20
-500.89554
 11
197.47009
 21
-540.929
  0
LINE
  8
0
  6
CONTINUOUS
 62
     7
 10
168.21286
 20
-500.89554
 11
197.47009
 21
-530.15271
  0
LINE
  8
0
  6
CONTINUOUS
 62
     7
 10
178.98918
 20
-500.89554
 11
197.47009
 21
-519.37641
  0
LINE
  8
0
  6
CONTINUOUS
 62
     7
 10
189.7655
 20
-500.89554
 11
197.47009
 21
-508.60012
  0
LINE
  8
0
  6
CONTINUOUS
 62
     7
 10
-170.52991
 20
-568.95863
 11
-168.89302
 21
-570.59552
  0
LINE
  8
0
  6
CONTINUOUS
 62
     7
 10
-170.52991
 20
-558.18234
 11
-158.1167
 21
-570.59552
  0
LINE
  8
0
  6
CONTINUOUS
 62
     7
 10
-170.52991
 20
-547.40604
 11
-147.34038
 21
-570.59552
  0
LINE
  8
0
  6
CONTINUOUS
 62
     7
 10
-170.52991
 20
-536.62974
 11
-136.56406
 21
-570.59552
  0
LINE
  8
0
  6
CONTINUOUS
 62
     7
 10
-170.52991
 20
-525.85345
 11
-125.78775
 21
-570.59552
  0
LINE
  8
0
  6
CONTINUOUS
 62
     7
 10
-170.52991
 20
-515.07715
 11
-115.01143
 21
-570.59552
  0
LINE
  8
0
  6
CONTINUOUS
 62
     7
 10
-170.52991
 20
-504.30085
 11
-104.23511
 21
-570.59552
  0
LINE
  8
0
  6
CONTINUOUS
 62
     7
 10
-163.15891
 20
-500.89554
 11
-93.458791
 21
-570.59552
  0
LINE
  8
0
  6
CONTINUOUS
 62
     7
 10
-152.38259
 20
-500.89554
 11
-82.682473
 21
-570.59552
  0
LINE
  8
0
  6
CONTINUOUS
 62
     7
 10
-141.60628
 20
-500.89554
 11
-71.906156
 21
-570.59552
  0
LINE
  8
0
  6
CONTINUOUS
 62
     7
 10
-130.82996
 20
-500.89554
 11
-61.129838
 21
-570.59552
  0
LINE
  8
0
  6
CONTINUOUS
 62
     7
 10
-120.05364
 20
-500.89554
 11
-50.35352
 21
-570.59552
  0
LINE
  8
0
  6
CONTINUOUS
 62
     7
 10
-109.27732
 20
-500.89554
 11
-39.577202
 21
-570.59552
  0
LINE
  8
0
  6
CONTINUOUS
 62
     7
 10
-98.501005
 20
-500.89554
 11
-28.800884
 21
-570.59552
  0
LINE
  8
0
  6
CONTINUOUS
 62
     7
 10
-87.724687
 20
-500.89554
 11
-18.024566
 21
-570.59552
  0
LINE
  8
0
  6
CONTINUOUS
 62
     7
 10
-76.948369
 20
-500.89554
 11
-7.2482478
 21
-570.59552
  0
LINE
  8
0
  6
CONTINUOUS
 62
     7
 10
-66.172051
 20
-500.89554
 11
3.5280702
 21
-570.59552
  0
LINE
  8
0
  6
CONTINUOUS
 62
     7
 10
-55.395733
 20
-500.89554
 11
14.304388
 21
-570.59552
  0
LINE
  8
0
  6
CONTINUOUS
 62
     7
 10
-44.619415
 20
-500.89554
 11
25.080706
 21
-570.59552
  0
LINE
  8
0
  6
CONTINUOUS
 62
     7
 10
-33.843097
 20
-500.89554
 11
35.857024
 21
-570.59552
  0
LINE
  8
0
  6
CONTINUOUS
 62
     7
 10
-23.066779
 20
-500.89554
 11
46.633342
 21
-570.59552
  0
LINE
  8
0
  6
CONTINUOUS
 62
     7
 10
-12.290461
 20
-500.89554
 11
57.40966
 21
-570.59552
  0
LINE
  8
0
  6
CONTINUOUS
 62
     7
 10
-1.5141431
 20
-500.89554
 11
68.185978
 21
-570.59552
  0
LINE
  8
0
  6
CONTINUOUS
 62
     7
 10
9.2621748
 20
-500.89554
 11
78.962296
 21
-570.59552
  0
LINE
  8
0
  6
CONTINUOUS
 62
     7
 10
20.038493
 20
-500.89554
 11
89.738614
 21
-570.59552
  0
LINE
  8
0
  6
CONTINUOUS
 62
     7
 10
30.814811
 20
-500.89554
 11
100.51493
 21
-570.59552
  0
LINE
  8
0
  6
CONTINUOUS
 62
     7
 10
41.591129
 20
-500.89554
 11
111.29125
 21
-570.59552
  0
LINE
  8
0
  6
CONTINUOUS
 62
     7
 10
52.367447
 20
-500.89554
 11
122.06757
 21
-570.59552
  0
LINE
  8
0
  6
CONTINUOUS
 62
     7
 10
63.143765
 20
-500.89554
 11
132.84389
 21
-570.59552
  0
LINE
  8
0
  6
CONTINUOUS
 62
     7
 10
73.920083
 20
-500.89554
 11
143.6202
 21
-570.59552
  0
LINE
  8
0
  6
CONTINUOUS
 62
     7
 10
84.696401
 20
-500.89554
 11
154.39652
 21
-570.59552
  0
LINE
  8
0
  6
CONTINUOUS
 62
     7
 10
95.472719
 20
-500.89554
 11
165.17284
 21
-570.59552
  0
LINE
  8
0
  6
CONTINUOUS
 62
     7
 10
106.24904
 20
-500.89554
 11
175.94916
 21
-570.59552
  0
LINE
  8
0
  6
CONTINUOUS
 62
     7
 10
117.02535
 20
-500.89554
 11
186.72548
 21
-570.59552
  0
LINE
  8
0
  6
CONTINUOUS
 62
     7
 10
127.80167
 20
-500.89554
 11
197.47009
 21
-570.56382
  0
LINE
  8
0
  6
CONTINUOUS
 62
     7
 10
138.57799
 20
-500.89554
 11
197.47009
 21
-559.78752
  0
LINE
  8
0
  6
CONTINUOUS
 62
     7
 10
149.35431
 20
-500.89554
 11
197.47009
 21
-549.01123
  0
LINE
  8
0
  6
CONTINUOUS
 62
     7
 10
160.13063
 20
-500.89554
 11
197.47009
 21
-538.23493
  0
LINE
  8
0
  6
CONTINUOUS
 62
     7
 10
170.90694
 20
-500.89554
 11
197.47009
 21
-527.45863
  0
LINE
  8
0
  6
CONTINUOUS
 62
     7
 10
181.68326
 20
-500.89554
 11
197.47009
 21
-516.68234
  0
LINE
  8
0
  6
CONTINUOUS
 62
     7
 10
192.45958
 20
-500.89554
 11
197.47009
 21
-505.90604
  0
ENDSEC
  0
EOF
