  0
SECTION
  2
HEADER
  9
$EXTMAX
 10
108.92817
 20
144.14287
  9
$EXTMIN
 10
-311.07183
 20
-153.71428
  0
ENDSEC
  0
SECTION
  2
TABLES
  0
TABLE
  2
LTYPE
 70
    22
  0
LTYPE
  2
CONTINUOUS
 70
    64
  3
Solid line
 72
    65
 73
     0
 40
0.000000
  0
LTYPE
  2
DASHED
 70
    64
  3
__ __ __ __ __ __ __ __ __ __ __ __ __ __ __
 72
    65
 73
     2
 40
3.500000
 49
2.000000
 49
-1.500000
  0
LTYPE
  2
CENTER
 70
    64
  3
____ _ ____ _ ____ _ ____ _ ____ _ ____ _ ____
 72
    65
 73
     4
 40
17.500000
 49
13.000000
 49
-1.500000
 49
1.500000
 49
-1.500000
  0
LTYPE
  2
PHANTOM
 70
    64
  3
_____ _ _ _____ _ _ _____ _ _ _____ _ _ ____  
 72
    65
 73
     6
 40
15.500000
 49
8.000000
 49
-1.500000
 49
1.500000
 49
-1.500000
 49
1.500000
 49
-1.500000
  0
LTYPE
  2
DOT
 70
    64
  3
. . . . . . . . . . . . . . . . . . . . . . . .
 72
    65
 73
     2
 40
0.25
 49
0.0
 49
-0.25
  0
ENDTAB
  0
TABLE
  2
LAYER
 70
     2
  0
LAYER
  2
0
 70
     0
 62
     7
  6
CONTINUOUS
  0
LAYER
  2
1
 70
     0
 62
     7
  6
CONTINUOUS
  0
ENDTAB
  0
TABLE
  2
STYLE
 70
     1
  0
STYLE
  2
STANDARD
 70
     0
 40
0.000000
 41
1.000000
 50
0.000000
 71
     0
 42
0.200000
  3
txt
  4
BIGFONT
  0
ENDTAB
  0
TABLE
  2
VIEW
 70
     0
  0
ENDTAB
  0
ENDSEC
  0
SECTION
  2
BLOCKS
  0
ENDSEC
  0
SECTION
  2
ENTITIES
  0
POINT
  8
0
  6
CONTINUOUS
 62
     7
 10
-401.50162
 20
101.27591
  0
POINT
  8
0
  6
CONTINUOUS
 62
     7
 10
-401.50162
 20
56.199329
  0
POINT
  8
0
  6
CONTINUOUS
 62
     7
 10
-401.50162
 20
5.3851457
  0
POINT
  8
0
  6
CONTINUOUS
 62
     7
 10
-401.50162
 20
-50.685677
  0
POINT
  8
0
  6
CONTINUOUS
 62
     7
 10
-401.50162
 20
-137.66437
  0
POINT
  8
0
  6
CONTINUOUS
 62
     7
 10
-401.50162
 20
-241.56189
  0
POINT
  8
0
  6
CONTINUOUS
 62
     7
 10
-401.50162
 20
-347.29117
  0
POINT
  8
0
  6
CONTINUOUS
 62
     7
 10
-193.66118
 20
-251.91193
  0
POINT
  8
0
  6
CONTINUOUS
 62
     7
 10
-261.88416
 20
-251.91193
  0
POINT
  8
0
  6
CONTINUOUS
 62
     7
 10
-26.649626
 20
-96.209282
  0
POINT
  8
0
  6
CONTINUOUS
 62
     7
 10
-96.322601
 20
-96.209282
  0
POINT
  8
0
  6
CONTINUOUS
 62
     7
 10
-264.94382
 20
-96.209282
  0
POINT
  8
0
  6
CONTINUOUS
 62
     7
 10
-194.82083
 20
-96.209282
  0
POINT
  8
0
  6
CONTINUOUS
 62
     7
 10
-37.368187
 20
-11.21875
  0
POINT
  8
0
  6
CONTINUOUS
 62
     7
 10
-109.24117
 20
-11.21875
  0
POINT
  8
0
  6
CONTINUOUS
 62
     7
 10
-269.70328
 20
-9.858902
  0
POINT
  8
0
  6
CONTINUOUS
 62
     7
 10
-130.53171
 20
64.902344
  0
POINT
  8
0
  6
CONTINUOUS
 62
     7
 10
-63.686237
 20
64.902344
  0
POINT
  8
0
  6
CONTINUOUS
 62
     7
 10
-211.90973
 20
62.892994
  0
POINT
  8
0
  6
CONTINUOUS
 62
     7
 10
-270.1857
 20
62.892994
  0
POINT
  8
0
  6
CONTINUOUS
 62
     7
 10
-196.85031
 20
-9.858902
  0
LINE
  8
0
  6
CENTER
 62
     7
 10
-401.50162
 20
119.69923
 11
-401.50162
 21
80.453743
  0
LINE
  8
0
  6
CENTER
 62
     7
 10
-419.98352
 20
101.27591
 11
-383.7355
 21
101.27591
  0
LINE
  8
0
  6
CONTINUOUS
 62
     7
 10
-385.80695
 20
101.27591
 11
-390.40381
 21
112.37373
  0
LINE
  8
0
  6
CONTINUOUS
 62
     7
 10
-390.40378
 20
112.37373
 11
-401.50162
 21
116.9706
  0
LINE
  8
0
  6
CONTINUOUS
 62
     7
 10
-412.59943
 20
112.37373
 11
-401.50162
 21
116.97059
  0
LINE
  8
0
  6
CONTINUOUS
 62
     7
 10
-417.19629
 20
101.27592
 11
-412.59943
 21
112.37373
  0
LINE
  8
0
  6
CONTINUOUS
 62
     7
 10
-412.59946
 20
90.178085
 11
-417.19632
 21
101.2759
  0
LINE
  8
0
  6
CONTINUOUS
 62
     7
 10
-401.50162
 20
85.581223
 11
-412.59946
 21
90.178093
  0
LINE
  8
0
  6
CONTINUOUS
 62
     7
 10
-390.40381
 20
90.178085
 11
-401.50162
 21
85.581223
  0
LINE
  8
0
  6
CONTINUOUS
 62
     7
 10
-385.80692
 20
101.27591
 11
-390.40381
 21
90.178093
  0
LINE
  8
0
  6
CENTER
 62
     7
 10
-425.552
 20
56.199329
 11
-377.8042
 21
56.199329
  0
LINE
  8
0
  6
CONTINUOUS
 62
     7
 10
-383.10095
 20
56.199326
 11
-388.49039
 21
69.210556
  0
LINE
  8
0
  6
CONTINUOUS
 62
     7
 10
-388.49039
 20
69.210571
 11
-401.50162
 21
74.599998
  0
LINE
  8
0
  6
CONTINUOUS
 62
     7
 10
-414.51285
 20
69.210564
 11
-401.50165
 21
74.599991
  0
LINE
  8
0
  6
CONTINUOUS
 62
     7
 10
-419.90228
 20
56.199326
 11
-414.51285
 21
69.210564
  0
LINE
  8
0
  6
CONTINUOUS
 62
     7
 10
-414.51288
 20
43.188091
 11
-419.90228
 21
56.199318
  0
LINE
  8
0
  6
CONTINUOUS
 62
     7
 10
-401.50162
 20
37.798664
 11
-414.51285
 21
43.188091
  0
LINE
  8
0
  6
CONTINUOUS
 62
     7
 10
-388.49039
 20
43.188084
 11
-401.50162
 21
37.798656
  0
LINE
  8
0
  6
CONTINUOUS
 62
     7
 10
-383.10095
 20
56.199326
 11
-388.49039
 21
43.188091
  0
LINE
  8
0
  6
CENTER
 62
     7
 10
-401.50162
 20
78.522614
 11
-401.50162
 21
35.072231
  0
LINE
  8
0
  6
CENTER
 62
     7
 10
-430.80862
 20
5.3851457
 11
-372.54755
 21
5.3851457
  0
LINE
  8
0
  6
CONTINUOUS
 62
     7
 10
-378.23019
 20
5.3851414
 11
-385.04623
 21
21.840534
  0
LINE
  8
0
  6
CONTINUOUS
 62
     7
 10
-385.04623
 20
21.840532
 11
-401.50162
 21
28.656578
  0
LINE
  8
0
  6
CONTINUOUS
 62
     7
 10
-417.957
 20
21.840536
 11
-401.50162
 21
28.656582
  0
LINE
  8
0
  6
CONTINUOUS
 62
     7
 10
-424.77307
 20
5.3851485
 11
-417.957
 21
21.84054
  0
LINE
  8
0
  6
CONTINUOUS
 62
     7
 10
-417.957
 20
-11.070247
 11
-424.77307
 21
5.3851457
  0
LINE
  8
0
  6
CONTINUOUS
 62
     7
 10
-401.50162
 20
-17.886288
 11
-417.957
 21
-11.070242
  0
LINE
  8
0
  6
CONTINUOUS
 62
     7
 10
-385.04623
 20
-11.070237
 11
-401.50162
 21
-17.886284
  0
LINE
  8
0
  6
CONTINUOUS
 62
     7
 10
-378.23019
 20
5.3851528
 11
-385.04623
 21
-11.070239
  0
LINE
  8
0
  6
CENTER
 62
     7
 10
-401.50162
 20
31.209974
 11
-401.50162
 21
-20.447704
  0
LINE
  8
0
  6
CENTER
 62
     7
 10
-434.86905
 20
-50.685677
 11
-369.74557
 21
-50.685677
  0
LINE
  8
0
  6
CONTINUOUS
 62
     7
 10
-374.983
 20
-50.685677
 11
-382.75012
 21
-31.934185
  0
LINE
  8
0
  6
CONTINUOUS
 62
     7
 10
-382.75012
 20
-31.934193
 11
-401.50162
 21
-24.167067
  0
LINE
  8
0
  6
CONTINUOUS
 62
     7
 10
-420.25308
 20
-31.934187
 11
-401.50162
 21
-24.167074
  0
LINE
  8
0
  6
CONTINUOUS
 62
     7
 10
-428.02023
 20
-50.685665
 11
-420.25311
 21
-31.934177
  0
LINE
  8
0
  6
CONTINUOUS
 62
     7
 10
-420.25311
 20
-69.437164
 11
-428.02023
 21
-50.685673
  0
LINE
  8
0
  6
CONTINUOUS
 62
     7
 10
-401.50162
 20
-77.204292
 11
-420.25311
 21
-69.437164
  0
LINE
  8
0
  6
CONTINUOUS
 62
     7
 10
-382.75012
 20
-69.437172
 11
-401.50162
 21
-77.204285
  0
LINE
  8
0
  6
CONTINUOUS
 62
     7
 10
-374.98303
 20
-50.685665
 11
-382.75015
 21
-69.437149
  0
LINE
  8
0
  6
CENTER
 62
     7
 10
-401.50162
 20
-21.654659
 11
-401.50162
 21
-81.278244
  0
LINE
  8
0
  6
CENTER
 62
     7
 10
-437.92899
 20
-137.66437
 11
-365.00909
 21
-137.66437
  0
LINE
  8
0
  6
CONTINUOUS
 62
     7
 10
-369.57104
 20
-137.66437
 11
-378.92331
 21
-115.08604
  0
LINE
  8
0
  6
CONTINUOUS
 62
     7
 10
-378.92331
 20
-115.08604
 11
-401.50162
 21
-105.7338
  0
LINE
  8
0
  6
CONTINUOUS
 62
     7
 10
-424.07996
 20
-115.08604
 11
-401.50162
 21
-105.7338
  0
LINE
  8
0
  6
CONTINUOUS
 62
     7
 10
-433.43219
 20
-137.66437
 11
-424.07996
 21
-115.08604
  0
LINE
  8
0
  6
CONTINUOUS
 62
     7
 10
-424.07996
 20
-160.24269
 11
-433.43219
 21
-137.66437
  0
LINE
  8
0
  6
CONTINUOUS
 62
     7
 10
-401.50162
 20
-169.59494
 11
-424.07996
 21
-160.24269
  0
LINE
  8
0
  6
CONTINUOUS
 62
     7
 10
-378.92331
 20
-160.24269
 11
-401.50162
 21
-169.59494
  0
LINE
  8
0
  6
CONTINUOUS
 62
     7
 10
-369.57104
 20
-137.66437
 11
-378.92331
 21
-160.24269
  0
LINE
  8
0
  6
CENTER
 62
     7
 10
-401.50162
 20
-102.03787
 11
-401.50162
 21
-172.52405
  0
LINE
  8
0
  6
CENTER
 62
     7
 10
-448.31732
 20
-241.56189
 11
-358.51984
 21
-241.56189
  0
LINE
  8
0
  6
CONTINUOUS
 62
     7
 10
-364.70029
 20
-241.56189
 11
-375.47916
 21
-215.53941
  0
LINE
  8
0
  6
CONTINUOUS
 62
     7
 10
-375.47913
 20
-215.53943
 11
-401.50162
 21
-204.76056
  0
LINE
  8
0
  6
CONTINUOUS
 62
     7
 10
-427.52408
 20
-215.53941
 11
-401.50162
 21
-204.76056
  0
LINE
  8
0
  6
CONTINUOUS
 62
     7
 10
-438.30298
 20
-241.56189
 11
-427.52411
 21
-215.5394
  0
LINE
  8
0
  6
CONTINUOUS
 62
     7
 10
-427.52408
 20
-267.58435
 11
-438.30295
 21
-241.56189
  0
LINE
  8
0
  6
CONTINUOUS
 62
     7
 10
-401.50162
 20
-278.36322
 11
-427.52411
 21
-267.58438
  0
LINE
  8
0
  6
CONTINUOUS
 62
     7
 10
-375.47916
 20
-267.58435
 11
-401.50162
 21
-278.36322
  0
LINE
  8
0
  6
CONTINUOUS
 62
     7
 10
-364.70029
 20
-241.56187
 11
-375.47916
 21
-267.58435
  0
LINE
  8
0
  6
CENTER
 62
     7
 10
-401.50162
 20
-198.1115
 11
-401.50162
 21
-283.08115
  0
LINE
  8
0
  6
CENTER
 62
     7
 10
-450.48984
 20
-347.29117
 11
-351.5195
 21
-347.29117
  0
LINE
  8
0
  6
CONTINUOUS
 62
     7
 10
-357.12354
 20
-347.29117
 11
-370.12158
 21
-315.9111
  0
LINE
  8
0
  6
CONTINUOUS
 62
     7
 10
-370.12158
 20
-315.9111
 11
-401.50162
 21
-302.91306
  0
LINE
  8
0
  6
CONTINUOUS
 62
     7
 10
-432.88165
 20
-315.9111
 11
-401.50162
 21
-302.91309
  0
LINE
  8
0
  6
CONTINUOUS
 62
     7
 10
-445.8797
 20
-347.29114
 11
-432.88165
 21
-315.9111
  0
LINE
  8
0
  6
CONTINUOUS
 62
     7
 10
-432.88162
 20
-378.67117
 11
-445.87967
 21
-347.29114
  0
LINE
  8
0
  6
CONTINUOUS
 62
     7
 10
-401.50165
 20
-391.66925
 11
-432.88168
 21
-378.6712
  0
LINE
  8
0
  6
CONTINUOUS
 62
     7
 10
-370.12158
 20
-378.6712
 11
-401.50162
 21
-391.66925
  0
LINE
  8
0
  6
CONTINUOUS
 62
     7
 10
-357.12354
 20
-347.29114
 11
-370.12158
 21
-378.6712
  0
LINE
  8
0
  6
CENTER
 62
     7
 10
-401.50162
 20
-297.08182
 11
-401.50162
 21
-397.0177
  0
LINE
  8
0
  6
CENTER
 62
     7
 10
-290.53714
 20
-251.91193
 11
-256.74857
 21
-251.91193
  0
LINE
  8
0
  6
CENTER
 62
     7
 10
-233.7587
 20
-251.91193
 11
-151.6835
 21
-251.91193
  0
LINE
  8
0
  6
CENTER
 62
     7
 10
-193.66118
 20
-212.36432
 11
-193.66118
 21
-292.70172
  0
LINE
  8
0
  6
CONTINUOUS
 62
     7
 10
-283.58417
 20
-221.51193
 11
-283.58417
 21
-251.91193
  0
LINE
  8
0
  6
CONTINUOUS
 62
     7
 10
-276.59198
 20
-219.41719
 11
-280.68231
 21
-221.32455
  0
LINE
  8
0
  6
CONTINUOUS
 62
     7
 10
-261.88416
 20
-221.51193
 11
-261.88416
 21
-251.91193
  0
LINE
  8
0
  6
CONTINUOUS
 62
     7
 10
-281.52756
 20
-221.51193
 11
-283.58417
 21
-221.51193
  0
LINE
  8
0
  6
CONTINUOUS
 62
     7
 10
-263.94077
 20
-221.51193
 11
-261.88416
 21
-221.51193
  0
LINE
  8
0
  6
CONTINUOUS
 62
     7
 10
-268.87634
 20
-219.41718
 11
-264.78598
 21
-221.32454
  0
LINE
  8
0
  6
CONTINUOUS
 62
     7
 10
-283.58417
 20
-282.31192
 11
-283.58417
 21
-251.91193
  0
LINE
  8
0
  6
CONTINUOUS
 62
     7
 10
-268.87634
 20
-284.40668
 11
-264.78598
 21
-282.4993
  0
LINE
  8
0
  6
CONTINUOUS
 62
     7
 10
-281.52756
 20
-282.31192
 11
-283.58417
 21
-282.31192
  0
LINE
  8
0
  6
CONTINUOUS
 62
     7
 10
-264.38416
 20
-282.31192
 11
-264.38416
 21
-221.51193
  0
LINE
  8
0
  6
CONTINUOUS
 62
     7
 10
-261.88416
 20
-282.31192
 11
-261.88416
 21
-251.91193
  0
LINE
  8
0
  6
CONTINUOUS
 62
     7
 10
-276.59195
 20
-284.40668
 11
-276.59195
 21
-219.41719
  0
LINE
  8
0
  6
CONTINUOUS
 62
     7
 10
-268.87634
 20
-284.40668
 11
-268.87634
 21
-219.41719
  0
LINE
  8
0
  6
CONTINUOUS
 62
     7
 10
-281.08417
 20
-282.31192
 11
-281.08417
 21
-221.51193
  0
LINE
  8
0
  6
CONTINUOUS
 62
     7
 10
-276.59195
 20
-284.40668
 11
-280.68231
 21
-282.49933
  0
LINE
  8
0
  6
CONTINUOUS
 62
     7
 10
-263.94077
 20
-282.31192
 11
-261.88416
 21
-282.31192
  0
LINE
  8
0
  6
CENTER
 62
     7
 10
-123.52558
 20
-96.209282
 11
-89.737022
 21
-96.209282
  0
LINE
  8
0
  6
CENTER
 62
     7
 10
-60.215202
 20
-96.209282
 11
6.8395143
 21
-96.209282
  0
LINE
  8
0
  6
CENTER
 62
     7
 10
-26.649626
 20
-64.093773
 11
-26.649626
 21
-128.74045
  0
LINE
  8
0
  6
CONTINUOUS
 62
     7
 10
-96.322601
 20
-71.884277
 11
-96.322601
 21
-96.209282
  0
LINE
  8
0
  6
CONTINUOUS
 62
     7
 10
-108.39622
 20
-69.977577
 11
-112.23424
 21
-71.686371
  0
LINE
  8
0
  6
CONTINUOUS
 62
     7
 10
-115.1226
 20
-71.859276
 11
-113.04771
 21
-71.859276
  0
LINE
  8
0
  6
CONTINUOUS
 62
     7
 10
-115.1226
 20
-71.884277
 11
-115.1226
 21
-96.209282
  0
LINE
  8
0
  6
CONTINUOUS
 62
     7
 10
-96.322601
 20
-71.859276
 11
-98.397491
 21
-71.859276
  0
LINE
  8
0
  6
CONTINUOUS
 62
     7
 10
-103.04898
 20
-69.977577
 11
-99.21096
 21
-71.686371
  0
LINE
  8
0
  6
CONTINUOUS
 62
     7
 10
-96.322601
 20
-120.53428
 11
-96.322601
 21
-96.209282
  0
LINE
  8
0
  6
CONTINUOUS
 62
     7
 10
-115.1226
 20
-120.53428
 11
-115.1226
 21
-96.209282
  0
LINE
  8
0
  6
CONTINUOUS
 62
     7
 10
-96.322601
 20
-120.55928
 11
-98.397491
 21
-120.55928
  0
LINE
  8
0
  6
CONTINUOUS
 62
     7
 10
-103.04897
 20
-122.44099
 11
-103.04897
 21
-69.977577
  0
LINE
  8
0
  6
CONTINUOUS
 62
     7
 10
-115.1226
 20
-120.55928
 11
-113.04771
 21
-120.55928
  0
LINE
  8
0
  6
CONTINUOUS
 62
     7
 10
-103.04898
 20
-122.44099
 11
-99.21096
 21
-120.73219
  0
LINE
  8
0
  6
CONTINUOUS
 62
     7
 10
-108.39622
 20
-122.44099
 11
-108.39622
 21
-69.977577
  0
LINE
  8
0
  6
CONTINUOUS
 62
     7
 10
-112.6226
 20
-120.53428
 11
-112.6226
 21
-71.859276
  0
LINE
  8
0
  6
CONTINUOUS
 62
     7
 10
-108.39622
 20
-122.44099
 11
-112.23424
 21
-120.73219
  0
LINE
  8
0
  6
CONTINUOUS
 62
     7
 10
-98.822601
 20
-120.53428
 11
-98.822601
 21
-71.859276
  0
LINE
  8
0
  6
CENTER
 62
     7
 10
-291.69678
 20
-96.209282
 11
-257.90823
 21
-96.209282
  0
LINE
  8
0
  6
CENTER
 62
     7
 10
-222.94727
 20
-96.209282
 11
-166.39595
 21
-96.209282
  0
LINE
  8
0
  6
CENTER
 62
     7
 10
-194.82083
 20
-63.703915
 11
-194.82083
 21
-128.72224
  0
LINE
  8
0
  6
CONTINUOUS
 62
     7
 10
-280.7507
 20
-74.909279
 11
-282.84381
 21
-74.909279
  0
LINE
  8
0
  6
CONTINUOUS
 62
     7
 10
-276.10114
 20
-73.108368
 11
-279.96924
 21
-74.75029
  0
LINE
  8
0
  6
CONTINUOUS
 62
     7
 10
-267.0369
 20
-74.909279
 11
-264.94382
 21
-74.909279
  0
LINE
  8
0
  6
CONTINUOUS
 62
     7
 10
-271.68652
 20
-73.10836
 11
-267.81836
 21
-74.750282
  0
LINE
  8
0
  6
CONTINUOUS
 62
     7
 10
-271.68652
 20
-119.3102
 11
-271.68652
 21
-73.10836
  0
LINE
  8
0
  6
CONTINUOUS
 62
     7
 10
-276.1011
 20
-119.3102
 11
-276.1011
 21
-73.10836
  0
LINE
  8
0
  6
CONTINUOUS
 62
     7
 10
-280.7507
 20
-117.50928
 11
-282.84381
 21
-117.50928
  0
LINE
  8
0
  6
CONTINUOUS
 62
     7
 10
-280.34381
 20
-117.50928
 11
-280.34381
 21
-74.867447
  0
LINE
  8
0
  6
CONTINUOUS
 62
     7
 10
-276.1011
 20
-119.3102
 11
-279.96924
 21
-117.66827
  0
LINE
  8
0
  6
CONTINUOUS
 62
     7
 10
-267.0369
 20
-117.50928
 11
-264.94382
 21
-117.50928
  0
LINE
  8
0
  6
CONTINUOUS
 62
     7
 10
-267.44382
 20
-117.50928
 11
-267.44382
 21
-74.867447
  0
LINE
  8
0
  6
CONTINUOUS
 62
     7
 10
-271.68652
 20
-119.3102
 11
-267.81836
 21
-117.66827
  0
LINE
  8
0
  6
CONTINUOUS
 62
     7
 10
-282.84381
 20
-74.909279
 11
-282.84381
 21
-96.209282
  0
LINE
  8
0
  6
CONTINUOUS
 62
     7
 10
-264.94382
 20
-74.909279
 11
-264.94382
 21
-96.209282
  0
LINE
  8
0
  6
CONTINUOUS
 62
     7
 10
-282.84381
 20
-117.50928
 11
-282.84381
 21
-96.209282
  0
LINE
  8
0
  6
CONTINUOUS
 62
     7
 10
-264.94382
 20
-117.50928
 11
-264.94382
 21
-96.209282
  0
LINE
  8
0
  6
CENTER
 62
     7
 10
-134.24414
 20
-11.21875
 11
-100.45559
 21
-11.21875
  0
LINE
  8
0
  6
CENTER
 62
     7
 10
-65.494621
 20
-11.21875
 11
-8.9433022
 21
-11.21875
  0
LINE
  8
0
  6
CENTER
 62
     7
 10
-37.368187
 20
13.096523
 11
-37.368187
 21
-35.747181
  0
LINE
  8
0
  6
CONTINUOUS
 62
     7
 10
-110.24117
 20
5.7312508
 11
-110.24117
 21
-28.168751
  0
LINE
  8
0
  6
CONTINUOUS
 62
     7
 10
-121.51184
 20
5.7312508
 11
-122.14117
 21
5.7312508
  0
LINE
  8
0
  6
CONTINUOUS
 62
     7
 10
-117.16231
 20
7.2585902
 11
-120.7951
 21
5.8640909
  0
LINE
  8
0
  6
CONTINUOUS
 62
     7
 10
-109.87048
 20
5.7312508
 11
-109.24117
 21
5.7312508
  0
LINE
  8
0
  6
CONTINUOUS
 62
     7
 10
-121.14117
 20
5.7312508
 11
-121.14117
 21
-28.203402
  0
LINE
  8
0
  6
CONTINUOUS
 62
     7
 10
-114.22002
 20
7.2585883
 11
-110.58722
 21
5.8640885
  0
LINE
  8
0
  6
CONTINUOUS
 62
     7
 10
-117.16231
 20
7.2585869
 11
-117.16231
 21
-29.696089
  0
LINE
  8
0
  6
CONTINUOUS
 62
     7
 10
-114.22002
 20
7.2585869
 11
-114.22002
 21
-29.696089
  0
LINE
  8
0
  6
CONTINUOUS
 62
     7
 10
-117.16231
 20
-29.696091
 11
-120.7951
 21
-28.301592
  0
LINE
  8
0
  6
CONTINUOUS
 62
     7
 10
-109.87048
 20
-28.168751
 11
-109.24117
 21
-28.168751
  0
LINE
  8
0
  6
CONTINUOUS
 62
     7
 10
-121.51184
 20
-28.168751
 11
-122.14117
 21
-28.168751
  0
LINE
  8
0
  6
CONTINUOUS
 62
     7
 10
-114.22002
 20
-29.696091
 11
-110.58722
 21
-28.301588
  0
LINE
  8
0
  6
CONTINUOUS
 62
     7
 10
-122.14117
 20
5.7312508
 11
-122.14117
 21
-28.203402
  0
LINE
  8
0
  6
CONTINUOUS
 62
     7
 10
-109.24117
 20
5.7312508
 11
-109.24117
 21
-28.168751
  0
LINE
  8
0
  6
CENTER
 62
     7
 10
-286.70145
 20
-9.858902
 11
-262.96432
 21
-9.858902
  0
LINE
  8
0
  6
CENTER
 62
     7
 10
-224.97675
 20
-9.858902
 11
-168.42542
 21
-9.858902
  0
LINE
  8
0
  6
CENTER
 62
     7
 10
-196.85031
 20
13.215191
 11
-196.85031
 21
-34.387329
  0
LINE
  8
0
  6
CONTINUOUS
 62
     7
 10
-277.13342
 20
5.6176281
 11
-280.5033
 21
4.3911028
  0
LINE
  8
0
  6
CONTINUOUS
 62
     7
 10
-270.70328
 20
4.3910985
 11
-269.70328
 21
4.3910985
  0
LINE
  8
0
  6
CONTINUOUS
 62
     7
 10
-280.5033
 20
4.3910985
 11
-281.5033
 21
4.3910985
  0
LINE
  8
0
  6
CONTINUOUS
 62
     7
 10
-274.07315
 20
5.6176291
 11
-270.70328
 21
4.3910985
  0
LINE
  8
0
  6
CONTINUOUS
 62
     7
 10
-274.07312
 20
-25.335423
 11
-271.03467
 21
-24.229515
  0
LINE
  8
0
  6
CONTINUOUS
 62
     7
 10
-280.5033
 20
-24.1089
 11
-280.5033
 21
4.3910985
  0
LINE
  8
0
  6
CONTINUOUS
 62
     7
 10
-280.5033
 20
-24.1089
 11
-281.5033
 21
-24.1089
  0
LINE
  8
0
  6
CONTINUOUS
 62
     7
 10
-270.70328
 20
-24.1089
 11
-270.70328
 21
4.3910985
  0
LINE
  8
0
  6
CONTINUOUS
 62
     7
 10
-270.35062
 20
-24.1089
 11
-269.70328
 21
-24.1089
  0
LINE
  8
0
  6
CONTINUOUS
 62
     7
 10
-274.09268
 20
-25.342541
 11
-274.09268
 21
5.6247411
  0
LINE
  8
0
  6
CONTINUOUS
 62
     7
 10
-277.11389
 20
-25.342541
 11
-277.11389
 21
5.6247411
  0
LINE
  8
0
  6
CONTINUOUS
 62
     7
 10
-277.13342
 20
-25.335421
 11
-280.17191
 21
-24.229511
  0
LINE
  8
0
  6
CONTINUOUS
 62
     7
 10
-281.5033
 20
-24.1089
 11
-281.5033
 21
4.3910985
  0
LINE
  8
0
  6
CONTINUOUS
 62
     7
 10
-269.70328
 20
-24.1089
 11
-269.70328
 21
4.3910985
  0
LINE
  8
0
  6
CENTER
 62
     7
 10
-40.987823
 20
64.902344
 11
-88.19278
 21
64.902344
  0
LINE
  8
0
  6
CENTER
 62
     7
 10
-63.686237
 20
82.658188
 11
-63.686237
 21
43.17519
  0
LINE
  8
0
  6
CENTER
 62
     7
 10
-121.56102
 20
64.902344
 11
-148.83438
 21
64.902344
  0
LINE
  8
0
  6
CONTINUOUS
 62
     7
 10
-130.53171
 20
76.002342
 11
-131.2684
 21
76.002342
  0
LINE
  8
0
  6
CONTINUOUS
 62
     7
 10
-131.53171
 20
76.002342
 11
-131.53171
 21
64.902344
  0
LINE
  8
0
  6
CONTINUOUS
 62
     7
 10
-135.52592
 20
77.072586
 11
-131.78606
 21
76.070488
  0
LINE
  8
0
  6
CONTINUOUS
 62
     7
 10
-136.73749
 20
77.072586
 11
-140.47737
 21
76.070488
  0
LINE
  8
0
  6
CONTINUOUS
 62
     7
 10
-140.73172
 20
76.002342
 11
-140.73172
 21
64.902344
  0
LINE
  8
0
  6
CONTINUOUS
 62
     7
 10
-141.73172
 20
76.002342
 11
-140.99503
 21
76.002342
  0
LINE
  8
0
  6
CONTINUOUS
 62
     7
 10
-136.7375
 20
77.072586
 11
-136.7375
 21
64.902344
  0
LINE
  8
0
  6
CONTINUOUS
 62
     7
 10
-135.52592
 20
77.072586
 11
-135.52592
 21
64.902344
  0
LINE
  8
0
  6
CONTINUOUS
 62
     7
 10
-130.53171
 20
53.802338
 11
-131.2684
 21
53.802338
  0
LINE
  8
0
  6
CONTINUOUS
 62
     7
 10
-131.53171
 20
53.802338
 11
-131.53171
 21
64.902344
  0
LINE
  8
0
  6
CONTINUOUS
 62
     7
 10
-135.52592
 20
52.732098
 11
-131.78604
 21
53.734196
  0
LINE
  8
0
  6
CONTINUOUS
 62
     7
 10
-136.7375
 20
52.732094
 11
-140.47737
 21
53.734192
  0
LINE
  8
0
  6
CONTINUOUS
 62
     7
 10
-140.73172
 20
53.802338
 11
-140.73172
 21
64.902344
  0
LINE
  8
0
  6
CONTINUOUS
 62
     7
 10
-141.73172
 20
53.802338
 11
-140.99503
 21
53.802338
  0
LINE
  8
0
  6
CONTINUOUS
 62
     7
 10
-135.52592
 20
52.73209
 11
-135.52592
 21
64.902344
  0
LINE
  8
0
  6
CONTINUOUS
 62
     7
 10
-136.7375
 20
52.73209
 11
-136.7375
 21
64.902344
  0
LINE
  8
0
  6
CONTINUOUS
 62
     7
 10
-141.73172
 20
76.002342
 11
-141.73172
 21
53.802338
  0
LINE
  8
0
  6
CONTINUOUS
 62
     7
 10
-130.53171
 20
76.002342
 11
-130.53171
 21
53.802338
  0
LINE
  8
0
  6
CENTER
 62
     7
 10
-225.36435
 20
62.892994
 11
-192.75827
 21
62.892994
  0
LINE
  8
0
  6
CENTER
 62
     7
 10
-211.90973
 20
76.192764
 11
-211.90973
 21
50.573956
  0
LINE
  8
0
  6
CENTER
 62
     7
 10
-284.85681
 20
62.892994
 11
-263.63464
 21
62.892994
  0
LINE
  8
0
  6
CONTINUOUS
 62
     7
 10
-278.849
 20
70.792992
 11
-279.58569
 21
70.792992
  0
LINE
  8
0
  6
CONTINUOUS
 62
     7
 10
-275.92325
 20
71.506401
 11
-278.33136
 21
70.861145
  0
LINE
  8
0
  6
CONTINUOUS
 62
     7
 10
-273.84818
 20
71.506401
 11
-271.44003
 21
70.861145
  0
LINE
  8
0
  6
CONTINUOUS
 62
     7
 10
-270.92239
 20
70.792992
 11
-270.1857
 21
70.792992
  0
LINE
  8
0
  6
CONTINUOUS
 62
     7
 10
-271.1857
 20
70.792992
 11
-271.1857
 21
62.892994
  0
LINE
  8
0
  6
CONTINUOUS
 62
     7
 10
-278.58569
 20
70.792992
 11
-278.58569
 21
62.892994
  0
LINE
  8
0
  6
CONTINUOUS
 62
     7
 10
-275.92322
 20
71.506401
 11
-275.92322
 21
62.892994
  0
LINE
  8
0
  6
CONTINUOUS
 62
     7
 10
-273.84818
 20
71.506401
 11
-273.84818
 21
62.892994
  0
LINE
  8
0
  6
CONTINUOUS
 62
     7
 10
-278.849
 20
54.992992
 11
-279.58569
 21
54.992992
  0
LINE
  8
0
  6
CONTINUOUS
 62
     7
 10
-275.92325
 20
54.279591
 11
-278.33136
 21
54.924843
  0
LINE
  8
0
  6
CONTINUOUS
 62
     7
 10
-278.58569
 20
54.992992
 11
-278.58569
 21
62.892994
  0
LINE
  8
0
  6
CONTINUOUS
 62
     7
 10
-273.84818
 20
54.279583
 11
-271.44003
 21
54.924843
  0
LINE
  8
0
  6
CONTINUOUS
 62
     7
 10
-271.1857
 20
54.992992
 11
-271.1857
 21
62.892994
  0
LINE
  8
0
  6
CONTINUOUS
 62
     7
 10
-271.1857
 20
54.992992
 11
-270.1857
 21
54.992992
  0
LINE
  8
0
  6
CONTINUOUS
 62
     7
 10
-275.92322
 20
54.279587
 11
-275.92322
 21
62.892994
  0
LINE
  8
0
  6
CONTINUOUS
 62
     7
 10
-273.84818
 20
54.279587
 11
-273.84818
 21
62.892994
  0
LINE
  8
0
  6
CONTINUOUS
 62
     7
 10
-279.58569
 20
70.792992
 11
-279.58569
 21
54.992992
  0
LINE
  8
0
  6
CONTINUOUS
 62
     7
 10
-270.1857
 20
70.792992
 11
-270.1857
 21
54.992992
  0
CIRCLE
  8
0
  6
CONTINUOUS
 62
     7
 10
-401.50162
 20
101.27591
 40
14.5
  0
CIRCLE
  8
0
  6
CONTINUOUS
 62
     7
 10
-401.50162
 20
101.27591
 40
8.0500002
  0
CIRCLE
  8
0
  6
CONTINUOUS
 62
     7
 10
-401.50162
 20
56.199329
 40
17
  0
CIRCLE
  8
0
  6
CONTINUOUS
 62
     7
 10
-401.50162
 20
56.199329
 40
11.25
  0
CIRCLE
  8
0
  6
CONTINUOUS
 62
     7
 10
-401.50162
 20
5.3851457
 40
21.5
  0
CIRCLE
  8
0
  6
CONTINUOUS
 62
     7
 10
-401.50162
 20
5.3851457
 40
14.4
  0
CIRCLE
  8
0
  6
CONTINUOUS
 62
     7
 10
-401.50162
 20
-50.685677
 40
24.5
  0
CIRCLE
  8
0
  6
CONTINUOUS
 62
     7
 10
-401.50162
 20
-50.685677
 40
17.25
  0
CIRCLE
  8
0
  6
CONTINUOUS
 62
     7
 10
-401.50162
 20
-137.66437
 40
29.5
  0
CIRCLE
  8
0
  6
CONTINUOUS
 62
     7
 10
-401.50162
 20
-137.66437
 40
21.65
  0
CIRCLE
  8
0
  6
CONTINUOUS
 62
     7
 10
-401.50162
 20
-241.56189
 40
34
  0
CIRCLE
  8
0
  6
CONTINUOUS
 62
     7
 10
-401.50162
 20
-241.56189
 40
24.65
  0
CIRCLE
  8
0
  6
CONTINUOUS
 62
     7
 10
-401.50162
 20
-347.29117
 40
41
  0
CIRCLE
  8
0
  6
CONTINUOUS
 62
     7
 10
-401.50162
 20
-347.29117
 40
30.65
  0
ARC
  8
0
  6
CONTINUOUS
 62
     7
 10
-272.73416
 20
-227.69028
 40
9.1283417
 50
65.000001
 51
115
  0
ARC
  8
0
  6
CONTINUOUS
 62
     7
 10
-281.52756
 20
-219.51193
 40
2
 50
270
 51
295
  0
ARC
  8
0
  6
CONTINUOUS
 62
     7
 10
-263.94077
 20
-219.51193
 40
2
 50
245
 51
270
  0
ARC
  8
0
  6
CONTINUOUS
 62
     7
 10
-263.94077
 20
-284.31192
 40
2
 50
90.000003
 51
115
  0
ARC
  8
0
  6
CONTINUOUS
 62
     7
 10
-281.52756
 20
-284.31192
 40
2
 50
65.000001
 51
90.000003
  0
ARC
  8
0
  6
CONTINUOUS
 62
     7
 10
-272.73416
 20
-276.13358
 40
9.1283417
 50
245
 51
295
  0
CIRCLE
  8
0
  6
CONTINUOUS
 62
     7
 10
-193.66118
 20
-251.91193
 40
30.4
  0
CIRCLE
  8
0
  6
CONTINUOUS
 62
     7
 10
-193.66118
 20
-251.91193
 40
33.349998
  0
CIRCLE
  8
0
  6
CONTINUOUS
 62
     7
 10
-26.649626
 20
-96.209282
 40
26.799999
  0
ARC
  8
0
  6
CONTINUOUS
 62
     7
 10
-113.04771
 20
-69.859276
 40
2
 50
270
 51
294
  0
ARC
  8
0
  6
CONTINUOUS
 62
     7
 10
-98.397491
 20
-69.859276
 40
2
 50
246
 51
270
  0
ARC
  8
0
  6
CONTINUOUS
 62
     7
 10
-105.7226
 20
-75.982635
 40
6.5733557
 50
66.000002
 51
114
  0
ARC
  8
0
  6
CONTINUOUS
 62
     7
 10
-98.397491
 20
-122.55928
 40
2
 50
90.000003
 51
114
  0
ARC
  8
0
  6
CONTINUOUS
 62
     7
 10
-113.04771
 20
-122.55928
 40
2
 50
66.000002
 51
90.000003
  0
ARC
  8
0
  6
CONTINUOUS
 62
     7
 10
-105.7226
 20
-116.43592
 40
6.5733557
 50
246
 51
294
  0
CIRCLE
  8
0
  6
CONTINUOUS
 62
     7
 10
-26.649626
 20
-96.209282
 40
24.35
  0
ARC
  8
0
  6
CONTINUOUS
 62
     7
 10
-273.8938
 20
-78.308426
 40
5.649148
 50
67.000003
 51
113
  0
ARC
  8
0
  6
CONTINUOUS
 62
     7
 10
-280.7507
 20
-72.909279
 40
2
 50
270
 51
293
  0
ARC
  8
0
  6
CONTINUOUS
 62
     7
 10
-267.0369
 20
-72.909279
 40
2
 50
247
 51
270
  0
ARC
  8
0
  6
CONTINUOUS
 62
     7
 10
-267.0369
 20
-119.50928
 40
2
 50
90.000003
 51
113
  0
ARC
  8
0
  6
CONTINUOUS
 62
     7
 10
-280.7507
 20
-119.50928
 40
2
 50
67.000003
 51
90.000003
  0
ARC
  8
0
  6
CONTINUOUS
 62
     7
 10
-273.8938
 20
-114.11013
 40
5.649148
 50
247
 51
293
  0
CIRCLE
  8
0
  6
CONTINUOUS
 62
     7
 10
-194.82083
 20
-96.209282
 40
21.299999
  0
CIRCLE
  8
0
  6
CONTINUOUS
 62
     7
 10
-194.82083
 20
-96.209282
 40
23.549999
  0
CIRCLE
  8
0
  6
CONTINUOUS
 62
     7
 10
-37.368187
 20
-11.21875
 40
18.75
  0
ARC
  8
0
  6
CONTINUOUS
 62
     7
 10
-115.69116
 20
3.4261246
 40
4.1051235
 50
68.999999
 51
111
  0
ARC
  8
0
  6
CONTINUOUS
 62
     7
 10
-109.87048
 20
7.7312508
 40
2
 50
249
 51
270
  0
ARC
  8
0
  6
CONTINUOUS
 62
     7
 10
-121.51184
 20
7.7312508
 40
2
 50
270
 51
291
  0
ARC
  8
0
  6
CONTINUOUS
 62
     7
 10
-115.69116
 20
-25.863626
 40
4.1051235
 50
249
 51
291
  0
ARC
  8
0
  6
CONTINUOUS
 62
     7
 10
-109.87048
 20
-30.168751
 40
2
 50
90.000003
 51
111
  0
ARC
  8
0
  6
CONTINUOUS
 62
     7
 10
-121.51184
 20
-30.168751
 40
2
 50
68.999999
 51
90.000003
  0
CIRCLE
  8
0
  6
CONTINUOUS
 62
     7
 10
-37.368187
 20
-11.21875
 40
16.950001
  0
CIRCLE
  8
0
  6
CONTINUOUS
 62
     7
 10
-196.85031
 20
-9.858902
 40
15.75
  0
ARC
  8
0
  6
CONTINUOUS
 62
     7
 10
-275.60327
 20
1.4743962
 40
4.4167027
 50
70
 51
110
  0
ARC
  8
0
  6
CONTINUOUS
 62
     7
 10
-275.60327
 20
-21.192196
 40
4.4167027
 50
250
 51
290
  0
ARC
  8
0
  6
CONTINUOUS
 62
     7
 10
-270.35062
 20
-26.1089
 40
2
 50
90.000003
 51
110
  0
ARC
  8
0
  6
CONTINUOUS
 62
     7
 10
-280.85593
 20
-26.1089
 40
2
 50
70
 51
90.000003
  0
CIRCLE
  8
0
  6
CONTINUOUS
 62
     7
 10
-196.85031
 20
-9.858902
 40
14.25
  0
ARC
  8
0
  6
CONTINUOUS
 62
     7
 10
-136.13171
 20
74.811775
 40
2.3405676
 50
74.999999
 51
105
  0
ARC
  8
0
  6
CONTINUOUS
 62
     7
 10
-131.2684
 20
78.002342
 40
2
 50
255
 51
270
  0
ARC
  8
0
  6
CONTINUOUS
 62
     7
 10
-140.99503
 20
78.002342
 40
2
 50
270
 51
285
  0
ARC
  8
0
  6
CONTINUOUS
 62
     7
 10
-136.13171
 20
54.992905
 40
2.3405676
 50
255
 51
285
  0
ARC
  8
0
  6
CONTINUOUS
 62
     7
 10
-140.99503
 20
51.802338
 40
2
 50
74.999999
 51
90.000003
  0
ARC
  8
0
  6
CONTINUOUS
 62
     7
 10
-131.2684
 20
51.802338
 40
2
 50
90.000003
 51
105
  0
CIRCLE
  8
0
  6
CONTINUOUS
 62
     7
 10
-63.511665
 20
64.896919
 40
12.25
  0
CIRCLE
  8
0
  6
CONTINUOUS
 62
     7
 10
-63.511665
 20
64.896919
 40
11.1
  0
CIRCLE
  8
0
  6
CONTINUOUS
 62
     7
 10
-211.90973
 20
62.892994
 40
8.75
  0
ARC
  8
0
  6
CONTINUOUS
 62
     7
 10
-274.88568
 20
67.634277
 40
4.0087109
 50
74.999999
 51
105
  0
ARC
  8
0
  6
CONTINUOUS
 62
     7
 10
-278.849
 20
72.792992
 40
2
 50
270
 51
285
  0
ARC
  8
0
  6
CONTINUOUS
 62
     7
 10
-270.92239
 20
72.792992
 40
2
 50
255
 51
270
  0
ARC
  8
0
  6
CONTINUOUS
 62
     7
 10
-274.88568
 20
58.151707
 40
4.0087109
 50
255
 51
285
  0
ARC
  8
0
  6
CONTINUOUS
 62
     7
 10
-270.92239
 20
52.992992
 40
2
 50
90.000003
 51
105
  0
ARC
  8
0
  6
CONTINUOUS
 62
     7
 10
-278.849
 20
52.992992
 40
2
 50
74.999999
 51
90.000003
  0
CIRCLE
  8
0
  6
CONTINUOUS
 62
     7
 10
-211.90973
 20
62.892994
 40
7.9000001
  0
TEXT
  8
0
  6
CONTINUOUS
 62
     7
 10
-448.18668
 20
100.9722
 40
3.2
 41
1.0285716
  1
13
  0
TEXT
  8
0
  6
CONTINUOUS
 62
     7
 10
-449.74558
 20
58.88214
 40
3.2
 41
1.0285716
  1
20
  0
TEXT
  8
0
  6
CONTINUOUS
 62
     7
 10
-452.86335
 20
7.4387392
 40
3.2
 41
1.0285716
  1
25
  0
TEXT
  8
0
  6
CONTINUOUS
 62
     7
 10
-450.52503
 20
-56.47579
 40
3.2
 41
1.0285716
  1
30
  0
TEXT
  8
0
  6
CONTINUOUS
 62
     7
 10
-450.18433
 20
-132.60479
 40
3.2
 41
1.0285716
  1
40
  0
TEXT
  8
0
  6
CONTINUOUS
 62
     7
 10
-443.42539
 20
-210.33271
 40
3.2
 41
1.0285716
  1
50
  0
TEXT
  8
0
  6
CONTINUOUS
 62
     7
 10
-450.54114
 20
-310.81277
 40
3.2
 41
1.0285716
  1
60
  0
TEXT
  8
0
  6
CONTINUOUS
 62
     7
 10
-282.77682
 20
118.76988
 40
8
 41
0.84306452
  1
コマサスフィット継手　キャップ
  0
TEXT
  8
0
  6
CONTINUOUS
 62
     7
 10
-280.03961
 20
81.33049
 40
8
 41
1.0285716
  1
13
  0
TEXT
  8
0
  6
CONTINUOUS
 62
     7
 10
-143.37481
 20
90.849434
 40
8
 41
1.0285716
  1
20
  0
TEXT
  8
0
  6
CONTINUOUS
 62
     7
 10
-282.07937
 20
16.057766
 40
8
 41
1.0285716
  1
25
  0
TEXT
  8
0
  6
CONTINUOUS
 62
     7
 10
-122.97709
 20
17.417614
 40
8
 41
1.0285716
  1
30
  0
TEXT
  8
0
  6
CONTINUOUS
 62
     7
 10
-280.71951
 20
-60.09375
 40
8
 41
1.0285716
  1
40
  0
TEXT
  8
0
  6
CONTINUOUS
 62
     7
 10
-112.09831
 20
-60.09375
 40
8
 41
1.0285716
  1
50
  0
TEXT
  8
0
  6
CONTINUOUS
 62
     7
 10
-280.71951
 20
-206.27747
 40
8
 41
1.0285716
  1
60
  0
POINT
  8
1
  6
CONTINUOUS
 62
     7
 10
-311.3107
 20
-470.71918
  0
POINT
  8
1
  6
CONTINUOUS
 62
     7
 10
-311.3107
 20
-153.71919
  0
POINT
  8
1
  6
CONTINUOUS
 62
     7
 10
-311.3107
 20
-767.71918
  0
POINT
  8
1
  6
CONTINUOUS
 62
     7
 10
108.68929
 20
-153.71919
  0
POINT
  8
1
  6
CONTINUOUS
 62
     7
 10
-311.3107
 20
-777.71918
  0
POINT
  8
1
  6
CONTINUOUS
 62
     7
 10
-311.3107
 20
143.28081
  0
POINT
  8
1
  6
CONTINUOUS
 62
     7
 10
-311.3107
 20
-153.71919
  0
POINT
  8
1
  6
CONTINUOUS
 62
     7
 10
-311.3107
 20
-163.71919
  0
POINT
  8
1
  6
CONTINUOUS
 62
     7
 10
-311.3107
 20
-163.71919
  0
POINT
  8
1
  6
CONTINUOUS
 62
     7
 10
-311.3107
 20
-460.71918
  0
POINT
  8
1
  6
CONTINUOUS
 62
     7
 10
-311.3107
 20
-470.71918
  0
LINE
  8
1
  6
CONTINUOUS
 62
     7
 10
108.68929
 20
143.28081
 11
108.68929
 21
-33.714287
  0
LINE
  8
1
  6
CONTINUOUS
 62
     2
 10
-311.3107
 20
-470.71918
 11
108.68929
 21
-470.71918
  0
LINE
  8
1
  6
CONTINUOUS
 62
     2
 10
-311.3107
 20
-470.71918
 11
-311.3107
 21
-767.71918
  0
LINE
  8
1
  6
CONTINUOUS
 62
     2
 10
-311.3107
 20
-767.71918
 11
108.68929
 21
-767.71918
  0
LINE
  8
1
  6
CONTINUOUS
 62
     2
 10
108.68929
 20
-470.71918
 11
108.68929
 21
-767.71918
  0
LINE
  8
1
  6
CONTINUOUS
 62
     2
 10
-311.3107
 20
143.28081
 11
-311.3107
 21
-153.71919
  0
LINE
  8
1
  6
CONTINUOUS
 62
     2
 10
-311.3107
 20
-153.71919
 11
108.68929
 21
-153.71919
  0
LINE
  8
1
  6
CONTINUOUS
 62
     2
 10
108.68929
 20
143.28081
 11
108.68929
 21
-153.71919
  0
LINE
  8
1
  6
CONTINUOUS
 62
     2
 10
-311.3107
 20
143.28081
 11
108.68929
 21
143.28081
  0
LINE
  8
1
  6
CONTINUOUS
 62
     2
 10
-311.3107
 20
-163.71919
 11
-311.3107
 21
-460.71918
  0
LINE
  8
1
  6
CONTINUOUS
 62
     2
 10
-311.3107
 20
-460.71918
 11
108.68929
 21
-460.71918
  0
LINE
  8
1
  6
CONTINUOUS
 62
     2
 10
108.68929
 20
-163.71919
 11
108.68929
 21
-460.71918
  0
LINE
  8
1
  6
CONTINUOUS
 62
     2
 10
-311.3107
 20
-163.71919
 11
108.68929
 21
-163.71919
  0
ENDSEC
  0
EOF
