  0
SECTION
  2
HEADER
  9
$EXTMAX
 10
108.92817
 20
144.14287
  9
$EXTMIN
 10
-311.07183
 20
-153.71428
  0
ENDSEC
  0
SECTION
  2
TABLES
  0
TABLE
  2
LTYPE
 70
    22
  0
LTYPE
  2
CONTINUOUS
 70
    64
  3
Solid line
 72
    65
 73
     0
 40
0.000000
  0
LTYPE
  2
DASHED
 70
    64
  3
__ __ __ __ __ __ __ __ __ __ __ __ __ __ __
 72
    65
 73
     2
 40
3.500000
 49
2.000000
 49
-1.500000
  0
LTYPE
  2
CENTER
 70
    64
  3
____ _ ____ _ ____ _ ____ _ ____ _ ____ _ ____
 72
    65
 73
     4
 40
17.500000
 49
13.000000
 49
-1.500000
 49
1.500000
 49
-1.500000
  0
LTYPE
  2
PHANTOM
 70
    64
  3
_____ _ _ _____ _ _ _____ _ _ _____ _ _ ____  
 72
    65
 73
     6
 40
15.500000
 49
8.000000
 49
-1.500000
 49
1.500000
 49
-1.500000
 49
1.500000
 49
-1.500000
  0
LTYPE
  2
DOT
 70
    64
  3
. . . . . . . . . . . . . . . . . . . . . . . .
 72
    65
 73
     2
 40
0.25
 49
0.0
 49
-0.25
  0
ENDTAB
  0
TABLE
  2
LAYER
 70
     2
  0
LAYER
  2
0
 70
     0
 62
     7
  6
CONTINUOUS
  0
LAYER
  2
1
 70
     0
 62
     7
  6
CONTINUOUS
  0
ENDTAB
  0
TABLE
  2
STYLE
 70
     1
  0
STYLE
  2
STANDARD
 70
     0
 40
0.000000
 41
1.000000
 50
0.000000
 71
     0
 42
0.200000
  3
txt
  4
BIGFONT
  0
ENDTAB
  0
TABLE
  2
VIEW
 70
     0
  0
ENDTAB
  0
ENDSEC
  0
SECTION
  2
BLOCKS
  0
ENDSEC
  0
SECTION
  2
ENTITIES
  0
POINT
  8
0
  6
CONTINUOUS
 62
     7
 10
-401.50162
 20
101.27591
  0
POINT
  8
0
  6
CONTINUOUS
 62
     7
 10
-401.50162
 20
56.199329
  0
POINT
  8
0
  6
CONTINUOUS
 62
     7
 10
-401.50162
 20
5.3851457
  0
POINT
  8
0
  6
CONTINUOUS
 62
     7
 10
-401.50162
 20
-50.685677
  0
POINT
  8
0
  6
CONTINUOUS
 62
     7
 10
-401.50162
 20
-137.66437
  0
POINT
  8
0
  6
CONTINUOUS
 62
     7
 10
-401.50162
 20
-241.56189
  0
POINT
  8
0
  6
CONTINUOUS
 62
     7
 10
-401.50162
 20
-347.29117
  0
POINT
  8
0
  6
CONTINUOUS
 62
     7
 10
-224.94159
 20
58.678471
  0
POINT
  8
0
  6
CONTINUOUS
 62
     7
 10
-160.89172
 20
58.678471
  0
POINT
  8
0
  6
CONTINUOUS
 62
     7
 10
2.4615843
 20
56.653103
  0
POINT
  8
0
  6
CONTINUOUS
 62
     7
 10
-62.809353
 20
56.653103
  0
POINT
  8
0
  6
CONTINUOUS
 62
     7
 10
-161.51341
 20
-35.046898
  0
POINT
  8
0
  6
CONTINUOUS
 62
     7
 10
-226.78436
 20
-35.046898
  0
POINT
  8
0
  6
CONTINUOUS
 62
     7
 10
-59.761387
 20
-33.646896
  0
POINT
  8
0
  6
CONTINUOUS
 62
     7
 10
3.8615849
 20
-33.646896
  0
POINT
  8
0
  6
CONTINUOUS
 62
     7
 10
-160.63841
 20
-114.1469
  0
POINT
  8
0
  6
CONTINUOUS
 62
     7
 10
-224.2614
 20
-114.1469
  0
POINT
  8
0
  6
CONTINUOUS
 62
     7
 10
-58.886387
 20
-115.1969
  0
POINT
  8
0
  6
CONTINUOUS
 62
     7
 10
4.7365847
 20
-115.1969
  0
POINT
  8
0
  6
CONTINUOUS
 62
     7
 10
-252.44797
 20
-231.35001
  0
POINT
  8
0
  6
CONTINUOUS
 62
     7
 10
-175.175
 20
-231.35001
  0
POINT
  8
0
  6
CONTINUOUS
 62
     7
 10
-63.447975
 20
-232.39999
  0
POINT
  8
0
  6
CONTINUOUS
 62
     7
 10
13.825
 20
-232.39999
  0
POINT
  8
0
  6
CONTINUOUS
 62
     7
 10
-253.32298
 20
-345.45001
  0
POINT
  8
0
  6
CONTINUOUS
 62
     7
 10
-176.05
 20
-345.45001
  0
POINT
  8
0
  6
CONTINUOUS
 62
     7
 10
-51.172974
 20
-346.5
  0
POINT
  8
0
  6
CONTINUOUS
 62
     7
 10
19.950001
 20
-346.5
  0
POINT
  8
0
  6
CONTINUOUS
 62
     7
 10
-243.49797
 20
-536.20001
  0
POINT
  8
0
  6
CONTINUOUS
 62
     7
 10
-172.375
 20
-536.20001
  0
POINT
  8
0
  6
CONTINUOUS
 62
     7
 10
24.5
 20
-535.84998
  0
POINT
  8
0
  6
CONTINUOUS
 62
     7
 10
-46.622978
 20
-535.84998
  0
POINT
  8
0
  6
CONTINUOUS
 62
     7
 10
-241.74797
 20
-663.59998
  0
POINT
  8
0
  6
CONTINUOUS
 62
     7
 10
-170.625
 20
-663.59998
  0
LINE
  8
0
  6
CENTER
 62
     7
 10
-401.50162
 20
119.69923
 11
-401.50162
 21
80.453743
  0
LINE
  8
0
  6
CENTER
 62
     7
 10
-419.98352
 20
101.27591
 11
-383.7355
 21
101.27591
  0
LINE
  8
0
  6
CONTINUOUS
 62
     7
 10
-385.80695
 20
101.27591
 11
-390.40381
 21
112.37373
  0
LINE
  8
0
  6
CONTINUOUS
 62
     7
 10
-390.40378
 20
112.37373
 11
-401.50162
 21
116.9706
  0
LINE
  8
0
  6
CONTINUOUS
 62
     7
 10
-412.59943
 20
112.37373
 11
-401.50162
 21
116.97059
  0
LINE
  8
0
  6
CONTINUOUS
 62
     7
 10
-417.19629
 20
101.27592
 11
-412.59943
 21
112.37373
  0
LINE
  8
0
  6
CONTINUOUS
 62
     7
 10
-412.59946
 20
90.178085
 11
-417.19632
 21
101.2759
  0
LINE
  8
0
  6
CONTINUOUS
 62
     7
 10
-401.50162
 20
85.581223
 11
-412.59946
 21
90.178093
  0
LINE
  8
0
  6
CONTINUOUS
 62
     7
 10
-390.40381
 20
90.178085
 11
-401.50162
 21
85.581223
  0
LINE
  8
0
  6
CONTINUOUS
 62
     7
 10
-385.80692
 20
101.27591
 11
-390.40381
 21
90.178093
  0
LINE
  8
0
  6
CENTER
 62
     7
 10
-425.552
 20
56.199329
 11
-377.8042
 21
56.199329
  0
LINE
  8
0
  6
CONTINUOUS
 62
     7
 10
-383.10095
 20
56.199326
 11
-388.49039
 21
69.210556
  0
LINE
  8
0
  6
CONTINUOUS
 62
     7
 10
-388.49039
 20
69.210571
 11
-401.50162
 21
74.599998
  0
LINE
  8
0
  6
CONTINUOUS
 62
     7
 10
-414.51285
 20
69.210564
 11
-401.50165
 21
74.599991
  0
LINE
  8
0
  6
CONTINUOUS
 62
     7
 10
-419.90228
 20
56.199326
 11
-414.51285
 21
69.210564
  0
LINE
  8
0
  6
CONTINUOUS
 62
     7
 10
-414.51288
 20
43.188091
 11
-419.90228
 21
56.199318
  0
LINE
  8
0
  6
CONTINUOUS
 62
     7
 10
-401.50162
 20
37.798664
 11
-414.51285
 21
43.188091
  0
LINE
  8
0
  6
CONTINUOUS
 62
     7
 10
-388.49039
 20
43.188084
 11
-401.50162
 21
37.798656
  0
LINE
  8
0
  6
CONTINUOUS
 62
     7
 10
-383.10095
 20
56.199326
 11
-388.49039
 21
43.188091
  0
LINE
  8
0
  6
CENTER
 62
     7
 10
-401.50162
 20
78.522614
 11
-401.50162
 21
35.072231
  0
LINE
  8
0
  6
CENTER
 62
     7
 10
-430.80862
 20
5.3851457
 11
-372.54755
 21
5.3851457
  0
LINE
  8
0
  6
CONTINUOUS
 62
     7
 10
-378.23019
 20
5.3851414
 11
-385.04623
 21
21.840534
  0
LINE
  8
0
  6
CONTINUOUS
 62
     7
 10
-385.04623
 20
21.840532
 11
-401.50162
 21
28.656578
  0
LINE
  8
0
  6
CONTINUOUS
 62
     7
 10
-417.957
 20
21.840536
 11
-401.50162
 21
28.656582
  0
LINE
  8
0
  6
CONTINUOUS
 62
     7
 10
-424.77307
 20
5.3851485
 11
-417.957
 21
21.84054
  0
LINE
  8
0
  6
CONTINUOUS
 62
     7
 10
-417.957
 20
-11.070247
 11
-424.77307
 21
5.3851457
  0
LINE
  8
0
  6
CONTINUOUS
 62
     7
 10
-401.50162
 20
-17.886288
 11
-417.957
 21
-11.070242
  0
LINE
  8
0
  6
CONTINUOUS
 62
     7
 10
-385.04623
 20
-11.070237
 11
-401.50162
 21
-17.886284
  0
LINE
  8
0
  6
CONTINUOUS
 62
     7
 10
-378.23019
 20
5.3851528
 11
-385.04623
 21
-11.070239
  0
LINE
  8
0
  6
CENTER
 62
     7
 10
-401.50162
 20
31.209974
 11
-401.50162
 21
-20.447704
  0
LINE
  8
0
  6
CENTER
 62
     7
 10
-434.86905
 20
-50.685677
 11
-369.74557
 21
-50.685677
  0
LINE
  8
0
  6
CONTINUOUS
 62
     7
 10
-374.983
 20
-50.685677
 11
-382.75012
 21
-31.934185
  0
LINE
  8
0
  6
CONTINUOUS
 62
     7
 10
-382.75012
 20
-31.934193
 11
-401.50162
 21
-24.167067
  0
LINE
  8
0
  6
CONTINUOUS
 62
     7
 10
-420.25308
 20
-31.934187
 11
-401.50162
 21
-24.167074
  0
LINE
  8
0
  6
CONTINUOUS
 62
     7
 10
-428.02023
 20
-50.685665
 11
-420.25311
 21
-31.934177
  0
LINE
  8
0
  6
CONTINUOUS
 62
     7
 10
-420.25311
 20
-69.437164
 11
-428.02023
 21
-50.685673
  0
LINE
  8
0
  6
CONTINUOUS
 62
     7
 10
-401.50162
 20
-77.204292
 11
-420.25311
 21
-69.437164
  0
LINE
  8
0
  6
CONTINUOUS
 62
     7
 10
-382.75012
 20
-69.437172
 11
-401.50162
 21
-77.204285
  0
LINE
  8
0
  6
CONTINUOUS
 62
     7
 10
-374.98303
 20
-50.685665
 11
-382.75015
 21
-69.437149
  0
LINE
  8
0
  6
CENTER
 62
     7
 10
-401.50162
 20
-21.654659
 11
-401.50162
 21
-81.278244
  0
LINE
  8
0
  6
CENTER
 62
     7
 10
-437.92899
 20
-137.66437
 11
-365.00909
 21
-137.66437
  0
LINE
  8
0
  6
CONTINUOUS
 62
     7
 10
-369.57104
 20
-137.66437
 11
-378.92331
 21
-115.08604
  0
LINE
  8
0
  6
CONTINUOUS
 62
     7
 10
-378.92331
 20
-115.08604
 11
-401.50162
 21
-105.7338
  0
LINE
  8
0
  6
CONTINUOUS
 62
     7
 10
-424.07996
 20
-115.08604
 11
-401.50162
 21
-105.7338
  0
LINE
  8
0
  6
CONTINUOUS
 62
     7
 10
-433.43219
 20
-137.66437
 11
-424.07996
 21
-115.08604
  0
LINE
  8
0
  6
CONTINUOUS
 62
     7
 10
-424.07996
 20
-160.24269
 11
-433.43219
 21
-137.66437
  0
LINE
  8
0
  6
CONTINUOUS
 62
     7
 10
-401.50162
 20
-169.59494
 11
-424.07996
 21
-160.24269
  0
LINE
  8
0
  6
CONTINUOUS
 62
     7
 10
-378.92331
 20
-160.24269
 11
-401.50162
 21
-169.59494
  0
LINE
  8
0
  6
CONTINUOUS
 62
     7
 10
-369.57104
 20
-137.66437
 11
-378.92331
 21
-160.24269
  0
LINE
  8
0
  6
CENTER
 62
     7
 10
-401.50162
 20
-102.03787
 11
-401.50162
 21
-172.52405
  0
LINE
  8
0
  6
CENTER
 62
     7
 10
-448.31732
 20
-241.56189
 11
-358.51984
 21
-241.56189
  0
LINE
  8
0
  6
CONTINUOUS
 62
     7
 10
-364.70029
 20
-241.56189
 11
-375.47916
 21
-215.53941
  0
LINE
  8
0
  6
CONTINUOUS
 62
     7
 10
-375.47913
 20
-215.53943
 11
-401.50162
 21
-204.76056
  0
LINE
  8
0
  6
CONTINUOUS
 62
     7
 10
-427.52408
 20
-215.53941
 11
-401.50162
 21
-204.76056
  0
LINE
  8
0
  6
CONTINUOUS
 62
     7
 10
-438.30298
 20
-241.56189
 11
-427.52411
 21
-215.5394
  0
LINE
  8
0
  6
CONTINUOUS
 62
     7
 10
-427.52408
 20
-267.58435
 11
-438.30295
 21
-241.56189
  0
LINE
  8
0
  6
CONTINUOUS
 62
     7
 10
-401.50162
 20
-278.36322
 11
-427.52411
 21
-267.58438
  0
LINE
  8
0
  6
CONTINUOUS
 62
     7
 10
-375.47916
 20
-267.58435
 11
-401.50162
 21
-278.36322
  0
LINE
  8
0
  6
CONTINUOUS
 62
     7
 10
-364.70029
 20
-241.56187
 11
-375.47916
 21
-267.58435
  0
LINE
  8
0
  6
CENTER
 62
     7
 10
-401.50162
 20
-198.1115
 11
-401.50162
 21
-283.08115
  0
LINE
  8
0
  6
CENTER
 62
     7
 10
-450.48984
 20
-347.29117
 11
-351.5195
 21
-347.29117
  0
LINE
  8
0
  6
CONTINUOUS
 62
     7
 10
-357.12354
 20
-347.29117
 11
-370.12158
 21
-315.9111
  0
LINE
  8
0
  6
CONTINUOUS
 62
     7
 10
-370.12158
 20
-315.9111
 11
-401.50162
 21
-302.91306
  0
LINE
  8
0
  6
CONTINUOUS
 62
     7
 10
-432.88165
 20
-315.9111
 11
-401.50162
 21
-302.91309
  0
LINE
  8
0
  6
CONTINUOUS
 62
     7
 10
-445.8797
 20
-347.29114
 11
-432.88165
 21
-315.9111
  0
LINE
  8
0
  6
CONTINUOUS
 62
     7
 10
-432.88162
 20
-378.67117
 11
-445.87967
 21
-347.29114
  0
LINE
  8
0
  6
CONTINUOUS
 62
     7
 10
-401.50165
 20
-391.66925
 11
-432.88168
 21
-378.6712
  0
LINE
  8
0
  6
CONTINUOUS
 62
     7
 10
-370.12158
 20
-378.6712
 11
-401.50162
 21
-391.66925
  0
LINE
  8
0
  6
CONTINUOUS
 62
     7
 10
-357.12354
 20
-347.29114
 11
-370.12158
 21
-378.6712
  0
LINE
  8
0
  6
CENTER
 62
     7
 10
-401.50162
 20
-297.08182
 11
-401.50162
 21
-397.0177
  0
LINE
  8
0
  6
CENTER
 62
     7
 10
-249.83977
 20
58.678471
 11
-223.076
 21
58.678471
  0
LINE
  8
0
  6
CONTINUOUS
 62
     7
 10
-240.87173
 20
74.154991
 11
-243.9102
 21
73.04908
  0
LINE
  8
0
  6
CONTINUOUS
 62
     7
 10
-234.08893
 20
72.928467
 11
-225.94159
 21
72.928467
  0
LINE
  8
0
  6
CONTINUOUS
 62
     7
 10
-244.59425
 20
72.928467
 11
-247.44157
 21
72.928467
  0
LINE
  8
0
  6
CONTINUOUS
 62
     7
 10
-237.81142
 20
74.154991
 11
-234.77296
 21
73.04908
  0
LINE
  8
0
  6
CONTINUOUS
 62
     7
 10
-248.44157
 20
71.928467
 11
-248.44157
 21
58.678471
  0
LINE
  8
0
  6
CONTINUOUS
 62
     7
 10
-224.94159
 20
71.928467
 11
-224.94159
 21
58.678471
  0
LINE
  8
0
  6
CONTINUOUS
 62
     7
 10
-225.94159
 20
72.928474
 11
-224.94159
 21
71.928474
  0
LINE
  8
0
  6
CENTER
 62
     7
 10
-179.04045
 20
58.678471
 11
-144.15648
 21
58.678471
  0
LINE
  8
0
  6
CENTER
 62
     7
 10
-160.89172
 20
75.931252
 11
-160.89172
 21
40.733017
  0
LINE
  8
0
  6
CONTINUOUS
 62
     7
 10
-248.44159
 20
71.928482
 11
-247.44159
 21
72.928482
  0
LINE
  8
0
  6
CENTER
 62
     7
 10
-88.787102
 20
56.653103
 11
-62.123775
 21
56.653103
  0
LINE
  8
0
  6
CONTINUOUS
 62
     7
 10
-83.680038
 20
73.603104
 11
-86.809357
 21
73.603104
  0
LINE
  8
0
  6
CONTINUOUS
 62
     7
 10
-79.330498
 20
75.13044
 11
-82.963295
 21
73.735939
  0
LINE
  8
0
  6
CONTINUOUS
 62
     7
 10
-87.809357
 20
72.603104
 11
-87.809357
 21
56.653103
  0
LINE
  8
0
  6
CONTINUOUS
 62
     7
 10
-63.809353
 20
73.603096
 11
-62.809349
 21
72.603096
  0
LINE
  8
0
  6
CONTINUOUS
 62
     7
 10
-62.809353
 20
72.603104
 11
-62.809353
 21
56.653103
  0
LINE
  8
0
  6
CONTINUOUS
 62
     7
 10
-76.388214
 20
75.130447
 11
-72.755417
 21
73.735947
  0
LINE
  8
0
  6
CONTINUOUS
 62
     7
 10
-72.038681
 20
73.603104
 11
-63.809353
 21
73.603104
  0
LINE
  8
0
  6
CENTER
 62
     7
 10
-20.285568
 20
56.653103
 11
22.814306
 21
56.653103
  0
LINE
  8
0
  6
CENTER
 62
     7
 10
2.4615843
 20
79.000389
 11
2.4615843
 21
34.942741
  0
LINE
  8
0
  6
CONTINUOUS
 62
     7
 10
-87.809349
 20
72.603104
 11
-86.809349
 21
73.603104
  0
LINE
  8
0
  6
CENTER
 62
     7
 10
-252.7621
 20
-35.046898
 11
-226.09879
 21
-35.046898
  0
LINE
  8
0
  6
CONTINUOUS
 62
     7
 10
-247.65504
 20
-18.096897
 11
-250.78435
 21
-18.096897
  0
LINE
  8
0
  6
CONTINUOUS
 62
     7
 10
-243.3055
 20
-16.569561
 11
-246.93829
 21
-17.964062
  0
LINE
  8
0
  6
CONTINUOUS
 62
     7
 10
-251.78435
 20
-19.096897
 11
-251.78435
 21
-35.046898
  0
LINE
  8
0
  6
CONTINUOUS
 62
     7
 10
-227.78436
 20
-18.096889
 11
-226.78436
 21
-19.096891
  0
LINE
  8
0
  6
CONTINUOUS
 62
     7
 10
-226.78436
 20
-19.096897
 11
-226.78436
 21
-35.046898
  0
LINE
  8
0
  6
CONTINUOUS
 62
     7
 10
-240.3632
 20
-16.569553
 11
-236.73041
 21
-17.964052
  0
LINE
  8
0
  6
CONTINUOUS
 62
     7
 10
-236.01369
 20
-18.096897
 11
-227.78436
 21
-18.096897
  0
LINE
  8
0
  6
CENTER
 62
     7
 10
-184.26057
 20
-35.046898
 11
-141.16071
 21
-35.046898
  0
LINE
  8
0
  6
CENTER
 62
     7
 10
-161.51341
 20
-12.699604
 11
-161.51341
 21
-56.757256
  0
LINE
  8
0
  6
CONTINUOUS
 62
     7
 10
-241.28435
 20
-34.950314
 11
-241.28435
 21
-35.046898
  0
LINE
  8
0
  6
CONTINUOUS
 62
     7
 10
-251.78435
 20
-19.096878
 11
-250.78436
 21
-18.096889
  0
LINE
  8
0
  6
CENTER
 62
     7
 10
-90.643982
 20
-33.646896
 11
-57.715244
 21
-33.646896
  0
LINE
  8
0
  6
CENTER
 62
     7
 10
-24.264847
 20
-33.646896
 11
32.286469
 21
-33.646896
  0
LINE
  8
0
  6
CENTER
 62
     7
 10
3.8615849
 20
-7.5356126
 11
3.8615849
 21
-60.080433
  0
LINE
  8
0
  6
CONTINUOUS
 62
     7
 10
-60.761387
 20
-12.346898
 11
-59.761387
 21
-13.3469
  0
LINE
  8
0
  6
CONTINUOUS
 62
     7
 10
-82.9683
 20
-12.346899
 11
-87.261391
 21
-12.346899
  0
LINE
  8
0
  6
CONTINUOUS
 62
     7
 10
-69.254486
 20
-12.346899
 11
-60.761387
 21
-12.346899
  0
LINE
  8
0
  6
CONTINUOUS
 62
     7
 10
-73.904099
 20
-10.545979
 11
-70.03595
 21
-12.187911
  0
LINE
  8
0
  6
CONTINUOUS
 62
     7
 10
-78.31868
 20
-10.545982
 11
-82.186829
 21
-12.187913
  0
LINE
  8
0
  6
CONTINUOUS
 62
     7
 10
-88.261391
 20
-13.346899
 11
-88.261391
 21
-33.646896
  0
LINE
  8
0
  6
CONTINUOUS
 62
     7
 10
-59.761387
 20
-13.346899
 11
-59.761387
 21
-33.646896
  0
LINE
  8
0
  6
CONTINUOUS
 62
     7
 10
-88.261391
 20
-13.346904
 11
-87.261391
 21
-12.346903
  0
LINE
  8
0
  6
CENTER
 62
     7
 10
-255.144
 20
-114.1469
 11
-222.21526
 21
-114.1469
  0
LINE
  8
0
  6
CENTER
 62
     7
 10
-188.76486
 20
-114.1469
 11
-132.21353
 21
-114.1469
  0
LINE
  8
0
  6
CENTER
 62
     7
 10
-160.63841
 20
-88.035606
 11
-160.63841
 21
-140.58044
  0
LINE
  8
0
  6
CONTINUOUS
 62
     7
 10
-225.26138
 20
-92.846886
 11
-224.26138
 21
-93.846893
  0
LINE
  8
0
  6
CONTINUOUS
 62
     7
 10
-247.46831
 20
-92.846901
 11
-251.7614
 21
-92.846901
  0
LINE
  8
0
  6
CONTINUOUS
 62
     7
 10
-233.75449
 20
-92.846901
 11
-225.2614
 21
-92.846901
  0
LINE
  8
0
  6
CONTINUOUS
 62
     7
 10
-238.40408
 20
-91.045975
 11
-234.53595
 21
-92.687904
  0
LINE
  8
0
  6
CONTINUOUS
 62
     7
 10
-242.81871
 20
-91.04599
 11
-246.68683
 21
-92.687912
  0
LINE
  8
0
  6
CONTINUOUS
 62
     7
 10
-252.7614
 20
-93.846901
 11
-252.7614
 21
-114.1469
  0
LINE
  8
0
  6
CONTINUOUS
 62
     7
 10
-224.2614
 20
-93.846901
 11
-224.2614
 21
-114.1469
  0
LINE
  8
0
  6
CONTINUOUS
 62
     7
 10
-238.7614
 20
-114.05032
 11
-238.7614
 21
-114.1469
  0
LINE
  8
0
  6
CONTINUOUS
 62
     7
 10
-252.76138
 20
-93.846886
 11
-251.76138
 21
-92.846886
  0
LINE
  8
0
  6
CENTER
 62
     7
 10
-89.768982
 20
-115.1969
 11
-56.840244
 21
-115.1969
  0
LINE
  8
0
  6
CENTER
 62
     7
 10
-23.389851
 20
-115.1969
 11
33.161469
 21
-115.1969
  0
LINE
  8
0
  6
CENTER
 62
     7
 10
4.7365847
 20
-89.085609
 11
4.7365847
 21
-141.63045
  0
LINE
  8
0
  6
CONTINUOUS
 62
     7
 10
-59.886391
 20
-93.896896
 11
-58.886391
 21
-94.896896
  0
LINE
  8
0
  6
CONTINUOUS
 62
     7
 10
-82.0933
 20
-93.896896
 11
-86.386391
 21
-93.896896
  0
LINE
  8
0
  6
CONTINUOUS
 62
     7
 10
-68.379486
 20
-93.896896
 11
-59.986393
 21
-93.896896
  0
LINE
  8
0
  6
CONTINUOUS
 62
     7
 10
-73.029091
 20
-92.095985
 11
-69.16095
 21
-93.737915
  0
LINE
  8
0
  6
CONTINUOUS
 62
     7
 10
-77.443687
 20
-92.095978
 11
-81.311836
 21
-93.737907
  0
LINE
  8
0
  6
CONTINUOUS
 62
     7
 10
-87.386391
 20
-94.896896
 11
-87.386391
 21
-115.1969
  0
LINE
  8
0
  6
CONTINUOUS
 62
     7
 10
-58.886387
 20
-94.896896
 11
-58.886387
 21
-115.1969
  0
LINE
  8
0
  6
CONTINUOUS
 62
     7
 10
-73.386391
 20
-115.10031
 11
-73.386391
 21
-115.1969
  0
LINE
  8
0
  6
CONTINUOUS
 62
     7
 10
-87.386383
 20
-94.896889
 11
-86.386383
 21
-93.896896
  0
LINE
  8
0
  6
CENTER
 62
     7
 10
-287.05096
 20
-231.35001
 11
-246.42203
 21
-231.35001
  0
LINE
  8
0
  6
CENTER
 62
     7
 10
-208.74057
 20
-231.35001
 11
-141.68585
 21
-231.35001
  0
LINE
  8
0
  6
CENTER
 62
     7
 10
-175.175
 20
-199.2345
 11
-175.175
 21
-263.88116
  0
LINE
  8
0
  6
CONTINUOUS
 62
     7
 10
-252.44797
 20
-208
 11
-252.44797
 21
-231.35001
  0
LINE
  8
0
  6
CONTINUOUS
 62
     7
 10
-253.44797
 20
-207
 11
-262.72287
 21
-207
  0
LINE
  8
0
  6
CONTINUOUS
 62
     7
 10
-253.44797
 20
-206.99998
 11
-252.44797
 21
-208
  0
LINE
  8
0
  6
CONTINUOUS
 62
     7
 10
-272.72159
 20
-205.11829
 11
-276.5596
 21
-206.82709
  0
LINE
  8
0
  6
CONTINUOUS
 62
     7
 10
-282.94797
 20
-207
 11
-277.37308
 21
-207
  0
LINE
  8
0
  6
CONTINUOUS
 62
     7
 10
-267.37436
 20
-205.11829
 11
-263.53635
 21
-206.82709
  0
LINE
  8
0
  6
CONTINUOUS
 62
     7
 10
-283.94797
 20
-208
 11
-283.94797
 21
-231.35001
  0
LINE
  8
0
  6
CONTINUOUS
 62
     7
 10
-283.94797
 20
-207.99998
 11
-282.94797
 21
-206.99998
  0
LINE
  8
0
  6
CENTER
 62
     7
 10
-99.376839
 20
-232.39999
 11
-57.661751
 21
-232.39999
  0
LINE
  8
0
  6
CENTER
 62
     7
 10
-19.740576
 20
-232.39999
 11
47.314144
 21
-232.39999
  0
LINE
  8
0
  6
CENTER
 62
     7
 10
13.825
 20
-200.28448
 11
13.825
 21
-264.93115
  0
LINE
  8
0
  6
CONTINUOUS
 62
     7
 10
-64.447975
 20
-256.75
 11
-73.722862
 21
-256.75
  0
LINE
  8
0
  6
CONTINUOUS
 62
     7
 10
-78.374352
 20
-258.63171
 11
-78.374352
 21
-232.39999
  0
LINE
  8
0
  6
CONTINUOUS
 62
     7
 10
-93.947975
 20
-256.75
 11
-88.373093
 21
-256.75
  0
LINE
  8
0
  6
CONTINUOUS
 62
     7
 10
-78.374344
 20
-258.63168
 11
-74.536346
 21
-256.92291
  0
LINE
  8
0
  6
CONTINUOUS
 62
     7
 10
-83.721603
 20
-258.63171
 11
-83.721603
 21
-232.39999
  0
LINE
  8
0
  6
CONTINUOUS
 62
     7
 10
-87.947975
 20
-256.72501
 11
-87.947975
 21
-232.39999
  0
LINE
  8
0
  6
CONTINUOUS
 62
     7
 10
-83.721603
 20
-258.63171
 11
-87.559616
 21
-256.92291
  0
LINE
  8
0
  6
CONTINUOUS
 62
     7
 10
-74.14798
 20
-256.72501
 11
-74.14798
 21
-232.39999
  0
LINE
  8
0
  6
CONTINUOUS
 62
     7
 10
-94.947975
 20
-255.75
 11
-94.947975
 21
-232.39999
  0
LINE
  8
0
  6
CONTINUOUS
 62
     7
 10
-63.447975
 20
-255.75
 11
-63.447975
 21
-232.39999
  0
LINE
  8
0
  6
CONTINUOUS
 62
     7
 10
-64.447975
 20
-256.75
 11
-63.447975
 21
-255.75
  0
LINE
  8
0
  6
CONTINUOUS
 62
     7
 10
-64.447975
 20
-256.75
 11
-64.447975
 21
-232.39999
  0
LINE
  8
0
  6
CONTINUOUS
 62
     7
 10
-63.447975
 20
-209.05
 11
-63.447975
 21
-232.39999
  0
LINE
  8
0
  6
CONTINUOUS
 62
     7
 10
-64.447975
 20
-208.05
 11
-73.722862
 21
-208.05
  0
LINE
  8
0
  6
CONTINUOUS
 62
     7
 10
-64.447983
 20
-208.05
 11
-63.447979
 21
-209.05
  0
LINE
  8
0
  6
CONTINUOUS
 62
     7
 10
-83.721603
 20
-206.16829
 11
-87.559624
 21
-207.87709
  0
LINE
  8
0
  6
CONTINUOUS
 62
     7
 10
-93.947975
 20
-208.05
 11
-88.373093
 21
-208.05
  0
LINE
  8
0
  6
CONTINUOUS
 62
     7
 10
-78.374352
 20
-206.1683
 11
-74.536339
 21
-207.87709
  0
LINE
  8
0
  6
CONTINUOUS
 62
     7
 10
-94.947975
 20
-209.05
 11
-94.947975
 21
-232.39999
  0
LINE
  8
0
  6
CONTINUOUS
 62
     7
 10
-94.947975
 20
-241.70981
 11
-87.947975
 21
-241.70981
  0
LINE
  8
0
  6
CONTINUOUS
 62
     7
 10
-64.447975
 20
-232.30342
 11
-64.447975
 21
-232.39999
  0
LINE
  8
0
  6
CONTINUOUS
 62
     7
 10
-94.947983
 20
-209.05
 11
-93.947983
 21
-208.05
  0
LINE
  8
0
  6
CONTINUOUS
 62
     7
 10
-94.947975
 20
-255.75
 11
-93.947975
 21
-256.75
  0
LINE
  8
0
  6
CONTINUOUS
 62
     7
 10
-93.947975
 20
-241.70981
 11
-93.947975
 21
-256.75
  0
LINE
  8
0
  6
CONTINUOUS
 62
     7
 10
-91.447975
 20
-232.39999
 11
-94.947968
 21
-241.70979
  0
LINE
  8
0
  6
CONTINUOUS
 62
     7
 10
-87.947968
 20
-241.70981
 11
-91.447968
 21
-232.39999
  0
LINE
  8
0
  6
CENTER
 62
     7
 10
-209.61557
 20
-345.45001
 11
-142.56087
 21
-345.45001
  0
LINE
  8
0
  6
CENTER
 62
     7
 10
-176.05
 20
-313.3345
 11
-176.05
 21
-377.98117
  0
LINE
  8
0
  6
CONTINUOUS
 62
     7
 10
-253.32298
 20
-322.10001
 11
-253.32298
 21
-345.45001
  0
LINE
  8
0
  6
CONTINUOUS
 62
     7
 10
-254.32298
 20
-321.10001
 11
-263.59787
 21
-321.10001
  0
LINE
  8
0
  6
CONTINUOUS
 62
     7
 10
-254.32298
 20
-321.10001
 11
-253.32298
 21
-322.10001
  0
LINE
  8
0
  6
CONTINUOUS
 62
     7
 10
-273.59659
 20
-319.21829
 11
-277.4346
 21
-320.92709
  0
LINE
  8
0
  6
CONTINUOUS
 62
     7
 10
-283.82297
 20
-321.10001
 11
-278.24808
 21
-321.10001
  0
LINE
  8
0
  6
CONTINUOUS
 62
     7
 10
-268.24936
 20
-319.21829
 11
-264.41135
 21
-320.92709
  0
LINE
  8
0
  6
CONTINUOUS
 62
     7
 10
-284.82297
 20
-322.10001
 11
-284.82297
 21
-345.45001
  0
LINE
  8
0
  6
CONTINUOUS
 62
     7
 10
-254.32298
 20
-345.35342
 11
-254.32298
 21
-345.45001
  0
LINE
  8
0
  6
CENTER
 62
     7
 10
-287.92596
 20
-345.45001
 11
-247.95168
 21
-345.45001
  0
LINE
  8
0
  6
CONTINUOUS
 62
     7
 10
-253.32298
 20
-368.79999
 11
-253.32298
 21
-345.45001
  0
LINE
  8
0
  6
CONTINUOUS
 62
     7
 10
-268.24936
 20
-371.6817
 11
-268.24936
 21
-345.45001
  0
LINE
  8
0
  6
CONTINUOUS
 62
     7
 10
-264.02298
 20
-369.77499
 11
-264.02298
 21
-345.45001
  0
LINE
  8
0
  6
CONTINUOUS
 62
     7
 10
-254.32298
 20
-369.79999
 11
-254.32298
 21
-345.45001
  0
LINE
  8
0
  6
CONTINUOUS
 62
     7
 10
-254.32298
 20
-369.79999
 11
-263.59787
 21
-369.79999
  0
LINE
  8
0
  6
CONTINUOUS
 62
     7
 10
-254.32297
 20
-369.80002
 11
-253.32297
 21
-368.79999
  0
LINE
  8
0
  6
CONTINUOUS
 62
     7
 10
-273.59659
 20
-371.6817
 11
-277.43463
 21
-369.9729
  0
LINE
  8
0
  6
CONTINUOUS
 62
     7
 10
-273.59659
 20
-371.6817
 11
-273.59659
 21
-345.45001
  0
LINE
  8
0
  6
CONTINUOUS
 62
     7
 10
-283.82297
 20
-369.79999
 11
-278.24808
 21
-369.79999
  0
LINE
  8
0
  6
CONTINUOUS
 62
     7
 10
-268.24936
 20
-371.6817
 11
-264.41135
 21
-369.9729
  0
LINE
  8
0
  6
CONTINUOUS
 62
     7
 10
-277.82297
 20
-369.77499
 11
-277.82297
 21
-345.45001
  0
LINE
  8
0
  6
CONTINUOUS
 62
     7
 10
-284.82297
 20
-368.79999
 11
-284.82297
 21
-345.45001
  0
LINE
  8
0
  6
CONTINUOUS
 62
     7
 10
-284.82297
 20
-354.7598
 11
-277.82297
 21
-354.7598
  0
LINE
  8
0
  6
CONTINUOUS
 62
     7
 10
-284.823
 20
-322.10001
 11
-283.823
 21
-321.10001
  0
LINE
  8
0
  6
CONTINUOUS
 62
     7
 10
-284.82297
 20
-368.79999
 11
-283.82297
 21
-369.79999
  0
LINE
  8
0
  6
CONTINUOUS
 62
     7
 10
-283.82297
 20
-354.7598
 11
-283.82297
 21
-369.79999
  0
LINE
  8
0
  6
CONTINUOUS
 62
     7
 10
-281.32297
 20
-345.45001
 11
-284.823
 21
-354.75983
  0
LINE
  8
0
  6
CONTINUOUS
 62
     7
 10
-277.82297
 20
-354.7598
 11
-281.32297
 21
-345.45001
  0
LINE
  8
0
  6
CENTER
 62
     7
 10
-91.393509
 20
-346.5
 11
-49.526333
 21
-346.5
  0
LINE
  8
0
  6
CENTER
 62
     7
 10
-18.855865
 20
-346.5
 11
57.170528
 21
-346.5
  0
LINE
  8
0
  6
CENTER
 62
     7
 10
19.950001
 20
-306.95239
 11
19.950001
 21
-387.28976
  0
LINE
  8
0
  6
CONTINUOUS
 62
     7
 10
-67.865166
 20
-378.99475
 11
-63.774822
 21
-377.0874
  0
LINE
  8
0
  6
CONTINUOUS
 62
     7
 10
-80.516365
 20
-376.89999
 11
-88.172981
 21
-376.89999
  0
LINE
  8
0
  6
CONTINUOUS
 62
     7
 10
-63.372974
 20
-376.89999
 11
-63.372974
 21
-346.5
  0
LINE
  8
0
  6
CONTINUOUS
 62
     7
 10
-75.58078
 20
-378.99475
 11
-75.58078
 21
-346.5
  0
LINE
  8
0
  6
CONTINUOUS
 62
     7
 10
-67.865173
 20
-378.99475
 11
-67.865173
 21
-346.5
  0
LINE
  8
0
  6
CONTINUOUS
 62
     7
 10
-80.072975
 20
-376.89999
 11
-80.072975
 21
-346.5
  0
LINE
  8
0
  6
CONTINUOUS
 62
     7
 10
-75.58078
 20
-378.99475
 11
-79.671127
 21
-377.08737
  0
LINE
  8
0
  6
CONTINUOUS
 62
     7
 10
-62.929585
 20
-376.89999
 11
-52.172974
 21
-376.89999
  0
LINE
  8
0
  6
CONTINUOUS
 62
     7
 10
-89.172974
 20
-375.89999
 11
-89.172974
 21
-346.5
  0
LINE
  8
0
  6
CONTINUOUS
 62
     7
 10
-51.172974
 20
-375.89999
 11
-51.172974
 21
-346.5
  0
LINE
  8
0
  6
CONTINUOUS
 62
     7
 10
-52.172977
 20
-376.89999
 11
-51.172974
 21
-375.89999
  0
LINE
  8
0
  6
CONTINUOUS
 62
     7
 10
-52.172974
 20
-376.89999
 11
-52.172974
 21
-346.5
  0
LINE
  8
0
  6
CONTINUOUS
 62
     7
 10
-80.516365
 20
-316.10001
 11
-88.172974
 21
-316.10001
  0
LINE
  8
0
  6
CONTINUOUS
 62
     7
 10
-51.172974
 20
-317.10001
 11
-51.172974
 21
-346.5
  0
LINE
  8
0
  6
CONTINUOUS
 62
     7
 10
-75.580772
 20
-314.00525
 11
-80.072968
 21
-316.10001
  0
LINE
  8
0
  6
CONTINUOUS
 62
     7
 10
-67.865181
 20
-314.00525
 11
-63.774834
 21
-315.91263
  0
LINE
  8
0
  6
CONTINUOUS
 62
     7
 10
-62.929585
 20
-316.10001
 11
-52.172974
 21
-316.10001
  0
LINE
  8
0
  6
CONTINUOUS
 62
     7
 10
-89.172974
 20
-317.10001
 11
-89.172974
 21
-346.5
  0
LINE
  8
0
  6
CONTINUOUS
 62
     7
 10
-52.172962
 20
-316.10001
 11
-51.172962
 21
-317.10001
  0
LINE
  8
0
  6
CONTINUOUS
 62
     7
 10
-89.172974
 20
-360.46997
 11
-80.072975
 21
-360.46997
  0
LINE
  8
0
  6
CONTINUOUS
 62
     7
 10
-89.172981
 20
-317.10001
 11
-88.172981
 21
-316.10001
  0
LINE
  8
0
  6
CONTINUOUS
 62
     7
 10
-89.172974
 20
-375.89999
 11
-88.172974
 21
-376.89999
  0
LINE
  8
0
  6
CONTINUOUS
 62
     7
 10
-88.172974
 20
-360.46997
 11
-88.172974
 21
-376.89999
  0
LINE
  8
0
  6
CONTINUOUS
 62
     7
 10
-84.622978
 20
-346.5
 11
-89.172981
 21
-360.46997
  0
LINE
  8
0
  6
CONTINUOUS
 62
     7
 10
-80.072975
 20
-360.46997
 11
-84.622978
 21
-346.5
  0
LINE
  8
0
  6
CENTER
 62
     7
 10
-283.71851
 20
-536.20001
 11
-241.85133
 21
-536.20001
  0
LINE
  8
0
  6
CENTER
 62
     7
 10
-211.18086
 20
-536.20001
 11
-135.15448
 21
-536.20001
  0
LINE
  8
0
  6
CENTER
 62
     7
 10
-172.375
 20
-496.65237
 11
-172.375
 21
-576.98981
  0
LINE
  8
0
  6
CONTINUOUS
 62
     7
 10
-260.19019
 20
-568.69476
 11
-256.09982
 21
-566.78735
  0
LINE
  8
0
  6
CONTINUOUS
 62
     7
 10
-272.84137
 20
-566.59998
 11
-280.49799
 21
-566.59998
  0
LINE
  8
0
  6
CONTINUOUS
 62
     7
 10
-255.69797
 20
-566.59998
 11
-255.69797
 21
-536.20001
  0
LINE
  8
0
  6
CONTINUOUS
 62
     7
 10
-267.90579
 20
-568.69476
 11
-267.90579
 21
-536.20001
  0
LINE
  8
0
  6
CONTINUOUS
 62
     7
 10
-260.19019
 20
-568.69476
 11
-260.19019
 21
-536.20001
  0
LINE
  8
0
  6
CONTINUOUS
 62
     7
 10
-272.39798
 20
-566.59998
 11
-272.39798
 21
-536.20001
  0
LINE
  8
0
  6
CONTINUOUS
 62
     7
 10
-267.90576
 20
-568.6947
 11
-271.99612
 21
-566.78735
  0
LINE
  8
0
  6
CONTINUOUS
 62
     7
 10
-255.25459
 20
-566.59998
 11
-244.49797
 21
-566.59998
  0
LINE
  8
0
  6
CONTINUOUS
 62
     7
 10
-281.49799
 20
-565.59998
 11
-281.49799
 21
-536.20001
  0
LINE
  8
0
  6
CONTINUOUS
 62
     7
 10
-243.49797
 20
-565.59998
 11
-243.49797
 21
-536.20001
  0
LINE
  8
0
  6
CONTINUOUS
 62
     7
 10
-244.49799
 20
-566.59998
 11
-243.49796
 21
-565.59998
  0
LINE
  8
0
  6
CONTINUOUS
 62
     7
 10
-244.49797
 20
-566.59998
 11
-244.49797
 21
-536.20001
  0
LINE
  8
0
  6
CONTINUOUS
 62
     7
 10
-272.84137
 20
-505.79999
 11
-280.49799
 21
-505.79999
  0
LINE
  8
0
  6
CONTINUOUS
 62
     7
 10
-243.49797
 20
-506.79999
 11
-243.49797
 21
-536.20001
  0
LINE
  8
0
  6
CONTINUOUS
 62
     7
 10
-267.90579
 20
-503.70526
 11
-272.39798
 21
-505.80002
  0
LINE
  8
0
  6
CONTINUOUS
 62
     7
 10
-260.19016
 20
-503.70523
 11
-256.09982
 21
-505.61258
  0
LINE
  8
0
  6
CONTINUOUS
 62
     7
 10
-255.25459
 20
-505.79999
 11
-244.49797
 21
-505.79999
  0
LINE
  8
0
  6
CONTINUOUS
 62
     7
 10
-281.49799
 20
-506.79999
 11
-281.49799
 21
-536.20001
  0
LINE
  8
0
  6
CONTINUOUS
 62
     7
 10
-244.49797
 20
-505.79999
 11
-243.49797
 21
-506.79999
  0
LINE
  8
0
  6
CONTINUOUS
 62
     7
 10
-281.49799
 20
-550.16998
 11
-272.39798
 21
-550.16998
  0
LINE
  8
0
  6
CONTINUOUS
 62
     7
 10
-257.99799
 20
-536.10339
 11
-257.99799
 21
-536.20001
  0
LINE
  8
0
  6
CONTINUOUS
 62
     7
 10
-281.49799
 20
-506.79999
 11
-280.49799
 21
-505.80002
  0
LINE
  8
0
  6
CONTINUOUS
 62
     7
 10
-281.49796
 20
-565.59998
 11
-280.49796
 21
-566.59998
  0
LINE
  8
0
  6
CONTINUOUS
 62
     7
 10
-280.49799
 20
-550.16998
 11
-280.49799
 21
-566.59998
  0
LINE
  8
0
  6
CONTINUOUS
 62
     7
 10
-276.94797
 20
-536.20001
 11
-281.49799
 21
-550.16998
  0
LINE
  8
0
  6
CONTINUOUS
 62
     7
 10
-272.39798
 20
-550.16998
 11
-276.948
 21
-536.20001
  0
LINE
  8
0
  6
CENTER
 62
     7
 10
-86.843506
 20
-535.84998
 11
-44.976334
 21
-535.84998
  0
LINE
  8
0
  6
CENTER
 62
     7
 10
-14.305868
 20
-535.84998
 11
61.720528
 21
-535.84998
  0
LINE
  8
0
  6
CENTER
 62
     7
 10
24.5
 20
-496.3024
 11
24.5
 21
-576.63977
  0
LINE
  8
0
  6
CONTINUOUS
 62
     7
 10
-63.315166
 20
-568.34473
 11
-59.224834
 21
-566.43738
  0
LINE
  8
0
  6
CONTINUOUS
 62
     7
 10
-75.96637
 20
-566.25
 11
-83.622978
 21
-566.25
  0
LINE
  8
0
  6
CONTINUOUS
 62
     7
 10
-58.822975
 20
-566.25
 11
-58.822975
 21
-535.84998
  0
LINE
  8
0
  6
CONTINUOUS
 62
     7
 10
-71.030785
 20
-568.34473
 11
-71.030785
 21
-535.84998
  0
LINE
  8
0
  6
CONTINUOUS
 62
     7
 10
-63.315174
 20
-568.34473
 11
-63.315174
 21
-535.84998
  0
LINE
  8
0
  6
CONTINUOUS
 62
     7
 10
-75.52298
 20
-566.25
 11
-75.52298
 21
-535.84998
  0
LINE
  8
0
  6
CONTINUOUS
 62
     7
 10
-71.030785
 20
-568.34479
 11
-75.121147
 21
-566.43738
  0
LINE
  8
0
  6
CONTINUOUS
 62
     7
 10
-58.379589
 20
-566.25
 11
-48.222977
 21
-566.25
  0
LINE
  8
0
  6
CONTINUOUS
 62
     7
 10
-84.622978
 20
-565.25
 11
-84.622978
 21
-535.84998
  0
LINE
  8
0
  6
CONTINUOUS
 62
     7
 10
-46.622978
 20
-565.25
 11
-46.622978
 21
-535.84998
  0
LINE
  8
0
  6
CONTINUOUS
 62
     7
 10
-47.622974
 20
-566.25
 11
-46.622974
 21
-565.25
  0
LINE
  8
0
  6
CONTINUOUS
 62
     7
 10
-47.622978
 20
-566.25
 11
-47.622978
 21
-535.84998
  0
LINE
  8
0
  6
CONTINUOUS
 62
     7
 10
-75.96637
 20
-505.45001
 11
-83.622978
 21
-505.45001
  0
LINE
  8
0
  6
CONTINUOUS
 62
     7
 10
-46.622978
 20
-506.45001
 11
-46.622978
 21
-535.84998
  0
LINE
  8
0
  6
CONTINUOUS
 62
     7
 10
-71.030792
 20
-503.35526
 11
-75.522972
 21
-505.44998
  0
LINE
  8
0
  6
CONTINUOUS
 62
     7
 10
-63.315174
 20
-503.35526
 11
-59.224827
 21
-505.26263
  0
LINE
  8
0
  6
CONTINUOUS
 62
     7
 10
-58.379589
 20
-505.45001
 11
-47.622978
 21
-505.45001
  0
LINE
  8
0
  6
CONTINUOUS
 62
     7
 10
-84.622978
 20
-506.45001
 11
-84.622978
 21
-535.84998
  0
LINE
  8
0
  6
CONTINUOUS
 62
     7
 10
-47.622978
 20
-505.44998
 11
-46.622974
 21
-506.44998
  0
LINE
  8
0
  6
CONTINUOUS
 62
     7
 10
-84.622978
 20
-549.81995
 11
-75.52298
 21
-549.81995
  0
LINE
  8
0
  6
CONTINUOUS
 62
     7
 10
-61.122978
 20
-535.75342
 11
-61.122978
 21
-535.84998
  0
LINE
  8
0
  6
CONTINUOUS
 62
     7
 10
-84.622971
 20
-506.44998
 11
-83.622971
 21
-505.44998
  0
LINE
  8
0
  6
CONTINUOUS
 62
     7
 10
-84.622971
 20
-565.25
 11
-83.622971
 21
-566.25
  0
LINE
  8
0
  6
CONTINUOUS
 62
     7
 10
-83.622978
 20
-549.81995
 11
-83.622978
 21
-566.25
  0
LINE
  8
0
  6
CONTINUOUS
 62
     7
 10
-80.072983
 20
-535.85004
 11
-84.622986
 21
-549.82001
  0
LINE
  8
0
  6
CONTINUOUS
 62
     7
 10
-75.52298
 20
-549.81995
 11
-80.072975
 21
-535.84998
  0
LINE
  8
0
  6
CENTER
 62
     7
 10
-281.96851
 20
-663.59998
 11
-240.10133
 21
-663.59998
  0
LINE
  8
0
  6
CENTER
 62
     7
 10
-209.43086
 20
-663.59998
 11
-133.40446
 21
-663.59998
  0
LINE
  8
0
  6
CENTER
 62
     7
 10
-170.625
 20
-624.05237
 11
-170.625
 21
-704.38977
  0
LINE
  8
0
  6
CONTINUOUS
 62
     7
 10
-259.04016
 20
-696.09473
 11
-254.94981
 21
-694.18738
  0
LINE
  8
0
  6
CONTINUOUS
 62
     7
 10
-271.69138
 20
-694
 11
-278.74802
 21
-694
  0
LINE
  8
0
  6
CONTINUOUS
 62
     7
 10
-254.54797
 20
-694
 11
-254.54797
 21
-663.59998
  0
LINE
  8
0
  6
CONTINUOUS
 62
     7
 10
-266.75577
 20
-696.09473
 11
-266.75577
 21
-663.59998
  0
LINE
  8
0
  6
CONTINUOUS
 62
     7
 10
-259.04016
 20
-696.09473
 11
-259.04016
 21
-663.59998
  0
LINE
  8
0
  6
CONTINUOUS
 62
     7
 10
-271.24799
 20
-694
 11
-271.24799
 21
-663.59998
  0
LINE
  8
0
  6
CONTINUOUS
 62
     7
 10
-266.75577
 20
-696.09473
 11
-270.84613
 21
-694.18738
  0
LINE
  8
0
  6
CONTINUOUS
 62
     7
 10
-254.10458
 20
-694
 11
-242.74797
 21
-694
  0
LINE
  8
0
  6
CONTINUOUS
 62
     7
 10
-279.74799
 20
-693
 11
-279.74799
 21
-663.59998
  0
LINE
  8
0
  6
CONTINUOUS
 62
     7
 10
-241.74797
 20
-693
 11
-241.74797
 21
-663.59998
  0
LINE
  8
0
  6
CONTINUOUS
 62
     7
 10
-242.74797
 20
-694
 11
-241.74796
 21
-693
  0
LINE
  8
0
  6
CONTINUOUS
 62
     7
 10
-242.74797
 20
-694
 11
-242.74797
 21
-663.59998
  0
LINE
  8
0
  6
CONTINUOUS
 62
     7
 10
-271.09137
 20
-633.20001
 11
-278.74799
 21
-633.20001
  0
LINE
  8
0
  6
CONTINUOUS
 62
     7
 10
-241.74797
 20
-634.20001
 11
-241.74797
 21
-663.59998
  0
LINE
  8
0
  6
CONTINUOUS
 62
     7
 10
-266.15579
 20
-631.10529
 11
-270.64801
 21
-633.20001
  0
LINE
  8
0
  6
CONTINUOUS
 62
     7
 10
-258.44016
 20
-631.10529
 11
-254.34982
 21
-633.01263
  0
LINE
  8
0
  6
CONTINUOUS
 62
     7
 10
-253.50458
 20
-633.20001
 11
-242.74797
 21
-633.20001
  0
LINE
  8
0
  6
CONTINUOUS
 62
     7
 10
-279.74799
 20
-634.20001
 11
-279.74799
 21
-663.59998
  0
LINE
  8
0
  6
CONTINUOUS
 62
     7
 10
-242.74797
 20
-633.20001
 11
-241.74796
 21
-634.20001
  0
LINE
  8
0
  6
CONTINUOUS
 62
     7
 10
-279.74799
 20
-677.56995
 11
-271.24799
 21
-677.56995
  0
LINE
  8
0
  6
CONTINUOUS
 62
     7
 10
-279.74799
 20
-634.20001
 11
-278.74799
 21
-633.20001
  0
LINE
  8
0
  6
CONTINUOUS
 62
     7
 10
-279.74799
 20
-693
 11
-278.74799
 21
-694
  0
LINE
  8
0
  6
CONTINUOUS
 62
     7
 10
-278.74799
 20
-677.56995
 11
-278.74799
 21
-694
  0
LINE
  8
0
  6
CONTINUOUS
 62
     7
 10
-275.198
 20
-663.60004
 11
-279.74799
 21
-677.57001
  0
LINE
  8
0
  6
CONTINUOUS
 62
     7
 10
-275.19797
 20
-663.59998
 11
-271.24799
 21
-677.56995
  0
LINE
  8
0
  6
CONTINUOUS
 62
     7
 10
-248.44157
 20
63.073071
 11
-243.94157
 21
63.073071
  0
LINE
  8
0
  6
CONTINUOUS
 62
     7
 10
-246.34157
 20
58.678482
 11
-248.44157
 21
63.073082
  0
LINE
  8
0
  6
CONTINUOUS
 62
     7
 10
-246.34158
 20
58.678474
 11
-243.94157
 21
63.073074
  0
LINE
  8
0
  6
CONTINUOUS
 62
     7
 10
-247.44157
 20
63.073071
 11
-247.44157
 21
72.928467
  0
LINE
  8
0
  6
CONTINUOUS
 62
     7
 10
-243.94157
 20
72.928467
 11
-243.94157
 21
58.678471
  0
LINE
  8
0
  6
CONTINUOUS
 62
     7
 10
-240.55219
 20
74.162109
 11
-240.55219
 21
58.678471
  0
LINE
  8
0
  6
CONTINUOUS
 62
     7
 10
-237.53099
 20
74.162109
 11
-237.53099
 21
58.678471
  0
LINE
  8
0
  6
CONTINUOUS
 62
     7
 10
-234.14159
 20
72.928467
 11
-234.14159
 21
58.678471
  0
LINE
  8
0
  6
CONTINUOUS
 62
     7
 10
-225.94159
 20
72.928467
 11
-225.94159
 21
58.678471
  0
LINE
  8
0
  6
CONTINUOUS
 62
     7
 10
-85.559349
 20
56.653103
 11
-87.809357
 21
62.247967
  0
LINE
  8
0
  6
CONTINUOUS
 62
     7
 10
-86.809357
 20
62.247967
 11
-86.809357
 21
73.603104
  0
LINE
  8
0
  6
CONTINUOUS
 62
     7
 10
-87.809357
 20
62.247967
 11
-83.309357
 21
62.247967
  0
LINE
  8
0
  6
CONTINUOUS
 62
     7
 10
-83.309357
 20
73.603104
 11
-83.309357
 21
56.653103
  0
LINE
  8
0
  6
CONTINUOUS
 62
     7
 10
-79.330505
 20
75.13044
 11
-79.330505
 21
56.653103
  0
LINE
  8
0
  6
CONTINUOUS
 62
     7
 10
-85.559357
 20
56.653103
 11
-83.309357
 21
62.247967
  0
LINE
  8
0
  6
CONTINUOUS
 62
     7
 10
-76.388214
 20
75.13044
 11
-76.388214
 21
56.653103
  0
LINE
  8
0
  6
CONTINUOUS
 62
     7
 10
-72.409355
 20
73.603104
 11
-72.409355
 21
56.653103
  0
LINE
  8
0
  6
CONTINUOUS
 62
     7
 10
-63.809353
 20
73.603104
 11
-63.809353
 21
56.653103
  0
LINE
  8
0
  6
CONTINUOUS
 62
     7
 10
-250.78435
 20
-29.452038
 11
-250.78435
 21
-18.096901
  0
LINE
  8
0
  6
CONTINUOUS
 62
     7
 10
-251.78435
 20
-29.452038
 11
-247.28435
 21
-29.452038
  0
LINE
  8
0
  6
CONTINUOUS
 62
     7
 10
-249.53435
 20
-35.04689
 11
-251.78435
 21
-29.45203
  0
LINE
  8
0
  6
CONTINUOUS
 62
     7
 10
-249.53436
 20
-35.046894
 11
-247.28436
 21
-29.452028
  0
LINE
  8
0
  6
CONTINUOUS
 62
     7
 10
-243.3055
 20
-16.569561
 11
-243.3055
 21
-35.046898
  0
LINE
  8
0
  6
CONTINUOUS
 62
     7
 10
-247.28435
 20
-18.096901
 11
-247.28435
 21
-35.046898
  0
LINE
  8
0
  6
CONTINUOUS
 62
     7
 10
-240.36322
 20
-16.569561
 11
-240.36322
 21
-35.046898
  0
LINE
  8
0
  6
CONTINUOUS
 62
     7
 10
-236.38435
 20
-18.096901
 11
-236.38435
 21
-35.046898
  0
LINE
  8
0
  6
CONTINUOUS
 62
     7
 10
-227.78436
 20
-18.096901
 11
-227.78436
 21
-35.046898
  0
LINE
  8
0
  6
CONTINUOUS
 62
     7
 10
-73.904091
 20
-10.545975
 11
-73.904091
 21
-33.646896
  0
LINE
  8
0
  6
CONTINUOUS
 62
     7
 10
-78.318687
 20
-10.545975
 11
-78.318687
 21
-33.646896
  0
LINE
  8
0
  6
CONTINUOUS
 62
     7
 10
-82.561394
 20
-12.346897
 11
-82.561394
 21
-33.646896
  0
LINE
  8
0
  6
CONTINUOUS
 62
     7
 10
-69.661392
 20
-12.346897
 11
-69.661392
 21
-33.646896
  0
LINE
  8
0
  6
CONTINUOUS
 62
     7
 10
-60.761387
 20
-12.346897
 11
-60.761387
 21
-33.646896
  0
LINE
  8
0
  6
CONTINUOUS
 62
     7
 10
-88.261391
 20
-24.019333
 11
-82.561394
 21
-24.019333
  0
LINE
  8
0
  6
CONTINUOUS
 62
     7
 10
-87.261391
 20
-24.019333
 11
-87.261391
 21
-12.346897
  0
LINE
  8
0
  6
CONTINUOUS
 62
     7
 10
-85.325424
 20
-33.646896
 11
-88.261391
 21
-24.019335
  0
LINE
  8
0
  6
CONTINUOUS
 62
     7
 10
-82.561386
 20
-24.019331
 11
-85.325424
 21
-33.646896
  0
LINE
  8
0
  6
CONTINUOUS
 62
     7
 10
-238.4041
 20
-91.045982
 11
-238.4041
 21
-114.1469
  0
LINE
  8
0
  6
CONTINUOUS
 62
     7
 10
-242.81868
 20
-91.045982
 11
-242.81868
 21
-114.1469
  0
LINE
  8
0
  6
CONTINUOUS
 62
     7
 10
-247.06139
 20
-92.846901
 11
-247.06139
 21
-114.1469
  0
LINE
  8
0
  6
CONTINUOUS
 62
     7
 10
-234.16139
 20
-92.846901
 11
-234.16139
 21
-114.1469
  0
LINE
  8
0
  6
CONTINUOUS
 62
     7
 10
-225.2614
 20
-92.846901
 11
-225.2614
 21
-114.1469
  0
LINE
  8
0
  6
CONTINUOUS
 62
     7
 10
-252.7614
 20
-104.51933
 11
-247.06139
 21
-104.51933
  0
LINE
  8
0
  6
CONTINUOUS
 62
     7
 10
-251.7614
 20
-104.51933
 11
-251.7614
 21
-92.846901
  0
LINE
  8
0
  6
CONTINUOUS
 62
     7
 10
-249.91139
 20
-114.1469
 11
-252.76138
 21
-104.51934
  0
LINE
  8
0
  6
CONTINUOUS
 62
     7
 10
-247.06142
 20
-104.51933
 11
-249.91141
 21
-114.1469
  0
LINE
  8
0
  6
CONTINUOUS
 62
     7
 10
-72.929092
 20
-92.095985
 11
-72.929092
 21
-115.1969
  0
LINE
  8
0
  6
CONTINUOUS
 62
     7
 10
-77.343689
 20
-92.095985
 11
-77.343689
 21
-115.1969
  0
LINE
  8
0
  6
CONTINUOUS
 62
     7
 10
-81.586395
 20
-93.896904
 11
-81.586395
 21
-115.1969
  0
LINE
  8
0
  6
CONTINUOUS
 62
     7
 10
-68.686394
 20
-93.896904
 11
-68.686394
 21
-115.1969
  0
LINE
  8
0
  6
CONTINUOUS
 62
     7
 10
-59.886387
 20
-93.896904
 11
-59.886387
 21
-115.1969
  0
LINE
  8
0
  6
CONTINUOUS
 62
     7
 10
-87.386391
 20
-105.56934
 11
-81.586395
 21
-105.56934
  0
LINE
  8
0
  6
CONTINUOUS
 62
     7
 10
-86.386391
 20
-105.56934
 11
-86.386391
 21
-93.896904
  0
LINE
  8
0
  6
CONTINUOUS
 62
     7
 10
-84.536392
 20
-115.19689
 11
-87.386391
 21
-105.56933
  0
LINE
  8
0
  6
CONTINUOUS
 62
     7
 10
-81.586388
 20
-105.56934
 11
-84.536385
 21
-115.1969
  0
LINE
  8
0
  6
CONTINUOUS
 62
     7
 10
-267.37436
 20
-205.11832
 11
-267.37436
 21
-231.35001
  0
LINE
  8
0
  6
CONTINUOUS
 62
     7
 10
-272.72159
 20
-205.11832
 11
-272.72159
 21
-231.35001
  0
LINE
  8
0
  6
CONTINUOUS
 62
     7
 10
-276.94797
 20
-207.02501
 11
-276.94797
 21
-231.35001
  0
LINE
  8
0
  6
CONTINUOUS
 62
     7
 10
-263.14798
 20
-207.02501
 11
-263.14798
 21
-231.35001
  0
LINE
  8
0
  6
CONTINUOUS
 62
     7
 10
-253.44797
 20
-207.00002
 11
-253.44797
 21
-231.35001
  0
LINE
  8
0
  6
CONTINUOUS
 62
     7
 10
-283.94797
 20
-222.04021
 11
-276.94797
 21
-222.04021
  0
LINE
  8
0
  6
CONTINUOUS
 62
     7
 10
-282.94797
 20
-222.04021
 11
-282.94797
 21
-207.00002
  0
LINE
  8
0
  6
CONTINUOUS
 62
     7
 10
-280.448
 20
-231.35002
 11
-283.948
 21
-222.04021
  0
LINE
  8
0
  6
CONTINUOUS
 62
     7
 10
-276.94797
 20
-222.04021
 11
-280.44797
 21
-231.35002
  0
LINE
  8
0
  6
CONTINUOUS
 62
     7
 10
-78.374352
 20
-206.16827
 11
-78.374352
 21
-232.39999
  0
LINE
  8
0
  6
CONTINUOUS
 62
     7
 10
-83.721603
 20
-206.16827
 11
-83.721603
 21
-232.39999
  0
LINE
  8
0
  6
CONTINUOUS
 62
     7
 10
-87.947975
 20
-208.07498
 11
-87.947975
 21
-232.39999
  0
LINE
  8
0
  6
CONTINUOUS
 62
     7
 10
-74.14798
 20
-208.07498
 11
-74.14798
 21
-232.39999
  0
LINE
  8
0
  6
CONTINUOUS
 62
     7
 10
-94.947975
 20
-223.09018
 11
-87.947975
 21
-223.09018
  0
LINE
  8
0
  6
CONTINUOUS
 62
     7
 10
-93.947975
 20
-223.09018
 11
-93.947975
 21
-208.04999
  0
LINE
  8
0
  6
CONTINUOUS
 62
     7
 10
-91.447968
 20
-232.39999
 11
-94.947968
 21
-223.09019
  0
LINE
  8
0
  6
CONTINUOUS
 62
     7
 10
-87.947968
 20
-223.09019
 11
-91.447975
 21
-232.39999
  0
LINE
  8
0
  6
CONTINUOUS
 62
     7
 10
-64.447975
 20
-208.04999
 11
-64.447975
 21
-232.39999
  0
LINE
  8
0
  6
CONTINUOUS
 62
     7
 10
-63.372974
 20
-316.10001
 11
-63.372974
 21
-346.5
  0
LINE
  8
0
  6
CONTINUOUS
 62
     7
 10
-75.58078
 20
-314.00525
 11
-75.58078
 21
-346.5
  0
LINE
  8
0
  6
CONTINUOUS
 62
     7
 10
-67.865173
 20
-314.00525
 11
-67.865173
 21
-346.5
  0
LINE
  8
0
  6
CONTINUOUS
 62
     7
 10
-80.072975
 20
-316.10001
 11
-80.072975
 21
-346.5
  0
LINE
  8
0
  6
CONTINUOUS
 62
     7
 10
-89.172974
 20
-332.53003
 11
-80.072975
 21
-332.53003
  0
LINE
  8
0
  6
CONTINUOUS
 62
     7
 10
-88.172974
 20
-332.53003
 11
-88.172974
 21
-316.10001
  0
LINE
  8
0
  6
CONTINUOUS
 62
     7
 10
-84.622978
 20
-346.5
 11
-89.172974
 21
-332.53003
  0
LINE
  8
0
  6
CONTINUOUS
 62
     7
 10
-80.072975
 20
-332.53003
 11
-84.622978
 21
-346.5
  0
LINE
  8
0
  6
CONTINUOUS
 62
     7
 10
-52.172974
 20
-316.10001
 11
-52.172974
 21
-346.5
  0
LINE
  8
0
  6
CONTINUOUS
 62
     7
 10
-268.24936
 20
-319.21832
 11
-268.24936
 21
-345.45001
  0
LINE
  8
0
  6
CONTINUOUS
 62
     7
 10
-264.02298
 20
-321.12503
 11
-264.02298
 21
-345.45001
  0
LINE
  8
0
  6
CONTINUOUS
 62
     7
 10
-254.32298
 20
-321.10004
 11
-254.32298
 21
-345.45001
  0
LINE
  8
0
  6
CONTINUOUS
 62
     7
 10
-273.59659
 20
-319.21832
 11
-273.59659
 21
-345.45001
  0
LINE
  8
0
  6
CONTINUOUS
 62
     7
 10
-277.82297
 20
-321.12503
 11
-277.82297
 21
-345.45001
  0
LINE
  8
0
  6
CONTINUOUS
 62
     7
 10
-284.82297
 20
-336.14023
 11
-277.82297
 21
-336.14023
  0
LINE
  8
0
  6
CONTINUOUS
 62
     7
 10
-283.82297
 20
-336.14023
 11
-283.82297
 21
-321.10004
  0
LINE
  8
0
  6
CONTINUOUS
 62
     7
 10
-281.32297
 20
-345.45001
 11
-284.82297
 21
-336.1402
  0
LINE
  8
0
  6
CONTINUOUS
 62
     7
 10
-277.82297
 20
-336.14023
 11
-281.32297
 21
-345.45001
  0
LINE
  8
0
  6
CONTINUOUS
 62
     7
 10
-255.69797
 20
-505.80005
 11
-255.69797
 21
-536.20001
  0
LINE
  8
0
  6
CONTINUOUS
 62
     7
 10
-267.90579
 20
-503.70526
 11
-267.90579
 21
-536.20001
  0
LINE
  8
0
  6
CONTINUOUS
 62
     7
 10
-260.19019
 20
-503.70526
 11
-260.19019
 21
-536.20001
  0
LINE
  8
0
  6
CONTINUOUS
 62
     7
 10
-272.39798
 20
-505.80005
 11
-272.39798
 21
-536.20001
  0
LINE
  8
0
  6
CONTINUOUS
 62
     7
 10
-244.49797
 20
-505.80005
 11
-244.49797
 21
-536.20001
  0
LINE
  8
0
  6
CONTINUOUS
 62
     7
 10
-281.49799
 20
-522.23004
 11
-272.39798
 21
-522.23004
  0
LINE
  8
0
  6
CONTINUOUS
 62
     7
 10
-280.49799
 20
-522.23004
 11
-280.49799
 21
-505.80005
  0
LINE
  8
0
  6
CONTINUOUS
 62
     7
 10
-276.94797
 20
-536.20001
 11
-281.49799
 21
-522.23004
  0
LINE
  8
0
  6
CONTINUOUS
 62
     7
 10
-272.39798
 20
-522.23004
 11
-276.94797
 21
-536.20001
  0
LINE
  8
0
  6
CONTINUOUS
 62
     7
 10
-58.822975
 20
-505.44995
 11
-58.822975
 21
-535.84998
  0
LINE
  8
0
  6
CONTINUOUS
 62
     7
 10
-71.030785
 20
-503.35522
 11
-71.030785
 21
-535.84998
  0
LINE
  8
0
  6
CONTINUOUS
 62
     7
 10
-63.315174
 20
-503.35522
 11
-63.315174
 21
-535.84998
  0
LINE
  8
0
  6
CONTINUOUS
 62
     7
 10
-75.52298
 20
-505.44995
 11
-75.52298
 21
-535.84998
  0
LINE
  8
0
  6
CONTINUOUS
 62
     7
 10
-47.622978
 20
-505.44995
 11
-47.622978
 21
-535.84998
  0
LINE
  8
0
  6
CONTINUOUS
 62
     7
 10
-84.622978
 20
-521.88
 11
-75.52298
 21
-521.88
  0
LINE
  8
0
  6
CONTINUOUS
 62
     7
 10
-83.622978
 20
-521.88
 11
-83.622978
 21
-505.44995
  0
LINE
  8
0
  6
CONTINUOUS
 62
     7
 10
-80.07299
 20
-535.84991
 11
-84.622993
 21
-521.87994
  0
LINE
  8
0
  6
CONTINUOUS
 62
     7
 10
-75.52298
 20
-521.88
 11
-80.072983
 21
-535.84998
  0
LINE
  8
0
  6
CONTINUOUS
 62
     7
 10
-254.54797
 20
-633.20001
 11
-254.54797
 21
-663.59998
  0
LINE
  8
0
  6
CONTINUOUS
 62
     7
 10
-266.75577
 20
-631.10529
 11
-266.75577
 21
-663.59998
  0
LINE
  8
0
  6
CONTINUOUS
 62
     7
 10
-259.04016
 20
-631.10529
 11
-259.04016
 21
-663.59998
  0
LINE
  8
0
  6
CONTINUOUS
 62
     7
 10
-271.24799
 20
-633.20001
 11
-271.24799
 21
-663.59998
  0
LINE
  8
0
  6
CONTINUOUS
 62
     7
 10
-279.74799
 20
-649.63
 11
-271.24799
 21
-649.63
  0
LINE
  8
0
  6
CONTINUOUS
 62
     7
 10
-278.74799
 20
-649.63
 11
-278.74799
 21
-633.20001
  0
LINE
  8
0
  6
CONTINUOUS
 62
     7
 10
-275.198
 20
-663.59998
 11
-279.74799
 21
-649.63
  0
LINE
  8
0
  6
CONTINUOUS
 62
     7
 10
-275.19797
 20
-663.59998
 11
-271.24799
 21
-649.63007
  0
LINE
  8
0
  6
CONTINUOUS
 62
     7
 10
-242.74797
 20
-633.20001
 11
-242.74797
 21
-663.59998
  0
LINE
  8
0
  6
CONTINUOUS
 62
     7
 10
-240.87175
 20
43.20195
 11
-243.9102
 21
44.307858
  0
LINE
  8
0
  6
CONTINUOUS
 62
     7
 10
-234.08893
 20
44.428474
 11
-225.94159
 21
44.428474
  0
LINE
  8
0
  6
CONTINUOUS
 62
     7
 10
-244.59425
 20
44.428474
 11
-247.44157
 21
44.428474
  0
LINE
  8
0
  6
CONTINUOUS
 62
     7
 10
-237.81142
 20
43.201954
 11
-234.77296
 21
44.307861
  0
LINE
  8
0
  6
CONTINUOUS
 62
     7
 10
-248.44157
 20
45.428474
 11
-248.44157
 21
58.678471
  0
LINE
  8
0
  6
CONTINUOUS
 62
     7
 10
-224.94159
 20
45.428474
 11
-224.94159
 21
58.678471
  0
LINE
  8
0
  6
CONTINUOUS
 62
     7
 10
-225.94159
 20
44.428459
 11
-224.94157
 21
45.428467
  0
LINE
  8
0
  6
CONTINUOUS
 62
     7
 10
-248.44159
 20
45.428452
 11
-247.44159
 21
44.428448
  0
LINE
  8
0
  6
CONTINUOUS
 62
     7
 10
-248.44157
 20
54.283871
 11
-243.94157
 21
54.283871
  0
LINE
  8
0
  6
CONTINUOUS
 62
     7
 10
-246.34157
 20
58.678455
 11
-248.44156
 21
54.283859
  0
LINE
  8
0
  6
CONTINUOUS
 62
     7
 10
-246.34158
 20
58.678467
 11
-243.94157
 21
54.283867
  0
LINE
  8
0
  6
CONTINUOUS
 62
     7
 10
-247.44157
 20
54.283871
 11
-247.44157
 21
44.428474
  0
LINE
  8
0
  6
CONTINUOUS
 62
     7
 10
-243.94157
 20
44.428474
 11
-243.94157
 21
58.678471
  0
LINE
  8
0
  6
CONTINUOUS
 62
     7
 10
-240.55219
 20
43.194832
 11
-240.55219
 21
58.678471
  0
LINE
  8
0
  6
CONTINUOUS
 62
     7
 10
-237.53099
 20
43.194832
 11
-237.53099
 21
58.678471
  0
LINE
  8
0
  6
CONTINUOUS
 62
     7
 10
-234.14159
 20
44.428474
 11
-234.14159
 21
58.678471
  0
LINE
  8
0
  6
CONTINUOUS
 62
     7
 10
-225.94159
 20
44.428474
 11
-225.94159
 21
58.678471
  0
LINE
  8
0
  6
CONTINUOUS
 62
     7
 10
-83.680038
 20
39.703102
 11
-86.809357
 21
39.703102
  0
LINE
  8
0
  6
CONTINUOUS
 62
     7
 10
-79.330498
 20
38.175766
 11
-82.963295
 21
39.570267
  0
LINE
  8
0
  6
CONTINUOUS
 62
     7
 10
-87.809357
 20
40.703102
 11
-87.809357
 21
56.653103
  0
LINE
  8
0
  6
CONTINUOUS
 62
     7
 10
-63.809349
 20
39.703106
 11
-62.809349
 21
40.703106
  0
LINE
  8
0
  6
CONTINUOUS
 62
     7
 10
-62.809353
 20
40.703102
 11
-62.809353
 21
56.653103
  0
LINE
  8
0
  6
CONTINUOUS
 62
     7
 10
-76.388214
 20
38.175762
 11
-72.755417
 21
39.570263
  0
LINE
  8
0
  6
CONTINUOUS
 62
     7
 10
-72.038681
 20
39.703102
 11
-63.809353
 21
39.703102
  0
LINE
  8
0
  6
CONTINUOUS
 62
     7
 10
-87.809349
 20
40.703106
 11
-86.809349
 21
39.703106
  0
LINE
  8
0
  6
CONTINUOUS
 62
     7
 10
-85.559349
 20
56.653103
 11
-87.809349
 21
51.058235
  0
LINE
  8
0
  6
CONTINUOUS
 62
     7
 10
-86.809357
 20
51.058239
 11
-86.809357
 21
39.703102
  0
LINE
  8
0
  6
CONTINUOUS
 62
     7
 10
-87.809357
 20
51.058239
 11
-83.309357
 21
51.058239
  0
LINE
  8
0
  6
CONTINUOUS
 62
     7
 10
-83.309357
 20
39.703102
 11
-83.309357
 21
56.653103
  0
LINE
  8
0
  6
CONTINUOUS
 62
     7
 10
-79.330505
 20
38.175766
 11
-79.330505
 21
56.653103
  0
LINE
  8
0
  6
CONTINUOUS
 62
     7
 10
-85.559357
 20
56.653099
 11
-83.309357
 21
51.058235
  0
LINE
  8
0
  6
CONTINUOUS
 62
     7
 10
-76.388214
 20
38.175766
 11
-76.388214
 21
56.653103
  0
LINE
  8
0
  6
CONTINUOUS
 62
     7
 10
-72.409355
 20
39.703102
 11
-72.409355
 21
56.653103
  0
LINE
  8
0
  6
CONTINUOUS
 62
     7
 10
-63.809353
 20
39.703102
 11
-63.809353
 21
56.653103
  0
LINE
  8
0
  6
CONTINUOUS
 62
     7
 10
-247.65504
 20
-51.996899
 11
-250.78435
 21
-51.996899
  0
LINE
  8
0
  6
CONTINUOUS
 62
     7
 10
-243.3055
 20
-53.524239
 11
-246.93829
 21
-52.129742
  0
LINE
  8
0
  6
CONTINUOUS
 62
     7
 10
-251.78435
 20
-50.996899
 11
-251.78435
 21
-35.046898
  0
LINE
  8
0
  6
CONTINUOUS
 62
     7
 10
-227.78435
 20
-51.996902
 11
-226.78435
 21
-50.996902
  0
LINE
  8
0
  6
CONTINUOUS
 62
     7
 10
-226.78436
 20
-50.996899
 11
-226.78436
 21
-35.046898
  0
LINE
  8
0
  6
CONTINUOUS
 62
     7
 10
-240.3632
 20
-53.524242
 11
-236.73041
 21
-52.129742
  0
LINE
  8
0
  6
CONTINUOUS
 62
     7
 10
-236.01369
 20
-51.996899
 11
-227.78436
 21
-51.996899
  0
LINE
  8
0
  6
CONTINUOUS
 62
     7
 10
-251.78435
 20
-50.996914
 11
-250.78436
 21
-51.996906
  0
LINE
  8
0
  6
CONTINUOUS
 62
     7
 10
-250.78435
 20
-40.641758
 11
-250.78435
 21
-51.996895
  0
LINE
  8
0
  6
CONTINUOUS
 62
     7
 10
-251.78435
 20
-40.641758
 11
-247.28435
 21
-40.641758
  0
LINE
  8
0
  6
CONTINUOUS
 62
     7
 10
-249.53435
 20
-35.046898
 11
-251.78435
 21
-40.641766
  0
LINE
  8
0
  6
CONTINUOUS
 62
     7
 10
-249.53436
 20
-35.046902
 11
-247.28436
 21
-40.641766
  0
LINE
  8
0
  6
CONTINUOUS
 62
     7
 10
-243.3055
 20
-53.524235
 11
-243.3055
 21
-35.046898
  0
LINE
  8
0
  6
CONTINUOUS
 62
     7
 10
-247.28435
 20
-51.996895
 11
-247.28435
 21
-35.046898
  0
LINE
  8
0
  6
CONTINUOUS
 62
     7
 10
-240.36322
 20
-53.524235
 11
-240.36322
 21
-35.046898
  0
LINE
  8
0
  6
CONTINUOUS
 62
     7
 10
-236.38435
 20
-51.996895
 11
-236.38435
 21
-35.046898
  0
LINE
  8
0
  6
CONTINUOUS
 62
     7
 10
-227.78436
 20
-51.996895
 11
-227.78436
 21
-35.046898
  0
LINE
  8
0
  6
CONTINUOUS
 62
     7
 10
-60.761387
 20
-54.946892
 11
-59.761383
 21
-53.946892
  0
LINE
  8
0
  6
CONTINUOUS
 62
     7
 10
-82.9683
 20
-54.946892
 11
-87.261391
 21
-54.946892
  0
LINE
  8
0
  6
CONTINUOUS
 62
     7
 10
-69.254486
 20
-54.946892
 11
-60.761387
 21
-54.946892
  0
LINE
  8
0
  6
CONTINUOUS
 62
     7
 10
-73.904099
 20
-56.747814
 11
-70.03595
 21
-55.105885
  0
LINE
  8
0
  6
CONTINUOUS
 62
     7
 10
-78.318687
 20
-56.74781
 11
-82.186829
 21
-55.105877
  0
LINE
  8
0
  6
CONTINUOUS
 62
     7
 10
-88.261391
 20
-53.946892
 11
-88.261391
 21
-33.646896
  0
LINE
  8
0
  6
CONTINUOUS
 62
     7
 10
-59.761387
 20
-53.946892
 11
-59.761387
 21
-33.646896
  0
LINE
  8
0
  6
CONTINUOUS
 62
     7
 10
-88.261391
 20
-53.946888
 11
-87.261391
 21
-54.946888
  0
LINE
  8
0
  6
CONTINUOUS
 62
     7
 10
-73.904091
 20
-56.747818
 11
-73.904091
 21
-33.646896
  0
LINE
  8
0
  6
CONTINUOUS
 62
     7
 10
-78.318687
 20
-56.747818
 11
-78.318687
 21
-33.646896
  0
LINE
  8
0
  6
CONTINUOUS
 62
     7
 10
-82.561394
 20
-54.946896
 11
-82.561394
 21
-33.646896
  0
LINE
  8
0
  6
CONTINUOUS
 62
     7
 10
-69.661392
 20
-54.946896
 11
-69.661392
 21
-33.646896
  0
LINE
  8
0
  6
CONTINUOUS
 62
     7
 10
-60.761387
 20
-54.946896
 11
-60.761387
 21
-33.646896
  0
LINE
  8
0
  6
CONTINUOUS
 62
     7
 10
-88.261391
 20
-43.27446
 11
-82.561394
 21
-43.27446
  0
LINE
  8
0
  6
CONTINUOUS
 62
     7
 10
-87.261391
 20
-43.27446
 11
-87.261391
 21
-54.946896
  0
LINE
  8
0
  6
CONTINUOUS
 62
     7
 10
-85.325424
 20
-33.646896
 11
-88.261391
 21
-43.27446
  0
LINE
  8
0
  6
CONTINUOUS
 62
     7
 10
-82.561386
 20
-43.27446
 11
-85.325424
 21
-33.646896
  0
LINE
  8
0
  6
CONTINUOUS
 62
     7
 10
-225.2614
 20
-135.4469
 11
-224.26138
 21
-134.4469
  0
LINE
  8
0
  6
CONTINUOUS
 62
     7
 10
-247.46831
 20
-135.4469
 11
-251.7614
 21
-135.4469
  0
LINE
  8
0
  6
CONTINUOUS
 62
     7
 10
-233.75449
 20
-135.4469
 11
-225.2614
 21
-135.4469
  0
LINE
  8
0
  6
CONTINUOUS
 62
     7
 10
-238.40408
 20
-137.24782
 11
-234.53595
 21
-135.6059
  0
LINE
  8
0
  6
CONTINUOUS
 62
     7
 10
-242.81871
 20
-137.2478
 11
-246.68683
 21
-135.60588
  0
LINE
  8
0
  6
CONTINUOUS
 62
     7
 10
-252.7614
 20
-134.4469
 11
-252.7614
 21
-114.1469
  0
LINE
  8
0
  6
CONTINUOUS
 62
     7
 10
-224.2614
 20
-134.4469
 11
-224.2614
 21
-114.1469
  0
LINE
  8
0
  6
CONTINUOUS
 62
     7
 10
-252.76138
 20
-134.44691
 11
-251.76138
 21
-135.44691
  0
LINE
  8
0
  6
CONTINUOUS
 62
     7
 10
-238.4041
 20
-137.2478
 11
-238.4041
 21
-114.1469
  0
LINE
  8
0
  6
CONTINUOUS
 62
     7
 10
-242.81868
 20
-137.2478
 11
-242.81868
 21
-114.1469
  0
LINE
  8
0
  6
CONTINUOUS
 62
     7
 10
-247.06139
 20
-135.4469
 11
-247.06139
 21
-114.1469
  0
LINE
  8
0
  6
CONTINUOUS
 62
     7
 10
-234.16139
 20
-135.4469
 11
-234.16139
 21
-114.1469
  0
LINE
  8
0
  6
CONTINUOUS
 62
     7
 10
-225.2614
 20
-135.4469
 11
-225.2614
 21
-114.1469
  0
LINE
  8
0
  6
CONTINUOUS
 62
     7
 10
-252.7614
 20
-123.77446
 11
-247.06139
 21
-123.77446
  0
LINE
  8
0
  6
CONTINUOUS
 62
     7
 10
-251.7614
 20
-123.77446
 11
-251.7614
 21
-135.4469
  0
LINE
  8
0
  6
CONTINUOUS
 62
     7
 10
-249.91139
 20
-114.14689
 11
-252.7614
 21
-123.77445
  0
LINE
  8
0
  6
CONTINUOUS
 62
     7
 10
-247.06142
 20
-123.77447
 11
-249.91142
 21
-114.1469
  0
LINE
  8
0
  6
CONTINUOUS
 62
     7
 10
-59.886387
 20
-136.4969
 11
-58.886395
 21
-135.4969
  0
LINE
  8
0
  6
CONTINUOUS
 62
     7
 10
-82.0933
 20
-136.4969
 11
-86.386391
 21
-136.4969
  0
LINE
  8
0
  6
CONTINUOUS
 62
     7
 10
-68.379486
 20
-136.4969
 11
-59.986393
 21
-136.4969
  0
LINE
  8
0
  6
CONTINUOUS
 62
     7
 10
-73.029091
 20
-138.29782
 11
-69.16095
 21
-136.65588
  0
LINE
  8
0
  6
CONTINUOUS
 62
     7
 10
-77.443687
 20
-138.29782
 11
-81.311836
 21
-136.65588
  0
LINE
  8
0
  6
CONTINUOUS
 62
     7
 10
-87.386391
 20
-135.4969
 11
-87.386391
 21
-115.1969
  0
LINE
  8
0
  6
CONTINUOUS
 62
     7
 10
-58.886387
 20
-135.4969
 11
-58.886387
 21
-115.1969
  0
LINE
  8
0
  6
CONTINUOUS
 62
     7
 10
-87.386391
 20
-135.49692
 11
-86.386391
 21
-136.4969
  0
LINE
  8
0
  6
CONTINUOUS
 62
     7
 10
-72.929092
 20
-138.29782
 11
-72.929092
 21
-115.1969
  0
LINE
  8
0
  6
CONTINUOUS
 62
     7
 10
-77.343689
 20
-138.29782
 11
-77.343689
 21
-115.1969
  0
LINE
  8
0
  6
CONTINUOUS
 62
     7
 10
-81.586395
 20
-136.49689
 11
-81.586395
 21
-115.1969
  0
LINE
  8
0
  6
CONTINUOUS
 62
     7
 10
-68.686394
 20
-136.49689
 11
-68.686394
 21
-115.1969
  0
LINE
  8
0
  6
CONTINUOUS
 62
     7
 10
-59.886387
 20
-136.49689
 11
-59.886387
 21
-115.1969
  0
LINE
  8
0
  6
CONTINUOUS
 62
     7
 10
-87.386391
 20
-124.82446
 11
-81.586395
 21
-124.82446
  0
LINE
  8
0
  6
CONTINUOUS
 62
     7
 10
-86.386391
 20
-124.82446
 11
-86.386391
 21
-136.49689
  0
LINE
  8
0
  6
CONTINUOUS
 62
     7
 10
-84.536392
 20
-115.1969
 11
-87.386391
 21
-124.82446
  0
LINE
  8
0
  6
CONTINUOUS
 62
     7
 10
-81.586395
 20
-124.82446
 11
-84.536392
 21
-115.19691
  0
LINE
  8
0
  6
CONTINUOUS
 62
     7
 10
-252.44797
 20
-254.70001
 11
-252.44797
 21
-231.35001
  0
LINE
  8
0
  6
CONTINUOUS
 62
     7
 10
-253.44797
 20
-255.70001
 11
-262.72287
 21
-255.70001
  0
LINE
  8
0
  6
CONTINUOUS
 62
     7
 10
-253.44797
 20
-255.70003
 11
-252.44797
 21
-254.70003
  0
LINE
  8
0
  6
CONTINUOUS
 62
     7
 10
-272.72159
 20
-257.5817
 11
-276.5596
 21
-255.87291
  0
LINE
  8
0
  6
CONTINUOUS
 62
     7
 10
-282.94797
 20
-255.70001
 11
-277.37308
 21
-255.70001
  0
LINE
  8
0
  6
CONTINUOUS
 62
     7
 10
-267.37436
 20
-257.58173
 11
-263.53635
 21
-255.87292
  0
LINE
  8
0
  6
CONTINUOUS
 62
     7
 10
-283.94797
 20
-254.70001
 11
-283.94797
 21
-231.35001
  0
LINE
  8
0
  6
CONTINUOUS
 62
     7
 10
-283.94797
 20
-254.70003
 11
-282.94797
 21
-255.70003
  0
LINE
  8
0
  6
CONTINUOUS
 62
     7
 10
-267.37436
 20
-257.5817
 11
-267.37436
 21
-231.35001
  0
LINE
  8
0
  6
CONTINUOUS
 62
     7
 10
-272.72159
 20
-257.5817
 11
-272.72159
 21
-231.35001
  0
LINE
  8
0
  6
CONTINUOUS
 62
     7
 10
-276.94797
 20
-255.675
 11
-276.94797
 21
-231.35001
  0
LINE
  8
0
  6
CONTINUOUS
 62
     7
 10
-263.14798
 20
-255.675
 11
-263.14798
 21
-231.35001
  0
LINE
  8
0
  6
CONTINUOUS
 62
     7
 10
-253.44797
 20
-255.7
 11
-253.44797
 21
-231.35001
  0
LINE
  8
0
  6
CONTINUOUS
 62
     7
 10
-283.94797
 20
-240.65981
 11
-276.94797
 21
-240.65981
  0
LINE
  8
0
  6
CONTINUOUS
 62
     7
 10
-282.94797
 20
-240.65981
 11
-282.94797
 21
-255.7
  0
LINE
  8
0
  6
CONTINUOUS
 62
     7
 10
-280.448
 20
-231.34999
 11
-283.948
 21
-240.65979
  0
LINE
  8
0
  6
CONTINUOUS
 62
     7
 10
-276.94797
 20
-240.65979
 11
-280.44797
 21
-231.34999
  0
CIRCLE
  8
0
  6
CONTINUOUS
 62
     7
 10
-401.50162
 20
101.27591
 40
14.5
  0
CIRCLE
  8
0
  6
CONTINUOUS
 62
     7
 10
-401.50162
 20
101.27591
 40
8.0500002
  0
CIRCLE
  8
0
  6
CONTINUOUS
 62
     7
 10
-401.50162
 20
56.199329
 40
17
  0
CIRCLE
  8
0
  6
CONTINUOUS
 62
     7
 10
-401.50162
 20
56.199329
 40
11.25
  0
CIRCLE
  8
0
  6
CONTINUOUS
 62
     7
 10
-401.50162
 20
5.3851457
 40
21.5
  0
CIRCLE
  8
0
  6
CONTINUOUS
 62
     7
 10
-401.50162
 20
5.3851457
 40
14.4
  0
CIRCLE
  8
0
  6
CONTINUOUS
 62
     7
 10
-401.50162
 20
-50.685677
 40
24.5
  0
CIRCLE
  8
0
  6
CONTINUOUS
 62
     7
 10
-401.50162
 20
-50.685677
 40
17.25
  0
CIRCLE
  8
0
  6
CONTINUOUS
 62
     7
 10
-401.50162
 20
-137.66437
 40
29.5
  0
CIRCLE
  8
0
  6
CONTINUOUS
 62
     7
 10
-401.50162
 20
-137.66437
 40
21.65
  0
CIRCLE
  8
0
  6
CONTINUOUS
 62
     7
 10
-401.50162
 20
-241.56189
 40
34
  0
CIRCLE
  8
0
  6
CONTINUOUS
 62
     7
 10
-401.50162
 20
-241.56189
 40
24.65
  0
CIRCLE
  8
0
  6
CONTINUOUS
 62
     7
 10
-401.50162
 20
-347.29117
 40
41
  0
CIRCLE
  8
0
  6
CONTINUOUS
 62
     7
 10
-401.50162
 20
-347.29117
 40
30.65
  0
ARC
  8
0
  6
CONTINUOUS
 62
     7
 10
-239.34158
 20
70.011765
 40
4.4167027
 50
70
 51
110
  0
CIRCLE
  8
0
  6
CONTINUOUS
 62
     7
 10
-160.89172
 20
58.678471
 40
15.75
  0
CIRCLE
  8
0
  6
CONTINUOUS
 62
     7
 10
-160.89172
 20
58.678471
 40
14.25
  0
CIRCLE
  8
0
  6
CONTINUOUS
 62
     7
 10
-160.89172
 20
58.678471
 40
13.25
  0
CIRCLE
  8
0
  6
CONTINUOUS
 62
     7
 10
-160.89172
 20
58.678471
 40
10.4775
  0
CIRCLE
  8
0
  6
CONTINUOUS
 62
     7
 10
-160.89172
 20
58.678471
 40
8.5
  0
CIRCLE
  8
0
  6
CONTINUOUS
 62
     7
 10
-160.89172
 20
58.678471
 40
9.2484055
  0
ARC
  8
0
  6
CONTINUOUS
 62
     7
 10
-244.59425
 20
74.928467
 40
2
 50
270
 51
290
  0
ARC
  8
0
  6
CONTINUOUS
 62
     7
 10
-234.08893
 20
74.928467
 40
2
 50
250
 51
270
  0
CIRCLE
  8
0
  6
CONTINUOUS
 62
     7
 10
-160.89172
 20
58.678471
 40
11
  0
ARC
  8
0
  6
CONTINUOUS
 62
     7
 10
-83.680038
 20
75.603104
 40
2
 50
270
 51
291
  0
ARC
  8
0
  6
CONTINUOUS
 62
     7
 10
-72.038681
 20
75.603104
 40
2
 50
249
 51
270
  0
ARC
  8
0
  6
CONTINUOUS
 62
     7
 10
-77.85936
 20
71.297981
 40
4.1051235
 50
68.999999
 51
111
  0
CIRCLE
  8
0
  6
CONTINUOUS
 62
     7
 10
2.4615843
 20
56.653103
 40
18.75
  0
CIRCLE
  8
0
  6
CONTINUOUS
 62
     7
 10
2.4615843
 20
56.653103
 40
16.950001
  0
CIRCLE
  8
0
  6
CONTINUOUS
 62
     7
 10
2.4615843
 20
56.653103
 40
10.477499
  0
CIRCLE
  8
0
  6
CONTINUOUS
 62
     7
 10
2.4615843
 20
56.653103
 40
9.2484064
  0
CIRCLE
  8
0
  6
CONTINUOUS
 62
     7
 10
2.4615843
 20
56.653103
 40
8.5
  0
CIRCLE
  8
0
  6
CONTINUOUS
 62
     7
 10
2.4615843
 20
56.653103
 40
11
  0
ARC
  8
0
  6
CONTINUOUS
 62
     7
 10
-247.65504
 20
-16.096897
 40
2
 50
270
 51
291
  0
ARC
  8
0
  6
CONTINUOUS
 62
     7
 10
-236.01369
 20
-16.096897
 40
2
 50
249
 51
270
  0
ARC
  8
0
  6
CONTINUOUS
 62
     7
 10
-241.83437
 20
-20.40202
 40
4.1051235
 50
68.999999
 51
111
  0
CIRCLE
  8
0
  6
CONTINUOUS
 62
     7
 10
-161.51341
 20
-35.046898
 40
18.75
  0
CIRCLE
  8
0
  6
CONTINUOUS
 62
     7
 10
-161.51341
 20
-35.046898
 40
16.950001
  0
CIRCLE
  8
0
  6
CONTINUOUS
 62
     7
 10
-161.51341
 20
-35.046898
 40
11
  0
CIRCLE
  8
0
  6
CONTINUOUS
 62
     7
 10
-161.51341
 20
-35.046898
 40
12.021018
  0
CIRCLE
  8
0
  6
CONTINUOUS
 62
     7
 10
-161.51341
 20
-35.046898
 40
13.220499
  0
CIRCLE
  8
0
  6
CONTINUOUS
 62
     7
 10
-161.51341
 20
-35.046898
 40
13.75
  0
ARC
  8
0
  6
CONTINUOUS
 62
     7
 10
-69.254486
 20
-10.346899
 40
2
 50
247
 51
270
  0
ARC
  8
0
  6
CONTINUOUS
 62
     7
 10
-82.9683
 20
-10.346899
 40
2
 50
270
 51
293
  0
ARC
  8
0
  6
CONTINUOUS
 62
     7
 10
-76.111389
 20
-15.746046
 40
5.649148
 50
67.000003
 51
113
  0
CIRCLE
  8
0
  6
CONTINUOUS
 62
     7
 10
3.8615849
 20
-33.646896
 40
23.549999
  0
CIRCLE
  8
0
  6
CONTINUOUS
 62
     7
 10
3.8615849
 20
-33.646896
 40
21.299999
  0
CIRCLE
  8
0
  6
CONTINUOUS
 62
     7
 10
3.8615849
 20
-33.646896
 40
10.15
  0
CIRCLE
  8
0
  6
CONTINUOUS
 62
     7
 10
3.8615849
 20
-33.646896
 40
9.2484064
  0
CIRCLE
  8
0
  6
CONTINUOUS
 62
     7
 10
3.8615849
 20
-33.646896
 40
8.5
  0
CIRCLE
  8
0
  6
CONTINUOUS
 62
     7
 10
3.8615849
 20
-33.646896
 40
11
  0
ARC
  8
0
  6
CONTINUOUS
 62
     7
 10
-233.75449
 20
-90.846901
 40
2
 50
247
 51
270
  0
ARC
  8
0
  6
CONTINUOUS
 62
     7
 10
-247.46831
 20
-90.846901
 40
2
 50
270
 51
293
  0
ARC
  8
0
  6
CONTINUOUS
 62
     7
 10
-240.61139
 20
-96.246048
 40
5.649148
 50
67.000003
 51
113
  0
CIRCLE
  8
0
  6
CONTINUOUS
 62
     7
 10
-160.63841
 20
-114.1469
 40
23.549999
  0
CIRCLE
  8
0
  6
CONTINUOUS
 62
     7
 10
-160.63841
 20
-114.1469
 40
21.299999
  0
CIRCLE
  8
0
  6
CONTINUOUS
 62
     7
 10
-160.63841
 20
-114.1469
 40
11
  0
CIRCLE
  8
0
  6
CONTINUOUS
 62
     7
 10
-160.63841
 20
-114.1469
 40
11.781659
  0
CIRCLE
  8
0
  6
CONTINUOUS
 62
     7
 10
-160.63841
 20
-114.1469
 40
12.993937
  0
CIRCLE
  8
0
  6
CONTINUOUS
 62
     7
 10
-160.63841
 20
-114.1469
 40
13.75
  0
ARC
  8
0
  6
CONTINUOUS
 62
     7
 10
-68.379486
 20
-91.896896
 40
2
 50
247
 51
270
  0
ARC
  8
0
  6
CONTINUOUS
 62
     7
 10
-82.0933
 20
-91.896896
 40
2
 50
270
 51
293
  0
ARC
  8
0
  6
CONTINUOUS
 62
     7
 10
-75.236397
 20
-97.296043
 40
5.649148
 50
67.000003
 51
113
  0
CIRCLE
  8
0
  6
CONTINUOUS
 62
     7
 10
4.7365847
 20
-115.1969
 40
23.549999
  0
CIRCLE
  8
0
  6
CONTINUOUS
 62
     7
 10
4.7365847
 20
-115.1969
 40
21.299999
  0
CIRCLE
  8
0
  6
CONTINUOUS
 62
     7
 10
4.7365847
 20
-115.1969
 40
14
  0
CIRCLE
  8
0
  6
CONTINUOUS
 62
     7
 10
4.7365847
 20
-115.1969
 40
15.060103
  0
CIRCLE
  8
0
  6
CONTINUOUS
 62
     7
 10
4.7365847
 20
-115.1969
 40
16.6245
  0
CIRCLE
  8
0
  6
CONTINUOUS
 62
     7
 10
4.7365847
 20
-115.1969
 40
17.25
  0
ARC
  8
0
  6
CONTINUOUS
 62
     7
 10
-262.72287
 20
-205
 40
2
 50
246
 51
270
  0
ARC
  8
0
  6
CONTINUOUS
 62
     7
 10
-277.37308
 20
-205
 40
2
 50
270
 51
294
  0
ARC
  8
0
  6
CONTINUOUS
 62
     7
 10
-270.04797
 20
-211.12335
 40
6.5733557
 50
66.000002
 51
114
  0
CIRCLE
  8
0
  6
CONTINUOUS
 62
     7
 10
-175.175
 20
-231.35001
 40
24.35
  0
CIRCLE
  8
0
  6
CONTINUOUS
 62
     7
 10
-175.175
 20
-231.35001
 40
26.799999
  0
CIRCLE
  8
0
  6
CONTINUOUS
 62
     7
 10
-175.175
 20
-231.35001
 40
8.5
  0
CIRCLE
  8
0
  6
CONTINUOUS
 62
     7
 10
-175.175
 20
-231.35001
 40
9.2484064
  0
CIRCLE
  8
0
  6
CONTINUOUS
 62
     7
 10
-175.175
 20
-231.35001
 40
10.477499
  0
CIRCLE
  8
0
  6
CONTINUOUS
 62
     7
 10
-175.175
 20
-231.35001
 40
11
  0
ARC
  8
0
  6
CONTINUOUS
 62
     7
 10
-73.722862
 20
-258.75
 40
2
 50
90.000003
 51
114
  0
ARC
  8
0
  6
CONTINUOUS
 62
     7
 10
-88.373093
 20
-258.75
 40
2
 50
66.000002
 51
90.000003
  0
ARC
  8
0
  6
CONTINUOUS
 62
     7
 10
-81.047974
 20
-252.62665
 40
6.5733557
 50
246
 51
294
  0
ARC
  8
0
  6
CONTINUOUS
 62
     7
 10
-73.722862
 20
-206.05
 40
2
 50
246
 51
270
  0
ARC
  8
0
  6
CONTINUOUS
 62
     7
 10
-88.373093
 20
-206.05
 40
2
 50
270
 51
294
  0
ARC
  8
0
  6
CONTINUOUS
 62
     7
 10
-81.047974
 20
-212.17336
 40
6.5733557
 50
66.000002
 51
114
  0
CIRCLE
  8
0
  6
CONTINUOUS
 62
     7
 10
13.825
 20
-232.39999
 40
24.35
  0
CIRCLE
  8
0
  6
CONTINUOUS
 62
     7
 10
13.825
 20
-232.39999
 40
26.799999
  0
CIRCLE
  8
0
  6
CONTINUOUS
 62
     7
 10
13.825
 20
-232.39999
 40
11
  0
CIRCLE
  8
0
  6
CONTINUOUS
 62
     7
 10
13.825
 20
-232.39999
 40
11.781659
  0
CIRCLE
  8
0
  6
CONTINUOUS
 62
     7
 10
13.825
 20
-232.39999
 40
12.993937
  0
CIRCLE
  8
0
  6
CONTINUOUS
 62
     7
 10
13.825
 20
-232.39999
 40
13.75
  0
ARC
  8
0
  6
CONTINUOUS
 62
     7
 10
-263.59787
 20
-319.10001
 40
2
 50
246
 51
270
  0
ARC
  8
0
  6
CONTINUOUS
 62
     7
 10
-278.24808
 20
-319.10001
 40
2
 50
270
 51
294
  0
ARC
  8
0
  6
CONTINUOUS
 62
     7
 10
-270.92297
 20
-325.22336
 40
6.5733557
 50
66.000002
 51
114
  0
CIRCLE
  8
0
  6
CONTINUOUS
 62
     7
 10
-176.05
 20
-345.45001
 40
24.35
  0
CIRCLE
  8
0
  6
CONTINUOUS
 62
     7
 10
-176.05
 20
-345.45001
 40
26.799999
  0
CIRCLE
  8
0
  6
CONTINUOUS
 62
     7
 10
-176.05
 20
-345.45001
 40
14
  0
CIRCLE
  8
0
  6
CONTINUOUS
 62
     7
 10
-176.05
 20
-345.45001
 40
15.060103
  0
CIRCLE
  8
0
  6
CONTINUOUS
 62
     7
 10
-176.05
 20
-345.45001
 40
16.6245
  0
ARC
  8
0
  6
CONTINUOUS
 62
     7
 10
-263.59787
 20
-371.79999
 40
2
 50
90.000003
 51
114
  0
ARC
  8
0
  6
CONTINUOUS
 62
     7
 10
-278.24808
 20
-371.79999
 40
2
 50
66.000002
 51
90.000003
  0
ARC
  8
0
  6
CONTINUOUS
 62
     7
 10
-270.92297
 20
-365.67664
 40
6.5733557
 50
246
 51
294
  0
CIRCLE
  8
0
  6
CONTINUOUS
 62
     7
 10
-176.05
 20
-345.45001
 40
17.25
  0
ARC
  8
0
  6
CONTINUOUS
 62
     7
 10
-62.929585
 20
-378.89999
 40
2
 50
90.000003
 51
115
  0
ARC
  8
0
  6
CONTINUOUS
 62
     7
 10
-80.516365
 20
-378.89999
 40
2
 50
65.000001
 51
90.000003
  0
ARC
  8
0
  6
CONTINUOUS
 62
     7
 10
-71.722977
 20
-370.72165
 40
9.1283417
 50
245
 51
295
  0
ARC
  8
0
  6
CONTINUOUS
 62
     7
 10
-62.929585
 20
-314.10001
 40
2
 50
245
 51
270
  0
ARC
  8
0
  6
CONTINUOUS
 62
     7
 10
-80.516365
 20
-314.10001
 40
2
 50
270
 51
295
  0
ARC
  8
0
  6
CONTINUOUS
 62
     7
 10
-71.722977
 20
-322.27835
 40
9.1283417
 50
65.000001
 51
115
  0
CIRCLE
  8
0
  6
CONTINUOUS
 62
     7
 10
19.950001
 20
-346.5
 40
30.4
  0
CIRCLE
  8
0
  6
CONTINUOUS
 62
     7
 10
19.950001
 20
-346.5
 40
10.477499
  0
CIRCLE
  8
0
  6
CONTINUOUS
 62
     7
 10
19.950001
 20
-346.5
 40
9.035799
  0
CIRCLE
  8
0
  6
CONTINUOUS
 62
     7
 10
19.950001
 20
-346.5
 40
8.5
  0
CIRCLE
  8
0
  6
CONTINUOUS
 62
     7
 10
19.950001
 20
-346.5
 40
11
  0
ARC
  8
0
  6
CONTINUOUS
 62
     7
 10
-255.25459
 20
-568.59998
 40
2
 50
90.000003
 51
115
  0
ARC
  8
0
  6
CONTINUOUS
 62
     7
 10
-272.84137
 20
-568.59998
 40
2
 50
65.000001
 51
90.000003
  0
ARC
  8
0
  6
CONTINUOUS
 62
     7
 10
-264.04797
 20
-560.42163
 40
9.1283417
 50
245
 51
295
  0
ARC
  8
0
  6
CONTINUOUS
 62
     7
 10
-255.25459
 20
-503.79999
 40
2
 50
245
 51
270
  0
ARC
  8
0
  6
CONTINUOUS
 62
     7
 10
-272.84137
 20
-503.79999
 40
2
 50
270
 51
295
  0
ARC
  8
0
  6
CONTINUOUS
 62
     7
 10
-264.04797
 20
-511.97833
 40
9.1283417
 50
65.000001
 51
115
  0
CIRCLE
  8
0
  6
CONTINUOUS
 62
     7
 10
-172.375
 20
-536.20001
 40
30.4
  0
CIRCLE
  8
0
  6
CONTINUOUS
 62
     7
 10
-172.375
 20
-536.20001
 40
33.349998
  0
CIRCLE
  8
0
  6
CONTINUOUS
 62
     7
 10
-172.375
 20
-536.20001
 40
11
  0
CIRCLE
  8
0
  6
CONTINUOUS
 62
     7
 10
-172.375
 20
-536.20001
 40
11
  0
CIRCLE
  8
0
  6
CONTINUOUS
 62
     7
 10
-172.375
 20
-536.20001
 40
11.781659
  0
CIRCLE
  8
0
  6
CONTINUOUS
 62
     7
 10
-172.375
 20
-536.20001
 40
13.220499
  0
CIRCLE
  8
0
  6
CONTINUOUS
 62
     7
 10
-172.375
 20
-536.20001
 40
13.75
  0
ARC
  8
0
  6
CONTINUOUS
 62
     7
 10
-58.379589
 20
-568.25
 40
2
 50
90.000003
 51
115
  0
ARC
  8
0
  6
CONTINUOUS
 62
     7
 10
-75.96637
 20
-568.25
 40
2
 50
65.000001
 51
90.000003
  0
ARC
  8
0
  6
CONTINUOUS
 62
     7
 10
-67.172981
 20
-560.07166
 40
9.1283417
 50
245
 51
295
  0
ARC
  8
0
  6
CONTINUOUS
 62
     7
 10
-58.379589
 20
-503.45001
 40
2
 50
245
 51
270
  0
ARC
  8
0
  6
CONTINUOUS
 62
     7
 10
-75.96637
 20
-503.45001
 40
2
 50
270
 51
295
  0
ARC
  8
0
  6
CONTINUOUS
 62
     7
 10
-67.172981
 20
-511.62836
 40
9.1283417
 50
65.000001
 51
115
  0
CIRCLE
  8
0
  6
CONTINUOUS
 62
     7
 10
24.5
 20
-535.84998
 40
30.4
  0
CIRCLE
  8
0
  6
CONTINUOUS
 62
     7
 10
24.5
 20
-535.84998
 40
33.349998
  0
CIRCLE
  8
0
  6
CONTINUOUS
 62
     7
 10
24.5
 20
-535.84998
 40
14
  0
CIRCLE
  8
0
  6
CONTINUOUS
 62
     7
 10
24.5
 20
-535.84998
 40
15.060104
  0
CIRCLE
  8
0
  6
CONTINUOUS
 62
     7
 10
24.5
 20
-535.84998
 40
16.6245
  0
CIRCLE
  8
0
  6
CONTINUOUS
 62
     7
 10
24.5
 20
-535.84998
 40
17.25
  0
ARC
  8
0
  6
CONTINUOUS
 62
     7
 10
-254.10458
 20
-696
 40
2
 50
90.000003
 51
115
  0
ARC
  8
0
  6
CONTINUOUS
 62
     7
 10
-271.69138
 20
-696
 40
2
 50
65.000001
 51
90.000003
  0
ARC
  8
0
  6
CONTINUOUS
 62
     7
 10
-262.89798
 20
-687.82166
 40
9.1283417
 50
245
 51
295
  0
ARC
  8
0
  6
CONTINUOUS
 62
     7
 10
-253.50458
 20
-631.20001
 40
2
 50
245
 51
270
  0
ARC
  8
0
  6
CONTINUOUS
 62
     7
 10
-271.09137
 20
-631.20001
 40
2
 50
270
 51
295
  0
ARC
  8
0
  6
CONTINUOUS
 62
     7
 10
-262.29797
 20
-639.37836
 40
9.1283417
 50
65.000001
 51
115
  0
CIRCLE
  8
0
  6
CONTINUOUS
 62
     7
 10
-170.625
 20
-663.59998
 40
30.4
  0
CIRCLE
  8
0
  6
CONTINUOUS
 62
     7
 10
-170.625
 20
-663.59998
 40
33.349998
  0
CIRCLE
  8
0
  6
CONTINUOUS
 62
     7
 10
-170.625
 20
-663.59998
 40
18.5
  0
CIRCLE
  8
0
  6
CONTINUOUS
 62
     7
 10
-170.625
 20
-663.59998
 40
20.955
  0
CIRCLE
  8
0
  6
CONTINUOUS
 62
     7
 10
-170.625
 20
-663.59998
 40
19.391367
  0
CIRCLE
  8
0
  6
CONTINUOUS
 62
     7
 10
-170.625
 20
-663.59998
 40
21.5
  0
ARC
  8
0
  6
CONTINUOUS
 62
     7
 10
-244.59425
 20
42.428474
 40
2
 50
70
 51
90.000003
  0
ARC
  8
0
  6
CONTINUOUS
 62
     7
 10
-234.08893
 20
42.428474
 40
2
 50
90.000003
 51
110
  0
ARC
  8
0
  6
CONTINUOUS
 62
     7
 10
-239.34158
 20
47.345177
 40
4.4167027
 50
250
 51
290
  0
ARC
  8
0
  6
CONTINUOUS
 62
     7
 10
-83.680038
 20
37.703102
 40
2
 50
68.999999
 51
90.000003
  0
ARC
  8
0
  6
CONTINUOUS
 62
     7
 10
-72.038681
 20
37.703102
 40
2
 50
90.000003
 51
111
  0
ARC
  8
0
  6
CONTINUOUS
 62
     7
 10
-77.85936
 20
42.008224
 40
4.1051235
 50
249
 51
291
  0
ARC
  8
0
  6
CONTINUOUS
 62
     7
 10
-247.65504
 20
-53.996899
 40
2
 50
68.999999
 51
90.000003
  0
ARC
  8
0
  6
CONTINUOUS
 62
     7
 10
-236.01369
 20
-53.996899
 40
2
 50
90.000003
 51
111
  0
ARC
  8
0
  6
CONTINUOUS
 62
     7
 10
-241.83437
 20
-49.691776
 40
4.1051235
 50
249
 51
291
  0
ARC
  8
0
  6
CONTINUOUS
 62
     7
 10
-69.254486
 20
-56.946892
 40
2
 50
90.000003
 51
113
  0
ARC
  8
0
  6
CONTINUOUS
 62
     7
 10
-82.9683
 20
-56.946892
 40
2
 50
67.000003
 51
90.000003
  0
ARC
  8
0
  6
CONTINUOUS
 62
     7
 10
-76.111389
 20
-51.547745
 40
5.649148
 50
247
 51
293
  0
ARC
  8
0
  6
CONTINUOUS
 62
     7
 10
-233.75449
 20
-137.4469
 40
2
 50
90.000003
 51
113
  0
ARC
  8
0
  6
CONTINUOUS
 62
     7
 10
-247.46831
 20
-137.4469
 40
2
 50
67.000003
 51
90.000003
  0
ARC
  8
0
  6
CONTINUOUS
 62
     7
 10
-240.61139
 20
-132.04774
 40
5.649148
 50
247
 51
293
  0
ARC
  8
0
  6
CONTINUOUS
 62
     7
 10
-68.379486
 20
-138.4969
 40
2
 50
90.000003
 51
113
  0
ARC
  8
0
  6
CONTINUOUS
 62
     7
 10
-82.0933
 20
-138.4969
 40
2
 50
67.000003
 51
90.000003
  0
ARC
  8
0
  6
CONTINUOUS
 62
     7
 10
-75.236397
 20
-133.09775
 40
5.649148
 50
247
 51
293
  0
ARC
  8
0
  6
CONTINUOUS
 62
     7
 10
-262.72287
 20
-257.70001
 40
2
 50
90.000003
 51
114
  0
ARC
  8
0
  6
CONTINUOUS
 62
     7
 10
-277.37308
 20
-257.70001
 40
2
 50
66.000002
 51
90.000003
  0
ARC
  8
0
  6
CONTINUOUS
 62
     7
 10
-270.04797
 20
-251.57666
 40
6.5733557
 50
246
 51
294
  0
CIRCLE
  8
0
  6
CONTINUOUS
 62
     7
 10
19.950001
 20
-346.5
 40
33.349998
  0
TEXT
  8
0
  6
CONTINUOUS
 62
     7
 10
-448.18668
 20
100.9722
 40
3.2
 41
1.0285716
  1
13
  0
TEXT
  8
0
  6
CONTINUOUS
 62
     7
 10
-449.74558
 20
58.88214
 40
3.2
 41
1.0285716
  1
20
  0
TEXT
  8
0
  6
CONTINUOUS
 62
     7
 10
-452.86335
 20
7.4387392
 40
3.2
 41
1.0285716
  1
25
  0
TEXT
  8
0
  6
CONTINUOUS
 62
     7
 10
-450.52503
 20
-56.47579
 40
3.2
 41
1.0285716
  1
30
  0
TEXT
  8
0
  6
CONTINUOUS
 62
     7
 10
-450.18433
 20
-132.60479
 40
3.2
 41
1.0285716
  1
40
  0
TEXT
  8
0
  6
CONTINUOUS
 62
     7
 10
-443.42539
 20
-210.33271
 40
3.2
 41
1.0285716
  1
50
  0
TEXT
  8
0
  6
CONTINUOUS
 62
     7
 10
-450.54114
 20
-310.81277
 40
3.2
 41
1.0285716
  1
60
  0
TEXT
  8
0
  6
CONTINUOUS
 62
     7
 10
-282.77682
 20
118.76988
 40
8
 41
0.84289036
  1
コマサスフィット継手　ブッシング
  0
TEXT
  8
0
  6
CONTINUOUS
 62
     7
 10
-219.56802
 20
87.338272
 40
8
 41
1.0084034
  1
25X1/2
  0
TEXT
  8
0
  6
CONTINUOUS
 62
     7
 10
-60.006547
 20
91.811958
 40
8
 41
1.0084034
  1
30X1/2
  0
TEXT
  8
0
  6
CONTINUOUS
 62
     7
 10
-218.8224
 20
-3.6266791
 40
8
 41
1.0084034
  1
30X3/4
  0
TEXT
  8
0
  6
CONTINUOUS
 62
     7
 10
-56.278477
 20
5.320693
 40
8
 41
1.0084034
  1
40X1/2
  0
TEXT
  8
0
  6
CONTINUOUS
 62
     7
 10
-218.8224
 20
-79.679344
 40
8
 41
1.0084034
  1
40X3/4
  0
TEXT
  8
0
  6
CONTINUOUS
 62
     7
 10
-50.313561
 20
-78.933723
 40
8
 41
1.0129871
  1
40X1
  0
TEXT
  8
0
  6
CONTINUOUS
 62
     7
 10
-240.07242
 20
-190.03026
 40
8
 41
1.0084034
  1
50X1/2
  0
TEXT
  8
0
  6
CONTINUOUS
 62
     7
 10
-52.177598
 20
-187.04781
 40
8
 41
1.0084034
  1
50X3/4
  0
TEXT
  8
0
  6
CONTINUOUS
 62
     7
 10
-238.58117
 20
-297.39871
 40
8
 41
1.0129871
  1
50X1
  0
TEXT
  8
0
  6
CONTINUOUS
 62
     7
 10
-51.431985
 20
-292.92505
 40
8
 41
1.0084034
  1
60X1/2
  0
TEXT
  8
0
  6
CONTINUOUS
 62
     7
 10
-238.20837
 20
-483.80231
 40
8
 41
1.0084034
  1
60X3/4
  0
TEXT
  8
0
  6
CONTINUOUS
 62
     7
 10
-36.892503
 20
-486.78476
 40
8
 41
1.0129871
  1
60X1
  0
TEXT
  8
0
  6
CONTINUOUS
 62
     7
 10
-241.93644
 20
-610.55676
 40
8
 41
1.0071429
  1
60X11/4
  0
POINT
  8
1
  6
CONTINUOUS
 62
     7
 10
-311.3107
 20
-470.71918
  0
POINT
  8
1
  6
CONTINUOUS
 62
     7
 10
-311.3107
 20
-153.71919
  0
POINT
  8
1
  6
CONTINUOUS
 62
     7
 10
-311.3107
 20
-767.71918
  0
POINT
  8
1
  6
CONTINUOUS
 62
     7
 10
108.68929
 20
-153.71919
  0
POINT
  8
1
  6
CONTINUOUS
 62
     7
 10
-311.3107
 20
-777.71918
  0
POINT
  8
1
  6
CONTINUOUS
 62
     7
 10
-311.3107
 20
143.28081
  0
POINT
  8
1
  6
CONTINUOUS
 62
     7
 10
-311.3107
 20
-153.71919
  0
POINT
  8
1
  6
CONTINUOUS
 62
     7
 10
-311.3107
 20
-163.71919
  0
POINT
  8
1
  6
CONTINUOUS
 62
     7
 10
-311.3107
 20
-163.71919
  0
POINT
  8
1
  6
CONTINUOUS
 62
     7
 10
-311.3107
 20
-460.71918
  0
POINT
  8
1
  6
CONTINUOUS
 62
     7
 10
-311.3107
 20
-470.71918
  0
LINE
  8
1
  6
CONTINUOUS
 62
     7
 10
108.68929
 20
143.28081
 11
108.68929
 21
-33.714287
  0
LINE
  8
1
  6
CONTINUOUS
 62
     2
 10
-311.3107
 20
-470.71918
 11
108.68929
 21
-470.71918
  0
LINE
  8
1
  6
CONTINUOUS
 62
     2
 10
-311.3107
 20
-470.71918
 11
-311.3107
 21
-767.71918
  0
LINE
  8
1
  6
CONTINUOUS
 62
     2
 10
-311.3107
 20
-767.71918
 11
108.68929
 21
-767.71918
  0
LINE
  8
1
  6
CONTINUOUS
 62
     2
 10
108.68929
 20
-470.71918
 11
108.68929
 21
-767.71918
  0
LINE
  8
1
  6
CONTINUOUS
 62
     2
 10
-311.3107
 20
143.28081
 11
-311.3107
 21
-153.71919
  0
LINE
  8
1
  6
CONTINUOUS
 62
     2
 10
-311.3107
 20
-153.71919
 11
108.68929
 21
-153.71919
  0
LINE
  8
1
  6
CONTINUOUS
 62
     2
 10
108.68929
 20
143.28081
 11
108.68929
 21
-153.71919
  0
LINE
  8
1
  6
CONTINUOUS
 62
     2
 10
-311.3107
 20
143.28081
 11
108.68929
 21
143.28081
  0
LINE
  8
1
  6
CONTINUOUS
 62
     2
 10
-311.3107
 20
-163.71919
 11
-311.3107
 21
-460.71918
  0
LINE
  8
1
  6
CONTINUOUS
 62
     2
 10
-311.3107
 20
-460.71918
 11
108.68929
 21
-460.71918
  0
LINE
  8
1
  6
CONTINUOUS
 62
     2
 10
108.68929
 20
-163.71919
 11
108.68929
 21
-460.71918
  0
LINE
  8
1
  6
CONTINUOUS
 62
     2
 10
-311.3107
 20
-163.71919
 11
108.68929
 21
-163.71919
  0
ENDSEC
  0
EOF
