  0
SECTION
  2
HEADER
  9
$EXTMAX
 10
108.92817
 20
144.14287
  9
$EXTMIN
 10
-311.07183
 20
-153.71428
  0
ENDSEC
  0
SECTION
  2
TABLES
  0
TABLE
  2
LTYPE
 70
    22
  0
LTYPE
  2
CONTINUOUS
 70
    64
  3
Solid line
 72
    65
 73
     0
 40
0.000000
  0
LTYPE
  2
DASHED
 70
    64
  3
__ __ __ __ __ __ __ __ __ __ __ __ __ __ __
 72
    65
 73
     2
 40
3.500000
 49
2.000000
 49
-1.500000
  0
LTYPE
  2
CENTER
 70
    64
  3
____ _ ____ _ ____ _ ____ _ ____ _ ____ _ ____
 72
    65
 73
     4
 40
17.500000
 49
13.000000
 49
-1.500000
 49
1.500000
 49
-1.500000
  0
LTYPE
  2
PHANTOM
 70
    64
  3
_____ _ _ _____ _ _ _____ _ _ _____ _ _ ____  
 72
    65
 73
     6
 40
15.500000
 49
8.000000
 49
-1.500000
 49
1.500000
 49
-1.500000
 49
1.500000
 49
-1.500000
  0
LTYPE
  2
DOT
 70
    64
  3
. . . . . . . . . . . . . . . . . . . . . . . .
 72
    65
 73
     2
 40
0.25
 49
0.0
 49
-0.25
  0
ENDTAB
  0
TABLE
  2
LAYER
 70
     2
  0
LAYER
  2
0
 70
     0
 62
     7
  6
CONTINUOUS
  0
LAYER
  2
1
 70
     0
 62
     7
  6
CONTINUOUS
  0
ENDTAB
  0
TABLE
  2
STYLE
 70
     1
  0
STYLE
  2
STANDARD
 70
     0
 40
0.000000
 41
1.000000
 50
0.000000
 71
     0
 42
0.200000
  3
txt
  4
BIGFONT
  0
ENDTAB
  0
TABLE
  2
VIEW
 70
     0
  0
ENDTAB
  0
ENDSEC
  0
SECTION
  2
BLOCKS
  0
ENDSEC
  0
SECTION
  2
ENTITIES
  0
POINT
  8
0
  6
CONTINUOUS
 62
     7
 10
-233.46729
 20
56.264801
  0
POINT
  8
0
  6
CONTINUOUS
 62
     7
 10
-147.78958
 20
57.409096
  0
POINT
  8
0
  6
CONTINUOUS
 62
     7
 10
-59.67897
 20
56.264801
  0
POINT
  8
0
  6
CONTINUOUS
 62
     7
 10
38.307446
 20
56.264801
  0
POINT
  8
0
  6
CONTINUOUS
 62
     7
 10
-15.628695
 20
-59.308842
  0
POINT
  8
0
  6
CONTINUOUS
 62
     7
 10
-125.22246
 20
-58.164551
  0
POINT
  8
0
  6
CONTINUOUS
 62
     7
 10
-231.61159
 20
-58.164551
  0
POINT
  8
0
  6
CONTINUOUS
 62
     7
 10
-220.28622
 20
-251.94881
  0
POINT
  8
0
  6
CONTINUOUS
 62
     7
 10
-124.48087
 20
-252.69444
  0
POINT
  8
0
  6
CONTINUOUS
 62
     7
 10
-10.051522
 20
-256.12732
  0
POINT
  8
0
  6
CONTINUOUS
 62
     7
 10
-184.84486
 20
-394.58685
  0
POINT
  8
0
  6
CONTINUOUS
 62
     7
 10
-52.106823
 20
-393.44254
  0
LINE
  8
0
  6
CENTER
 62
     7
 10
-401.50162
 20
119.69923
 11
-401.50162
 21
80.453743
  0
LINE
  8
0
  6
CENTER
 62
     7
 10
-419.98352
 20
101.27591
 11
-383.7355
 21
101.27591
  0
LINE
  8
0
  6
CONTINUOUS
 62
     7
 10
-385.80695
 20
101.27591
 11
-390.40381
 21
112.37373
  0
LINE
  8
0
  6
CONTINUOUS
 62
     7
 10
-390.40378
 20
112.37373
 11
-401.50162
 21
116.9706
  0
LINE
  8
0
  6
CONTINUOUS
 62
     7
 10
-412.59943
 20
112.37373
 11
-401.50162
 21
116.97059
  0
LINE
  8
0
  6
CONTINUOUS
 62
     7
 10
-417.19629
 20
101.27592
 11
-412.59943
 21
112.37373
  0
LINE
  8
0
  6
CONTINUOUS
 62
     7
 10
-412.59946
 20
90.178085
 11
-417.19632
 21
101.2759
  0
LINE
  8
0
  6
CONTINUOUS
 62
     7
 10
-401.50162
 20
85.581223
 11
-412.59946
 21
90.178093
  0
LINE
  8
0
  6
CONTINUOUS
 62
     7
 10
-390.40381
 20
90.178085
 11
-401.50162
 21
85.581223
  0
LINE
  8
0
  6
CONTINUOUS
 62
     7
 10
-385.80692
 20
101.27591
 11
-390.40381
 21
90.178093
  0
LINE
  8
0
  6
CENTER
 62
     7
 10
-425.552
 20
56.199329
 11
-377.8042
 21
56.199329
  0
LINE
  8
0
  6
CONTINUOUS
 62
     7
 10
-383.10095
 20
56.199326
 11
-388.49039
 21
69.210556
  0
LINE
  8
0
  6
CONTINUOUS
 62
     7
 10
-388.49039
 20
69.210571
 11
-401.50162
 21
74.599998
  0
LINE
  8
0
  6
CONTINUOUS
 62
     7
 10
-414.51285
 20
69.210564
 11
-401.50165
 21
74.599991
  0
LINE
  8
0
  6
CONTINUOUS
 62
     7
 10
-419.90228
 20
56.199326
 11
-414.51285
 21
69.210564
  0
LINE
  8
0
  6
CONTINUOUS
 62
     7
 10
-414.51288
 20
43.188091
 11
-419.90228
 21
56.199318
  0
LINE
  8
0
  6
CONTINUOUS
 62
     7
 10
-401.50162
 20
37.798664
 11
-414.51285
 21
43.188091
  0
LINE
  8
0
  6
CONTINUOUS
 62
     7
 10
-388.49039
 20
43.188084
 11
-401.50162
 21
37.798656
  0
LINE
  8
0
  6
CONTINUOUS
 62
     7
 10
-383.10095
 20
56.199326
 11
-388.49039
 21
43.188091
  0
LINE
  8
0
  6
CENTER
 62
     7
 10
-401.50162
 20
78.522614
 11
-401.50162
 21
35.072231
  0
LINE
  8
0
  6
CENTER
 62
     7
 10
-430.80862
 20
5.3851457
 11
-372.54755
 21
5.3851457
  0
LINE
  8
0
  6
CONTINUOUS
 62
     7
 10
-378.23019
 20
5.3851414
 11
-385.04623
 21
21.840534
  0
LINE
  8
0
  6
CONTINUOUS
 62
     7
 10
-385.04623
 20
21.840532
 11
-401.50162
 21
28.656578
  0
LINE
  8
0
  6
CONTINUOUS
 62
     7
 10
-417.957
 20
21.840536
 11
-401.50162
 21
28.656582
  0
LINE
  8
0
  6
CONTINUOUS
 62
     7
 10
-424.77307
 20
5.3851485
 11
-417.957
 21
21.84054
  0
LINE
  8
0
  6
CONTINUOUS
 62
     7
 10
-417.957
 20
-11.070247
 11
-424.77307
 21
5.3851457
  0
LINE
  8
0
  6
CONTINUOUS
 62
     7
 10
-401.50162
 20
-17.886288
 11
-417.957
 21
-11.070242
  0
LINE
  8
0
  6
CONTINUOUS
 62
     7
 10
-385.04623
 20
-11.070237
 11
-401.50162
 21
-17.886284
  0
LINE
  8
0
  6
CONTINUOUS
 62
     7
 10
-378.23019
 20
5.3851528
 11
-385.04623
 21
-11.070239
  0
LINE
  8
0
  6
CENTER
 62
     7
 10
-401.50162
 20
31.209974
 11
-401.50162
 21
-20.447704
  0
LINE
  8
0
  6
CENTER
 62
     7
 10
-434.86905
 20
-50.685677
 11
-369.74557
 21
-50.685677
  0
LINE
  8
0
  6
CONTINUOUS
 62
     7
 10
-374.983
 20
-50.685677
 11
-382.75012
 21
-31.934185
  0
LINE
  8
0
  6
CONTINUOUS
 62
     7
 10
-382.75012
 20
-31.934193
 11
-401.50162
 21
-24.167067
  0
LINE
  8
0
  6
CONTINUOUS
 62
     7
 10
-420.25308
 20
-31.934187
 11
-401.50162
 21
-24.167074
  0
LINE
  8
0
  6
CONTINUOUS
 62
     7
 10
-428.02023
 20
-50.685665
 11
-420.25311
 21
-31.934177
  0
LINE
  8
0
  6
CONTINUOUS
 62
     7
 10
-420.25311
 20
-69.437164
 11
-428.02023
 21
-50.685673
  0
LINE
  8
0
  6
CONTINUOUS
 62
     7
 10
-401.50162
 20
-77.204292
 11
-420.25311
 21
-69.437164
  0
LINE
  8
0
  6
CONTINUOUS
 62
     7
 10
-382.75012
 20
-69.437172
 11
-401.50162
 21
-77.204285
  0
LINE
  8
0
  6
CONTINUOUS
 62
     7
 10
-374.98303
 20
-50.685665
 11
-382.75015
 21
-69.437149
  0
LINE
  8
0
  6
CENTER
 62
     7
 10
-401.50162
 20
-21.654659
 11
-401.50162
 21
-81.278244
  0
LINE
  8
0
  6
CENTER
 62
     7
 10
-437.92899
 20
-137.66437
 11
-365.00909
 21
-137.66437
  0
LINE
  8
0
  6
CONTINUOUS
 62
     7
 10
-369.57104
 20
-137.66437
 11
-378.92331
 21
-115.08604
  0
LINE
  8
0
  6
CONTINUOUS
 62
     7
 10
-378.92331
 20
-115.08604
 11
-401.50162
 21
-105.7338
  0
LINE
  8
0
  6
CONTINUOUS
 62
     7
 10
-424.07996
 20
-115.08604
 11
-401.50162
 21
-105.7338
  0
LINE
  8
0
  6
CONTINUOUS
 62
     7
 10
-433.43219
 20
-137.66437
 11
-424.07996
 21
-115.08604
  0
LINE
  8
0
  6
CONTINUOUS
 62
     7
 10
-424.07996
 20
-160.24269
 11
-433.43219
 21
-137.66437
  0
LINE
  8
0
  6
CONTINUOUS
 62
     7
 10
-401.50162
 20
-169.59494
 11
-424.07996
 21
-160.24269
  0
LINE
  8
0
  6
CONTINUOUS
 62
     7
 10
-378.92331
 20
-160.24269
 11
-401.50162
 21
-169.59494
  0
LINE
  8
0
  6
CONTINUOUS
 62
     7
 10
-369.57104
 20
-137.66437
 11
-378.92331
 21
-160.24269
  0
LINE
  8
0
  6
CENTER
 62
     7
 10
-401.50162
 20
-102.03787
 11
-401.50162
 21
-172.52405
  0
LINE
  8
0
  6
CENTER
 62
     7
 10
-448.31732
 20
-241.56189
 11
-358.51984
 21
-241.56189
  0
LINE
  8
0
  6
CONTINUOUS
 62
     7
 10
-364.70029
 20
-241.56189
 11
-375.47916
 21
-215.53941
  0
LINE
  8
0
  6
CONTINUOUS
 62
     7
 10
-375.47913
 20
-215.53943
 11
-401.50162
 21
-204.76056
  0
LINE
  8
0
  6
CONTINUOUS
 62
     7
 10
-427.52408
 20
-215.53941
 11
-401.50162
 21
-204.76056
  0
LINE
  8
0
  6
CONTINUOUS
 62
     7
 10
-438.30298
 20
-241.56189
 11
-427.52411
 21
-215.5394
  0
LINE
  8
0
  6
CONTINUOUS
 62
     7
 10
-427.52408
 20
-267.58435
 11
-438.30295
 21
-241.56189
  0
LINE
  8
0
  6
CONTINUOUS
 62
     7
 10
-401.50162
 20
-278.36322
 11
-427.52411
 21
-267.58438
  0
LINE
  8
0
  6
CONTINUOUS
 62
     7
 10
-375.47916
 20
-267.58435
 11
-401.50162
 21
-278.36322
  0
LINE
  8
0
  6
CONTINUOUS
 62
     7
 10
-364.70029
 20
-241.56187
 11
-375.47916
 21
-267.58435
  0
LINE
  8
0
  6
CENTER
 62
     7
 10
-401.50162
 20
-198.1115
 11
-401.50162
 21
-283.08115
  0
LINE
  8
0
  6
CENTER
 62
     7
 10
-450.48984
 20
-347.29117
 11
-351.5195
 21
-347.29117
  0
LINE
  8
0
  6
CONTINUOUS
 62
     7
 10
-357.12354
 20
-347.29117
 11
-370.12158
 21
-315.9111
  0
LINE
  8
0
  6
CONTINUOUS
 62
     7
 10
-370.12158
 20
-315.9111
 11
-401.50162
 21
-302.91306
  0
LINE
  8
0
  6
CONTINUOUS
 62
     7
 10
-432.88165
 20
-315.9111
 11
-401.50162
 21
-302.91309
  0
LINE
  8
0
  6
CONTINUOUS
 62
     7
 10
-445.8797
 20
-347.29114
 11
-432.88165
 21
-315.9111
  0
LINE
  8
0
  6
CONTINUOUS
 62
     7
 10
-432.88162
 20
-378.67117
 11
-445.87967
 21
-347.29114
  0
LINE
  8
0
  6
CONTINUOUS
 62
     7
 10
-401.50165
 20
-391.66925
 11
-432.88168
 21
-378.6712
  0
LINE
  8
0
  6
CONTINUOUS
 62
     7
 10
-370.12158
 20
-378.6712
 11
-401.50162
 21
-391.66925
  0
LINE
  8
0
  6
CONTINUOUS
 62
     7
 10
-357.12354
 20
-347.29114
 11
-370.12158
 21
-378.6712
  0
LINE
  8
0
  6
CENTER
 62
     7
 10
-401.50162
 20
-297.08182
 11
-401.50162
 21
-397.0177
  0
LINE
  8
0
  6
CONTINUOUS
 62
     7
 10
-256.38995
 20
44.5373
 11
-248.94464
 21
44.5373
  0
LINE
  8
0
  6
CONTINUOUS
 62
     7
 10
-256.38995
 20
40.264801
 11
-248.94464
 21
40.264801
  0
LINE
  8
0
  6
CENTER
 62
     7
 10
-275.90652
 20
56.264801
 11
-229.2
 21
56.264801
  0
LINE
  8
0
  6
CONTINUOUS
 62
     7
 10
-271.83844
 20
45.975777
 11
-256.96729
 21
45.511051
  0
LINE
  8
0
  6
CONTINUOUS
 62
     7
 10
-248.94464
 20
45.380608
 11
-248.94464
 21
44.5373
  0
LINE
  8
0
  6
CONTINUOUS
 62
     7
 10
-273.96729
 20
56.264801
 11
-273.96729
 21
47.204872
  0
LINE
  8
0
  6
CONTINUOUS
 62
     7
 10
-248.36729
 20
56.264801
 11
-248.36729
 21
41.264801
  0
LINE
  8
0
  6
CONTINUOUS
 62
     7
 10
-256.96729
 20
41.264801
 11
-256.38995
 21
40.264809
  0
LINE
  8
0
  6
CONTINUOUS
 62
     7
 10
-256.38995
 20
45.380608
 11
-256.38995
 21
44.5373
  0
LINE
  8
0
  6
CONTINUOUS
 62
     7
 10
-248.94464
 20
56.264801
 11
-248.94464
 21
55.668495
  0
LINE
  8
0
  6
CONTINUOUS
 62
     7
 10
-273.96729
 20
47.204872
 11
-260.46729
 21
46.782997
  0
LINE
  8
0
  6
CONTINUOUS
 62
     7
 10
-273.96732
 20
47.20488
 11
-271.83844
 21
45.975784
  0
LINE
  8
0
  6
CONTINUOUS
 62
     7
 10
-271.83844
 20
56.264801
 11
-271.83844
 21
45.975777
  0
LINE
  8
0
  6
CONTINUOUS
 62
     7
 10
-256.96729
 20
56.264801
 11
-256.96729
 21
41.264801
  0
LINE
  8
0
  6
CONTINUOUS
 62
     7
 10
-260.46729
 20
56.264801
 11
-260.46729
 21
45.62043
  0
LINE
  8
0
  6
CONTINUOUS
 62
     7
 10
-260.46729
 20
46.782997
 11
-257.46729
 21
45.52668
  0
LINE
  8
0
  6
CONTINUOUS
 62
     7
 10
-256.38995
 20
45.380608
 11
-248.94464
 21
45.380608
  0
LINE
  8
0
  6
CONTINUOUS
 62
     7
 10
-248.94466
 20
40.264805
 11
-248.36729
 21
41.264805
  0
LINE
  8
0
  6
CONTINUOUS
 62
     7
 10
-256.38995
 20
55.668495
 11
-248.94464
 21
55.668495
  0
LINE
  8
0
  6
CONTINUOUS
 62
     7
 10
-256.38995
 20
56.264801
 11
-256.38995
 21
55.668495
  0
LINE
  8
0
  6
CONTINUOUS
 62
     7
 10
-233.46729
 20
56.264801
 11
-233.46729
 21
45.764801
  0
LINE
  8
0
  6
CONTINUOUS
 62
     7
 10
-244.46729
 20
42.643478
 11
-244.46729
 21
41.764801
  0
LINE
  8
0
  6
CONTINUOUS
 62
     7
 10
-244.46729
 20
41.764801
 11
-237.46729
 21
41.764801
  0
LINE
  8
0
  6
CONTINUOUS
 62
     7
 10
-244.96729
 20
42.264801
 11
-244.46729
 21
41.764812
  0
LINE
  8
0
  6
CONTINUOUS
 62
     7
 10
-244.46729
 20
51.501343
 11
-244.46729
 21
49.379456
  0
LINE
  8
0
  6
CONTINUOUS
 62
     7
 10
-244.46729
 20
42.643478
 11
-237.46729
 21
42.643478
  0
LINE
  8
0
  6
CONTINUOUS
 62
     7
 10
-244.46729
 20
51.501343
 11
-237.46729
 21
51.501343
  0
LINE
  8
0
  6
CONTINUOUS
 62
     7
 10
-244.46729
 20
49.379456
 11
-237.46729
 21
49.379456
  0
LINE
  8
0
  6
CONTINUOUS
 62
     7
 10
-237.46729
 20
56.264801
 11
-237.46729
 21
41.764801
  0
LINE
  8
0
  6
CONTINUOUS
 62
     7
 10
-244.96729
 20
56.264801
 11
-244.96729
 21
42.264801
  0
LINE
  8
0
  6
CENTER
 62
     7
 10
-196.04739
 20
57.409096
 11
-143.325
 21
57.409096
  0
LINE
  8
0
  6
CONTINUOUS
 62
     7
 10
-164.68958
 20
39.909096
 11
-165.26694
 21
38.909096
  0
LINE
  8
0
  6
CONTINUOUS
 62
     7
 10
-152.78957
 20
43.509087
 11
-152.78957
 21
57.409096
  0
LINE
  8
0
  6
CONTINUOUS
 62
     7
 10
-190.28957
 20
57.409096
 11
-190.28957
 21
48.349167
  0
LINE
  8
0
  6
CONTINUOUS
 62
     7
 10
-190.28957
 20
48.349159
 11
-176.78957
 21
47.927284
  0
LINE
  8
0
  6
CONTINUOUS
 62
     7
 10
-165.26692
 20
45.168861
 11
-165.26692
 21
43.537308
  0
LINE
  8
0
  6
CONTINUOUS
 62
     7
 10
-188.16072
 20
47.120068
 11
-173.28958
 21
46.655346
  0
LINE
  8
0
  6
CONTINUOUS
 62
     7
 10
-164.68958
 20
57.409096
 11
-164.68958
 21
39.909096
  0
LINE
  8
0
  6
CONTINUOUS
 62
     7
 10
-173.28957
 20
39.909096
 11
-172.71222
 21
38.909103
  0
LINE
  8
0
  6
CONTINUOUS
 62
     7
 10
-173.28957
 20
39.909096
 11
-173.28957
 21
57.409096
  0
LINE
  8
0
  6
CONTINUOUS
 62
     7
 10
-188.16072
 20
57.409096
 11
-188.16072
 21
47.120071
  0
LINE
  8
0
  6
CONTINUOUS
 62
     7
 10
-188.16074
 20
47.120075
 11
-190.28957
 21
48.349163
  0
LINE
  8
0
  6
CONTINUOUS
 62
     7
 10
-172.71222
 20
57.409096
 11
-172.71222
 21
56.255417
  0
LINE
  8
0
  6
CONTINUOUS
 62
     7
 10
-165.26692
 20
57.409096
 11
-165.26692
 21
56.255417
  0
LINE
  8
0
  6
CONTINUOUS
 62
     7
 10
-172.71222
 20
38.909096
 11
-165.26692
 21
38.909096
  0
LINE
  8
0
  6
CONTINUOUS
 62
     7
 10
-176.78957
 20
57.409096
 11
-176.78957
 21
46.764725
  0
LINE
  8
0
  6
CONTINUOUS
 62
     7
 10
-176.78957
 20
47.927284
 11
-173.78957
 21
46.670967
  0
LINE
  8
0
  6
CONTINUOUS
 62
     7
 10
-172.71222
 20
43.537308
 11
-165.26692
 21
43.537308
  0
LINE
  8
0
  6
CONTINUOUS
 62
     7
 10
-172.71222
 20
45.168861
 11
-165.26692
 21
45.168861
  0
LINE
  8
0
  6
CONTINUOUS
 62
     7
 10
-172.71222
 20
56.255417
 11
-165.26692
 21
56.255417
  0
LINE
  8
0
  6
CONTINUOUS
 62
     7
 10
-172.71222
 20
45.168861
 11
-172.71222
 21
43.537308
  0
LINE
  8
0
  6
CONTINUOUS
 62
     7
 10
-59.67897
 20
56.264801
 11
-59.67897
 21
44.264801
  0
LINE
  8
0
  6
CONTINUOUS
 62
     7
 10
-72.678978
 20
48.34449
 11
-64.67897
 21
48.34449
  0
LINE
  8
0
  6
CONTINUOUS
 62
     7
 10
-72.678978
 20
40.143478
 11
-72.678978
 21
39.264801
  0
LINE
  8
0
  6
CONTINUOUS
 62
     7
 10
-72.67897
 20
39.264797
 11
-73.17897
 21
39.764801
  0
LINE
  8
0
  6
CONTINUOUS
 62
     7
 10
-72.67897
 20
39.264801
 11
-64.67897
 21
39.264801
  0
LINE
  8
0
  6
CONTINUOUS
 62
     7
 10
-72.678978
 20
40.143478
 11
-64.67897
 21
40.143478
  0
LINE
  8
0
  6
CONTINUOUS
 62
     7
 10
-72.678978
 20
50.465813
 11
-64.67897
 21
50.465813
  0
LINE
  8
0
  6
CONTINUOUS
 62
     7
 10
-64.67897
 20
56.264801
 11
-64.67897
 21
39.264801
  0
LINE
  8
0
  6
CONTINUOUS
 62
     7
 10
-72.678978
 20
50.465813
 11
-72.678978
 21
48.34449
  0
LINE
  8
0
  6
CONTINUOUS
 62
     7
 10
-147.78958
 20
57.409096
 11
-147.78958
 21
45.409096
  0
LINE
  8
0
  6
CONTINUOUS
 62
     7
 10
-160.78958
 20
49.488785
 11
-152.78957
 21
49.488785
  0
LINE
  8
0
  6
CONTINUOUS
 62
     7
 10
-160.78958
 20
41.287773
 11
-160.78958
 21
40.409096
  0
LINE
  8
0
  6
CONTINUOUS
 62
     7
 10
-160.78958
 20
40.4091
 11
-161.28958
 21
40.9091
  0
LINE
  8
0
  6
CONTINUOUS
 62
     7
 10
-160.78957
 20
40.409096
 11
-152.78957
 21
40.409096
  0
LINE
  8
0
  6
CONTINUOUS
 62
     7
 10
-160.78958
 20
41.287773
 11
-152.78957
 21
41.287773
  0
LINE
  8
0
  6
CONTINUOUS
 62
     7
 10
-160.78958
 20
51.610107
 11
-152.78957
 21
51.610107
  0
LINE
  8
0
  6
CONTINUOUS
 62
     7
 10
-152.78957
 20
57.409096
 11
-152.78957
 21
40.409096
  0
LINE
  8
0
  6
CONTINUOUS
 62
     7
 10
-160.78958
 20
51.610107
 11
-160.78958
 21
49.488785
  0
LINE
  8
0
  6
CONTINUOUS
 62
     7
 10
-161.28957
 20
57.409096
 11
-161.28957
 21
40.909096
  0
LINE
  8
0
  6
CONTINUOUS
 62
     7
 10
-102.4847
 20
56.264801
 11
-102.4847
 21
43.012024
  0
LINE
  8
0
  6
CONTINUOUS
 62
     7
 10
-103.67897
 20
44.206299
 11
-88.67897
 21
43.800896
  0
LINE
  8
0
  6
CONTINUOUS
 62
     7
 10
-76.578972
 20
56.264801
 11
-76.578972
 21
38.764801
  0
LINE
  8
0
  6
CENTER
 62
     7
 10
-107.4368
 20
56.264801
 11
-55.200001
 21
56.264801
  0
LINE
  8
0
  6
CONTINUOUS
 62
     7
 10
-102.48469
 20
43.012024
 11
-85.17897
 21
42.5443
  0
LINE
  8
0
  6
CONTINUOUS
 62
     7
 10
-103.67897
 20
44.206303
 11
-102.4847
 21
43.012024
  0
LINE
  8
0
  6
CONTINUOUS
 62
     7
 10
-85.17897
 20
38.764801
 11
-85.17897
 21
56.264801
  0
LINE
  8
0
  6
CONTINUOUS
 62
     7
 10
-76.578964
 20
38.764797
 11
-77.156319
 21
37.764797
  0
LINE
  8
0
  6
CONTINUOUS
 62
     7
 10
-84.601624
 20
44.024567
 11
-84.601624
 21
42.393013
  0
LINE
  8
0
  6
CONTINUOUS
 62
     7
 10
-84.601624
 20
37.764801
 11
-77.156319
 21
37.764801
  0
LINE
  8
0
  6
CONTINUOUS
 62
     7
 10
-84.601624
 20
42.393013
 11
-77.156319
 21
42.393013
  0
LINE
  8
0
  6
CONTINUOUS
 62
     7
 10
-84.601624
 20
44.024567
 11
-77.156319
 21
44.024567
  0
LINE
  8
0
  6
CONTINUOUS
 62
     7
 10
-85.17897
 20
38.764801
 11
-84.601624
 21
37.764801
  0
LINE
  8
0
  6
CONTINUOUS
 62
     7
 10
-103.67898
 20
44.206306
 11
-103.67898
 21
56.264801
  0
LINE
  8
0
  6
CONTINUOUS
 62
     7
 10
-77.156319
 20
44.024567
 11
-77.156319
 21
42.393013
  0
LINE
  8
0
  6
CONTINUOUS
 62
     7
 10
-88.678978
 20
42.638893
 11
-88.678978
 21
56.264801
  0
LINE
  8
0
  6
CONTINUOUS
 62
     7
 10
-88.67897
 20
43.800892
 11
-85.178963
 21
42.5443
  0
LINE
  8
0
  6
CONTINUOUS
 62
     7
 10
-77.156319
 20
56.264801
 11
-77.156319
 21
55.111122
  0
LINE
  8
0
  6
CONTINUOUS
 62
     7
 10
-84.601624
 20
55.111122
 11
-77.156319
 21
55.111122
  0
LINE
  8
0
  6
CONTINUOUS
 62
     7
 10
-84.601624
 20
56.264801
 11
-84.601624
 21
55.111122
  0
LINE
  8
0
  6
CONTINUOUS
 62
     7
 10
-73.17897
 20
56.264801
 11
-73.17897
 21
39.764801
  0
LINE
  8
0
  6
CONTINUOUS
 62
     7
 10
12.384787
 20
41.648193
 11
12.384787
 21
38.506569
  0
LINE
  8
0
  6
CONTINUOUS
 62
     7
 10
11.807445
 20
34.264801
 11
12.384793
 21
33.264805
  0
LINE
  8
0
  6
CONTINUOUS
 62
     7
 10
20.307447
 20
56.264801
 11
20.307447
 21
34.264805
  0
LINE
  8
0
  6
CONTINUOUS
 62
     7
 10
-8.6925507
 20
41.444714
 11
8.307436
 21
40.913464
  0
LINE
  8
0
  6
CENTER
 62
     7
 10
-14.71438
 20
56.264801
 11
44.549999
 21
56.264801
  0
LINE
  8
0
  6
CONTINUOUS
 62
     7
 10
11.80744
 20
56.264801
 11
11.80744
 21
34.264801
  0
LINE
  8
0
  6
CONTINUOUS
 62
     7
 10
-8.6925554
 20
41.444714
 11
-5.9829359
 21
39.880314
  0
LINE
  8
0
  6
CONTINUOUS
 62
     7
 10
19.730101
 20
41.648193
 11
19.730101
 21
38.506569
  0
LINE
  8
0
  6
CONTINUOUS
 62
     7
 10
-5.9829359
 20
39.880318
 11
11.807451
 21
39.324368
  0
LINE
  8
0
  6
CONTINUOUS
 62
     7
 10
-8.6925602
 20
56.264801
 11
-8.6925602
 21
41.44471
  0
LINE
  8
0
  6
CONTINUOUS
 62
     7
 10
19.730101
 20
56.264801
 11
19.730101
 21
54.043335
  0
LINE
  8
0
  6
CONTINUOUS
 62
     7
 10
19.730097
 20
33.264801
 11
20.307447
 21
34.264801
  0
LINE
  8
0
  6
CONTINUOUS
 62
     7
 10
-5.9829354
 20
56.264801
 11
-5.9829354
 21
39.88031
  0
LINE
  8
0
  6
CONTINUOUS
 62
     7
 10
12.384787
 20
56.264801
 11
12.384787
 21
54.043335
  0
LINE
  8
0
  6
CONTINUOUS
 62
     7
 10
8.3074398
 20
56.264801
 11
8.3074398
 21
39.433739
  0
LINE
  8
0
  6
CONTINUOUS
 62
     7
 10
8.3074408
 20
40.913464
 11
11.807443
 21
39.324364
  0
LINE
  8
0
  6
CONTINUOUS
 62
     7
 10
12.384787
 20
54.043335
 11
19.730101
 21
54.043335
  0
LINE
  8
0
  6
CONTINUOUS
 62
     7
 10
12.384787
 20
41.648193
 11
19.730101
 21
41.648193
  0
LINE
  8
0
  6
CONTINUOUS
 62
     7
 10
12.384787
 20
33.264805
 11
19.730101
 21
33.264805
  0
LINE
  8
0
  6
CONTINUOUS
 62
     7
 10
12.384787
 20
38.506569
 11
19.730101
 21
38.506569
  0
LINE
  8
0
  6
CONTINUOUS
 62
     7
 10
24.307447
 20
49.631554
 11
24.307447
 21
45.752419
  0
LINE
  8
0
  6
CONTINUOUS
 62
     7
 10
23.807446
 20
35.264801
 11
24.307444
 21
34.764801
  0
LINE
  8
0
  6
CONTINUOUS
 62
     7
 10
24.307447
 20
36.37159
 11
24.307447
 21
34.764801
  0
LINE
  8
0
  6
CONTINUOUS
 62
     7
 10
24.307447
 20
34.764801
 11
33.307446
 21
34.764801
  0
LINE
  8
0
  6
CONTINUOUS
 62
     7
 10
38.307446
 20
56.264801
 11
38.307446
 21
39.764801
  0
LINE
  8
0
  6
CONTINUOUS
 62
     7
 10
33.307446
 20
56.264801
 11
33.307446
 21
34.764801
  0
LINE
  8
0
  6
CONTINUOUS
 62
     7
 10
24.307447
 20
49.631554
 11
33.307446
 21
49.631554
  0
LINE
  8
0
  6
CONTINUOUS
 62
     7
 10
24.307447
 20
45.752419
 11
33.307446
 21
45.752419
  0
LINE
  8
0
  6
CONTINUOUS
 62
     7
 10
24.307447
 20
36.37159
 11
33.307446
 21
36.37159
  0
LINE
  8
0
  6
CONTINUOUS
 62
     7
 10
23.807447
 20
56.264801
 11
23.807447
 21
35.264801
  0
LINE
  8
0
  6
CENTER
 62
     7
 10
-282.36002
 20
-58.164551
 11
-221.49625
 21
-58.164551
  0
LINE
  8
0
  6
CONTINUOUS
 62
     7
 10
-282.6116
 20
-58.164551
 11
-282.6116
 21
-72.985359
  0
LINE
  8
0
  6
CONTINUOUS
 62
     7
 10
-264.81989
 20
-73.541351
 11
-282.6116
 21
-72.985359
  0
LINE
  8
0
  6
CONTINUOUS
 62
     7
 10
-282.6116
 20
-72.985359
 11
-279.90329
 21
-74.548996
  0
LINE
  8
0
  6
CONTINUOUS
 62
     7
 10
-262.1116
 20
-75.104988
 11
-279.90329
 21
-74.548996
  0
LINE
  8
0
  6
CONTINUOUS
 62
     7
 10
-264.81989
 20
-73.541351
 11
-264.81989
 21
-75.020355
  0
LINE
  8
0
  6
CONTINUOUS
 62
     7
 10
-262.1116
 20
-75.10498
 11
-264.81989
 21
-73.541351
  0
LINE
  8
0
  6
CONTINUOUS
 62
     7
 10
-279.90329
 20
-74.548996
 11
-279.90329
 21
-58.164551
  0
LINE
  8
0
  6
CONTINUOUS
 62
     7
 10
-264.81989
 20
-73.541351
 11
-264.81989
 21
-58.164551
  0
LINE
  8
0
  6
CONTINUOUS
 62
     7
 10
-251.68893
 20
-74.585167
 11
-256.61157
 21
-74.585167
  0
LINE
  8
0
  6
CONTINUOUS
 62
     7
 10
-262.1116
 20
-83.664558
 11
-261.53424
 21
-84.664558
  0
LINE
  8
0
  6
CONTINUOUS
 62
     7
 10
-261.53424
 20
-84.664551
 11
-256.61157
 21
-84.664551
  0
LINE
  8
0
  6
CONTINUOUS
 62
     7
 10
-261.53424
 20
-78.963905
 11
-256.61157
 21
-78.963905
  0
LINE
  8
0
  6
CONTINUOUS
 62
     7
 10
-261.53424
 20
-74.585167
 11
-256.61157
 21
-74.585167
  0
LINE
  8
0
  6
CONTINUOUS
 62
     7
 10
-261.53424
 20
-61.260788
 11
-256.61157
 21
-61.260788
  0
LINE
  8
0
  6
CONTINUOUS
 62
     7
 10
-261.53424
 20
-58.164551
 11
-261.53424
 21
-61.260788
  0
LINE
  8
0
  6
CONTINUOUS
 62
     7
 10
-261.53424
 20
-74.585167
 11
-261.53424
 21
-78.963905
  0
LINE
  8
0
  6
CONTINUOUS
 62
     7
 10
-262.11157
 20
-58.164551
 11
-262.11157
 21
-83.664551
  0
LINE
  8
0
  6
CONTINUOUS
 62
     7
 10
-251.68893
 20
-78.963905
 11
-256.61157
 21
-78.963905
  0
LINE
  8
0
  6
CONTINUOUS
 62
     7
 10
-251.68893
 20
-84.664551
 11
-256.61157
 21
-84.664551
  0
LINE
  8
0
  6
CONTINUOUS
 62
     7
 10
-251.11159
 20
-83.664543
 11
-251.68893
 21
-84.664551
  0
LINE
  8
0
  6
CONTINUOUS
 62
     7
 10
-251.68893
 20
-61.260788
 11
-256.61157
 21
-61.260788
  0
LINE
  8
0
  6
CONTINUOUS
 62
     7
 10
-251.68893
 20
-58.164551
 11
-251.68893
 21
-61.260788
  0
LINE
  8
0
  6
CONTINUOUS
 62
     7
 10
-251.68893
 20
-74.585167
 11
-251.68893
 21
-78.963905
  0
LINE
  8
0
  6
CONTINUOUS
 62
     7
 10
-251.11159
 20
-58.164551
 11
-251.11159
 21
-83.664551
  0
LINE
  8
0
  6
CONTINUOUS
 62
     7
 10
-247.0116
 20
-81.642929
 11
-236.61159
 21
-81.642929
  0
LINE
  8
0
  6
CONTINUOUS
 62
     7
 10
-247.0116
 20
-82.664551
 11
-236.61159
 21
-82.664551
  0
LINE
  8
0
  6
CONTINUOUS
 62
     7
 10
-247.0116
 20
-66.867996
 11
-236.61159
 21
-66.867996
  0
LINE
  8
0
  6
CONTINUOUS
 62
     7
 10
-247.51158
 20
-82.164551
 11
-247.01158
 21
-82.664551
  0
LINE
  8
0
  6
CONTINUOUS
 62
     7
 10
-231.61159
 20
-58.164551
 11
-231.61159
 21
-77.664551
  0
LINE
  8
0
  6
CONTINUOUS
 62
     7
 10
-247.0116
 20
-66.867996
 11
-247.0116
 21
-69.334396
  0
LINE
  8
0
  6
CONTINUOUS
 62
     7
 10
-247.0116
 20
-81.642929
 11
-247.0116
 21
-82.664551
  0
LINE
  8
0
  6
CONTINUOUS
 62
     7
 10
-247.0116
 20
-69.334396
 11
-236.61159
 21
-69.334396
  0
LINE
  8
0
  6
CONTINUOUS
 62
     7
 10
-236.61159
 20
-58.164551
 11
-236.61159
 21
-82.664551
  0
LINE
  8
0
  6
CONTINUOUS
 62
     7
 10
-247.5116
 20
-58.164551
 11
-247.5116
 21
-82.164551
  0
LINE
  8
0
  6
CENTER
 62
     7
 10
-186.08495
 20
-58.164551
 11
-117.61926
 21
-58.164551
  0
LINE
  8
0
  6
CONTINUOUS
 62
     7
 10
-179.22244
 20
-58.164551
 11
-179.22244
 21
-77.243675
  0
LINE
  8
0
  6
CONTINUOUS
 62
     7
 10
-156.22246
 20
-79.441429
 11
-176.51416
 21
-78.807312
  0
LINE
  8
0
  6
CONTINUOUS
 62
     7
 10
-157.22246
 20
-79.410172
 11
-159.93076
 21
-77.846542
  0
LINE
  8
0
  6
CONTINUOUS
 62
     7
 10
-179.22246
 20
-77.243668
 11
-176.51418
 21
-78.807297
  0
LINE
  8
0
  6
CONTINUOUS
 62
     7
 10
-159.93076
 20
-77.846542
 11
-179.22246
 21
-77.243675
  0
LINE
  8
0
  6
CONTINUOUS
 62
     7
 10
-159.93074
 20
-77.846542
 11
-159.93074
 21
-58.164551
  0
LINE
  8
0
  6
CONTINUOUS
 62
     7
 10
-176.51414
 20
-78.807304
 11
-176.51414
 21
-58.164551
  0
LINE
  8
0
  6
CONTINUOUS
 62
     7
 10
-159.93074
 20
-77.846542
 11
-159.93074
 21
-79.325539
  0
LINE
  8
0
  6
CONTINUOUS
 62
     7
 10
-156.22244
 20
-83.664543
 11
-155.6451
 21
-84.664551
  0
LINE
  8
0
  6
CONTINUOUS
 62
     7
 10
-145.29979
 20
-84.664551
 11
-150.47244
 21
-84.664551
  0
LINE
  8
0
  6
CONTINUOUS
 62
     7
 10
-155.6451
 20
-84.664551
 11
-150.47244
 21
-84.664551
  0
LINE
  8
0
  6
CONTINUOUS
 62
     7
 10
-155.6451
 20
-78.963905
 11
-150.47244
 21
-78.963905
  0
LINE
  8
0
  6
CONTINUOUS
 62
     7
 10
-155.6451
 20
-74.585167
 11
-150.47244
 21
-74.585167
  0
LINE
  8
0
  6
CONTINUOUS
 62
     7
 10
-155.6451
 20
-61.260788
 11
-150.47244
 21
-61.260788
  0
LINE
  8
0
  6
CONTINUOUS
 62
     7
 10
-155.6451
 20
-58.164551
 11
-155.6451
 21
-61.260788
  0
LINE
  8
0
  6
CONTINUOUS
 62
     7
 10
-155.6451
 20
-74.585167
 11
-155.6451
 21
-78.963905
  0
LINE
  8
0
  6
CONTINUOUS
 62
     7
 10
-156.22244
 20
-58.164551
 11
-156.22244
 21
-83.664551
  0
LINE
  8
0
  6
CONTINUOUS
 62
     7
 10
-144.72244
 20
-83.664551
 11
-145.29979
 21
-84.664543
  0
LINE
  8
0
  6
CONTINUOUS
 62
     7
 10
-145.29979
 20
-78.963905
 11
-150.47244
 21
-78.963905
  0
LINE
  8
0
  6
CONTINUOUS
 62
     7
 10
-145.29979
 20
-74.585167
 11
-150.47244
 21
-74.585167
  0
LINE
  8
0
  6
CONTINUOUS
 62
     7
 10
-145.29979
 20
-61.260788
 11
-150.47244
 21
-61.260788
  0
LINE
  8
0
  6
CONTINUOUS
 62
     7
 10
-145.29979
 20
-58.164551
 11
-145.29979
 21
-61.260788
  0
LINE
  8
0
  6
CONTINUOUS
 62
     7
 10
-145.29979
 20
-74.585167
 11
-145.29979
 21
-78.963905
  0
LINE
  8
0
  6
CONTINUOUS
 62
     7
 10
-144.72243
 20
-58.164551
 11
-144.72243
 21
-83.664551
  0
LINE
  8
0
  6
CONTINUOUS
 62
     7
 10
-140.62245
 20
-81.642929
 11
-130.22244
 21
-81.642929
  0
LINE
  8
0
  6
CONTINUOUS
 62
     7
 10
-140.62245
 20
-82.664551
 11
-130.22244
 21
-82.664551
  0
LINE
  8
0
  6
CONTINUOUS
 62
     7
 10
-140.62245
 20
-66.867996
 11
-130.22244
 21
-66.867996
  0
LINE
  8
0
  6
CONTINUOUS
 62
     7
 10
-141.12245
 20
-82.164551
 11
-140.62245
 21
-82.664551
  0
LINE
  8
0
  6
CONTINUOUS
 62
     7
 10
-125.22246
 20
-58.164551
 11
-125.22246
 21
-77.664551
  0
LINE
  8
0
  6
CONTINUOUS
 62
     7
 10
-140.62245
 20
-66.867996
 11
-140.62245
 21
-69.334396
  0
LINE
  8
0
  6
CONTINUOUS
 62
     7
 10
-140.62245
 20
-81.642929
 11
-140.62245
 21
-82.664551
  0
LINE
  8
0
  6
CONTINUOUS
 62
     7
 10
-140.62245
 20
-69.334396
 11
-130.22244
 21
-69.334396
  0
LINE
  8
0
  6
CONTINUOUS
 62
     7
 10
-130.22244
 20
-58.164551
 11
-130.22244
 21
-82.664551
  0
LINE
  8
0
  6
CONTINUOUS
 62
     7
 10
-141.12245
 20
-58.164551
 11
-141.12245
 21
-82.164551
  0
LINE
  8
0
  6
CONTINUOUS
 62
     7
 10
-47.473988
 20
-79.926109
 11
-42.878696
 21
-79.926109
  0
LINE
  8
0
  6
CONTINUOUS
 62
     7
 10
-47.473988
 20
-62.035263
 11
-42.878696
 21
-62.035263
  0
LINE
  8
0
  6
CONTINUOUS
 62
     7
 10
-47.473988
 20
-59.308842
 11
-47.473988
 21
-62.035263
  0
LINE
  8
0
  6
CENTER
 62
     7
 10
-73.436661
 20
-59.308842
 11
-13.15097
 21
-59.308842
  0
LINE
  8
0
  6
CONTINUOUS
 62
     7
 10
-47.473988
 20
-91.308846
 11
-42.878696
 21
-91.308846
  0
LINE
  8
0
  6
CONTINUOUS
 62
     7
 10
-38.283401
 20
-79.926109
 11
-42.878696
 21
-79.926109
  0
LINE
  8
0
  6
CONTINUOUS
 62
     7
 10
-48.628693
 20
-89.308846
 11
-47.473991
 21
-91.308846
  0
LINE
  8
0
  6
CONTINUOUS
 62
     7
 10
-47.473988
 20
-83.781853
 11
-42.878696
 21
-83.781853
  0
LINE
  8
0
  6
CONTINUOUS
 62
     7
 10
-37.1287
 20
-59.308842
 11
-37.1287
 21
-89.308846
  0
LINE
  8
0
  6
CONTINUOUS
 62
     7
 10
-48.628689
 20
-59.308842
 11
-48.628689
 21
-89.308846
  0
LINE
  8
0
  6
CONTINUOUS
 62
     7
 10
-38.283401
 20
-79.926109
 11
-38.283401
 21
-83.781853
  0
LINE
  8
0
  6
CONTINUOUS
 62
     7
 10
-52.336998
 20
-78.990829
 11
-71.6287
 21
-78.387962
  0
LINE
  8
0
  6
CONTINUOUS
 62
     7
 10
-38.283401
 20
-83.781853
 11
-42.878696
 21
-83.781853
  0
LINE
  8
0
  6
CONTINUOUS
 62
     7
 10
-37.1287
 20
-89.308838
 11
-38.283401
 21
-91.308838
  0
LINE
  8
0
  6
CONTINUOUS
 62
     7
 10
-38.283401
 20
-91.308846
 11
-42.878696
 21
-91.308846
  0
LINE
  8
0
  6
CONTINUOUS
 62
     7
 10
-38.283401
 20
-62.035263
 11
-42.878696
 21
-62.035263
  0
LINE
  8
0
  6
CONTINUOUS
 62
     7
 10
-38.283401
 20
-59.308842
 11
-38.283401
 21
-62.035263
  0
LINE
  8
0
  6
CONTINUOUS
 62
     7
 10
-47.473988
 20
-79.926109
 11
-47.473988
 21
-83.781853
  0
LINE
  8
0
  6
CONTINUOUS
 62
     7
 10
-71.628685
 20
-78.387955
 11
-68.920395
 21
-79.951584
  0
LINE
  8
0
  6
CONTINUOUS
 62
     7
 10
-71.628693
 20
-59.308842
 11
-71.628693
 21
-78.38797
  0
LINE
  8
0
  6
CONTINUOUS
 62
     7
 10
-48.628689
 20
-80.585716
 11
-68.92041
 21
-79.951599
  0
LINE
  8
0
  6
CONTINUOUS
 62
     7
 10
-68.920395
 20
-79.951599
 11
-68.920395
 21
-59.308842
  0
LINE
  8
0
  6
CONTINUOUS
 62
     7
 10
-49.628685
 20
-80.554459
 11
-52.336971
 21
-78.990829
  0
LINE
  8
0
  6
CONTINUOUS
 62
     7
 10
-52.336994
 20
-78.990837
 11
-52.336994
 21
-59.308842
  0
LINE
  8
0
  6
CONTINUOUS
 62
     7
 10
-52.336994
 20
-78.990837
 11
-52.336994
 21
-80.469833
  0
LINE
  8
0
  6
CONTINUOUS
 62
     7
 10
-21.628696
 20
-59.308842
 11
-21.628696
 21
-88.808838
  0
LINE
  8
0
  6
CONTINUOUS
 62
     7
 10
-15.628695
 20
-59.308842
 11
-15.628695
 21
-82.808838
  0
LINE
  8
0
  6
CONTINUOUS
 62
     7
 10
-33.528694
 20
-88.308846
 11
-33.028694
 21
-88.808846
  0
LINE
  8
0
  6
CONTINUOUS
 62
     7
 10
-33.028698
 20
-88.808838
 11
-21.628696
 21
-88.808838
  0
LINE
  8
0
  6
CONTINUOUS
 62
     7
 10
-33.028702
 20
-73.432396
 11
-21.628696
 21
-73.432396
  0
LINE
  8
0
  6
CONTINUOUS
 62
     7
 10
-33.028702
 20
-86.904587
 11
-21.628696
 21
-86.904587
  0
LINE
  8
0
  6
CONTINUOUS
 62
     7
 10
-33.028702
 20
-68.835121
 11
-21.628696
 21
-68.835121
  0
LINE
  8
0
  6
CONTINUOUS
 62
     7
 10
-33.028702
 20
-68.835121
 11
-33.028702
 21
-73.432396
  0
LINE
  8
0
  6
CONTINUOUS
 62
     7
 10
-33.028702
 20
-86.904587
 11
-33.028702
 21
-88.808838
  0
LINE
  8
0
  6
CONTINUOUS
 62
     7
 10
-33.528698
 20
-59.308842
 11
-33.528698
 21
-88.308846
  0
LINE
  8
0
  6
CONTINUOUS
 62
     7
 10
-252.13152
 20
-272.56607
 11
-247.53622
 21
-272.56607
  0
LINE
  8
0
  6
CONTINUOUS
 62
     7
 10
-252.13152
 20
-254.67523
 11
-247.53622
 21
-254.67523
  0
LINE
  8
0
  6
CONTINUOUS
 62
     7
 10
-252.13152
 20
-251.94881
 11
-252.13152
 21
-254.67523
  0
LINE
  8
0
  6
CENTER
 62
     7
 10
-277.09418
 20
-251.94881
 11
-214.2524
 21
-251.94881
  0
LINE
  8
0
  6
CONTINUOUS
 62
     7
 10
-252.13152
 20
-283.94882
 11
-247.53622
 21
-283.94882
  0
LINE
  8
0
  6
CONTINUOUS
 62
     7
 10
-242.94092
 20
-272.56607
 11
-247.53622
 21
-272.56607
  0
LINE
  8
0
  6
CONTINUOUS
 62
     7
 10
-253.28621
 20
-281.94879
 11
-252.1315
 21
-283.94879
  0
LINE
  8
0
  6
CONTINUOUS
 62
     7
 10
-252.13152
 20
-276.42181
 11
-247.53622
 21
-276.42181
  0
LINE
  8
0
  6
CONTINUOUS
 62
     7
 10
-241.78622
 20
-251.94881
 11
-241.78622
 21
-281.94882
  0
LINE
  8
0
  6
CONTINUOUS
 62
     7
 10
-253.28621
 20
-251.94881
 11
-253.28621
 21
-281.94882
  0
LINE
  8
0
  6
CONTINUOUS
 62
     7
 10
-242.94092
 20
-272.56607
 11
-242.94092
 21
-276.42181
  0
LINE
  8
0
  6
CONTINUOUS
 62
     7
 10
-276.28622
 20
-251.94881
 11
-276.28622
 21
-273.97443
  0
LINE
  8
0
  6
CONTINUOUS
 62
     7
 10
-255.99452
 20
-274.60855
 11
-276.28619
 21
-273.97443
  0
LINE
  8
0
  6
CONTINUOUS
 62
     7
 10
-276.28622
 20
-273.97443
 11
-273.57791
 21
-275.53806
  0
LINE
  8
0
  6
CONTINUOUS
 62
     7
 10
-253.28622
 20
-276.17218
 11
-273.57791
 21
-275.53806
  0
LINE
  8
0
  6
CONTINUOUS
 62
     7
 10
-255.99452
 20
-274.60855
 11
-255.99452
 21
-276.08755
  0
LINE
  8
0
  6
CONTINUOUS
 62
     7
 10
-253.28621
 20
-276.17221
 11
-255.99452
 21
-274.60855
  0
LINE
  8
0
  6
CONTINUOUS
 62
     7
 10
-255.99452
 20
-274.60855
 11
-255.99452
 21
-251.94881
  0
LINE
  8
0
  6
CONTINUOUS
 62
     7
 10
-273.57791
 20
-275.53809
 11
-273.57791
 21
-251.94881
  0
LINE
  8
0
  6
CONTINUOUS
 62
     7
 10
-242.94092
 20
-276.42181
 11
-247.53622
 21
-276.42181
  0
LINE
  8
0
  6
CONTINUOUS
 62
     7
 10
-241.78621
 20
-281.94879
 11
-242.94092
 21
-283.94882
  0
LINE
  8
0
  6
CONTINUOUS
 62
     7
 10
-242.94092
 20
-283.94882
 11
-247.53622
 21
-283.94882
  0
LINE
  8
0
  6
CONTINUOUS
 62
     7
 10
-242.94092
 20
-254.67523
 11
-247.53622
 21
-254.67523
  0
LINE
  8
0
  6
CONTINUOUS
 62
     7
 10
-242.94092
 20
-251.94881
 11
-242.94092
 21
-254.67523
  0
LINE
  8
0
  6
CONTINUOUS
 62
     7
 10
-252.13152
 20
-272.56607
 11
-252.13152
 21
-276.42181
  0
LINE
  8
0
  6
CONTINUOUS
 62
     7
 10
-238.18622
 20
-251.94881
 11
-238.18622
 21
-280.94882
  0
LINE
  8
0
  6
CONTINUOUS
 62
     7
 10
-226.28622
 20
-251.94881
 11
-226.28622
 21
-281.44882
  0
LINE
  8
0
  6
CONTINUOUS
 62
     7
 10
-220.28622
 20
-251.94881
 11
-220.28622
 21
-275.44882
  0
LINE
  8
0
  6
CONTINUOUS
 62
     7
 10
-238.18622
 20
-280.94879
 11
-237.68622
 21
-281.44882
  0
LINE
  8
0
  6
CONTINUOUS
 62
     7
 10
-237.68622
 20
-281.44882
 11
-226.28622
 21
-281.44882
  0
LINE
  8
0
  6
CONTINUOUS
 62
     7
 10
-237.68622
 20
-266.07236
 11
-226.28622
 21
-266.07236
  0
LINE
  8
0
  6
CONTINUOUS
 62
     7
 10
-237.68622
 20
-279.54456
 11
-226.28622
 21
-279.54456
  0
LINE
  8
0
  6
CONTINUOUS
 62
     7
 10
-237.68622
 20
-261.4751
 11
-226.28622
 21
-261.4751
  0
LINE
  8
0
  6
CONTINUOUS
 62
     7
 10
-237.68622
 20
-261.4751
 11
-237.68622
 21
-266.07236
  0
LINE
  8
0
  6
CONTINUOUS
 62
     7
 10
-237.68622
 20
-279.54456
 11
-237.68622
 21
-281.44882
  0
LINE
  8
0
  6
CONTINUOUS
 62
     7
 10
-153.98085
 20
-288.19446
 11
-149.63556
 21
-288.19446
  0
LINE
  8
0
  6
CENTER
 62
     7
 10
-183.5163
 20
-252.69444
 11
-118.58952
 21
-252.69444
  0
LINE
  8
0
  6
CONTINUOUS
 62
     7
 10
-148.48087
 20
-286.19446
 11
-148.48087
 21
-252.69444
  0
LINE
  8
0
  6
CONTINUOUS
 62
     7
 10
-153.98085
 20
-275.13876
 11
-149.63556
 21
-275.13876
  0
LINE
  8
0
  6
CONTINUOUS
 62
     7
 10
-153.98085
 20
-280.19904
 11
-149.63556
 21
-280.19904
  0
LINE
  8
0
  6
CONTINUOUS
 62
     7
 10
-149.63556
 20
-252.69444
 11
-149.63556
 21
-256.27261
  0
LINE
  8
0
  6
CONTINUOUS
 62
     7
 10
-182.48083
 20
-252.69444
 11
-182.48083
 21
-274.72006
  0
LINE
  8
0
  6
CONTINUOUS
 62
     7
 10
-162.18913
 20
-275.35419
 11
-182.48085
 21
-274.72006
  0
LINE
  8
0
  6
CONTINUOUS
 62
     7
 10
-182.48087
 20
-274.72006
 11
-179.77257
 21
-276.28372
  0
LINE
  8
0
  6
CONTINUOUS
 62
     7
 10
-159.48085
 20
-276.91785
 11
-179.77257
 21
-276.28372
  0
LINE
  8
0
  6
CONTINUOUS
 62
     7
 10
-162.18915
 20
-275.35419
 11
-162.18915
 21
-276.83319
  0
LINE
  8
0
  6
CONTINUOUS
 62
     7
 10
-159.48085
 20
-276.91782
 11
-162.18915
 21
-275.35419
  0
LINE
  8
0
  6
CONTINUOUS
 62
     7
 10
-162.18915
 20
-275.35419
 11
-162.18915
 21
-252.69444
  0
LINE
  8
0
  6
CONTINUOUS
 62
     7
 10
-179.77255
 20
-276.28372
 11
-179.77255
 21
-252.69444
  0
LINE
  8
0
  6
CONTINUOUS
 62
     7
 10
-149.63556
 20
-288.19443
 11
-148.48087
 21
-286.19446
  0
LINE
  8
0
  6
CONTINUOUS
 62
     7
 10
-153.98085
 20
-256.27261
 11
-149.63556
 21
-256.27261
  0
LINE
  8
0
  6
CONTINUOUS
 62
     7
 10
-149.63556
 20
-275.13876
 11
-149.63556
 21
-280.19904
  0
LINE
  8
0
  6
CONTINUOUS
 62
     7
 10
-153.98085
 20
-288.19446
 11
-158.32616
 21
-288.19446
  0
LINE
  8
0
  6
CONTINUOUS
 62
     7
 10
-159.48085
 20
-286.19446
 11
-159.48085
 21
-252.69444
  0
LINE
  8
0
  6
CONTINUOUS
 62
     7
 10
-153.98085
 20
-275.13876
 11
-158.32616
 21
-275.13876
  0
LINE
  8
0
  6
CONTINUOUS
 62
     7
 10
-153.98085
 20
-280.19904
 11
-158.32616
 21
-280.19904
  0
LINE
  8
0
  6
CONTINUOUS
 62
     7
 10
-158.32616
 20
-252.69444
 11
-158.32616
 21
-256.27261
  0
LINE
  8
0
  6
CONTINUOUS
 62
     7
 10
-158.32616
 20
-288.19446
 11
-159.48085
 21
-286.19446
  0
LINE
  8
0
  6
CONTINUOUS
 62
     7
 10
-153.98085
 20
-256.27261
 11
-158.32616
 21
-256.27261
  0
LINE
  8
0
  6
CONTINUOUS
 62
     7
 10
-158.32616
 20
-275.13876
 11
-158.32616
 21
-280.19904
  0
LINE
  8
0
  6
CONTINUOUS
 62
     7
 10
-29.551521
 20
-290.12732
 11
-30.051521
 21
-289.62732
  0
LINE
  8
0
  6
CONTINUOUS
 62
     7
 10
-29.551521
 20
-287.38873
 11
-29.551521
 21
-290.12732
  0
LINE
  8
0
  6
CONTINUOUS
 62
     7
 10
-29.551521
 20
-290.12732
 11
-18.051521
 21
-290.12732
  0
LINE
  8
0
  6
CONTINUOUS
 62
     7
 10
-29.551521
 20
-287.38873
 11
-18.051521
 21
-287.38873
  0
LINE
  8
0
  6
CONTINUOUS
 62
     7
 10
-10.051522
 20
-256.12732
 11
-10.051522
 21
-282.12732
  0
LINE
  8
0
  6
CONTINUOUS
 62
     7
 10
-29.551521
 20
-266.33762
 11
-29.551521
 21
-272.94919
  0
LINE
  8
0
  6
CONTINUOUS
 62
     7
 10
-29.551521
 20
-272.94919
 11
-18.051521
 21
-272.94919
  0
LINE
  8
0
  6
CONTINUOUS
 62
     7
 10
-18.051521
 20
-256.12732
 11
-18.051521
 21
-290.12732
  0
LINE
  8
0
  6
CONTINUOUS
 62
     7
 10
-29.551521
 20
-266.33762
 11
-18.051521
 21
-266.33762
  0
LINE
  8
0
  6
CONTINUOUS
 62
     7
 10
-143.98087
 20
-286.69443
 11
-144.48085
 21
-286.19443
  0
LINE
  8
0
  6
CONTINUOUS
 62
     7
 10
-143.98087
 20
-283.95584
 11
-143.98087
 21
-286.69446
  0
LINE
  8
0
  6
CONTINUOUS
 62
     7
 10
-143.98087
 20
-286.69446
 11
-132.48087
 21
-286.69446
  0
LINE
  8
0
  6
CONTINUOUS
 62
     7
 10
-143.98087
 20
-283.95584
 11
-132.48087
 21
-283.95584
  0
LINE
  8
0
  6
CONTINUOUS
 62
     7
 10
-124.48087
 20
-252.69444
 11
-124.48087
 21
-278.69446
  0
LINE
  8
0
  6
CONTINUOUS
 62
     7
 10
-143.98087
 20
-262.90472
 11
-143.98087
 21
-269.51633
  0
LINE
  8
0
  6
CONTINUOUS
 62
     7
 10
-143.98087
 20
-269.51633
 11
-132.48087
 21
-269.51633
  0
LINE
  8
0
  6
CONTINUOUS
 62
     7
 10
-132.48087
 20
-252.69444
 11
-132.48087
 21
-286.69446
  0
LINE
  8
0
  6
CONTINUOUS
 62
     7
 10
-143.98087
 20
-262.90472
 11
-132.48087
 21
-262.90472
  0
LINE
  8
0
  6
CONTINUOUS
 62
     7
 10
-144.48087
 20
-252.69444
 11
-144.48087
 21
-286.19446
  0
LINE
  8
0
  6
CONTINUOUS
 62
     7
 10
-34.051521
 20
-289.62732
 11
-34.051521
 21
-256.12732
  0
LINE
  8
0
  6
CONTINUOUS
 62
     7
 10
-71.343224
 20
-285.52271
 11
-71.343224
 21
-256.12732
  0
LINE
  8
0
  6
CONTINUOUS
 62
     7
 10
-74.051521
 20
-283.95908
 11
-71.343224
 21
-285.52271
  0
LINE
  8
0
  6
CONTINUOUS
 62
     7
 10
-47.051517
 20
-286.28183
 11
-71.343231
 21
-285.52271
  0
LINE
  8
0
  6
CONTINUOUS
 62
     7
 10
-50.55151
 20
-284.69345
 11
-74.051514
 21
-283.95908
  0
LINE
  8
0
  6
CONTINUOUS
 62
     7
 10
-74.051506
 20
-256.12732
 11
-74.051506
 21
-283.95908
  0
LINE
  8
0
  6
CENTER
 62
     7
 10
-78.164024
 20
-256.12732
 11
-3.7337837
 21
-256.12732
  0
LINE
  8
0
  6
CONTINUOUS
 62
     7
 10
-40.551521
 20
-291.62732
 11
-35.20623
 21
-291.62732
  0
LINE
  8
0
  6
CONTINUOUS
 62
     7
 10
-35.20623
 20
-256.12732
 11
-35.20623
 21
-259.70547
  0
LINE
  8
0
  6
CONTINUOUS
 62
     7
 10
-40.551521
 20
-283.63193
 11
-45.896828
 21
-283.63193
  0
LINE
  8
0
  6
CONTINUOUS
 62
     7
 10
-40.551521
 20
-283.63193
 11
-35.20623
 21
-283.63193
  0
LINE
  8
0
  6
CONTINUOUS
 62
     7
 10
-35.206226
 20
-291.62732
 11
-34.051517
 21
-289.62732
  0
LINE
  8
0
  6
CONTINUOUS
 62
     7
 10
-40.551521
 20
-278.57162
 11
-35.20623
 21
-278.57162
  0
LINE
  8
0
  6
CONTINUOUS
 62
     7
 10
-45.896828
 20
-256.12732
 11
-45.896828
 21
-259.70547
  0
LINE
  8
0
  6
CONTINUOUS
 62
     7
 10
-47.051521
 20
-289.62732
 11
-47.051521
 21
-256.12732
  0
LINE
  8
0
  6
CONTINUOUS
 62
     7
 10
-45.89682
 20
-291.62732
 11
-47.051521
 21
-289.62732
  0
LINE
  8
0
  6
CONTINUOUS
 62
     7
 10
-40.551521
 20
-259.70547
 11
-35.20623
 21
-259.70547
  0
LINE
  8
0
  6
CONTINUOUS
 62
     7
 10
-40.551521
 20
-291.62732
 11
-45.896828
 21
-291.62732
  0
LINE
  8
0
  6
CONTINUOUS
 62
     7
 10
-35.20623
 20
-278.57162
 11
-35.20623
 21
-283.63193
  0
LINE
  8
0
  6
CONTINUOUS
 62
     7
 10
-40.551521
 20
-278.57162
 11
-45.896828
 21
-278.57162
  0
LINE
  8
0
  6
CONTINUOUS
 62
     7
 10
-40.551521
 20
-259.70547
 11
-45.896828
 21
-259.70547
  0
LINE
  8
0
  6
CONTINUOUS
 62
     7
 10
-45.896828
 20
-278.57162
 11
-45.896828
 21
-283.63193
  0
LINE
  8
0
  6
CONTINUOUS
 62
     7
 10
-50.551506
 20
-256.12732
 11
-50.551506
 21
-286.17245
  0
LINE
  8
0
  6
CONTINUOUS
 62
     7
 10
-50.551514
 20
-284.69345
 11
-49.051533
 21
-286.21933
  0
LINE
  8
0
  6
CONTINUOUS
 62
     7
 10
-30.051521
 20
-256.12732
 11
-30.051521
 21
-289.62732
  0
LINE
  8
0
  6
CONTINUOUS
 62
     7
 10
-252.84486
 20
-394.58685
 11
-252.84486
 21
-422.41858
  0
LINE
  8
0
  6
CONTINUOUS
 62
     7
 10
-212.99957
 20
-437.58685
 11
-211.84486
 21
-435.58685
  0
LINE
  8
0
  6
CONTINUOUS
 62
     7
 10
-211.84486
 20
-435.58685
 11
-211.84486
 21
-394.58685
  0
LINE
  8
0
  6
CONTINUOUS
 62
     7
 10
-229.34486
 20
-423.15295
 11
-252.84486
 21
-422.41858
  0
LINE
  8
0
  6
CONTINUOUS
 62
     7
 10
-252.84489
 20
-422.41861
 11
-250.1366
 21
-423.98224
  0
LINE
  8
0
  6
CONTINUOUS
 62
     7
 10
-225.84488
 20
-435.58682
 11
-225.84488
 21
-394.58685
  0
LINE
  8
0
  6
CONTINUOUS
 62
     7
 10
-225.84489
 20
-424.74136
 11
-250.1366
 21
-423.98224
  0
LINE
  8
0
  6
CONTINUOUS
 62
     7
 10
-250.13658
 20
-423.98224
 11
-250.13658
 21
-394.58685
  0
LINE
  8
0
  6
CENTER
 62
     7
 10
-258.65762
 20
-394.58685
 11
-169.59491
 21
-394.58685
  0
LINE
  8
0
  6
CONTINUOUS
 62
     7
 10
-218.84486
 20
-437.58685
 11
-212.99957
 21
-437.58685
  0
LINE
  8
0
  6
CONTINUOUS
 62
     7
 10
-218.84486
 20
-427.50577
 11
-212.99957
 21
-427.50577
  0
LINE
  8
0
  6
CONTINUOUS
 62
     7
 10
-218.84486
 20
-422.25171
 11
-212.99957
 21
-422.25171
  0
LINE
  8
0
  6
CONTINUOUS
 62
     7
 10
-218.84486
 20
-398.30203
 11
-212.99957
 21
-398.30203
  0
LINE
  8
0
  6
CONTINUOUS
 62
     7
 10
-218.84486
 20
-427.50577
 11
-224.69016
 21
-427.50577
  0
LINE
  8
0
  6
CONTINUOUS
 62
     7
 10
-212.99957
 20
-394.58685
 11
-212.99957
 21
-398.30203
  0
LINE
  8
0
  6
CONTINUOUS
 62
     7
 10
-218.84486
 20
-437.58685
 11
-224.69016
 21
-437.58685
  0
LINE
  8
0
  6
CONTINUOUS
 62
     7
 10
-212.99957
 20
-422.25171
 11
-212.99957
 21
-427.50577
  0
LINE
  8
0
  6
CONTINUOUS
 62
     7
 10
-224.69017
 20
-437.58685
 11
-225.84488
 21
-435.58685
  0
LINE
  8
0
  6
CONTINUOUS
 62
     7
 10
-218.84486
 20
-422.25171
 11
-224.69016
 21
-422.25171
  0
LINE
  8
0
  6
CONTINUOUS
 62
     7
 10
-218.84486
 20
-398.30203
 11
-224.69016
 21
-398.30203
  0
LINE
  8
0
  6
CONTINUOUS
 62
     7
 10
-224.69016
 20
-394.58685
 11
-224.69016
 21
-398.30203
  0
LINE
  8
0
  6
CONTINUOUS
 62
     7
 10
-224.69016
 20
-422.25171
 11
-224.69016
 21
-427.50577
  0
LINE
  8
0
  6
CONTINUOUS
 62
     7
 10
-229.34486
 20
-394.58685
 11
-229.34486
 21
-424.63196
  0
LINE
  8
0
  6
CONTINUOUS
 62
     7
 10
-229.34486
 20
-423.15295
 11
-227.84488
 21
-424.67883
  0
LINE
  8
0
  6
CONTINUOUS
 62
     7
 10
-95.106819
 20
-434.44254
 11
-95.106819
 21
-393.44254
  0
LINE
  8
0
  6
CONTINUOUS
 62
     7
 10
-80.26152
 20
-393.44254
 11
-80.26152
 21
-397.15771
  0
LINE
  8
0
  6
CONTINUOUS
 62
     7
 10
-87.106819
 20
-421.10742
 11
-93.952118
 21
-421.10742
  0
LINE
  8
0
  6
CONTINUOUS
 62
     7
 10
-87.106819
 20
-426.36148
 11
-93.952118
 21
-426.36148
  0
LINE
  8
0
  6
CONTINUOUS
 62
     7
 10
-87.106819
 20
-436.44254
 11
-93.952118
 21
-436.44254
  0
LINE
  8
0
  6
CONTINUOUS
 62
     7
 10
-93.952118
 20
-393.44254
 11
-93.952118
 21
-397.15771
  0
LINE
  8
0
  6
CENTER
 62
     7
 10
-128.5396
 20
-393.44254
 11
-41.453041
 21
-393.44254
  0
LINE
  8
0
  6
CONTINUOUS
 62
     7
 10
-79.106819
 20
-434.44254
 11
-79.106819
 21
-393.44254
  0
LINE
  8
0
  6
CONTINUOUS
 62
     7
 10
-126.10682
 20
-393.44254
 11
-126.10682
 21
-429.00992
  0
LINE
  8
0
  6
CONTINUOUS
 62
     7
 10
-87.106819
 20
-397.15771
 11
-93.952118
 21
-397.15771
  0
LINE
  8
0
  6
CONTINUOUS
 62
     7
 10
-87.106819
 20
-426.36148
 11
-80.26152
 21
-426.36148
  0
LINE
  8
0
  6
CONTINUOUS
 62
     7
 10
-87.106819
 20
-436.44254
 11
-80.26152
 21
-436.44254
  0
LINE
  8
0
  6
CONTINUOUS
 62
     7
 10
-87.106819
 20
-421.10742
 11
-80.26152
 21
-421.10742
  0
LINE
  8
0
  6
CONTINUOUS
 62
     7
 10
-97.61985
 20
-429.90015
 11
-126.10683
 21
-429.00995
  0
LINE
  8
0
  6
CONTINUOUS
 62
     7
 10
-126.10683
 20
-429.00995
 11
-123.39854
 21
-430.57358
  0
LINE
  8
0
  6
CONTINUOUS
 62
     7
 10
-95.106819
 20
-431.45767
 11
-123.39852
 21
-430.57358
  0
LINE
  8
0
  6
CONTINUOUS
 62
     7
 10
-95.106819
 20
-431.45767
 11
-97.61985
 21
-429.90012
  0
LINE
  8
0
  6
CONTINUOUS
 62
     7
 10
-97.61985
 20
-393.44254
 11
-97.61985
 21
-431.37915
  0
LINE
  8
0
  6
CONTINUOUS
 62
     7
 10
-123.39854
 20
-430.57355
 11
-123.39854
 21
-393.44254
  0
LINE
  8
0
  6
CONTINUOUS
 62
     7
 10
-87.106819
 20
-397.15771
 11
-80.26152
 21
-397.15771
  0
LINE
  8
0
  6
CONTINUOUS
 62
     7
 10
-80.26152
 20
-421.10742
 11
-80.26152
 21
-426.36148
  0
LINE
  8
0
  6
CONTINUOUS
 62
     7
 10
-80.26152
 20
-436.44257
 11
-79.106812
 21
-434.44254
  0
LINE
  8
0
  6
CONTINUOUS
 62
     7
 10
-93.952118
 20
-421.10742
 11
-93.952118
 21
-426.36148
  0
LINE
  8
0
  6
CONTINUOUS
 62
     7
 10
-93.952133
 20
-436.44254
 11
-95.106827
 21
-434.44257
  0
LINE
  8
0
  6
CONTINUOUS
 62
     7
 10
-207.84486
 20
-435.58685
 11
-192.84486
 21
-435.58685
  0
LINE
  8
0
  6
CONTINUOUS
 62
     7
 10
-207.84486
 20
-435.58685
 11
-208.34486
 21
-435.08685
  0
LINE
  8
0
  6
CONTINUOUS
 62
     7
 10
-207.84486
 20
-432.74338
 11
-207.84486
 21
-435.58685
  0
LINE
  8
0
  6
CONTINUOUS
 62
     7
 10
-184.84486
 20
-394.58685
 11
-184.84486
 21
-427.58685
  0
LINE
  8
0
  6
CONTINUOUS
 62
     7
 10
-207.84486
 20
-432.74338
 11
-192.84486
 21
-432.74338
  0
LINE
  8
0
  6
CONTINUOUS
 62
     7
 10
-207.84486
 20
-407.54834
 11
-192.84486
 21
-407.54834
  0
LINE
  8
0
  6
CONTINUOUS
 62
     7
 10
-192.84486
 20
-394.58685
 11
-192.84486
 21
-435.58685
  0
LINE
  8
0
  6
CONTINUOUS
 62
     7
 10
-207.84486
 20
-414.41306
 11
-192.84486
 21
-414.41306
  0
LINE
  8
0
  6
CONTINUOUS
 62
     7
 10
-207.84486
 20
-407.54834
 11
-207.84486
 21
-414.41306
  0
LINE
  8
0
  6
CONTINUOUS
 62
     7
 10
-75.106819
 20
-434.44254
 11
-60.106823
 21
-434.44254
  0
LINE
  8
0
  6
CONTINUOUS
 62
     7
 10
-75.106827
 20
-434.44257
 11
-75.606827
 21
-433.94257
  0
LINE
  8
0
  6
CONTINUOUS
 62
     7
 10
-75.106819
 20
-431.59909
 11
-75.106819
 21
-434.44254
  0
LINE
  8
0
  6
CONTINUOUS
 62
     7
 10
-52.106823
 20
-393.44254
 11
-52.106823
 21
-426.44254
  0
LINE
  8
0
  6
CONTINUOUS
 62
     7
 10
-75.106819
 20
-431.59909
 11
-60.106823
 21
-431.59909
  0
LINE
  8
0
  6
CONTINUOUS
 62
     7
 10
-75.106819
 20
-406.40402
 11
-60.106823
 21
-406.40402
  0
LINE
  8
0
  6
CONTINUOUS
 62
     7
 10
-60.106823
 20
-393.44254
 11
-60.106823
 21
-434.44254
  0
LINE
  8
0
  6
CONTINUOUS
 62
     7
 10
-75.106819
 20
-413.26877
 11
-60.106823
 21
-413.26877
  0
LINE
  8
0
  6
CONTINUOUS
 62
     7
 10
-75.106819
 20
-406.40402
 11
-75.106819
 21
-413.26877
  0
LINE
  8
0
  6
CONTINUOUS
 62
     7
 10
-208.34486
 20
-394.58685
 11
-208.34486
 21
-435.08685
  0
LINE
  8
0
  6
CONTINUOUS
 62
     7
 10
-75.606819
 20
-393.04068
 11
-75.606819
 21
-433.94254
  0
LINE
  8
0
  6
CONTINUOUS
 62
     7
 10
-248.36729
 20
42.377708
 11
-244.96729
 21
42.377708
  0
LINE
  8
0
  6
CONTINUOUS
 62
     7
 10
-256.38995
 20
67.992302
 11
-248.94464
 21
67.992302
  0
LINE
  8
0
  6
CONTINUOUS
 62
     7
 10
-256.38995
 20
72.264801
 11
-248.94464
 21
72.264801
  0
LINE
  8
0
  6
CONTINUOUS
 62
     7
 10
-271.83844
 20
66.553825
 11
-256.96729
 21
67.018555
  0
LINE
  8
0
  6
CONTINUOUS
 62
     7
 10
-248.94464
 20
67.148994
 11
-248.94464
 21
67.992302
  0
LINE
  8
0
  6
CONTINUOUS
 62
     7
 10
-273.96729
 20
56.264801
 11
-273.96729
 21
65.32473
  0
LINE
  8
0
  6
CONTINUOUS
 62
     7
 10
-248.36729
 20
56.264801
 11
-248.36729
 21
71.264801
  0
LINE
  8
0
  6
CONTINUOUS
 62
     7
 10
-256.96729
 20
71.264809
 11
-256.38995
 21
72.264801
  0
LINE
  8
0
  6
CONTINUOUS
 62
     7
 10
-256.38995
 20
67.148994
 11
-256.38995
 21
67.992302
  0
LINE
  8
0
  6
CONTINUOUS
 62
     7
 10
-248.94464
 20
56.264801
 11
-248.94464
 21
56.861107
  0
LINE
  8
0
  6
CONTINUOUS
 62
     7
 10
-273.96729
 20
65.32473
 11
-260.46729
 21
65.746605
  0
LINE
  8
0
  6
CONTINUOUS
 62
     7
 10
-273.96732
 20
65.324722
 11
-271.83844
 21
66.553818
  0
LINE
  8
0
  6
CONTINUOUS
 62
     7
 10
-271.83844
 20
56.264801
 11
-271.83844
 21
66.553825
  0
LINE
  8
0
  6
CONTINUOUS
 62
     7
 10
-256.96729
 20
56.264801
 11
-256.96729
 21
71.264801
  0
LINE
  8
0
  6
CONTINUOUS
 62
     7
 10
-260.46729
 20
56.264801
 11
-260.46729
 21
66.909172
  0
LINE
  8
0
  6
CONTINUOUS
 62
     7
 10
-260.46732
 20
65.746605
 11
-257.46729
 21
67.002922
  0
LINE
  8
0
  6
CONTINUOUS
 62
     7
 10
-256.38995
 20
67.148994
 11
-248.94464
 21
67.148994
  0
LINE
  8
0
  6
CONTINUOUS
 62
     7
 10
-248.94464
 20
72.264786
 11
-248.36729
 21
71.264793
  0
LINE
  8
0
  6
CONTINUOUS
 62
     7
 10
-256.38995
 20
56.861107
 11
-248.94464
 21
56.861107
  0
LINE
  8
0
  6
CONTINUOUS
 62
     7
 10
-256.38995
 20
56.264801
 11
-256.38995
 21
56.861107
  0
LINE
  8
0
  6
CONTINUOUS
 62
     7
 10
-233.46729
 20
56.264801
 11
-233.46729
 21
66.764801
  0
LINE
  8
0
  6
CONTINUOUS
 62
     7
 10
-244.46729
 20
69.886124
 11
-244.46729
 21
70.764801
  0
LINE
  8
0
  6
CONTINUOUS
 62
     7
 10
-244.46729
 20
70.764801
 11
-237.46729
 21
70.764801
  0
LINE
  8
0
  6
CONTINUOUS
 62
     7
 10
-244.96729
 20
70.264801
 11
-244.4673
 21
70.764793
  0
LINE
  8
0
  6
CONTINUOUS
 62
     7
 10
-244.46729
 20
61.028259
 11
-244.46729
 21
63.150146
  0
LINE
  8
0
  6
CONTINUOUS
 62
     7
 10
-244.46729
 20
69.886124
 11
-237.46729
 21
69.886124
  0
LINE
  8
0
  6
CONTINUOUS
 62
     7
 10
-244.46729
 20
61.028259
 11
-237.46729
 21
61.028259
  0
LINE
  8
0
  6
CONTINUOUS
 62
     7
 10
-244.46729
 20
63.150146
 11
-237.46729
 21
63.150146
  0
LINE
  8
0
  6
CONTINUOUS
 62
     7
 10
-237.46729
 20
56.264801
 11
-237.46729
 21
70.764801
  0
LINE
  8
0
  6
CONTINUOUS
 62
     7
 10
-244.96729
 20
56.264801
 11
-244.96729
 21
70.264801
  0
LINE
  8
0
  6
CONTINUOUS
 62
     7
 10
-248.36729
 20
70.151894
 11
-244.96729
 21
70.151894
  0
LINE
  8
0
  6
CONTINUOUS
 62
     7
 10
-164.68958
 20
41.08791
 11
-161.28957
 21
41.08791
  0
LINE
  8
0
  6
CONTINUOUS
 62
     7
 10
-164.68959
 20
74.909096
 11
-165.26694
 21
75.909088
  0
LINE
  8
0
  6
CONTINUOUS
 62
     7
 10
-152.78957
 20
71.309105
 11
-152.78957
 21
57.409096
  0
LINE
  8
0
  6
CONTINUOUS
 62
     7
 10
-190.28957
 20
57.409096
 11
-190.28957
 21
66.469025
  0
LINE
  8
0
  6
CONTINUOUS
 62
     7
 10
-190.28957
 20
66.469025
 11
-176.78957
 21
66.8909
  0
LINE
  8
0
  6
CONTINUOUS
 62
     7
 10
-165.26692
 20
69.64933
 11
-165.26692
 21
71.280884
  0
LINE
  8
0
  6
CONTINUOUS
 62
     7
 10
-188.16072
 20
67.698112
 11
-173.28958
 21
68.162834
  0
LINE
  8
0
  6
CONTINUOUS
 62
     7
 10
-164.68958
 20
57.409096
 11
-164.68958
 21
74.909096
  0
LINE
  8
0
  6
CONTINUOUS
 62
     7
 10
-173.28958
 20
74.909096
 11
-172.71223
 21
75.909096
  0
LINE
  8
0
  6
CONTINUOUS
 62
     7
 10
-173.28957
 20
74.909096
 11
-173.28957
 21
57.409096
  0
LINE
  8
0
  6
CONTINUOUS
 62
     7
 10
-188.16072
 20
57.409096
 11
-188.16072
 21
67.69812
  0
LINE
  8
0
  6
CONTINUOUS
 62
     7
 10
-188.16072
 20
67.698112
 11
-190.28957
 21
66.469025
  0
LINE
  8
0
  6
CONTINUOUS
 62
     7
 10
-172.71222
 20
57.409096
 11
-172.71222
 21
58.562775
  0
LINE
  8
0
  6
CONTINUOUS
 62
     7
 10
-165.26692
 20
57.409096
 11
-165.26692
 21
58.562775
  0
LINE
  8
0
  6
CONTINUOUS
 62
     7
 10
-172.71222
 20
75.909096
 11
-165.26692
 21
75.909096
  0
LINE
  8
0
  6
CONTINUOUS
 62
     7
 10
-176.78957
 20
57.409096
 11
-176.78957
 21
68.053467
  0
LINE
  8
0
  6
CONTINUOUS
 62
     7
 10
-176.78957
 20
66.890907
 11
-173.78957
 21
68.147224
  0
LINE
  8
0
  6
CONTINUOUS
 62
     7
 10
-172.71222
 20
71.280884
 11
-165.26692
 21
71.280884
  0
LINE
  8
0
  6
CONTINUOUS
 62
     7
 10
-172.71222
 20
69.64933
 11
-165.26692
 21
69.64933
  0
LINE
  8
0
  6
CONTINUOUS
 62
     7
 10
-172.71222
 20
58.562775
 11
-165.26692
 21
58.562775
  0
LINE
  8
0
  6
CONTINUOUS
 62
     7
 10
-172.71222
 20
69.64933
 11
-172.71222
 21
71.280884
  0
LINE
  8
0
  6
CONTINUOUS
 62
     7
 10
-147.78958
 20
57.409096
 11
-147.78958
 21
69.409096
  0
LINE
  8
0
  6
CONTINUOUS
 62
     7
 10
-160.78958
 20
65.329407
 11
-152.78957
 21
65.329407
  0
LINE
  8
0
  6
CONTINUOUS
 62
     7
 10
-160.78958
 20
73.530418
 11
-160.78958
 21
74.409096
  0
LINE
  8
0
  6
CONTINUOUS
 62
     7
 10
-160.78958
 20
74.409088
 11
-161.28958
 21
73.909088
  0
LINE
  8
0
  6
CONTINUOUS
 62
     7
 10
-160.78957
 20
74.409096
 11
-152.78957
 21
74.409096
  0
LINE
  8
0
  6
CONTINUOUS
 62
     7
 10
-160.78958
 20
73.530418
 11
-152.78957
 21
73.530418
  0
LINE
  8
0
  6
CONTINUOUS
 62
     7
 10
-160.78958
 20
63.208084
 11
-152.78957
 21
63.208084
  0
LINE
  8
0
  6
CONTINUOUS
 62
     7
 10
-152.78957
 20
57.409096
 11
-152.78957
 21
74.409096
  0
LINE
  8
0
  6
CONTINUOUS
 62
     7
 10
-160.78958
 20
63.208084
 11
-160.78958
 21
65.329407
  0
LINE
  8
0
  6
CONTINUOUS
 62
     7
 10
-161.28957
 20
57.409096
 11
-161.28957
 21
73.909096
  0
LINE
  8
0
  6
CONTINUOUS
 62
     7
 10
-164.68958
 20
73.730278
 11
-161.28957
 21
73.730278
  0
LINE
  8
0
  6
CONTINUOUS
 62
     7
 10
-76.578972
 20
40.078846
 11
-73.17897
 21
40.078846
  0
LINE
  8
0
  6
CONTINUOUS
 62
     7
 10
-59.67897
 20
56.264801
 11
-59.67897
 21
68.264801
  0
LINE
  8
0
  6
CONTINUOUS
 62
     7
 10
-72.678978
 20
64.185112
 11
-64.67897
 21
64.185112
  0
LINE
  8
0
  6
CONTINUOUS
 62
     7
 10
-72.678978
 20
72.386124
 11
-72.678978
 21
73.264801
  0
LINE
  8
0
  6
CONTINUOUS
 62
     7
 10
-72.67897
 20
73.264801
 11
-73.17897
 21
72.764801
  0
LINE
  8
0
  6
CONTINUOUS
 62
     7
 10
-72.67897
 20
73.264801
 11
-64.67897
 21
73.264801
  0
LINE
  8
0
  6
CONTINUOUS
 62
     7
 10
-72.678978
 20
72.386124
 11
-64.67897
 21
72.386124
  0
LINE
  8
0
  6
CONTINUOUS
 62
     7
 10
-72.678978
 20
62.063789
 11
-64.67897
 21
62.063789
  0
LINE
  8
0
  6
CONTINUOUS
 62
     7
 10
-64.67897
 20
56.264801
 11
-64.67897
 21
73.264801
  0
LINE
  8
0
  6
CONTINUOUS
 62
     7
 10
-72.678978
 20
62.063789
 11
-72.678978
 21
64.185112
  0
LINE
  8
0
  6
CONTINUOUS
 62
     7
 10
-102.4847
 20
56.264801
 11
-102.4847
 21
69.517578
  0
LINE
  8
0
  6
CONTINUOUS
 62
     7
 10
-103.67896
 20
68.323303
 11
-88.678963
 21
68.728706
  0
LINE
  8
0
  6
CONTINUOUS
 62
     7
 10
-76.578972
 20
56.264801
 11
-76.578972
 21
73.764801
  0
LINE
  8
0
  6
CONTINUOUS
 62
     7
 10
-102.48469
 20
69.517578
 11
-85.17897
 21
69.985298
  0
LINE
  8
0
  6
CONTINUOUS
 62
     7
 10
-103.67897
 20
68.323296
 11
-102.4847
 21
69.517578
  0
LINE
  8
0
  6
CONTINUOUS
 62
     7
 10
-85.17897
 20
73.764801
 11
-85.17897
 21
56.264801
  0
LINE
  8
0
  6
CONTINUOUS
 62
     7
 10
-76.578964
 20
73.764801
 11
-77.156319
 21
74.764801
  0
LINE
  8
0
  6
CONTINUOUS
 62
     7
 10
-84.601624
 20
68.505035
 11
-84.601624
 21
70.136589
  0
LINE
  8
0
  6
CONTINUOUS
 62
     7
 10
-84.601624
 20
74.764801
 11
-77.156319
 21
74.764801
  0
LINE
  8
0
  6
CONTINUOUS
 62
     7
 10
-84.601624
 20
70.136589
 11
-77.156319
 21
70.136589
  0
LINE
  8
0
  6
CONTINUOUS
 62
     7
 10
-84.601624
 20
68.505035
 11
-77.156319
 21
68.505035
  0
LINE
  8
0
  6
CONTINUOUS
 62
     7
 10
-85.17897
 20
73.764801
 11
-84.601616
 21
74.764801
  0
LINE
  8
0
  6
CONTINUOUS
 62
     7
 10
-103.67898
 20
68.323296
 11
-103.67898
 21
56.264801
  0
LINE
  8
0
  6
CONTINUOUS
 62
     7
 10
-77.156319
 20
68.505035
 11
-77.156319
 21
70.136589
  0
LINE
  8
0
  6
CONTINUOUS
 62
     7
 10
-88.678978
 20
69.890709
 11
-88.678978
 21
56.264801
  0
LINE
  8
0
  6
CONTINUOUS
 62
     7
 10
-88.67897
 20
68.728706
 11
-85.17897
 21
69.985306
  0
LINE
  8
0
  6
CONTINUOUS
 62
     7
 10
-77.156319
 20
56.264801
 11
-77.156319
 21
57.41848
  0
LINE
  8
0
  6
CONTINUOUS
 62
     7
 10
-84.601624
 20
57.41848
 11
-77.156319
 21
57.41848
  0
LINE
  8
0
  6
CONTINUOUS
 62
     7
 10
-84.601624
 20
56.264801
 11
-84.601624
 21
57.41848
  0
LINE
  8
0
  6
CONTINUOUS
 62
     7
 10
-73.17897
 20
56.264801
 11
-73.17897
 21
72.764801
  0
LINE
  8
0
  6
CONTINUOUS
 62
     7
 10
-76.578972
 20
72.45076
 11
-73.17897
 21
72.45076
  0
LINE
  8
0
  6
CONTINUOUS
 62
     7
 10
20.307447
 20
35.616344
 11
23.807447
 21
35.616344
  0
LINE
  8
0
  6
CONTINUOUS
 62
     7
 10
12.384787
 20
70.881409
 11
12.384787
 21
74.023033
  0
LINE
  8
0
  6
CONTINUOUS
 62
     7
 10
11.807446
 20
78.264801
 11
12.384793
 21
79.264793
  0
LINE
  8
0
  6
CONTINUOUS
 62
     7
 10
20.307447
 20
56.264801
 11
20.307447
 21
78.264793
  0
LINE
  8
0
  6
CONTINUOUS
 62
     7
 10
-8.6925507
 20
71.084892
 11
8.307436
 21
71.616142
  0
LINE
  8
0
  6
CONTINUOUS
 62
     7
 10
11.80744
 20
56.264801
 11
11.80744
 21
78.264801
  0
LINE
  8
0
  6
CONTINUOUS
 62
     7
 10
-8.6925535
 20
71.084885
 11
-5.9829335
 21
72.649284
  0
LINE
  8
0
  6
CONTINUOUS
 62
     7
 10
19.730101
 20
70.881409
 11
19.730101
 21
74.023033
  0
LINE
  8
0
  6
CONTINUOUS
 62
     7
 10
-5.9829354
 20
72.649284
 11
11.807451
 21
73.205231
  0
LINE
  8
0
  6
CONTINUOUS
 62
     7
 10
-8.6925602
 20
56.264801
 11
-8.6925602
 21
71.084892
  0
LINE
  8
0
  6
CONTINUOUS
 62
     7
 10
19.730101
 20
56.264801
 11
19.730101
 21
58.486267
  0
LINE
  8
0
  6
CONTINUOUS
 62
     7
 10
19.730095
 20
79.264801
 11
20.307446
 21
78.264801
  0
LINE
  8
0
  6
CONTINUOUS
 62
     7
 10
-5.9829354
 20
56.264801
 11
-5.9829354
 21
72.649292
  0
LINE
  8
0
  6
CONTINUOUS
 62
     7
 10
12.384787
 20
56.264801
 11
12.384787
 21
58.486267
  0
LINE
  8
0
  6
CONTINUOUS
 62
     7
 10
8.3074398
 20
56.264801
 11
8.3074398
 21
73.095863
  0
LINE
  8
0
  6
CONTINUOUS
 62
     7
 10
8.3074408
 20
71.616135
 11
11.807445
 21
73.205238
  0
LINE
  8
0
  6
CONTINUOUS
 62
     7
 10
12.384787
 20
58.486267
 11
19.730101
 21
58.486267
  0
LINE
  8
0
  6
CONTINUOUS
 62
     7
 10
12.384787
 20
70.881409
 11
19.730101
 21
70.881409
  0
LINE
  8
0
  6
CONTINUOUS
 62
     7
 10
12.384787
 20
79.264793
 11
19.730101
 21
79.264793
  0
LINE
  8
0
  6
CONTINUOUS
 62
     7
 10
12.384787
 20
74.023033
 11
19.730101
 21
74.023033
  0
LINE
  8
0
  6
CONTINUOUS
 62
     7
 10
24.307447
 20
62.898048
 11
24.307447
 21
66.777184
  0
LINE
  8
0
  6
CONTINUOUS
 62
     7
 10
23.807449
 20
77.264801
 11
24.307444
 21
77.764793
  0
LINE
  8
0
  6
CONTINUOUS
 62
     7
 10
24.307447
 20
76.158012
 11
24.307447
 21
77.764801
  0
LINE
  8
0
  6
CONTINUOUS
 62
     7
 10
24.307447
 20
77.764801
 11
33.307446
 21
77.764801
  0
LINE
  8
0
  6
CONTINUOUS
 62
     7
 10
38.307446
 20
56.264801
 11
38.307446
 21
72.764801
  0
LINE
  8
0
  6
CONTINUOUS
 62
     7
 10
33.307446
 20
56.264801
 11
33.307446
 21
77.764801
  0
LINE
  8
0
  6
CONTINUOUS
 62
     7
 10
24.307447
 20
62.898048
 11
33.307446
 21
62.898048
  0
LINE
  8
0
  6
CONTINUOUS
 62
     7
 10
24.307447
 20
66.777184
 11
33.307446
 21
66.777184
  0
LINE
  8
0
  6
CONTINUOUS
 62
     7
 10
24.307447
 20
76.158012
 11
33.307446
 21
76.158012
  0
LINE
  8
0
  6
CONTINUOUS
 62
     7
 10
23.807447
 20
56.264801
 11
23.807447
 21
77.264801
  0
LINE
  8
0
  6
CONTINUOUS
 62
     7
 10
20.307447
 20
76.913254
 11
23.807447
 21
76.913254
  0
LINE
  8
0
  6
CONTINUOUS
 62
     7
 10
-251.11159
 20
-81.664322
 11
-247.5116
 21
-81.664322
  0
LINE
  8
0
  6
CONTINUOUS
 62
     7
 10
-282.6116
 20
-58.164551
 11
-282.6116
 21
-43.343739
  0
LINE
  8
0
  6
CONTINUOUS
 62
     7
 10
-264.81989
 20
-42.787746
 11
-282.61157
 21
-43.343735
  0
LINE
  8
0
  6
CONTINUOUS
 62
     7
 10
-282.61157
 20
-43.343742
 11
-279.90329
 21
-41.780113
  0
LINE
  8
0
  6
CONTINUOUS
 62
     7
 10
-262.11157
 20
-41.22411
 11
-279.90326
 21
-41.780102
  0
LINE
  8
0
  6
CONTINUOUS
 62
     7
 10
-264.81989
 20
-42.787746
 11
-264.81989
 21
-41.308746
  0
LINE
  8
0
  6
CONTINUOUS
 62
     7
 10
-262.1116
 20
-41.224125
 11
-264.81989
 21
-42.787754
  0
LINE
  8
0
  6
CONTINUOUS
 62
     7
 10
-279.90329
 20
-41.780106
 11
-279.90329
 21
-58.164551
  0
LINE
  8
0
  6
CONTINUOUS
 62
     7
 10
-264.81989
 20
-42.787746
 11
-264.81989
 21
-58.164551
  0
LINE
  8
0
  6
CONTINUOUS
 62
     7
 10
-251.68893
 20
-41.743935
 11
-256.61157
 21
-41.743935
  0
LINE
  8
0
  6
CONTINUOUS
 62
     7
 10
-262.11157
 20
-32.664547
 11
-261.53424
 21
-31.664551
  0
LINE
  8
0
  6
CONTINUOUS
 62
     7
 10
-261.53424
 20
-31.664551
 11
-256.61157
 21
-31.664551
  0
LINE
  8
0
  6
CONTINUOUS
 62
     7
 10
-261.53424
 20
-37.365192
 11
-256.61157
 21
-37.365192
  0
LINE
  8
0
  6
CONTINUOUS
 62
     7
 10
-261.53424
 20
-41.743935
 11
-256.61157
 21
-41.743935
  0
LINE
  8
0
  6
CONTINUOUS
 62
     7
 10
-261.53424
 20
-55.068314
 11
-256.61157
 21
-55.068314
  0
LINE
  8
0
  6
CONTINUOUS
 62
     7
 10
-261.53424
 20
-58.164551
 11
-261.53424
 21
-55.068314
  0
LINE
  8
0
  6
CONTINUOUS
 62
     7
 10
-261.53424
 20
-41.743935
 11
-261.53424
 21
-37.365192
  0
LINE
  8
0
  6
CONTINUOUS
 62
     7
 10
-262.11157
 20
-58.164551
 11
-262.11157
 21
-32.664551
  0
LINE
  8
0
  6
CONTINUOUS
 62
     7
 10
-251.68893
 20
-37.365192
 11
-256.61157
 21
-37.365192
  0
LINE
  8
0
  6
CONTINUOUS
 62
     7
 10
-251.68893
 20
-31.664551
 11
-256.61157
 21
-31.664551
  0
LINE
  8
0
  6
CONTINUOUS
 62
     7
 10
-251.11157
 20
-32.664555
 11
-251.68893
 21
-31.664549
  0
LINE
  8
0
  6
CONTINUOUS
 62
     7
 10
-251.68893
 20
-55.068314
 11
-256.61157
 21
-55.068314
  0
LINE
  8
0
  6
CONTINUOUS
 62
     7
 10
-251.68893
 20
-58.164551
 11
-251.68893
 21
-55.068314
  0
LINE
  8
0
  6
CONTINUOUS
 62
     7
 10
-251.68893
 20
-41.743935
 11
-251.68893
 21
-37.365192
  0
LINE
  8
0
  6
CONTINUOUS
 62
     7
 10
-251.11159
 20
-58.164551
 11
-251.11159
 21
-32.664551
  0
LINE
  8
0
  6
CONTINUOUS
 62
     7
 10
-247.0116
 20
-34.686169
 11
-236.61159
 21
-34.686169
  0
LINE
  8
0
  6
CONTINUOUS
 62
     7
 10
-247.0116
 20
-33.664551
 11
-236.61159
 21
-33.664551
  0
LINE
  8
0
  6
CONTINUOUS
 62
     7
 10
-247.0116
 20
-49.461102
 11
-236.61159
 21
-49.461102
  0
LINE
  8
0
  6
CONTINUOUS
 62
     7
 10
-247.51158
 20
-34.164558
 11
-247.01158
 21
-33.664555
  0
LINE
  8
0
  6
CONTINUOUS
 62
     7
 10
-231.61159
 20
-58.164551
 11
-231.61159
 21
-38.664551
  0
LINE
  8
0
  6
CONTINUOUS
 62
     7
 10
-247.0116
 20
-49.461102
 11
-247.0116
 21
-46.994701
  0
LINE
  8
0
  6
CONTINUOUS
 62
     7
 10
-247.0116
 20
-34.686169
 11
-247.0116
 21
-33.664551
  0
LINE
  8
0
  6
CONTINUOUS
 62
     7
 10
-247.0116
 20
-46.994701
 11
-236.61159
 21
-46.994701
  0
LINE
  8
0
  6
CONTINUOUS
 62
     7
 10
-236.61159
 20
-58.164551
 11
-236.61159
 21
-33.664551
  0
LINE
  8
0
  6
CONTINUOUS
 62
     7
 10
-247.5116
 20
-58.164551
 11
-247.5116
 21
-34.164551
  0
LINE
  8
0
  6
CONTINUOUS
 62
     7
 10
-251.11159
 20
-34.664776
 11
-247.5116
 21
-34.664776
  0
LINE
  8
0
  6
CONTINUOUS
 62
     7
 10
-144.72243
 20
-81.664322
 11
-141.12245
 21
-81.664322
  0
LINE
  8
0
  6
CONTINUOUS
 62
     7
 10
-179.22244
 20
-58.164551
 11
-179.22244
 21
-39.085426
  0
LINE
  8
0
  6
CONTINUOUS
 62
     7
 10
-156.22244
 20
-36.887676
 11
-176.51414
 21
-37.52179
  0
LINE
  8
0
  6
CONTINUOUS
 62
     7
 10
-157.22246
 20
-36.918926
 11
-159.93074
 21
-38.482555
  0
LINE
  8
0
  6
CONTINUOUS
 62
     7
 10
-179.22244
 20
-39.08543
 11
-176.51416
 21
-37.521801
  0
LINE
  8
0
  6
CONTINUOUS
 62
     7
 10
-159.93074
 20
-38.482563
 11
-179.22244
 21
-39.085426
  0
LINE
  8
0
  6
CONTINUOUS
 62
     7
 10
-159.93074
 20
-38.482559
 11
-159.93074
 21
-58.164551
  0
LINE
  8
0
  6
CONTINUOUS
 62
     7
 10
-176.51414
 20
-37.521793
 11
-176.51414
 21
-58.164551
  0
LINE
  8
0
  6
CONTINUOUS
 62
     7
 10
-159.93074
 20
-38.482559
 11
-159.93074
 21
-37.003559
  0
LINE
  8
0
  6
CONTINUOUS
 62
     7
 10
-156.22246
 20
-32.664551
 11
-155.6451
 21
-31.664553
  0
LINE
  8
0
  6
CONTINUOUS
 62
     7
 10
-145.29979
 20
-31.664551
 11
-150.47244
 21
-31.664551
  0
LINE
  8
0
  6
CONTINUOUS
 62
     7
 10
-155.6451
 20
-31.664551
 11
-150.47244
 21
-31.664551
  0
LINE
  8
0
  6
CONTINUOUS
 62
     7
 10
-155.6451
 20
-37.365192
 11
-150.47244
 21
-37.365192
  0
LINE
  8
0
  6
CONTINUOUS
 62
     7
 10
-155.6451
 20
-41.743935
 11
-150.47244
 21
-41.743935
  0
LINE
  8
0
  6
CONTINUOUS
 62
     7
 10
-155.6451
 20
-55.068314
 11
-150.47244
 21
-55.068314
  0
LINE
  8
0
  6
CONTINUOUS
 62
     7
 10
-155.6451
 20
-58.164551
 11
-155.6451
 21
-55.068314
  0
LINE
  8
0
  6
CONTINUOUS
 62
     7
 10
-155.6451
 20
-41.743935
 11
-155.6451
 21
-37.365192
  0
LINE
  8
0
  6
CONTINUOUS
 62
     7
 10
-156.22244
 20
-58.164551
 11
-156.22244
 21
-32.664551
  0
LINE
  8
0
  6
CONTINUOUS
 62
     7
 10
-144.72244
 20
-32.664555
 11
-145.29979
 21
-31.664555
  0
LINE
  8
0
  6
CONTINUOUS
 62
     7
 10
-145.29979
 20
-37.365192
 11
-150.47244
 21
-37.365192
  0
LINE
  8
0
  6
CONTINUOUS
 62
     7
 10
-145.29979
 20
-41.743935
 11
-150.47244
 21
-41.743935
  0
LINE
  8
0
  6
CONTINUOUS
 62
     7
 10
-145.29979
 20
-55.068314
 11
-150.47244
 21
-55.068314
  0
LINE
  8
0
  6
CONTINUOUS
 62
     7
 10
-145.29979
 20
-58.164551
 11
-145.29979
 21
-55.068314
  0
LINE
  8
0
  6
CONTINUOUS
 62
     7
 10
-145.29979
 20
-41.743935
 11
-145.29979
 21
-37.365192
  0
LINE
  8
0
  6
CONTINUOUS
 62
     7
 10
-144.72243
 20
-58.164551
 11
-144.72243
 21
-32.664551
  0
LINE
  8
0
  6
CONTINUOUS
 62
     7
 10
-140.62245
 20
-34.686169
 11
-130.22244
 21
-34.686169
  0
LINE
  8
0
  6
CONTINUOUS
 62
     7
 10
-140.62245
 20
-33.664551
 11
-130.22244
 21
-33.664551
  0
LINE
  8
0
  6
CONTINUOUS
 62
     7
 10
-140.62245
 20
-49.461102
 11
-130.22244
 21
-49.461102
  0
LINE
  8
0
  6
CONTINUOUS
 62
     7
 10
-141.12245
 20
-34.164551
 11
-140.62245
 21
-33.664551
  0
LINE
  8
0
  6
CONTINUOUS
 62
     7
 10
-125.22246
 20
-58.164551
 11
-125.22246
 21
-38.664551
  0
LINE
  8
0
  6
CONTINUOUS
 62
     7
 10
-140.62245
 20
-49.461102
 11
-140.62245
 21
-46.994701
  0
LINE
  8
0
  6
CONTINUOUS
 62
     7
 10
-140.62245
 20
-34.686169
 11
-140.62245
 21
-33.664551
  0
LINE
  8
0
  6
CONTINUOUS
 62
     7
 10
-140.62245
 20
-46.994701
 11
-130.22244
 21
-46.994701
  0
LINE
  8
0
  6
CONTINUOUS
 62
     7
 10
-130.22244
 20
-58.164551
 11
-130.22244
 21
-33.664551
  0
LINE
  8
0
  6
CONTINUOUS
 62
     7
 10
-141.12245
 20
-58.164551
 11
-141.12245
 21
-34.164551
  0
LINE
  8
0
  6
CONTINUOUS
 62
     7
 10
-144.72243
 20
-34.664776
 11
-141.12245
 21
-34.664776
  0
LINE
  8
0
  6
CONTINUOUS
 62
     7
 10
-37.1287
 20
-88.111832
 11
-33.528698
 21
-88.111832
  0
LINE
  8
0
  6
CONTINUOUS
 62
     7
 10
-47.473988
 20
-38.691574
 11
-42.878696
 21
-38.691574
  0
LINE
  8
0
  6
CONTINUOUS
 62
     7
 10
-47.473988
 20
-56.582424
 11
-42.878696
 21
-56.582424
  0
LINE
  8
0
  6
CONTINUOUS
 62
     7
 10
-47.473988
 20
-59.308842
 11
-47.473988
 21
-56.582424
  0
LINE
  8
0
  6
CONTINUOUS
 62
     7
 10
-47.473988
 20
-27.308844
 11
-42.878696
 21
-27.308844
  0
LINE
  8
0
  6
CONTINUOUS
 62
     7
 10
-38.283401
 20
-38.691574
 11
-42.878696
 21
-38.691574
  0
LINE
  8
0
  6
CONTINUOUS
 62
     7
 10
-48.628689
 20
-29.308844
 11
-47.473988
 21
-27.308842
  0
LINE
  8
0
  6
CONTINUOUS
 62
     7
 10
-47.473988
 20
-34.835835
 11
-42.878696
 21
-34.835835
  0
LINE
  8
0
  6
CONTINUOUS
 62
     7
 10
-37.1287
 20
-59.308842
 11
-37.1287
 21
-29.308844
  0
LINE
  8
0
  6
CONTINUOUS
 62
     7
 10
-48.628689
 20
-59.308842
 11
-48.628689
 21
-29.308844
  0
LINE
  8
0
  6
CONTINUOUS
 62
     7
 10
-38.283401
 20
-38.691574
 11
-38.283401
 21
-34.835835
  0
LINE
  8
0
  6
CONTINUOUS
 62
     7
 10
-52.336998
 20
-39.626854
 11
-71.6287
 21
-40.229721
  0
LINE
  8
0
  6
CONTINUOUS
 62
     7
 10
-38.283401
 20
-34.835835
 11
-42.878696
 21
-34.835835
  0
LINE
  8
0
  6
CONTINUOUS
 62
     7
 10
-37.128704
 20
-29.308846
 11
-38.283405
 21
-27.308846
  0
LINE
  8
0
  6
CONTINUOUS
 62
     7
 10
-38.283401
 20
-27.308844
 11
-42.878696
 21
-27.308844
  0
LINE
  8
0
  6
CONTINUOUS
 62
     7
 10
-38.283401
 20
-56.582424
 11
-42.878696
 21
-56.582424
  0
LINE
  8
0
  6
CONTINUOUS
 62
     7
 10
-38.283401
 20
-59.308842
 11
-38.283401
 21
-56.582424
  0
LINE
  8
0
  6
CONTINUOUS
 62
     7
 10
-47.473988
 20
-38.691574
 11
-47.473988
 21
-34.835835
  0
LINE
  8
0
  6
CONTINUOUS
 62
     7
 10
-71.628685
 20
-40.229729
 11
-68.920403
 21
-38.6661
  0
LINE
  8
0
  6
CONTINUOUS
 62
     7
 10
-71.628693
 20
-59.308842
 11
-71.628693
 21
-40.229717
  0
LINE
  8
0
  6
CONTINUOUS
 62
     7
 10
-48.628689
 20
-38.031967
 11
-68.92041
 21
-38.666084
  0
LINE
  8
0
  6
CONTINUOUS
 62
     7
 10
-68.920395
 20
-38.666084
 11
-68.920395
 21
-59.308842
  0
LINE
  8
0
  6
CONTINUOUS
 62
     7
 10
-49.628689
 20
-38.063225
 11
-52.336971
 21
-39.62685
  0
LINE
  8
0
  6
CONTINUOUS
 62
     7
 10
-52.336994
 20
-39.62685
 11
-52.336994
 21
-59.308842
  0
LINE
  8
0
  6
CONTINUOUS
 62
     7
 10
-52.336994
 20
-39.62685
 11
-52.336994
 21
-38.14785
  0
LINE
  8
0
  6
CONTINUOUS
 62
     7
 10
-21.628696
 20
-59.308842
 11
-21.628696
 21
-29.808846
  0
LINE
  8
0
  6
CONTINUOUS
 62
     7
 10
-15.628695
 20
-59.308842
 11
-15.628695
 21
-35.808846
  0
LINE
  8
0
  6
CONTINUOUS
 62
     7
 10
-33.528698
 20
-30.308842
 11
-33.028698
 21
-29.808842
  0
LINE
  8
0
  6
CONTINUOUS
 62
     7
 10
-33.028698
 20
-29.808846
 11
-21.628696
 21
-29.808846
  0
LINE
  8
0
  6
CONTINUOUS
 62
     7
 10
-33.028702
 20
-45.185291
 11
-21.628696
 21
-45.185291
  0
LINE
  8
0
  6
CONTINUOUS
 62
     7
 10
-33.028702
 20
-31.713099
 11
-21.628696
 21
-31.713099
  0
LINE
  8
0
  6
CONTINUOUS
 62
     7
 10
-33.028702
 20
-49.782562
 11
-21.628696
 21
-49.782562
  0
LINE
  8
0
  6
CONTINUOUS
 62
     7
 10
-33.028702
 20
-49.782562
 11
-33.028702
 21
-45.185291
  0
LINE
  8
0
  6
CONTINUOUS
 62
     7
 10
-33.028702
 20
-31.713099
 11
-33.028702
 21
-29.808846
  0
LINE
  8
0
  6
CONTINUOUS
 62
     7
 10
-33.528698
 20
-59.308842
 11
-33.528698
 21
-30.308844
  0
LINE
  8
0
  6
CONTINUOUS
 62
     7
 10
-37.1287
 20
-30.505854
 11
-33.528698
 21
-30.505854
  0
LINE
  8
0
  6
CONTINUOUS
 62
     7
 10
-241.78622
 20
-280.49493
 11
-238.18622
 21
-280.49493
  0
LINE
  8
0
  6
CONTINUOUS
 62
     7
 10
-252.13152
 20
-231.33154
 11
-247.53622
 21
-231.33154
  0
LINE
  8
0
  6
CONTINUOUS
 62
     7
 10
-252.13152
 20
-249.2224
 11
-247.53622
 21
-249.2224
  0
LINE
  8
0
  6
CONTINUOUS
 62
     7
 10
-252.13152
 20
-251.94881
 11
-252.13152
 21
-249.2224
  0
LINE
  8
0
  6
CONTINUOUS
 62
     7
 10
-252.13152
 20
-219.94881
 11
-247.53622
 21
-219.94881
  0
LINE
  8
0
  6
CONTINUOUS
 62
     7
 10
-242.94092
 20
-231.33154
 11
-247.53622
 21
-231.33154
  0
LINE
  8
0
  6
CONTINUOUS
 62
     7
 10
-253.28621
 20
-221.94881
 11
-252.13152
 21
-219.94882
  0
LINE
  8
0
  6
CONTINUOUS
 62
     7
 10
-252.13152
 20
-227.4758
 11
-247.53622
 21
-227.4758
  0
LINE
  8
0
  6
CONTINUOUS
 62
     7
 10
-241.78622
 20
-251.94881
 11
-241.78622
 21
-221.94881
  0
LINE
  8
0
  6
CONTINUOUS
 62
     7
 10
-253.28621
 20
-251.94881
 11
-253.28621
 21
-221.94881
  0
LINE
  8
0
  6
CONTINUOUS
 62
     7
 10
-242.94092
 20
-231.33154
 11
-242.94092
 21
-227.4758
  0
LINE
  8
0
  6
CONTINUOUS
 62
     7
 10
-276.28622
 20
-251.94881
 11
-276.28622
 21
-229.92319
  0
LINE
  8
0
  6
CONTINUOUS
 62
     7
 10
-255.99452
 20
-229.28908
 11
-276.28622
 21
-229.92319
  0
LINE
  8
0
  6
CONTINUOUS
 62
     7
 10
-276.28622
 20
-229.92319
 11
-273.57794
 21
-228.35956
  0
LINE
  8
0
  6
CONTINUOUS
 62
     7
 10
-253.28621
 20
-227.72543
 11
-273.57791
 21
-228.35954
  0
LINE
  8
0
  6
CONTINUOUS
 62
     7
 10
-255.99452
 20
-229.28908
 11
-255.99452
 21
-227.81007
  0
LINE
  8
0
  6
CONTINUOUS
 62
     7
 10
-253.28622
 20
-227.72545
 11
-255.99451
 21
-229.28908
  0
LINE
  8
0
  6
CONTINUOUS
 62
     7
 10
-255.99452
 20
-229.28908
 11
-255.99452
 21
-251.94881
  0
LINE
  8
0
  6
CONTINUOUS
 62
     7
 10
-273.57791
 20
-228.35956
 11
-273.57791
 21
-251.94881
  0
LINE
  8
0
  6
CONTINUOUS
 62
     7
 10
-242.94092
 20
-227.4758
 11
-247.53622
 21
-227.4758
  0
LINE
  8
0
  6
CONTINUOUS
 62
     7
 10
-241.78621
 20
-221.94881
 11
-242.9409
 21
-219.94881
  0
LINE
  8
0
  6
CONTINUOUS
 62
     7
 10
-242.94092
 20
-219.94881
 11
-247.53622
 21
-219.94881
  0
LINE
  8
0
  6
CONTINUOUS
 62
     7
 10
-242.94092
 20
-249.2224
 11
-247.53622
 21
-249.2224
  0
LINE
  8
0
  6
CONTINUOUS
 62
     7
 10
-242.94092
 20
-251.94881
 11
-242.94092
 21
-249.2224
  0
LINE
  8
0
  6
CONTINUOUS
 62
     7
 10
-252.13152
 20
-231.33154
 11
-252.13152
 21
-227.4758
  0
LINE
  8
0
  6
CONTINUOUS
 62
     7
 10
-238.18622
 20
-251.94881
 11
-238.18622
 21
-222.94881
  0
LINE
  8
0
  6
CONTINUOUS
 62
     7
 10
-226.28622
 20
-251.94881
 11
-226.28622
 21
-222.44882
  0
LINE
  8
0
  6
CONTINUOUS
 62
     7
 10
-220.28622
 20
-251.94881
 11
-220.28622
 21
-228.44882
  0
LINE
  8
0
  6
CONTINUOUS
 62
     7
 10
-238.18622
 20
-222.94882
 11
-237.68622
 21
-222.44881
  0
LINE
  8
0
  6
CONTINUOUS
 62
     7
 10
-237.68622
 20
-222.44882
 11
-226.28622
 21
-222.44882
  0
LINE
  8
0
  6
CONTINUOUS
 62
     7
 10
-237.68622
 20
-237.82526
 11
-226.28622
 21
-237.82526
  0
LINE
  8
0
  6
CONTINUOUS
 62
     7
 10
-237.68622
 20
-224.35307
 11
-226.28622
 21
-224.35307
  0
LINE
  8
0
  6
CONTINUOUS
 62
     7
 10
-237.68622
 20
-242.42253
 11
-226.28622
 21
-242.42253
  0
LINE
  8
0
  6
CONTINUOUS
 62
     7
 10
-237.68622
 20
-242.42253
 11
-237.68622
 21
-237.82526
  0
LINE
  8
0
  6
CONTINUOUS
 62
     7
 10
-237.68622
 20
-224.35307
 11
-237.68622
 21
-222.44882
  0
LINE
  8
0
  6
CONTINUOUS
 62
     7
 10
-241.78622
 20
-223.40269
 11
-238.18622
 21
-223.40269
  0
LINE
  8
0
  6
CONTINUOUS
 62
     7
 10
-148.48087
 20
-285.53149
 11
-144.48087
 21
-285.53149
  0
LINE
  8
0
  6
CONTINUOUS
 62
     7
 10
-153.98085
 20
-217.19444
 11
-149.63556
 21
-217.19444
  0
LINE
  8
0
  6
CONTINUOUS
 62
     7
 10
-148.48087
 20
-219.19444
 11
-148.48087
 21
-252.69444
  0
LINE
  8
0
  6
CONTINUOUS
 62
     7
 10
-153.98085
 20
-230.25014
 11
-149.63556
 21
-230.25014
  0
LINE
  8
0
  6
CONTINUOUS
 62
     7
 10
-153.98085
 20
-225.18985
 11
-149.63556
 21
-225.18985
  0
LINE
  8
0
  6
CONTINUOUS
 62
     7
 10
-149.63556
 20
-252.69444
 11
-149.63556
 21
-249.11629
  0
LINE
  8
0
  6
CONTINUOUS
 62
     7
 10
-182.48083
 20
-252.69444
 11
-182.48083
 21
-230.66882
  0
LINE
  8
0
  6
CONTINUOUS
 62
     7
 10
-162.18915
 20
-230.0347
 11
-182.48087
 21
-230.66881
  0
LINE
  8
0
  6
CONTINUOUS
 62
     7
 10
-182.48085
 20
-230.66881
 11
-179.77257
 21
-229.10518
  0
LINE
  8
0
  6
CONTINUOUS
 62
     7
 10
-159.48085
 20
-228.47107
 11
-179.77258
 21
-229.10519
  0
LINE
  8
0
  6
CONTINUOUS
 62
     7
 10
-162.18915
 20
-230.0347
 11
-162.18915
 21
-228.55569
  0
LINE
  8
0
  6
CONTINUOUS
 62
     7
 10
-159.48085
 20
-228.47107
 11
-162.18915
 21
-230.0347
  0
LINE
  8
0
  6
CONTINUOUS
 62
     7
 10
-162.18915
 20
-230.0347
 11
-162.18915
 21
-252.69444
  0
LINE
  8
0
  6
CONTINUOUS
 62
     7
 10
-179.77255
 20
-229.10518
 11
-179.77255
 21
-252.69444
  0
LINE
  8
0
  6
CONTINUOUS
 62
     7
 10
-149.63557
 20
-217.19444
 11
-148.48087
 21
-219.19444
  0
LINE
  8
0
  6
CONTINUOUS
 62
     7
 10
-153.98085
 20
-249.11629
 11
-149.63556
 21
-249.11629
  0
LINE
  8
0
  6
CONTINUOUS
 62
     7
 10
-149.63556
 20
-230.25014
 11
-149.63556
 21
-225.18985
  0
LINE
  8
0
  6
CONTINUOUS
 62
     7
 10
-153.98085
 20
-217.19444
 11
-158.32616
 21
-217.19444
  0
LINE
  8
0
  6
CONTINUOUS
 62
     7
 10
-159.48085
 20
-219.19444
 11
-159.48085
 21
-252.69444
  0
LINE
  8
0
  6
CONTINUOUS
 62
     7
 10
-153.98085
 20
-230.25014
 11
-158.32616
 21
-230.25014
  0
LINE
  8
0
  6
CONTINUOUS
 62
     7
 10
-153.98085
 20
-225.18985
 11
-158.32616
 21
-225.18985
  0
LINE
  8
0
  6
CONTINUOUS
 62
     7
 10
-158.32616
 20
-252.69444
 11
-158.32616
 21
-249.11629
  0
LINE
  8
0
  6
CONTINUOUS
 62
     7
 10
-158.32616
 20
-217.19443
 11
-159.48087
 21
-219.19444
  0
LINE
  8
0
  6
CONTINUOUS
 62
     7
 10
-153.98085
 20
-249.11629
 11
-158.32616
 21
-249.11629
  0
LINE
  8
0
  6
CONTINUOUS
 62
     7
 10
-158.32616
 20
-230.25014
 11
-158.32616
 21
-225.18985
  0
LINE
  8
0
  6
CONTINUOUS
 62
     7
 10
-143.98085
 20
-218.69444
 11
-144.48087
 21
-219.19446
  0
LINE
  8
0
  6
CONTINUOUS
 62
     7
 10
-143.98087
 20
-221.43304
 11
-143.98087
 21
-218.69444
  0
LINE
  8
0
  6
CONTINUOUS
 62
     7
 10
-143.98087
 20
-218.69444
 11
-132.48087
 21
-218.69444
  0
LINE
  8
0
  6
CONTINUOUS
 62
     7
 10
-143.98087
 20
-221.43304
 11
-132.48087
 21
-221.43304
  0
LINE
  8
0
  6
CONTINUOUS
 62
     7
 10
-124.48087
 20
-252.69444
 11
-124.48087
 21
-226.69444
  0
LINE
  8
0
  6
CONTINUOUS
 62
     7
 10
-143.98087
 20
-242.48416
 11
-143.98087
 21
-235.87257
  0
LINE
  8
0
  6
CONTINUOUS
 62
     7
 10
-143.98087
 20
-235.87257
 11
-132.48087
 21
-235.87257
  0
LINE
  8
0
  6
CONTINUOUS
 62
     7
 10
-132.48087
 20
-252.69444
 11
-132.48087
 21
-218.69444
  0
LINE
  8
0
  6
CONTINUOUS
 62
     7
 10
-143.98087
 20
-242.48416
 11
-132.48087
 21
-242.48416
  0
LINE
  8
0
  6
CONTINUOUS
 62
     7
 10
-144.48087
 20
-252.69444
 11
-144.48087
 21
-219.19444
  0
LINE
  8
0
  6
CONTINUOUS
 62
     7
 10
-148.48087
 20
-219.85741
 11
-144.48087
 21
-219.85741
  0
LINE
  8
0
  6
CONTINUOUS
 62
     7
 10
-34.051521
 20
-289.13483
 11
-30.051521
 21
-289.13483
  0
LINE
  8
0
  6
CONTINUOUS
 62
     7
 10
-29.551521
 20
-222.12732
 11
-30.051521
 21
-222.62732
  0
LINE
  8
0
  6
CONTINUOUS
 62
     7
 10
-29.551521
 20
-224.86592
 11
-29.551521
 21
-222.12732
  0
LINE
  8
0
  6
CONTINUOUS
 62
     7
 10
-29.551521
 20
-222.12732
 11
-18.051521
 21
-222.12732
  0
LINE
  8
0
  6
CONTINUOUS
 62
     7
 10
-29.551521
 20
-224.86592
 11
-18.051521
 21
-224.86592
  0
LINE
  8
0
  6
CONTINUOUS
 62
     7
 10
-10.051522
 20
-256.12732
 11
-10.051522
 21
-230.12732
  0
LINE
  8
0
  6
CONTINUOUS
 62
     7
 10
-29.551521
 20
-245.91704
 11
-29.551521
 21
-239.30545
  0
LINE
  8
0
  6
CONTINUOUS
 62
     7
 10
-29.551521
 20
-239.30545
 11
-18.051521
 21
-239.30545
  0
LINE
  8
0
  6
CONTINUOUS
 62
     7
 10
-18.051521
 20
-256.12732
 11
-18.051521
 21
-222.12732
  0
LINE
  8
0
  6
CONTINUOUS
 62
     7
 10
-29.551521
 20
-245.91704
 11
-18.051521
 21
-245.91704
  0
LINE
  8
0
  6
CONTINUOUS
 62
     7
 10
-34.051521
 20
-222.62732
 11
-34.051521
 21
-256.12732
  0
LINE
  8
0
  6
CONTINUOUS
 62
     7
 10
-71.343224
 20
-226.73193
 11
-71.343224
 21
-256.12732
  0
LINE
  8
0
  6
CONTINUOUS
 62
     7
 10
-74.051521
 20
-228.29558
 11
-71.343224
 21
-226.73193
  0
LINE
  8
0
  6
CONTINUOUS
 62
     7
 10
-47.051517
 20
-225.97282
 11
-71.343231
 21
-226.73195
  0
LINE
  8
0
  6
CONTINUOUS
 62
     7
 10
-50.55151
 20
-227.5612
 11
-74.051506
 21
-228.29558
  0
LINE
  8
0
  6
CONTINUOUS
 62
     7
 10
-74.051506
 20
-256.12732
 11
-74.051506
 21
-228.29558
  0
LINE
  8
0
  6
CONTINUOUS
 62
     7
 10
-40.551521
 20
-220.62732
 11
-35.20623
 21
-220.62732
  0
LINE
  8
0
  6
CONTINUOUS
 62
     7
 10
-35.20623
 20
-256.12732
 11
-35.20623
 21
-252.54916
  0
LINE
  8
0
  6
CONTINUOUS
 62
     7
 10
-40.551521
 20
-228.62273
 11
-45.896828
 21
-228.62273
  0
LINE
  8
0
  6
CONTINUOUS
 62
     7
 10
-40.551521
 20
-228.62273
 11
-35.20623
 21
-228.62273
  0
LINE
  8
0
  6
CONTINUOUS
 62
     7
 10
-35.206219
 20
-220.62733
 11
-34.051517
 21
-222.62733
  0
LINE
  8
0
  6
CONTINUOUS
 62
     7
 10
-40.551521
 20
-233.68301
 11
-35.20623
 21
-233.68301
  0
LINE
  8
0
  6
CONTINUOUS
 62
     7
 10
-45.896828
 20
-256.12732
 11
-45.896828
 21
-252.54916
  0
LINE
  8
0
  6
CONTINUOUS
 62
     7
 10
-47.051521
 20
-222.62732
 11
-47.051521
 21
-256.12732
  0
LINE
  8
0
  6
CONTINUOUS
 62
     7
 10
-45.89682
 20
-220.62732
 11
-47.051521
 21
-222.62732
  0
LINE
  8
0
  6
CONTINUOUS
 62
     7
 10
-40.551521
 20
-252.54916
 11
-35.20623
 21
-252.54916
  0
LINE
  8
0
  6
CONTINUOUS
 62
     7
 10
-40.551521
 20
-220.62732
 11
-45.896828
 21
-220.62732
  0
LINE
  8
0
  6
CONTINUOUS
 62
     7
 10
-35.20623
 20
-233.68301
 11
-35.20623
 21
-228.62273
  0
LINE
  8
0
  6
CONTINUOUS
 62
     7
 10
-40.551521
 20
-233.68301
 11
-45.896828
 21
-233.68301
  0
LINE
  8
0
  6
CONTINUOUS
 62
     7
 10
-40.551521
 20
-252.54916
 11
-45.896828
 21
-252.54916
  0
LINE
  8
0
  6
CONTINUOUS
 62
     7
 10
-45.896828
 20
-233.68301
 11
-45.896828
 21
-228.62273
  0
LINE
  8
0
  6
CONTINUOUS
 62
     7
 10
-50.551506
 20
-256.12732
 11
-50.551506
 21
-226.0822
  0
LINE
  8
0
  6
CONTINUOUS
 62
     7
 10
-50.551514
 20
-227.5612
 11
-49.051533
 21
-226.03532
  0
LINE
  8
0
  6
CONTINUOUS
 62
     7
 10
-30.051521
 20
-256.12732
 11
-30.051521
 21
-222.62732
  0
LINE
  8
0
  6
CONTINUOUS
 62
     7
 10
-34.051521
 20
-223.11983
 11
-30.051521
 21
-223.11983
  0
LINE
  8
0
  6
CONTINUOUS
 62
     7
 10
-211.84486
 20
-434.41269
 11
-208.34486
 21
-434.41269
  0
LINE
  8
0
  6
CONTINUOUS
 62
     7
 10
-252.84486
 20
-394.58685
 11
-252.84486
 21
-366.7551
  0
LINE
  8
0
  6
CONTINUOUS
 62
     7
 10
-212.99959
 20
-351.58682
 11
-211.84488
 21
-353.58685
  0
LINE
  8
0
  6
CONTINUOUS
 62
     7
 10
-211.84486
 20
-353.58685
 11
-211.84486
 21
-394.58685
  0
LINE
  8
0
  6
CONTINUOUS
 62
     7
 10
-229.34486
 20
-366.02072
 11
-252.84486
 21
-366.7551
  0
LINE
  8
0
  6
CONTINUOUS
 62
     7
 10
-252.84489
 20
-366.7551
 11
-250.13658
 21
-365.19144
  0
LINE
  8
0
  6
CONTINUOUS
 62
     7
 10
-225.84488
 20
-353.58685
 11
-225.84488
 21
-394.58685
  0
LINE
  8
0
  6
CONTINUOUS
 62
     7
 10
-225.84488
 20
-364.43234
 11
-250.13658
 21
-365.19147
  0
LINE
  8
0
  6
CONTINUOUS
 62
     7
 10
-250.13658
 20
-365.19147
 11
-250.13658
 21
-394.58685
  0
LINE
  8
0
  6
CONTINUOUS
 62
     7
 10
-218.84486
 20
-351.58685
 11
-212.99957
 21
-351.58685
  0
LINE
  8
0
  6
CONTINUOUS
 62
     7
 10
-218.84486
 20
-361.66791
 11
-212.99957
 21
-361.66791
  0
LINE
  8
0
  6
CONTINUOUS
 62
     7
 10
-218.84486
 20
-366.92197
 11
-212.99957
 21
-366.92197
  0
LINE
  8
0
  6
CONTINUOUS
 62
     7
 10
-218.84486
 20
-390.87167
 11
-212.99957
 21
-390.87167
  0
LINE
  8
0
  6
CONTINUOUS
 62
     7
 10
-218.84486
 20
-361.66791
 11
-224.69016
 21
-361.66791
  0
LINE
  8
0
  6
CONTINUOUS
 62
     7
 10
-212.99957
 20
-394.58685
 11
-212.99957
 21
-390.87167
  0
LINE
  8
0
  6
CONTINUOUS
 62
     7
 10
-218.84486
 20
-351.58685
 11
-224.69016
 21
-351.58685
  0
LINE
  8
0
  6
CONTINUOUS
 62
     7
 10
-212.99957
 20
-366.92197
 11
-212.99957
 21
-361.66791
  0
LINE
  8
0
  6
CONTINUOUS
 62
     7
 10
-224.69017
 20
-351.58685
 11
-225.84488
 21
-353.58685
  0
LINE
  8
0
  6
CONTINUOUS
 62
     7
 10
-218.84486
 20
-366.92197
 11
-224.69016
 21
-366.92197
  0
LINE
  8
0
  6
CONTINUOUS
 62
     7
 10
-218.84486
 20
-390.87167
 11
-224.69016
 21
-390.87167
  0
LINE
  8
0
  6
CONTINUOUS
 62
     7
 10
-224.69016
 20
-394.58685
 11
-224.69016
 21
-390.87167
  0
LINE
  8
0
  6
CONTINUOUS
 62
     7
 10
-224.69016
 20
-366.92197
 11
-224.69016
 21
-361.66791
  0
LINE
  8
0
  6
CONTINUOUS
 62
     7
 10
-229.34486
 20
-394.58685
 11
-229.34486
 21
-364.54172
  0
LINE
  8
0
  6
CONTINUOUS
 62
     7
 10
-229.34488
 20
-366.02072
 11
-227.84489
 21
-364.49484
  0
LINE
  8
0
  6
CONTINUOUS
 62
     7
 10
-207.84486
 20
-353.58685
 11
-192.84486
 21
-353.58685
  0
LINE
  8
0
  6
CONTINUOUS
 62
     7
 10
-207.84486
 20
-353.58682
 11
-208.34488
 21
-354.08682
  0
LINE
  8
0
  6
CONTINUOUS
 62
     7
 10
-207.84486
 20
-356.4303
 11
-207.84486
 21
-353.58685
  0
LINE
  8
0
  6
CONTINUOUS
 62
     7
 10
-184.84486
 20
-394.58685
 11
-184.84486
 21
-361.58685
  0
LINE
  8
0
  6
CONTINUOUS
 62
     7
 10
-207.84486
 20
-356.4303
 11
-192.84486
 21
-356.4303
  0
LINE
  8
0
  6
CONTINUOUS
 62
     7
 10
-207.84486
 20
-381.62537
 11
-192.84486
 21
-381.62537
  0
LINE
  8
0
  6
CONTINUOUS
 62
     7
 10
-192.84486
 20
-394.58685
 11
-192.84486
 21
-353.58685
  0
LINE
  8
0
  6
CONTINUOUS
 62
     7
 10
-207.84486
 20
-374.76062
 11
-192.84486
 21
-374.76062
  0
LINE
  8
0
  6
CONTINUOUS
 62
     7
 10
-207.84486
 20
-381.62537
 11
-207.84486
 21
-374.76062
  0
LINE
  8
0
  6
CONTINUOUS
 62
     7
 10
-208.34486
 20
-394.58685
 11
-208.34486
 21
-354.08685
  0
LINE
  8
0
  6
CONTINUOUS
 62
     7
 10
-211.84486
 20
-354.76099
 11
-208.34486
 21
-354.76099
  0
LINE
  8
0
  6
CONTINUOUS
 62
     7
 10
-95.106819
 20
-352.44254
 11
-95.106819
 21
-393.44254
  0
LINE
  8
0
  6
CONTINUOUS
 62
     7
 10
-80.26152
 20
-393.44254
 11
-80.26152
 21
-389.72736
  0
LINE
  8
0
  6
CONTINUOUS
 62
     7
 10
-87.106819
 20
-365.77768
 11
-93.952118
 21
-365.77768
  0
LINE
  8
0
  6
CONTINUOUS
 62
     7
 10
-87.106819
 20
-360.52362
 11
-93.952118
 21
-360.52362
  0
LINE
  8
0
  6
CONTINUOUS
 62
     7
 10
-87.106819
 20
-350.44254
 11
-93.952118
 21
-350.44254
  0
LINE
  8
0
  6
CONTINUOUS
 62
     7
 10
-93.952118
 20
-393.44254
 11
-93.952118
 21
-389.72736
  0
LINE
  8
0
  6
CONTINUOUS
 62
     7
 10
-79.106819
 20
-352.44254
 11
-79.106819
 21
-393.44254
  0
LINE
  8
0
  6
CONTINUOUS
 62
     7
 10
-126.10682
 20
-393.44254
 11
-126.10682
 21
-357.87518
  0
LINE
  8
0
  6
CONTINUOUS
 62
     7
 10
-87.106819
 20
-389.72736
 11
-93.952118
 21
-389.72736
  0
LINE
  8
0
  6
CONTINUOUS
 62
     7
 10
-87.106819
 20
-360.52362
 11
-80.26152
 21
-360.52362
  0
LINE
  8
0
  6
CONTINUOUS
 62
     7
 10
-87.106819
 20
-350.44254
 11
-80.26152
 21
-350.44254
  0
LINE
  8
0
  6
CONTINUOUS
 62
     7
 10
-87.106819
 20
-365.77768
 11
-80.26152
 21
-365.77768
  0
LINE
  8
0
  6
CONTINUOUS
 62
     7
 10
-97.61985
 20
-356.98495
 11
-126.10683
 21
-357.87515
  0
LINE
  8
0
  6
CONTINUOUS
 62
     7
 10
-126.10681
 20
-357.87518
 11
-123.39853
 21
-356.31155
  0
LINE
  8
0
  6
CONTINUOUS
 62
     7
 10
-95.106819
 20
-355.42743
 11
-123.39851
 21
-356.31152
  0
LINE
  8
0
  6
CONTINUOUS
 62
     7
 10
-95.106812
 20
-355.42743
 11
-97.619858
 21
-356.98495
  0
LINE
  8
0
  6
CONTINUOUS
 62
     7
 10
-97.61985
 20
-393.44254
 11
-97.61985
 21
-355.50595
  0
LINE
  8
0
  6
CONTINUOUS
 62
     7
 10
-123.39854
 20
-356.31152
 11
-123.39854
 21
-393.44254
  0
LINE
  8
0
  6
CONTINUOUS
 62
     7
 10
-87.106819
 20
-389.72736
 11
-80.26152
 21
-389.72736
  0
LINE
  8
0
  6
CONTINUOUS
 62
     7
 10
-80.26152
 20
-365.77768
 11
-80.26152
 21
-360.52362
  0
LINE
  8
0
  6
CONTINUOUS
 62
     7
 10
-80.261528
 20
-350.44257
 11
-79.106834
 21
-352.44254
  0
LINE
  8
0
  6
CONTINUOUS
 62
     7
 10
-93.952118
 20
-365.77768
 11
-93.952118
 21
-360.52362
  0
LINE
  8
0
  6
CONTINUOUS
 62
     7
 10
-93.952118
 20
-350.44254
 11
-95.106827
 21
-352.44257
  0
LINE
  8
0
  6
CONTINUOUS
 62
     7
 10
-75.106819
 20
-352.44254
 11
-60.106823
 21
-352.44254
  0
LINE
  8
0
  6
CONTINUOUS
 62
     7
 10
-75.106819
 20
-352.44254
 11
-75.606827
 21
-352.94257
  0
LINE
  8
0
  6
CONTINUOUS
 62
     7
 10
-75.106819
 20
-355.28601
 11
-75.106819
 21
-352.44254
  0
LINE
  8
0
  6
CONTINUOUS
 62
     7
 10
-52.106823
 20
-393.44254
 11
-52.106823
 21
-360.44254
  0
LINE
  8
0
  6
CONTINUOUS
 62
     7
 10
-75.106819
 20
-355.28601
 11
-60.106823
 21
-355.28601
  0
LINE
  8
0
  6
CONTINUOUS
 62
     7
 10
-75.106819
 20
-380.48105
 11
-60.106823
 21
-380.48105
  0
LINE
  8
0
  6
CONTINUOUS
 62
     7
 10
-60.106823
 20
-393.44254
 11
-60.106823
 21
-352.44254
  0
LINE
  8
0
  6
CONTINUOUS
 62
     7
 10
-75.106819
 20
-373.61633
 11
-60.106823
 21
-373.61633
  0
LINE
  8
0
  6
CONTINUOUS
 62
     7
 10
-75.106819
 20
-380.48105
 11
-75.106819
 21
-373.61633
  0
LINE
  8
0
  6
CONTINUOUS
 62
     7
 10
-75.606819
 20
-393.84442
 11
-75.606819
 21
-352.94254
  0
CIRCLE
  8
0
  6
CONTINUOUS
 62
     7
 10
-401.50162
 20
101.27591
 40
14.5
  0
CIRCLE
  8
0
  6
CONTINUOUS
 62
     7
 10
-401.50162
 20
101.27591
 40
8.0500002
  0
CIRCLE
  8
0
  6
CONTINUOUS
 62
     7
 10
-401.50162
 20
56.199329
 40
17
  0
CIRCLE
  8
0
  6
CONTINUOUS
 62
     7
 10
-401.50162
 20
56.199329
 40
11.25
  0
CIRCLE
  8
0
  6
CONTINUOUS
 62
     7
 10
-401.50162
 20
5.3851457
 40
21.5
  0
CIRCLE
  8
0
  6
CONTINUOUS
 62
     7
 10
-401.50162
 20
5.3851457
 40
14.4
  0
CIRCLE
  8
0
  6
CONTINUOUS
 62
     7
 10
-401.50162
 20
-50.685677
 40
24.5
  0
CIRCLE
  8
0
  6
CONTINUOUS
 62
     7
 10
-401.50162
 20
-50.685677
 40
17.25
  0
CIRCLE
  8
0
  6
CONTINUOUS
 62
     7
 10
-401.50162
 20
-137.66437
 40
29.5
  0
CIRCLE
  8
0
  6
CONTINUOUS
 62
     7
 10
-401.50162
 20
-137.66437
 40
21.65
  0
CIRCLE
  8
0
  6
CONTINUOUS
 62
     7
 10
-401.50162
 20
-241.56189
 40
34
  0
CIRCLE
  8
0
  6
CONTINUOUS
 62
     7
 10
-401.50162
 20
-241.56189
 40
24.65
  0
CIRCLE
  8
0
  6
CONTINUOUS
 62
     7
 10
-401.50162
 20
-347.29117
 40
41
  0
CIRCLE
  8
0
  6
CONTINUOUS
 62
     7
 10
-401.50162
 20
-347.29117
 40
30.65
  0
ARC
  8
0
  6
CONTINUOUS
 62
     7
 10
-233.76337
 20
50.524551
 40
23.20392
 50
167.19202
 51
192.80798
  0
ARC
  8
0
  6
CONTINUOUS
 62
     7
 10
-252.60812
 20
42.401054
 40
4.2408395
 50
329.75277
 51
30.247233
  0
ARC
  8
0
  6
CONTINUOUS
 62
     7
 10
-252.72646
 20
42.401054
 40
4.2408395
 50
149.75277
 51
210.24724
  0
ARC
  8
0
  6
CONTINUOUS
 62
     7
 10
-271.57123
 20
50.524551
 40
23.20392
 50
347.19202
 51
12.80798
  0
ARC
  8
0
  6
CONTINUOUS
 62
     7
 10
-237.46729
 20
45.764801
 40
4
 50
270
 51
0
  0
ARC
  8
0
  6
CONTINUOUS
 62
     7
 10
-233.37392
 20
46.011467
 40
11.59337
 50
163.11152
 51
196.88848
  0
ARC
  8
0
  6
CONTINUOUS
 62
     7
 10
-222.02673
 20
56.264801
 40
22.940548
 50
179.99999
 51
191.9843
  0
ARC
  8
0
  6
CONTINUOUS
 62
     7
 10
-168.36327
 20
41.223198
 40
4.9263082
 50
151.98231
 51
208.01769
  0
ARC
  8
0
  6
CONTINUOUS
 62
     7
 10
-191.5894
 20
50.712135
 40
26.899828
 50
348.10779
 51
11.892207
  0
ARC
  8
0
  6
CONTINUOUS
 62
     7
 10
-169.61588
 20
41.223198
 40
4.9263082
 50
331.98231
 51
28.017689
  0
ARC
  8
0
  6
CONTINUOUS
 62
     7
 10
-146.38974
 20
50.712135
 40
26.899828
 50
168.1078
 51
191.89221
  0
ARC
  8
0
  6
CONTINUOUS
 62
     7
 10
-64.67897
 20
44.264801
 40
5
 50
270
 51
0
  0
ARC
  8
0
  6
CONTINUOUS
 62
     7
 10
-39.300503
 20
56.264801
 40
33.878471
 50
180.00001
 51
189.85588
  0
ARC
  8
0
  6
CONTINUOUS
 62
     7
 10
-56.114738
 20
44.243988
 40
17.064236
 50
166.09586
 51
193.90414
  0
ARC
  8
0
  6
CONTINUOUS
 62
     7
 10
-152.78957
 20
45.409096
 40
5
 50
270
 51
0
  0
ARC
  8
0
  6
CONTINUOUS
 62
     7
 10
-127.4111
 20
57.409096
 40
33.878471
 50
180.00001
 51
189.85588
  0
ARC
  8
0
  6
CONTINUOUS
 62
     7
 10
-144.22534
 20
45.388283
 40
17.064236
 50
166.09586
 51
193.90414
  0
ARC
  8
0
  6
CONTINUOUS
 62
     7
 10
-103.4788
 20
49.567841
 40
26.899826
 50
348.10779
 51
11.892208
  0
ARC
  8
0
  6
CONTINUOUS
 62
     7
 10
-80.252663
 20
40.078903
 40
4.9263082
 50
151.98231
 51
208.01769
  0
ARC
  8
0
  6
CONTINUOUS
 62
     7
 10
-81.50528
 20
40.078903
 40
4.9263082
 50
331.98231
 51
28.017689
  0
ARC
  8
0
  6
CONTINUOUS
 62
     7
 10
-58.279144
 20
49.567841
 40
26.899826
 50
168.1078
 51
191.89221
  0
ARC
  8
0
  6
CONTINUOUS
 62
     7
 10
14.070013
 20
35.885685
 40
6.2374358
 50
335.15368
 51
24.846323
  0
ARC
  8
0
  6
CONTINUOUS
 62
     7
 10
18.044874
 20
35.885685
 40
6.2374358
 50
155.15368
 51
204.84632
  0
ARC
  8
0
  6
CONTINUOUS
 62
     7
 10
45.360104
 20
47.845764
 40
33.552666
 50
169.35567
 51
190.64432
  0
ARC
  8
0
  6
CONTINUOUS
 62
     7
 10
-13.245218
 20
47.845764
 40
33.552666
 50
349.35568
 51
10.644325
  0
ARC
  8
0
  6
CONTINUOUS
 62
     7
 10
33.307446
 20
39.764801
 40
5
 50
270
 51
0
  0
ARC
  8
0
  6
CONTINUOUS
 62
     7
 10
68.057434
 20
56.264801
 40
44.249989
 50
180.00001
 51
188.62136
  0
ARC
  8
0
  6
CONTINUOUS
 62
     7
 10
46.057446
 20
41.062004
 40
22.249998
 50
167.83045
 51
192.16954
  0
ARC
  8
0
  6
CONTINUOUS
 62
     7
 10
-254.79417
 20
-81.814232
 40
7.3179798
 50
157.07688
 51
202.92312
  0
ARC
  8
0
  6
CONTINUOUS
 62
     7
 10
-223.38457
 20
-67.922981
 40
38.72702
 50
170.09415
 51
189.90584
  0
ARC
  8
0
  6
CONTINUOUS
 62
     7
 10
-258.42899
 20
-81.814232
 40
7.3179798
 50
337.07688
 51
22.923115
  0
ARC
  8
0
  6
CONTINUOUS
 62
     7
 10
-289.83862
 20
-67.922981
 40
38.72702
 50
350.09416
 51
9.9058404
  0
ARC
  8
0
  6
CONTINUOUS
 62
     7
 10
-209.38657
 20
-75.488663
 40
38.125019
 50
170.71048
 51
189.28953
  0
ARC
  8
0
  6
CONTINUOUS
 62
     7
 10
-171.51157
 20
-58.164551
 40
76.000023
 50
180.00001
 51
186.57588
  0
ARC
  8
0
  6
CONTINUOUS
 62
     7
 10
-236.61159
 20
-77.664551
 40
5
 50
270
 51
0
  0
ARC
  8
0
  6
CONTINUOUS
 62
     7
 10
-148.90503
 20
-81.814232
 40
7.3179798
 50
157.07688
 51
202.92312
  0
ARC
  8
0
  6
CONTINUOUS
 62
     7
 10
-117.49544
 20
-67.922981
 40
38.72702
 50
170.09415
 51
189.90584
  0
ARC
  8
0
  6
CONTINUOUS
 62
     7
 10
-152.03986
 20
-81.814232
 40
7.3179798
 50
337.07688
 51
22.923115
  0
ARC
  8
0
  6
CONTINUOUS
 62
     7
 10
-183.44945
 20
-67.922981
 40
38.72702
 50
350.09416
 51
9.9058404
  0
ARC
  8
0
  6
CONTINUOUS
 62
     7
 10
-102.99744
 20
-75.488663
 40
38.125019
 50
170.71048
 51
189.28953
  0
ARC
  8
0
  6
CONTINUOUS
 62
     7
 10
-65.122437
 20
-58.164551
 40
76.000023
 50
180.00001
 51
186.57588
  0
ARC
  8
0
  6
CONTINUOUS
 62
     7
 10
-130.22244
 20
-77.664551
 40
5
 50
270
 51
0
  0
ARC
  8
0
  6
CONTINUOUS
 62
     7
 10
-13.401393
 20
-70.98069
 40
35.227299
 50
165.28954
 51
194.71046
  0
ARC
  8
0
  6
CONTINUOUS
 62
     7
 10
-72.355995
 20
-70.98069
 40
35.227299
 50
345.28954
 51
14.710455
  0
ARC
  8
0
  6
CONTINUOUS
 62
     7
 10
-43.837734
 20
-87.545349
 40
6.7092843
 50
325.87928
 51
34.120722
  0
ARC
  8
0
  6
CONTINUOUS
 62
     7
 10
-41.919659
 20
-87.545349
 40
6.7092843
 50
145.87928
 51
214.12072
  0
ARC
  8
0
  6
CONTINUOUS
 62
     7
 10
-21.628696
 20
-82.808838
 40
6
 50
270
 51
0
  0
ARC
  8
0
  6
CONTINUOUS
 62
     7
 10
57.471699
 20
-59.308846
 40
91.000397
 50
180.00001
 51
186.00896
  0
ARC
  8
0
  6
CONTINUOUS
 62
     7
 10
12.096509
 20
-80.168495
 40
45.625206
 50
171.50982
 51
188.49018
  0
ARC
  8
0
  6
CONTINUOUS
 62
     7
 10
-218.05891
 20
-263.62067
 40
35.227299
 50
165.28954
 51
194.71046
  0
ARC
  8
0
  6
CONTINUOUS
 62
     7
 10
-277.01352
 20
-263.62067
 40
35.227299
 50
345.28954
 51
14.710455
  0
ARC
  8
0
  6
CONTINUOUS
 62
     7
 10
-248.49525
 20
-280.18533
 40
6.7092843
 50
325.87928
 51
34.120722
  0
ARC
  8
0
  6
CONTINUOUS
 62
     7
 10
-246.57718
 20
-280.18533
 40
6.7092843
 50
145.87928
 51
214.12072
  0
ARC
  8
0
  6
CONTINUOUS
 62
     7
 10
-226.28622
 20
-275.44882
 40
6
 50
270
 51
0
  0
ARC
  8
0
  6
CONTINUOUS
 62
     7
 10
-147.18582
 20
-251.94881
 40
91.000397
 50
180.00001
 51
186.00896
  0
ARC
  8
0
  6
CONTINUOUS
 62
     7
 10
-192.56102
 20
-272.80847
 40
45.625206
 50
171.50982
 51
188.49018
  0
ARC
  8
0
  6
CONTINUOUS
 62
     7
 10
-187.58896
 20
-265.70569
 40
39.108093
 50
346.04231
 51
13.957685
  0
ARC
  8
0
  6
CONTINUOUS
 62
     7
 10
-155.97493
 20
-284.19675
 40
7.4946027
 50
327.7638
 51
32.236201
  0
ARC
  8
0
  6
CONTINUOUS
 62
     7
 10
-120.37276
 20
-265.70569
 40
39.108093
 50
166.04231
 51
193.95769
  0
ARC
  8
0
  6
CONTINUOUS
 62
     7
 10
-151.98679
 20
-284.19675
 40
7.4946027
 50
147.76379
 51
212.2362
  0
ARC
  8
0
  6
CONTINUOUS
 62
     7
 10
-18.051521
 20
-282.12732
 40
8
 50
270
 51
0
  0
ARC
  8
0
  6
CONTINUOUS
 62
     7
 10
22.323486
 20
-280.16895
 40
52.375008
 50
172.07669
 51
187.92331
  0
ARC
  8
0
  6
CONTINUOUS
 62
     7
 10
74.448494
 20
-256.12732
 40
104.50002
 50
180.00001
 51
185.6071
  0
ARC
  8
0
  6
CONTINUOUS
 62
     7
 10
-132.48087
 20
-278.69446
 40
8
 50
270
 51
0
  0
ARC
  8
0
  6
CONTINUOUS
 62
     7
 10
-92.105858
 20
-276.73608
 40
52.375008
 50
172.07669
 51
187.92331
  0
ARC
  8
0
  6
CONTINUOUS
 62
     7
 10
-39.980858
 20
-252.69444
 40
104.50002
 50
180.00001
 51
185.6071
  0
ARC
  8
0
  6
CONTINUOUS
 62
     7
 10
-73.159615
 20
-269.13855
 40
39.108093
 50
346.04231
 51
13.957685
  0
ARC
  8
0
  6
CONTINUOUS
 62
     7
 10
-7.9434285
 20
-269.13855
 40
39.108093
 50
166.04231
 51
193.95769
  0
ARC
  8
0
  6
CONTINUOUS
 62
     7
 10
-41.545586
 20
-287.62964
 40
7.4946027
 50
327.7638
 51
32.236201
  0
ARC
  8
0
  6
CONTINUOUS
 62
     7
 10
-39.557472
 20
-287.62964
 40
7.4946027
 50
147.76379
 51
212.2362
  0
ARC
  8
0
  6
CONTINUOUS
 62
     7
 10
-274.51453
 20
-410.27686
 40
62.669655
 50
348.98425
 51
11.015753
  0
ARC
  8
0
  6
CONTINUOUS
 62
     7
 10
-223.42093
 20
-432.5463
 40
11.576342
 50
334.18814
 51
25.811862
  0
ARC
  8
0
  6
CONTINUOUS
 62
     7
 10
-163.17522
 20
-410.27686
 40
62.669655
 50
168.98425
 51
191.01575
  0
ARC
  8
0
  6
CONTINUOUS
 62
     7
 10
-214.2688
 20
-432.5463
 40
11.576342
 50
154.18813
 51
205.81186
  0
ARC
  8
0
  6
CONTINUOUS
 62
     7
 10
-141.77689
 20
-409.13257
 40
62.670059
 50
348.98432
 51
11.015681
  0
ARC
  8
0
  6
CONTINUOUS
 62
     7
 10
-32.43676
 20
-409.13257
 40
62.670059
 50
168.98432
 51
191.01568
  0
ARC
  8
0
  6
CONTINUOUS
 62
     7
 10
-90.682953
 20
-431.40201
 40
11.57641
 50
334.1883
 51
25.811698
  0
ARC
  8
0
  6
CONTINUOUS
 62
     7
 10
-83.530693
 20
-431.40201
 40
11.57641
 50
154.1883
 51
205.8117
  0
ARC
  8
0
  6
CONTINUOUS
 62
     7
 10
-192.84486
 20
-427.58685
 40
8
 50
270
 51
0
  0
ARC
  8
0
  6
CONTINUOUS
 62
     7
 10
-40.095249
 20
-394.58685
 40
168.24962
 50
179.99999
 51
184.41828
  0
ARC
  8
0
  6
CONTINUOUS
 62
     7
 10
-124.09506
 20
-423.57822
 40
84.249809
 50
173.7547
 51
186.24531
  0
ARC
  8
0
  6
CONTINUOUS
 62
     7
 10
-60.106823
 20
-426.44254
 40
8
 50
270
 51
0
  0
ARC
  8
0
  6
CONTINUOUS
 62
     7
 10
92.642799
 20
-393.44254
 40
168.24962
 50
179.99999
 51
184.41828
  0
ARC
  8
0
  6
CONTINUOUS
 62
     7
 10
8.6429911
 20
-422.43393
 40
84.249809
 50
173.7547
 51
186.24531
  0
ARC
  8
0
  6
CONTINUOUS
 62
     7
 10
-233.76337
 20
62.005051
 40
23.20392
 50
167.19202
 51
192.80798
  0
ARC
  8
0
  6
CONTINUOUS
 62
     7
 10
-252.60812
 20
70.128548
 40
4.2408395
 50
329.75277
 51
30.247233
  0
ARC
  8
0
  6
CONTINUOUS
 62
     7
 10
-252.72646
 20
70.128548
 40
4.2408395
 50
149.75276
 51
210.24722
  0
ARC
  8
0
  6
CONTINUOUS
 62
     7
 10
-271.57123
 20
62.005051
 40
23.20392
 50
347.19202
 51
12.80798
  0
ARC
  8
0
  6
CONTINUOUS
 62
     7
 10
-237.46729
 20
66.764801
 40
4
 50
0
 51
90.000003
  0
ARC
  8
0
  6
CONTINUOUS
 62
     7
 10
-233.37392
 20
66.518135
 40
11.59337
 50
163.11152
 51
196.88848
  0
ARC
  8
0
  6
CONTINUOUS
 62
     7
 10
-222.02673
 20
56.264801
 40
22.940548
 50
168.0157
 51
180.00001
  0
ARC
  8
0
  6
CONTINUOUS
 62
     7
 10
-168.36327
 20
73.594994
 40
4.9263082
 50
151.98231
 51
208.01769
  0
ARC
  8
0
  6
CONTINUOUS
 62
     7
 10
-191.5894
 20
64.106056
 40
26.899828
 50
348.10779
 51
11.892207
  0
ARC
  8
0
  6
CONTINUOUS
 62
     7
 10
-169.61588
 20
73.594994
 40
4.9263082
 50
331.98231
 51
28.017689
  0
ARC
  8
0
  6
CONTINUOUS
 62
     7
 10
-146.38974
 20
64.106056
 40
26.899828
 50
168.10779
 51
191.8922
  0
ARC
  8
0
  6
CONTINUOUS
 62
     7
 10
-152.78957
 20
69.409096
 40
5
 50
0
 51
90.000003
  0
ARC
  8
0
  6
CONTINUOUS
 62
     7
 10
-127.4111
 20
57.409096
 40
33.878471
 50
170.14412
 51
179.99999
  0
ARC
  8
0
  6
CONTINUOUS
 62
     7
 10
-144.22534
 20
69.429909
 40
17.064236
 50
166.09586
 51
193.90414
  0
ARC
  8
0
  6
CONTINUOUS
 62
     7
 10
-64.67897
 20
68.264801
 40
5
 50
0
 51
90.000003
  0
ARC
  8
0
  6
CONTINUOUS
 62
     7
 10
-39.300503
 20
56.264801
 40
33.878471
 50
170.14412
 51
179.99999
  0
ARC
  8
0
  6
CONTINUOUS
 62
     7
 10
-56.114738
 20
68.285614
 40
17.064236
 50
166.09586
 51
193.90414
  0
ARC
  8
0
  6
CONTINUOUS
 62
     7
 10
-103.4788
 20
62.961761
 40
26.899826
 50
348.10779
 51
11.892208
  0
ARC
  8
0
  6
CONTINUOUS
 62
     7
 10
-80.252663
 20
72.450699
 40
4.9263082
 50
151.98231
 51
208.01769
  0
ARC
  8
0
  6
CONTINUOUS
 62
     7
 10
-81.50528
 20
72.450699
 40
4.9263082
 50
331.98231
 51
28.017689
  0
ARC
  8
0
  6
CONTINUOUS
 62
     7
 10
-58.279144
 20
62.961761
 40
26.899826
 50
168.10779
 51
191.8922
  0
ARC
  8
0
  6
CONTINUOUS
 62
     7
 10
14.070013
 20
76.643913
 40
6.2374358
 50
335.15368
 51
24.846323
  0
ARC
  8
0
  6
CONTINUOUS
 62
     7
 10
18.044874
 20
76.643913
 40
6.2374358
 50
155.15368
 51
204.84632
  0
ARC
  8
0
  6
CONTINUOUS
 62
     7
 10
45.360104
 20
64.683838
 40
33.552666
 50
169.35567
 51
190.64432
  0
ARC
  8
0
  6
CONTINUOUS
 62
     7
 10
-13.245218
 20
64.683838
 40
33.552666
 50
349.35568
 51
10.644325
  0
ARC
  8
0
  6
CONTINUOUS
 62
     7
 10
33.307446
 20
72.764801
 40
5
 50
0
 51
90.000003
  0
ARC
  8
0
  6
CONTINUOUS
 62
     7
 10
68.057434
 20
56.264801
 40
44.249989
 50
171.37864
 51
179.99999
  0
ARC
  8
0
  6
CONTINUOUS
 62
     7
 10
46.057446
 20
71.467598
 40
22.249998
 50
167.83045
 51
192.16954
  0
ARC
  8
0
  6
CONTINUOUS
 62
     7
 10
-254.79417
 20
-34.51487
 40
7.3179798
 50
157.07688
 51
202.92312
  0
ARC
  8
0
  6
CONTINUOUS
 62
     7
 10
-223.38457
 20
-48.406124
 40
38.72702
 50
170.09415
 51
189.90584
  0
ARC
  8
0
  6
CONTINUOUS
 62
     7
 10
-258.42899
 20
-34.51487
 40
7.3179798
 50
337.07688
 51
22.923115
  0
ARC
  8
0
  6
CONTINUOUS
 62
     7
 10
-289.83862
 20
-48.406124
 40
38.72702
 50
350.09416
 51
9.9058404
  0
ARC
  8
0
  6
CONTINUOUS
 62
     7
 10
-209.38657
 20
-40.840435
 40
38.125019
 50
170.71047
 51
189.28951
  0
ARC
  8
0
  6
CONTINUOUS
 62
     7
 10
-171.51157
 20
-58.164551
 40
76.000023
 50
173.42412
 51
179.99999
  0
ARC
  8
0
  6
CONTINUOUS
 62
     7
 10
-236.61159
 20
-38.664551
 40
5
 50
0
 51
90.000003
  0
ARC
  8
0
  6
CONTINUOUS
 62
     7
 10
-148.90503
 20
-34.51487
 40
7.3179798
 50
157.07688
 51
202.92312
  0
ARC
  8
0
  6
CONTINUOUS
 62
     7
 10
-117.49544
 20
-48.406124
 40
38.72702
 50
170.09415
 51
189.90584
  0
ARC
  8
0
  6
CONTINUOUS
 62
     7
 10
-152.03986
 20
-34.51487
 40
7.3179798
 50
337.07688
 51
22.923115
  0
ARC
  8
0
  6
CONTINUOUS
 62
     7
 10
-183.44945
 20
-48.406124
 40
38.72702
 50
350.09416
 51
9.9058404
  0
ARC
  8
0
  6
CONTINUOUS
 62
     7
 10
-102.99744
 20
-40.840435
 40
38.125019
 50
170.71047
 51
189.28951
  0
ARC
  8
0
  6
CONTINUOUS
 62
     7
 10
-65.122437
 20
-58.164551
 40
76.000023
 50
173.42412
 51
179.99999
  0
ARC
  8
0
  6
CONTINUOUS
 62
     7
 10
-130.22244
 20
-38.664551
 40
5
 50
0
 51
90.000003
  0
ARC
  8
0
  6
CONTINUOUS
 62
     7
 10
-13.401393
 20
-47.636997
 40
35.227299
 50
165.28954
 51
194.71046
  0
ARC
  8
0
  6
CONTINUOUS
 62
     7
 10
-72.355995
 20
-47.636997
 40
35.227299
 50
345.28954
 51
14.710455
  0
ARC
  8
0
  6
CONTINUOUS
 62
     7
 10
-43.837734
 20
-31.072338
 40
6.7092843
 50
325.87928
 51
34.120722
  0
ARC
  8
0
  6
CONTINUOUS
 62
     7
 10
-41.919659
 20
-31.072338
 40
6.7092843
 50
145.87928
 51
214.12072
  0
ARC
  8
0
  6
CONTINUOUS
 62
     7
 10
-21.628696
 20
-35.808846
 40
6
 50
0
 51
90.000003
  0
ARC
  8
0
  6
CONTINUOUS
 62
     7
 10
57.471699
 20
-59.308842
 40
91.000397
 50
173.99104
 51
179.99999
  0
ARC
  8
0
  6
CONTINUOUS
 62
     7
 10
12.096509
 20
-38.449192
 40
45.625206
 50
171.50982
 51
188.49018
  0
ARC
  8
0
  6
CONTINUOUS
 62
     7
 10
-192.56102
 20
-231.08916
 40
45.625206
 50
171.50982
 51
188.49018
  0
ARC
  8
0
  6
CONTINUOUS
 62
     7
 10
-218.05891
 20
-240.27696
 40
35.227299
 50
165.28954
 51
194.71046
  0
ARC
  8
0
  6
CONTINUOUS
 62
     7
 10
-277.01352
 20
-240.27696
 40
35.227299
 50
345.28954
 51
14.710455
  0
ARC
  8
0
  6
CONTINUOUS
 62
     7
 10
-248.49525
 20
-223.71231
 40
6.7092843
 50
325.87928
 51
34.120722
  0
ARC
  8
0
  6
CONTINUOUS
 62
     7
 10
-246.57718
 20
-223.71231
 40
6.7092843
 50
145.87928
 51
214.12072
  0
ARC
  8
0
  6
CONTINUOUS
 62
     7
 10
-226.28622
 20
-228.44882
 40
6
 50
0
 51
90.000003
  0
ARC
  8
0
  6
CONTINUOUS
 62
     7
 10
-147.18582
 20
-251.94881
 40
91.000397
 50
173.99104
 51
179.99999
  0
ARC
  8
0
  6
CONTINUOUS
 62
     7
 10
-39.980858
 20
-252.69444
 40
104.50002
 50
174.3929
 51
179.99999
  0
ARC
  8
0
  6
CONTINUOUS
 62
     7
 10
-92.105858
 20
-228.65282
 40
52.375008
 50
172.07669
 51
187.92331
  0
ARC
  8
0
  6
CONTINUOUS
 62
     7
 10
-151.98679
 20
-221.19214
 40
7.4946027
 50
147.76379
 51
212.2362
  0
ARC
  8
0
  6
CONTINUOUS
 62
     7
 10
-120.37276
 20
-239.68321
 40
39.108093
 50
166.04231
 51
193.95769
  0
ARC
  8
0
  6
CONTINUOUS
 62
     7
 10
-132.48087
 20
-226.69444
 40
8
 50
0
 51
90.000003
  0
ARC
  8
0
  6
CONTINUOUS
 62
     7
 10
-187.58896
 20
-239.68321
 40
39.108093
 50
346.04231
 51
13.957685
  0
ARC
  8
0
  6
CONTINUOUS
 62
     7
 10
-155.97493
 20
-221.19214
 40
7.4946027
 50
327.7638
 51
32.236201
  0
ARC
  8
0
  6
CONTINUOUS
 62
     7
 10
-39.557472
 20
-224.62502
 40
7.4946027
 50
147.76379
 51
212.2362
  0
ARC
  8
0
  6
CONTINUOUS
 62
     7
 10
-18.051521
 20
-230.12732
 40
8
 50
0
 51
90.000003
  0
ARC
  8
0
  6
CONTINUOUS
 62
     7
 10
22.323486
 20
-232.08569
 40
52.375008
 50
172.07669
 51
187.92331
  0
ARC
  8
0
  6
CONTINUOUS
 62
     7
 10
74.448494
 20
-256.12732
 40
104.50002
 50
174.3929
 51
179.99999
  0
ARC
  8
0
  6
CONTINUOUS
 62
     7
 10
-73.159615
 20
-243.11609
 40
39.108093
 50
346.04231
 51
13.957685
  0
ARC
  8
0
  6
CONTINUOUS
 62
     7
 10
-7.9434285
 20
-243.11609
 40
39.108093
 50
166.04231
 51
193.95769
  0
ARC
  8
0
  6
CONTINUOUS
 62
     7
 10
-41.545586
 20
-224.62502
 40
7.4946027
 50
327.7638
 51
32.236201
  0
ARC
  8
0
  6
CONTINUOUS
 62
     7
 10
-124.09506
 20
-365.59546
 40
84.249809
 50
173.75468
 51
186.2453
  0
ARC
  8
0
  6
CONTINUOUS
 62
     7
 10
-274.51453
 20
-378.89682
 40
62.669655
 50
348.98425
 51
11.015753
  0
ARC
  8
0
  6
CONTINUOUS
 62
     7
 10
-223.42093
 20
-356.62738
 40
11.576342
 50
334.18814
 51
25.811862
  0
ARC
  8
0
  6
CONTINUOUS
 62
     7
 10
-163.17522
 20
-378.89682
 40
62.669655
 50
168.98425
 51
191.01575
  0
ARC
  8
0
  6
CONTINUOUS
 62
     7
 10
-214.2688
 20
-356.62738
 40
11.576342
 50
154.18813
 51
205.81186
  0
ARC
  8
0
  6
CONTINUOUS
 62
     7
 10
-192.84486
 20
-361.58685
 40
8
 50
0
 51
90.000003
  0
ARC
  8
0
  6
CONTINUOUS
 62
     7
 10
-40.095249
 20
-394.58685
 40
168.24962
 50
175.58172
 51
180.00001
  0
ARC
  8
0
  6
CONTINUOUS
 62
     7
 10
8.6429911
 20
-364.45117
 40
84.249809
 50
173.75468
 51
186.2453
  0
ARC
  8
0
  6
CONTINUOUS
 62
     7
 10
-141.77689
 20
-377.75253
 40
62.670059
 50
348.98432
 51
11.015681
  0
ARC
  8
0
  6
CONTINUOUS
 62
     7
 10
-32.43676
 20
-377.75253
 40
62.670059
 50
168.98432
 51
191.01568
  0
ARC
  8
0
  6
CONTINUOUS
 62
     7
 10
-90.682953
 20
-355.48309
 40
11.57641
 50
334.1883
 51
25.811698
  0
ARC
  8
0
  6
CONTINUOUS
 62
     7
 10
-83.530693
 20
-355.48309
 40
11.57641
 50
154.1883
 51
205.8117
  0
ARC
  8
0
  6
CONTINUOUS
 62
     7
 10
-60.106823
 20
-360.44254
 40
8
 50
0
 51
90.000003
  0
ARC
  8
0
  6
CONTINUOUS
 62
     7
 10
92.642799
 20
-393.44254
 40
168.24962
 50
175.58172
 51
180.00001
  0
TEXT
  8
0
  6
CONTINUOUS
 62
     7
 10
-448.18668
 20
100.9722
 40
3.2
 41
1.0285716
  1
13
  0
TEXT
  8
0
  6
CONTINUOUS
 62
     7
 10
-449.74558
 20
58.88214
 40
3.2
 41
1.0285716
  1
20
  0
TEXT
  8
0
  6
CONTINUOUS
 62
     7
 10
-452.86335
 20
7.4387392
 40
3.2
 41
1.0285716
  1
25
  0
TEXT
  8
0
  6
CONTINUOUS
 62
     7
 10
-450.52503
 20
-56.47579
 40
3.2
 41
1.0285716
  1
30
  0
TEXT
  8
0
  6
CONTINUOUS
 62
     7
 10
-450.18433
 20
-132.60479
 40
3.2
 41
1.0285716
  1
40
  0
TEXT
  8
0
  6
CONTINUOUS
 62
     7
 10
-443.42539
 20
-210.33271
 40
3.2
 41
1.0285716
  1
50
  0
TEXT
  8
0
  6
CONTINUOUS
 62
     7
 10
-450.54114
 20
-310.81277
 40
3.2
 41
1.0285716
  1
60
  0
TEXT
  8
0
  6
CONTINUOUS
 62
     7
 10
-282.77682
 20
118.76988
 40
8
 41
0.84260121
  1
コマサスフィット継手　おすアダプタ－
  0
TEXT
  8
0
  6
CONTINUOUS
 62
     7
 10
-192.26447
 20
96.89225
 40
8
 41
0.84741103
  1
２０×１／２
  0
TEXT
  8
0
  6
CONTINUOUS
 62
     7
 10
-106.44245
 20
96.89225
 40
8
 41
0.84741103
  1
２０×３／４
  0
TEXT
  8
0
  6
CONTINUOUS
 62
     7
 10
-2.3117387
 20
98.036537
 40
8
 41
0.85127006
  1
２５×１
  0
TEXT
  8
0
  6
CONTINUOUS
 62
     7
 10
-272.36501
 20
-9.5270486
 40
8
 41
0.85127006
  1
３０×１
  0
TEXT
  8
0
  6
CONTINUOUS
 62
     7
 10
-179.67723
 20
-2.6612877
 40
8
 41
0.84634979
  1
３０×１１／４
  0
TEXT
  8
0
  6
CONTINUOUS
 62
     7
 10
-69.825052
 20
-0.37270069
 40
8
 41
0.84634979
  1
４０×１１／４
  0
TEXT
  8
0
  6
CONTINUOUS
 62
     7
 10
-274.65358
 20
-192.61401
 40
8
 41
0.84634979
  1
４０×１１／２
  0
TEXT
  8
0
  6
CONTINUOUS
 62
     7
 10
-180.82152
 20
-197.19118
 40
8
 41
0.84634979
  1
５０×１１／２
  0
TEXT
  8
0
  6
CONTINUOUS
 62
     7
 10
-59.526415
 20
-191.46971
 40
8
 41
0.85127006
  1
５０×２
  0
TEXT
  8
0
  6
CONTINUOUS
 62
     7
 10
-236.89191
 20
-328.78494
 40
8
 41
0.85127006
  1
６０×２
  0
TEXT
  8
0
  6
CONTINUOUS
 62
     7
 10
-119.02967
 20
-332.2178
 40
8
 41
0.84634979
  1
６０×２１／２
  0
TEXT
  8
0
  6
CONTINUOUS
 62
     7
 10
-274.65323
 20
99.180832
 40
8
 41
1.0084034
  1
13X1/2
  0
POINT
  8
1
  6
CONTINUOUS
 62
     7
 10
-311.3107
 20
-470.71918
  0
POINT
  8
1
  6
CONTINUOUS
 62
     7
 10
-311.3107
 20
-153.71919
  0
POINT
  8
1
  6
CONTINUOUS
 62
     7
 10
-311.3107
 20
-767.71918
  0
POINT
  8
1
  6
CONTINUOUS
 62
     7
 10
108.68929
 20
-153.71919
  0
POINT
  8
1
  6
CONTINUOUS
 62
     7
 10
-311.3107
 20
-777.71918
  0
POINT
  8
1
  6
CONTINUOUS
 62
     7
 10
-311.3107
 20
143.28081
  0
POINT
  8
1
  6
CONTINUOUS
 62
     7
 10
-311.3107
 20
-153.71919
  0
POINT
  8
1
  6
CONTINUOUS
 62
     7
 10
-311.3107
 20
-163.71919
  0
POINT
  8
1
  6
CONTINUOUS
 62
     7
 10
-311.3107
 20
-163.71919
  0
POINT
  8
1
  6
CONTINUOUS
 62
     7
 10
-311.3107
 20
-460.71918
  0
POINT
  8
1
  6
CONTINUOUS
 62
     7
 10
-311.3107
 20
-470.71918
  0
LINE
  8
1
  6
CONTINUOUS
 62
     7
 10
108.68929
 20
143.28081
 11
108.68929
 21
-33.714287
  0
LINE
  8
1
  6
CONTINUOUS
 62
     2
 10
-311.3107
 20
-470.71918
 11
108.68929
 21
-470.71918
  0
LINE
  8
1
  6
CONTINUOUS
 62
     2
 10
-311.3107
 20
-470.71918
 11
-311.3107
 21
-767.71918
  0
LINE
  8
1
  6
CONTINUOUS
 62
     2
 10
-311.3107
 20
-767.71918
 11
108.68929
 21
-767.71918
  0
LINE
  8
1
  6
CONTINUOUS
 62
     2
 10
108.68929
 20
-470.71918
 11
108.68929
 21
-767.71918
  0
LINE
  8
1
  6
CONTINUOUS
 62
     2
 10
-311.3107
 20
143.28081
 11
-311.3107
 21
-153.71919
  0
LINE
  8
1
  6
CONTINUOUS
 62
     2
 10
-311.3107
 20
-153.71919
 11
108.68929
 21
-153.71919
  0
LINE
  8
1
  6
CONTINUOUS
 62
     2
 10
108.68929
 20
143.28081
 11
108.68929
 21
-153.71919
  0
LINE
  8
1
  6
CONTINUOUS
 62
     2
 10
-311.3107
 20
143.28081
 11
108.68929
 21
143.28081
  0
LINE
  8
1
  6
CONTINUOUS
 62
     2
 10
-311.3107
 20
-163.71919
 11
-311.3107
 21
-460.71918
  0
LINE
  8
1
  6
CONTINUOUS
 62
     2
 10
-311.3107
 20
-460.71918
 11
108.68929
 21
-460.71918
  0
LINE
  8
1
  6
CONTINUOUS
 62
     2
 10
108.68929
 20
-163.71919
 11
108.68929
 21
-460.71918
  0
LINE
  8
1
  6
CONTINUOUS
 62
     2
 10
-311.3107
 20
-163.71919
 11
108.68929
 21
-163.71919
  0
ENDSEC
  0
EOF
